  0
SECTION
  2
HEADER
  9
$ACADVER
  1
AC1024
  9
$ACADMAINTVER
 70
     6
  9
$DWGCODEPAGE
  3
UNDEFINED
  9
$INSBASE
 10
0.0
 20
0.0
 30
0.0
  9
$EXTMIN
 10
1.000000000000000E+20
 20
1.000000000000000E+20
 30
1.000000000000000E+20
  9
$EXTMAX
 10
-1.000000000000000E+20
 20
-1.000000000000000E+20
 30
-1.000000000000000E+20
  9
$LIMMIN
 10
0.0
 20
0.0
  9
$LIMMAX
 10
12.0
 20
9.0
  9
$ORTHOMODE
 70
     0
  9
$REGENMODE
 70
     1
  9
$FILLMODE
 70
     1
  9
$QTEXTMODE
 70
     0
  9
$MIRRTEXT
 70
     1
  9
$LTSCALE
 40
1.0
  9
$ATTMODE
 70
     1
  9
$TEXTSIZE
 40
0.2
  9
$TRACEWID
 40
0.05
  9
$TEXTSTYLE
  7
Standard
  9
$CLAYER
  8
0
  9
$CELTYPE
  6
ByLayer
  9
$CECOLOR
 62
   256
  9
$CELTSCALE
 40
1.0
  9
$DISPSILH
 70
     0
  9
$DIMSCALE
 40
1.0
  9
$DIMASZ
 40
0.18
  9
$DIMEXO
 40
0.0625
  9
$DIMDLI
 40
0.38
  9
$DIMRND
 40
0.0
  9
$DIMDLE
 40
0.0
  9
$DIMEXE
 40
0.18
  9
$DIMTP
 40
0.0
  9
$DIMTM
 40
0.0
  9
$DIMTXT
 40
0.18
  9
$DIMCEN
 40
0.09
  9
$DIMTSZ
 40
0.0
  9
$DIMTOL
 70
     0
  9
$DIMLIM
 70
     0
  9
$DIMTIH
 70
     1
  9
$DIMTOH
 70
     1
  9
$DIMSE1
 70
     0
  9
$DIMSE2
 70
     0
  9
$DIMTAD
 70
     0
  9
$DIMZIN
 70
     0
  9
$DIMBLK
  1

  9
$DIMASO
 70
     1
  9
$DIMSHO
 70
     1
  9
$DIMPOST
  1

  9
$DIMAPOST
  1

  9
$DIMALT
 70
     0
  9
$DIMALTD
 70
     2
  9
$DIMALTF
 40
25.4
  9
$DIMLFAC
 40
1.0
  9
$DIMTOFL
 70
     0
  9
$DIMTVP
 40
0.0
  9
$DIMTIX
 70
     0
  9
$DIMSOXD
 70
     0
  9
$DIMSAH
 70
     0
  9
$DIMBLK1
  1

  9
$DIMBLK2
  1

  9
$DIMSTYLE
  2
Standard
  9
$DIMCLRD
 70
     0
  9
$DIMCLRE
 70
     0
  9
$DIMCLRT
 70
     0
  9
$DIMTFAC
 40
1.0
  9
$DIMGAP
 40
0.09
  9
$DIMJUST
 70
     0
  9
$DIMSD1
 70
     0
  9
$DIMSD2
 70
     0
  9
$DIMTOLJ
 70
     1
  9
$DIMTZIN
 70
     0
  9
$DIMALTZ
 70
     0
  9
$DIMALTTZ
 70
     0
  9
$DIMUPT
 70
     0
  9
$DIMDEC
 70
     4
  9
$DIMTDEC
 70
     4
  9
$DIMALTU
 70
     2
  9
$DIMALTTD
 70
     2
  9
$DIMTXSTY
  7
Standard
  9
$DIMAUNIT
 70
     0
  9
$DIMADEC
 70
     0
  9
$DIMALTRND
 40
0.0
  9
$DIMAZIN
 70
     0
  9
$DIMDSEP
 70
    46
  9
$DIMATFIT
 70
     3
  9
$DIMFRAC
 70
     0
  9
$DIMLDRBLK
  1

  9
$DIMLUNIT
 70
     2
  9
$DIMLWD
 70
    -2
  9
$DIMLWE
 70
    -2
  9
$DIMTMOVE
 70
     0
  9
$DIMFXL
 40
1.0
  9
$DIMFXLON
 70
     0
  9
$DIMJOGANG
 40
0.7853981633974483
  9
$DIMTFILL
 70
     0
  9
$DIMTFILLCLR
 70
     0
  9
$DIMARCSYM
 70
     0
  9
$DIMLTYPE
  6

  9
$DIMLTEX1
  6

  9
$DIMLTEX2
  6

  9
$DIMTXTDIRECTION
 70
     0
  9
$LUNITS
 70
     2
  9
$LUPREC
 70
     4
  9
$SKETCHINC
 40
0.1
  9
$FILLETRAD
 40
0.5
  9
$AUNITS
 70
     0
  9
$AUPREC
 70
     0
  9
$MENU
  1
.
  9
$ELEVATION
 40
0.0
  9
$PELEVATION
 40
0.0
  9
$THICKNESS
 40
0.0
  9
$LIMCHECK
 70
     0
  9
$CHAMFERA
 40
0.5
  9
$CHAMFERB
 40
0.5
  9
$CHAMFERC
 40
1.0
  9
$CHAMFERD
 40
0.0
  9
$SKPOLY
 70
     0
  9
$TDCREATE
 40
2457917.6190625
  9
$TDUCREATE
 40
2457917.2440625
  9
$TDUPDATE
 40
2457917.6190625
  9
$TDUUPDATE
 40
2457917.2440625
  9
$TDINDWG
 40
0.0000000116
  9
$TDUSRTIMER
 40
0.0000000116
  9
$USRTIMER
 70
     1
  9
$ANGBASE
 50
0.0
  9
$ANGDIR
 70
     0
  9
$PDMODE
 70
     0
  9
$PDSIZE
 40
0.0
  9
$PLINEWID
 40
0.0
  9
$SPLFRAME
 70
     0
  9
$SPLINETYPE
 70
     6
  9
$SPLINESEGS
 70
     8
  9
$HANDSEED
  5
10F
  9
$SURFTAB1
 70
     6
  9
$SURFTAB2
 70
     6
  9
$SURFTYPE
 70
     6
  9
$SURFU
 70
     6
  9
$SURFV
 70
     6
  9
$UCSBASE
  2

  9
$UCSNAME
  2

  9
$UCSORG
 10
0.0
 20
0.0
 30
0.0
  9
$UCSXDIR
 10
1.0
 20
0.0
 30
0.0
  9
$UCSYDIR
 10
0.0
 20
1.0
 30
0.0
  9
$UCSORTHOREF
  2

  9
$UCSORTHOVIEW
 70
     0
  9
$UCSORGTOP
 10
0.0
 20
0.0
 30
0.0
  9
$UCSORGBOTTOM
 10
0.0
 20
0.0
 30
0.0
  9
$UCSORGLEFT
 10
0.0
 20
0.0
 30
0.0
  9
$UCSORGRIGHT
 10
0.0
 20
0.0
 30
0.0
  9
$UCSORGFRONT
 10
0.0
 20
0.0
 30
0.0
  9
$UCSORGBACK
 10
0.0
 20
0.0
 30
0.0
  9
$PUCSBASE
  2

  9
$PUCSNAME
  2

  9
$PUCSORG
 10
0.0
 20
0.0
 30
0.0
  9
$PUCSXDIR
 10
1.0
 20
0.0
 30
0.0
  9
$PUCSYDIR
 10
0.0
 20
1.0
 30
0.0
  9
$PUCSORTHOREF
  2

  9
$PUCSORTHOVIEW
 70
     0
  9
$PUCSORGTOP
 10
0.0
 20
0.0
 30
0.0
  9
$PUCSORGBOTTOM
 10
0.0
 20
0.0
 30
0.0
  9
$PUCSORGLEFT
 10
0.0
 20
0.0
 30
0.0
  9
$PUCSORGRIGHT
 10
0.0
 20
0.0
 30
0.0
  9
$PUCSORGFRONT
 10
0.0
 20
0.0
 30
0.0
  9
$PUCSORGBACK
 10
0.0
 20
0.0
 30
0.0
  9
$USERI1
 70
     0
  9
$USERI2
 70
     0
  9
$USERI3
 70
     0
  9
$USERI4
 70
     0
  9
$USERI5
 70
     0
  9
$USERR1
 40
0.0
  9
$USERR2
 40
0.0
  9
$USERR3
 40
0.0
  9
$USERR4
 40
0.0
  9
$USERR5
 40
0.0
  9
$WORLDVIEW
 70
     1
  9
$SHADEDGE
 70
     3
  9
$SHADEDIF
 70
    70
  9
$TILEMODE
 70
     1
  9
$MAXACTVP
 70
    64
  9
$PINSBASE
 10
0.0
 20
0.0
 30
0.0
  9
$PLIMCHECK
 70
     0
  9
$PEXTMIN
 10
1.000000000000000E+20
 20
1.000000000000000E+20
 30
1.000000000000000E+20
  9
$PEXTMAX
 10
-1.000000000000000E+20
 20
-1.000000000000000E+20
 30
-1.000000000000000E+20
  9
$PLIMMIN
 10
0.0
 20
0.0
  9
$PLIMMAX
 10
12.0
 20
9.0
  9
$UNITMODE
 70
     0
  9
$VISRETAIN
 70
     1
  9
$PLINEGEN
 70
     0
  9
$PSLTSCALE
 70
     1
  9
$TREEDEPTH
 70
  3020
  9
$CMLSTYLE
  2
Standard
  9
$CMLJUST
 70
     0
  9
$CMLSCALE
 40
1.0
  9
$PROXYGRAPHICS
 70
     1
  9
$MEASUREMENT
 70
     0
  9
$CELWEIGHT
370
    -1
  9
$ENDCAPS
280
     0
  9
$JOINSTYLE
280
     0
  9
$LWDISPLAY
290
     1
  9
$INSUNITS
 70
     1
  9
$HYPERLINKBASE
  1

  9
$STYLESHEET
  1

  9
$XEDIT
290
     1
  9
$CEPSNTYPE
380
     0
  9
$PSTYLEMODE
290
     1
  9
$FINGERPRINTGUID
  2
{748C96DC-A9AC-EFD0-EC12-64DC2BEFB5DD}
  9
$VERSIONGUID
  2
{FAEB1C32-E019-11D5-929B-00C0DF256EC4}
  9
$EXTNAMES
290
     1
  9
$PSVPSCALE
 40
0.0
  9
$OLESTARTUP
290
     0
  9
$SORTENTS
280
   127
  9
$INDEXCTL
280
     0
  9
$HIDETEXT
280
     1
  9
$XCLIPFRAME
280
     2
  9
$HALOGAP
280
     0
  9
$OBSCOLOR
 70
   257
  9
$OBSLTYPE
280
     0
  9
$INTERSECTIONDISPLAY
280
     0
  9
$INTERSECTIONCOLOR
 70
   257
  9
$DIMASSOC
280
     2
  9
$PROJECTNAME
  1

  9
$CAMERADISPLAY
290
     0
  9
$LENSLENGTH
 40
50.0
  9
$CAMERAHEIGHT
 40
0.0
  9
$STEPSPERSEC
 40
2.0
  9
$STEPSIZE
 40
6.0
  9
$3DDWFPREC
 40
2.0
  9
$PSOLWIDTH
 40
0.25
  9
$PSOLHEIGHT
 40
4.0
  9
$LOFTANG1
 40
1.570796326794897
  9
$LOFTANG2
 40
1.570796326794897
  9
$LOFTMAG1
 40
0.0
  9
$LOFTMAG2
 40
0.0
  9
$LOFTPARAM
 70
     7
  9
$LOFTNORMALS
280
     1
  9
$LATITUDE
 40
37.795
  9
$LONGITUDE
 40
-122.394
  9
$NORTHDIRECTION
 40
0.0
  9
$TIMEZONE
 70
 -8000
  9
$LIGHTGLYPHDISPLAY
280
     1
  9
$TILEMODELIGHTSYNCH
280
     1
  9
$CMATERIAL
347
3C
  9
$SOLIDHIST
280
     1
  9
$SHOWHIST
280
     1
  9
$DWFFRAME
280
     2
  9
$DGNFRAME
280
     2
  9
$REALWORLDSCALE
290
     1
  9
$INTERFERECOLOR
 62
   256
  9
$CSHADOW
280
     0
  9
$SHADOWPLANELOCATION
 40
0.0
  0
ENDSEC
  0
SECTION
  2
CLASSES
  0
CLASS
  1
ACDBDICTIONARYWDFLT
  2
AcDbDictionaryWithDefault
  3
ObjectDBX Classes
 90
        0
 91
        4
280
     0
281
     0
  0
CLASS
  1
VISUALSTYLE
  2
AcDbVisualStyle
  3
ObjectDBX Classes
 90
     4095
 91
        4
280
     0
281
     0
  0
CLASS
  1
MATERIAL
  2
AcDbMaterial
  3
ObjectDBX Classes
 90
     1153
 91
        4
280
     0
281
     0
  0
CLASS
  1
SUN
  2
AcDbSun
  3
SCENEOE
 90
     1024
 91
        4
280
     0
281
     0
  0
ENDSEC
  0
SECTION
  2
TABLES
  0
TABLE
  2
VPORT
  5
8
330
0
100
AcDbSymbolTable
 70
     1
  0
VPORT
  5
29
330
8
100
AcDbSymbolTableRecord
100
AcDbViewportTableRecord
  2
*Active
 70
     0
 10
0.0
 20
0.0
 11
1.0
 21
1.0
 12
0.0
 22
0.0
 13
0.0
 23
0.0
 14
0.5
 24
0.5
 15
0.5
 25
0.5
 16
0.0
 26
0.0
 36
1.0
 17
91.00082462281999
 27
-128.4993055234307
 37
0.0
 40
256.9986110468615
 41
0.7081814508812795
 42
50.0
 43
0.0
 44
0.0
 50
0.0
 51
0.0
 71
     0
 72
   100
 73
     1
 74
     3
 75
     0
 76
     0
 77
     0
 78
     0
281
     0
 65
     1
110
0.0
120
0.0
130
0.0
111
1.0
121
0.0
131
0.0
112
0.0
122
1.0
132
0.0
 79
     0
146
0.0
 60
     3
 61
     5
292
     1
282
     1
141
0.0
142
0.0
 63
   250
361
3F
  0
ENDTAB
  0
TABLE
  2
LTYPE
  5
5
330
0
100
AcDbSymbolTable
 70
     1
  0
LTYPE
  5
14
330
5
100
AcDbSymbolTableRecord
100
AcDbLinetypeTableRecord
  2
ByBlock
 70
     0
  3

 72
    65
 73
     0
 40
0.0
  0
LTYPE
  5
15
330
5
100
AcDbSymbolTableRecord
100
AcDbLinetypeTableRecord
  2
ByLayer
 70
     0
  3

 72
    65
 73
     0
 40
0.0
  0
LTYPE
  5
16
330
5
100
AcDbSymbolTableRecord
100
AcDbLinetypeTableRecord
  2
Continuous
 70
     0
  3
Solid line
 72
    65
 73
     0
 40
0.0
  0
ENDTAB
  0
TABLE
  2
LAYER
  5
2
330
0
100
AcDbSymbolTable
 70
     2
  0
LAYER
  5
10
330
2
100
AcDbSymbolTableRecord
100
AcDbLayerTableRecord
  2
0
 70
     0
 62
     7
  6
Continuous
370
    -3
390
F
347
3E
  0
LAYER
  5
40
330
2
100
AcDbSymbolTableRecord
100
AcDbLayerTableRecord
  2
_U+30EC_U+30A4_U+30E4_U+30FC 1
 70
     0
 62
     7
  6
Continuous
370
    -3
390
F
347
3E
  0
ENDTAB
  0
TABLE
  2
STYLE
  5
3
330
0
100
AcDbSymbolTable
 70
     1
  0
STYLE
  5
11
330
3
100
AcDbSymbolTableRecord
100
AcDbTextStyleTableRecord
  2
Standard
 70
     0
 40
0.0
 41
1.0
 50
0.0
 71
     0
 42
0.2
  3
txt
  4

  0
ENDTAB
  0
TABLE
  2
VIEW
  5
6
330
0
100
AcDbSymbolTable
 70
     0
  0
ENDTAB
  0
TABLE
  2
UCS
  5
7
330
0
100
AcDbSymbolTable
 70
     0
  0
ENDTAB
  0
TABLE
  2
APPID
  5
9
330
0
100
AcDbSymbolTable
 70
     1
  0
APPID
  5
12
330
9
100
AcDbSymbolTableRecord
100
AcDbRegAppTableRecord
  2
ACAD
 70
     0
  0
ENDTAB
  0
TABLE
  2
DIMSTYLE
  5
A
330
0
100
AcDbSymbolTable
 70
     1
100
AcDbDimStyleTable
  0
DIMSTYLE
105
27
330
A
100
AcDbSymbolTableRecord
100
AcDbDimStyleTableRecord
  2
Standard
 70
     0
178
     0
340
11
  0
ENDTAB
  0
TABLE
  2
BLOCK_RECORD
  5
1
330
0
100
AcDbSymbolTable
 70
     7
  0
BLOCK_RECORD
  5
1F
330
1
100
AcDbSymbolTableRecord
100
AcDbBlockTableRecord
  2
*Model_Space
340
22
 70
     0
280
     1
281
     0
  0
BLOCK_RECORD
  5
1B
330
1
100
AcDbSymbolTableRecord
100
AcDbBlockTableRecord
  2
*Paper_Space
340
1E
 70
     0
280
     1
281
     0
  0
BLOCK_RECORD
  5
23
330
1
100
AcDbSymbolTableRecord
100
AcDbBlockTableRecord
  2
*Paper_Space0
340
26
 70
     0
280
     1
281
     0
  0
BLOCK_RECORD
  5
51
330
1
100
AcDbSymbolTableRecord
100
AcDbBlockTableRecord
  2
block 2
340
0
102
{BLKREFS
331
52
102
}
 70
     0
280
     1
281
     0
  0
BLOCK_RECORD
  5
90
330
1
100
AcDbSymbolTableRecord
100
AcDbBlockTableRecord
  2
block 3
340
0
102
{BLKREFS
331
91
102
}
 70
     0
280
     1
281
     0
  0
BLOCK_RECORD
  5
A7
330
1
100
AcDbSymbolTableRecord
100
AcDbBlockTableRecord
  2
block 4
340
0
102
{BLKREFS
331
A8
102
}
 70
     0
280
     1
281
     0
  0
BLOCK_RECORD
  5
C1
330
1
100
AcDbSymbolTableRecord
100
AcDbBlockTableRecord
  2
block 5
340
0
102
{BLKREFS
331
C2
102
}
 70
     0
280
     1
281
     0
  0
BLOCK_RECORD
  5
D3
330
1
100
AcDbSymbolTableRecord
100
AcDbBlockTableRecord
  2
block 6
340
0
102
{BLKREFS
331
D4
102
}
 70
     0
280
     1
281
     0
  0
BLOCK_RECORD
  5
104
330
1
100
AcDbSymbolTableRecord
100
AcDbBlockTableRecord
  2
block 7
340
0
102
{BLKREFS
331
105
102
}
 70
     0
280
     1
281
     0
  0
ENDTAB
  0
ENDSEC
  0
SECTION
  2
BLOCKS
  0
BLOCK
  5
20
330
1F
100
AcDbEntity
  8
0
100
AcDbBlockBegin
  2
*Model_Space
 70
     0
 10
0.0
 20
0.0
 30
0.0
  3
*Model_Space
  1

  0
ENDBLK
  5
21
330
1F
100
AcDbEntity
  8
0
100
AcDbBlockEnd
  0
BLOCK
  5
1C
330
1B
100
AcDbEntity
 67
     1
  8
0
100
AcDbBlockBegin
  2
*Paper_Space
 70
     0
 10
0.0
 20
0.0
 30
0.0
  3
*Paper_Space
  1

  0
ENDBLK
  5
1D
330
1B
100
AcDbEntity
 67
     1
  8
0
100
AcDbBlockEnd
  0
BLOCK
  5
24
330
23
100
AcDbEntity
  8
0
100
AcDbBlockBegin
  2
*Paper_Space0
 70
     0
 10
0.0
 20
0.0
 30
0.0
  3
*Paper_Space0
  1

  0
ENDBLK
  5
25
330
23
100
AcDbEntity
  8
0
100
AcDbBlockEnd
  0
BLOCK
  5
53
330
51
100
AcDbEntity
  8
0
100
AcDbBlockBegin
  2
block 2
 70
     0
 10
0.0
 20
0.0
 30
0.0
  3
block 2
  1

  0
SPLINE
  5
55
330
51
100
AcDbEntity
  8
_U+30EC_U+30A4_U+30E4_U+30FC 1
370
     0
100
AcDbSpline
210
0.0
220
0.0
230
1.0
 70
    11
 71
     3
 72
    26
 73
    22
 74
     0
 42
0.0000000001
 43
0.0000000001
 12
1.0
 22
0.0
 32
0.0
 13
1.0
 23
0.0
 33
0.0
 40
0.0
 40
0.0
 40
0.0
 40
0.0
 40
1.0
 40
1.0
 40
1.0
 40
2.0
 40
2.0
 40
2.0
 40
3.0
 40
3.0
 40
3.0
 40
4.0
 40
4.0
 40
4.0
 40
5.0
 40
5.0
 40
5.0
 40
6.0
 40
6.0
 40
6.0
 40
7.0
 40
7.0
 40
7.0
 40
7.0
 10
88.07627764725177
 20
-112.8751084787257
 30
0.0
 10
88.07627764725177
 20
-112.8751084787257
 30
0.0
 10
87.82306312908591
 20
-112.8751084787257
 30
0.0
 10
87.82306312908591
 20
-112.8751084787257
 30
0.0
 10
87.85010712864512
 20
-112.566255668473
 30
0.0
 10
88.05577932911453
 20
-112.0479410527172
 30
0.0
 10
88.48986136025601
 20
-111.5423732902568
 30
0.0
 10
88.48986136025601
 20
-111.5423732902568
 30
0.0
 10
87.59465329841385
 20
-111.5423732902568
 30
0.0
 10
87.59465329841385
 20
-111.5423732902568
 30
0.0
 10
87.59465329841385
 20
-111.5423732902568
 30
0.0
 10
87.59465329841385
 20
-111.3308444274624
 30
0.0
 10
87.59465329841385
 20
-111.3308444274624
 30
0.0
 10
87.59465329841385
 20
-111.3308444274624
 30
0.0
 10
88.74307587842188
 20
-111.3308444274624
 30
0.0
 10
88.74307587842188
 20
-111.3308444274624
 30
0.0
 10
88.74307587842188
 20
-111.3308444274624
 30
0.0
 10
88.74307587842188
 20
-111.5423732902568
 30
0.0
 10
88.74307587842188
 20
-111.5423732902568
 30
0.0
 10
88.39718829170279
 20
-111.8321058205663
 30
0.0
 10
88.11245114984689
 20
-112.424489989255
 30
0.0
 10
88.07627764725177
 20
-112.8751084787257
 30
0.0
  0
HATCH
  5
56
330
51
100
AcDbEntity
  8
_U+30EC_U+30A4_U+30E4_U+30FC 1
 62
     7
420
 16777215
100
AcDbHatch
 10
0.0
 20
0.0
 30
0.0
210
0.0
220
0.0
230
1.0
  2
SOLID
 70
     1
 71
     0
 91
        1
 92
        1
 93
        1
 72
     4
 94
        3
 73
     0
 74
     1
 95
       26
 96
       22
 40
0.0
 40
0.0
 40
0.0
 40
0.0
 40
1.0
 40
1.0
 40
1.0
 40
2.0
 40
2.0
 40
2.0
 40
3.0
 40
3.0
 40
3.0
 40
4.0
 40
4.0
 40
4.0
 40
5.0
 40
5.0
 40
5.0
 40
6.0
 40
6.0
 40
6.0
 40
7.0
 40
7.0
 40
7.0
 40
7.0
 10
88.07627764725177
 20
-112.8751084787257
 10
88.07627764725177
 20
-112.8751084787257
 10
87.82306312908591
 20
-112.8751084787257
 10
87.82306312908591
 20
-112.8751084787257
 10
87.85010712864512
 20
-112.566255668473
 10
88.05577932911453
 20
-112.0479410527172
 10
88.48986136025601
 20
-111.5423732902568
 10
88.48986136025601
 20
-111.5423732902568
 10
87.59465329841385
 20
-111.5423732902568
 10
87.59465329841385
 20
-111.5423732902568
 10
87.59465329841385
 20
-111.5423732902568
 10
87.59465329841385
 20
-111.3308444274624
 10
87.59465329841385
 20
-111.3308444274624
 10
87.59465329841385
 20
-111.3308444274624
 10
88.74307587842188
 20
-111.3308444274624
 10
88.74307587842188
 20
-111.3308444274624
 10
88.74307587842188
 20
-111.3308444274624
 10
88.74307587842188
 20
-111.5423732902568
 10
88.74307587842188
 20
-111.5423732902568
 10
88.39718829170279
 20
-111.8321058205663
 10
88.11245114984689
 20
-112.424489989255
 10
88.07627764725177
 20
-112.8751084787257
 97
        0
 97
        0
 75
     2
 76
     1
 98
        0
  0
ENDBLK
  5
54
330
51
100
AcDbEntity
  8
0
100
AcDbBlockEnd
  0
BLOCK
  5
92
330
90
100
AcDbEntity
  8
0
100
AcDbBlockBegin
  2
block 3
 70
     0
 10
0.0
 20
0.0
 30
0.0
  3
block 3
  1

  0
SPLINE
  5
94
330
90
100
AcDbEntity
  8
_U+30EC_U+30A4_U+30E4_U+30FC 1
370
     0
100
AcDbSpline
210
0.0
220
0.0
230
1.0
 70
    11
 71
     3
 72
    26
 73
    22
 74
     0
 42
0.0000000001
 43
0.0000000001
 12
1.0
 22
0.0
 32
0.0
 13
1.0
 23
0.0
 33
0.0
 40
0.0
 40
0.0
 40
0.0
 40
0.0
 40
1.0
 40
1.0
 40
1.0
 40
2.0
 40
2.0
 40
2.0
 40
3.0
 40
3.0
 40
3.0
 40
4.0
 40
4.0
 40
4.0
 40
5.0
 40
5.0
 40
5.0
 40
6.0
 40
6.0
 40
6.0
 40
7.0
 40
7.0
 40
7.0
 40
7.0
 10
87.63685571810815
 20
-119.1975477132562
 30
0.0
 10
87.63685571810815
 20
-119.1975477132562
 30
0.0
 10
87.63685571810815
 20
-118.0932223554593
 30
0.0
 10
87.63685571810815
 20
-118.0932223554593
 30
0.0
 10
87.63685571810815
 20
-118.0932223554593
 30
0.0
 10
87.28407794041857
 20
-118.0932223554593
 30
0.0
 10
87.28407794041857
 20
-118.0932223554593
 30
0.0
 10
87.28407794041857
 20
-118.0932223554593
 30
0.0
 10
87.28407794041857
 20
-117.9452555043679
 30
0.0
 10
87.28407794041857
 20
-117.9452555043679
 30
0.0
 10
87.63909503017356
 20
-117.9304415937813
 30
0.0
 10
87.68887665993542
 20
-117.767488577329
 30
0.0
 10
87.72039928362545
 20
-117.6532836619929
 30
0.0
 10
87.72039928362545
 20
-117.6532836619929
 30
0.0
 10
87.87646210910728
 20
-117.6532836619929
 30
0.0
 10
87.87646210910728
 20
-117.6532836619929
 30
0.0
 10
87.87646210910728
 20
-117.6532836619929
 30
0.0
 10
87.87646210910728
 20
-119.1975477132562
 30
0.0
 10
87.87646210910728
 20
-119.1975477132562
 30
0.0
 10
87.87646210910728
 20
-119.1975477132562
 30
0.0
 10
87.63685571810815
 20
-119.1975477132562
 30
0.0
 10
87.63685571810815
 20
-119.1975477132562
 30
0.0
  0
HATCH
  5
95
330
90
100
AcDbEntity
  8
_U+30EC_U+30A4_U+30E4_U+30FC 1
 62
     7
420
 16777215
100
AcDbHatch
 10
0.0
 20
0.0
 30
0.0
210
0.0
220
0.0
230
1.0
  2
SOLID
 70
     1
 71
     0
 91
        1
 92
        1
 93
        1
 72
     4
 94
        3
 73
     0
 74
     1
 95
       26
 96
       22
 40
0.0
 40
0.0
 40
0.0
 40
0.0
 40
1.0
 40
1.0
 40
1.0
 40
2.0
 40
2.0
 40
2.0
 40
3.0
 40
3.0
 40
3.0
 40
4.0
 40
4.0
 40
4.0
 40
5.0
 40
5.0
 40
5.0
 40
6.0
 40
6.0
 40
6.0
 40
7.0
 40
7.0
 40
7.0
 40
7.0
 10
87.63685571810815
 20
-119.1975477132562
 10
87.63685571810815
 20
-119.1975477132562
 10
87.63685571810815
 20
-118.0932223554593
 10
87.63685571810815
 20
-118.0932223554593
 10
87.63685571810815
 20
-118.0932223554593
 10
87.28407794041857
 20
-118.0932223554593
 10
87.28407794041857
 20
-118.0932223554593
 10
87.28407794041857
 20
-118.0932223554593
 10
87.28407794041857
 20
-117.9452555043679
 10
87.28407794041857
 20
-117.9452555043679
 10
87.63909503017356
 20
-117.9304415937813
 10
87.68887665993542
 20
-117.767488577329
 10
87.72039928362545
 20
-117.6532836619929
 10
87.72039928362545
 20
-117.6532836619929
 10
87.87646210910728
 20
-117.6532836619929
 10
87.87646210910728
 20
-117.6532836619929
 10
87.87646210910728
 20
-117.6532836619929
 10
87.87646210910728
 20
-119.1975477132562
 10
87.87646210910728
 20
-119.1975477132562
 10
87.87646210910728
 20
-119.1975477132562
 10
87.63685571810815
 20
-119.1975477132562
 10
87.63685571810815
 20
-119.1975477132562
 97
        0
 97
        0
 75
     2
 76
     1
 98
        0
  0
ENDBLK
  5
93
330
90
100
AcDbEntity
  8
0
100
AcDbBlockEnd
  0
BLOCK
  5
A9
330
A7
100
AcDbEntity
  8
0
100
AcDbBlockBegin
  2
block 4
 70
     0
 10
0.0
 20
0.0
 30
0.0
  3
block 4
  1

  0
SPLINE
  5
AB
330
A7
100
AcDbEntity
  8
_U+30EC_U+30A4_U+30E4_U+30FC 1
370
     0
100
AcDbSpline
210
0.0
220
0.0
230
1.0
 70
    11
 71
     3
 72
    26
 73
    22
 74
     0
 42
0.0000000001
 43
0.0000000001
 12
1.0
 22
0.0
 32
0.0
 13
1.0
 23
0.0
 33
0.0
 40
0.0
 40
0.0
 40
0.0
 40
0.0
 40
1.0
 40
1.0
 40
1.0
 40
2.0
 40
2.0
 40
2.0
 40
3.0
 40
3.0
 40
3.0
 40
4.0
 40
4.0
 40
4.0
 40
5.0
 40
5.0
 40
5.0
 40
6.0
 40
6.0
 40
6.0
 40
7.0
 40
7.0
 40
7.0
 40
7.0
 10
103.0507296834387
 20
-134.0000894847292
 30
0.0
 10
103.0507296834387
 20
-134.0000894847292
 30
0.0
 10
101.9465765804161
 20
-134.0000894847292
 30
0.0
 10
101.9465765804161
 20
-134.0000894847292
 30
0.0
 10
101.9465765804161
 20
-134.0000894847292
 30
0.0
 10
101.9465765804161
 20
-134.3525227528702
 30
0.0
 10
101.9465765804161
 20
-134.3525227528702
 30
0.0
 10
101.9465765804161
 20
-134.3525227528702
 30
0.0
 10
101.7984374745504
 20
-134.3525227528702
 30
0.0
 10
101.7984374745504
 20
-134.3525227528702
 30
0.0
 10
101.7836235639638
 20
-133.9976779178895
 30
0.0
 10
101.6206705475115
 20
-133.9480685429019
 30
0.0
 10
101.5062933774012
 20
-133.9163736644376
 30
0.0
 10
101.5062933774012
 20
-133.9163736644376
 30
0.0
 10
101.5062933774012
 20
-133.7603108389558
 30
0.0
 10
101.5062933774012
 20
-133.7603108389558
 30
0.0
 10
101.5062933774012
 20
-133.7603108389558
 30
0.0
 10
103.0507296834387
 20
-133.7603108389558
 30
0.0
 10
103.0507296834387
 20
-133.7603108389558
 30
0.0
 10
103.0507296834387
 20
-133.7603108389558
 30
0.0
 10
103.0507296834387
 20
-134.0000894847292
 30
0.0
 10
103.0507296834387
 20
-134.0000894847292
 30
0.0
  0
HATCH
  5
AC
330
A7
100
AcDbEntity
  8
_U+30EC_U+30A4_U+30E4_U+30FC 1
 62
     7
420
 16777215
100
AcDbHatch
 10
0.0
 20
0.0
 30
0.0
210
0.0
220
0.0
230
1.0
  2
SOLID
 70
     1
 71
     0
 91
        1
 92
        1
 93
        1
 72
     4
 94
        3
 73
     0
 74
     1
 95
       26
 96
       22
 40
0.0
 40
0.0
 40
0.0
 40
0.0
 40
1.0
 40
1.0
 40
1.0
 40
2.0
 40
2.0
 40
2.0
 40
3.0
 40
3.0
 40
3.0
 40
4.0
 40
4.0
 40
4.0
 40
5.0
 40
5.0
 40
5.0
 40
6.0
 40
6.0
 40
6.0
 40
7.0
 40
7.0
 40
7.0
 40
7.0
 10
103.0507296834387
 20
-134.0000894847292
 10
103.0507296834387
 20
-134.0000894847292
 10
101.9465765804161
 20
-134.0000894847292
 10
101.9465765804161
 20
-134.0000894847292
 10
101.9465765804161
 20
-134.0000894847292
 10
101.9465765804161
 20
-134.3525227528702
 10
101.9465765804161
 20
-134.3525227528702
 10
101.9465765804161
 20
-134.3525227528702
 10
101.7984374745504
 20
-134.3525227528702
 10
101.7984374745504
 20
-134.3525227528702
 10
101.7836235639638
 20
-133.9976779178895
 10
101.6206705475115
 20
-133.9480685429019
 10
101.5062933774012
 20
-133.9163736644376
 10
101.5062933774012
 20
-133.9163736644376
 10
101.5062933774012
 20
-133.7603108389558
 10
101.5062933774012
 20
-133.7603108389558
 10
101.5062933774012
 20
-133.7603108389558
 10
103.0507296834387
 20
-133.7603108389558
 10
103.0507296834387
 20
-133.7603108389558
 10
103.0507296834387
 20
-133.7603108389558
 10
103.0507296834387
 20
-134.0000894847292
 10
103.0507296834387
 20
-134.0000894847292
 97
        0
 97
        0
 75
     2
 76
     1
 98
        0
  0
SPLINE
  5
AD
330
A7
100
AcDbEntity
  8
_U+30EC_U+30A4_U+30E4_U+30FC 1
370
     0
100
AcDbSpline
210
0.0
220
0.0
230
1.0
 70
    11
 71
     3
 72
    53
 73
    49
 74
     0
 42
0.0000000001
 43
0.0000000001
 12
1.0
 22
0.0
 32
0.0
 13
1.0
 23
0.0
 33
0.0
 40
0.0
 40
0.0
 40
0.0
 40
0.0
 40
1.0
 40
1.0
 40
1.0
 40
2.0
 40
2.0
 40
2.0
 40
3.0
 40
3.0
 40
3.0
 40
4.0
 40
4.0
 40
4.0
 40
5.0
 40
5.0
 40
5.0
 40
6.0
 40
6.0
 40
6.0
 40
7.0
 40
7.0
 40
7.0
 40
8.0
 40
8.0
 40
8.0
 40
9.0
 40
9.0
 40
9.0
 40
10.0
 40
10.0
 40
10.0
 40
11.0
 40
11.0
 40
11.0
 40
12.0
 40
12.0
 40
12.0
 40
13.0
 40
13.0
 40
13.0
 40
14.0
 40
14.0
 40
14.0
 40
15.0
 40
15.0
 40
15.0
 40
16.0
 40
16.0
 40
16.0
 40
16.0
 10
103.1013725870719
 20
-132.7105902446001
 30
0.0
 10
103.1013725870719
 20
-132.7939615553432
 30
0.0
 10
103.0844916191942
 20
-132.9028265726771
 30
0.0
 10
103.0211018622656
 20
-133.0110025709139
 30
0.0
 10
102.9112033162861
 20
-133.1966932175689
 30
0.0
 10
102.7799451782981
 20
-133.219086338223
 30
0.0
 10
102.6721136896098
 20
-133.239412401586
 30
0.0
 10
102.6721136896098
 20
-133.239412401586
 30
0.0
 10
102.6721136896098
 20
-133.0020453226523
 30
0.0
 10
102.6721136896098
 20
-133.0020453226523
 30
0.0
 10
102.8708956991087
 20
-132.943478699403
 30
0.0
 10
102.9005235202818
 20
-132.8077419372842
 30
0.0
 10
102.9005235202818
 20
-132.7081786777605
 30
0.0
 10
102.9005235202818
 20
-132.5590060432492
 30
0.0
 10
102.8009602607581
 20
-132.3963975363453
 30
0.0
 10
102.5684163155037
 20
-132.3963975363453
 30
0.0
 10
102.3124457209497
 20
-132.3963975363453
 30
0.0
 10
102.2425102825991
 20
-132.5882893548738
 30
0.0
 10
102.2425102825991
 20
-132.7171359260221
 30
0.0
 10
102.2425102825991
 20
-132.7512423713261
 30
0.0
 10
102.2425102825991
 20
-132.9028265726771
 30
0.0
 10
102.371701363296
 20
-132.9975666985214
 30
0.0
 10
102.371701363296
 20
-132.9975666985214
 30
0.0
 10
102.3527533381271
 20
-133.1853244024676
 30
0.0
 10
102.3527533381271
 20
-133.1853244024676
 30
0.0
 10
102.3527533381271
 20
-133.1853244024676
 30
0.0
 10
101.5062933774012
 20
-133.0564778313192
 30
0.0
 10
101.5062933774012
 20
-133.0564778313192
 30
0.0
 10
101.5062933774012
 20
-133.0564778313192
 30
0.0
 10
101.5062933774012
 20
-132.2244872716314
 30
0.0
 10
101.5062933774012
 20
-132.2244872716314
 30
0.0
 10
101.5062933774012
 20
-132.2244872716314
 30
0.0
 10
101.7009412723178
 20
-132.2244872716314
 30
0.0
 10
101.7009412723178
 20
-132.2244872716314
 30
0.0
 10
101.7009412723178
 20
-132.2244872716314
 30
0.0
 10
101.7009412723178
 20
-132.8821559997656
 30
0.0
 10
101.7009412723178
 20
-132.8821559997656
 30
0.0
 10
101.7009412723178
 20
-132.8821559997656
 30
0.0
 10
102.1239989979065
 20
-132.9524359476647
 30
0.0
 10
102.1239989979065
 20
-132.9524359476647
 30
0.0
 10
102.0902370621511
 20
-132.8869791334449
 30
0.0
 10
102.0499294449736
 20
-132.7987846890225
 30
0.0
 10
102.0499294449736
 20
-132.6720051751653
 30
0.0
 10
102.0499294449736
 20
-132.4008761604762
 30
0.0
 10
102.2363091107257
 20
-132.1476616423103
 30
0.0
 10
102.5494682903349
 20
-132.1476616423103
 30
0.0
 10
102.8667615845264
 20
-132.1476616423103
 30
0.0
 10
103.1013725870719
 20
-132.3870957785352
 30
0.0
 10
103.1013725870719
 20
-132.7105902446001
 30
0.0
  0
HATCH
  5
AE
330
A7
100
AcDbEntity
  8
_U+30EC_U+30A4_U+30E4_U+30FC 1
 62
     7
420
 16777215
100
AcDbHatch
 10
0.0
 20
0.0
 30
0.0
210
0.0
220
0.0
230
1.0
  2
SOLID
 70
     1
 71
     0
 91
        1
 92
        1
 93
        1
 72
     4
 94
        3
 73
     0
 74
     1
 95
       53
 96
       49
 40
0.0
 40
0.0
 40
0.0
 40
0.0
 40
1.0
 40
1.0
 40
1.0
 40
2.0
 40
2.0
 40
2.0
 40
3.0
 40
3.0
 40
3.0
 40
4.0
 40
4.0
 40
4.0
 40
5.0
 40
5.0
 40
5.0
 40
6.0
 40
6.0
 40
6.0
 40
7.0
 40
7.0
 40
7.0
 40
8.0
 40
8.0
 40
8.0
 40
9.0
 40
9.0
 40
9.0
 40
10.0
 40
10.0
 40
10.0
 40
11.0
 40
11.0
 40
11.0
 40
12.0
 40
12.0
 40
12.0
 40
13.0
 40
13.0
 40
13.0
 40
14.0
 40
14.0
 40
14.0
 40
15.0
 40
15.0
 40
15.0
 40
16.0
 40
16.0
 40
16.0
 40
16.0
 10
103.1013725870719
 20
-132.7105902446001
 10
103.1013725870719
 20
-132.7939615553432
 10
103.0844916191942
 20
-132.9028265726771
 10
103.0211018622656
 20
-133.0110025709139
 10
102.9112033162861
 20
-133.1966932175689
 10
102.7799451782981
 20
-133.219086338223
 10
102.6721136896098
 20
-133.239412401586
 10
102.6721136896098
 20
-133.239412401586
 10
102.6721136896098
 20
-133.0020453226523
 10
102.6721136896098
 20
-133.0020453226523
 10
102.8708956991087
 20
-132.943478699403
 10
102.9005235202818
 20
-132.8077419372842
 10
102.9005235202818
 20
-132.7081786777605
 10
102.9005235202818
 20
-132.5590060432492
 10
102.8009602607581
 20
-132.3963975363453
 10
102.5684163155037
 20
-132.3963975363453
 10
102.3124457209497
 20
-132.3963975363453
 10
102.2425102825991
 20
-132.5882893548738
 10
102.2425102825991
 20
-132.7171359260221
 10
102.2425102825991
 20
-132.7512423713261
 10
102.2425102825991
 20
-132.9028265726771
 10
102.371701363296
 20
-132.9975666985214
 10
102.371701363296
 20
-132.9975666985214
 10
102.3527533381271
 20
-133.1853244024676
 10
102.3527533381271
 20
-133.1853244024676
 10
102.3527533381271
 20
-133.1853244024676
 10
101.5062933774012
 20
-133.0564778313192
 10
101.5062933774012
 20
-133.0564778313192
 10
101.5062933774012
 20
-133.0564778313192
 10
101.5062933774012
 20
-132.2244872716314
 10
101.5062933774012
 20
-132.2244872716314
 10
101.5062933774012
 20
-132.2244872716314
 10
101.7009412723178
 20
-132.2244872716314
 10
101.7009412723178
 20
-132.2244872716314
 10
101.7009412723178
 20
-132.2244872716314
 10
101.7009412723178
 20
-132.8821559997656
 10
101.7009412723178
 20
-132.8821559997656
 10
101.7009412723178
 20
-132.8821559997656
 10
102.1239989979065
 20
-132.9524359476647
 10
102.1239989979065
 20
-132.9524359476647
 10
102.0902370621511
 20
-132.8869791334449
 10
102.0499294449736
 20
-132.7987846890225
 10
102.0499294449736
 20
-132.6720051751653
 10
102.0499294449736
 20
-132.4008761604762
 10
102.2363091107257
 20
-132.1476616423103
 10
102.5494682903349
 20
-132.1476616423103
 10
102.8667615845264
 20
-132.1476616423103
 10
103.1013725870719
 20
-132.3870957785352
 10
103.1013725870719
 20
-132.7105902446001
 97
        0
 97
        0
 75
     2
 76
     1
 98
        0
  0
POLYLINE
  5
AF
330
A7
100
AcDbEntity
  8
_U+30EC_U+30A4_U+30E4_U+30FC 1
370
     0
100
AcDb2dPolyline
 66
     1
 10
0.0
 20
0.0
 30
0.0
  0
VERTEX
  5
B0
330
AF
100
AcDbEntity
  8
_U+30EC_U+30A4_U+30E4_U+30FC 1
370
     0
100
AcDbVertex
100
AcDb2dVertex
 10
103.0507296834387
 20
-131.902715353309
 30
0.0
  0
VERTEX
  5
B1
330
AF
100
AcDbEntity
  8
_U+30EC_U+30A4_U+30E4_U+30FC 1
370
     0
100
AcDbVertex
100
AcDb2dVertex
 10
102.7988932034669
 20
-131.902715353309
 30
0.0
  0
VERTEX
  5
B2
330
AF
100
AcDbEntity
  8
_U+30EC_U+30A4_U+30E4_U+30FC 1
370
     0
100
AcDbVertex
100
AcDb2dVertex
 10
102.7988932034669
 20
-131.633653395911
 30
0.0
  0
VERTEX
  5
B3
330
AF
100
AcDbEntity
  8
_U+30EC_U+30A4_U+30E4_U+30FC 1
370
     0
100
AcDbVertex
100
AcDb2dVertex
 10
103.0507296834387
 20
-131.633653395911
 30
0.0
  0
VERTEX
  5
B4
330
AF
100
AcDbEntity
  8
_U+30EC_U+30A4_U+30E4_U+30FC 1
370
     0
100
AcDbVertex
100
AcDb2dVertex
 10
103.0507296834387
 20
-131.902715353309
 30
0.0
  0
SEQEND
  5
B5
330
AF
100
AcDbEntity
  8
_U+30EC_U+30A4_U+30E4_U+30FC 1
370
     0
  0
HATCH
  5
B6
330
A7
100
AcDbEntity
  8
_U+30EC_U+30A4_U+30E4_U+30FC 1
 62
     7
420
 16777215
100
AcDbHatch
 10
0.0
 20
0.0
 30
0.0
210
0.0
220
0.0
230
1.0
  2
SOLID
 70
     1
 71
     0
 91
        1
 92
        1
 93
        4
 72
     1
 10
103.0507296834387
 20
-131.902715353309
 11
102.7988932034669
 21
-131.902715353309
 72
     1
 10
102.7988932034669
 20
-131.902715353309
 11
102.7988932034669
 21
-131.633653395911
 72
     1
 10
102.7988932034669
 20
-131.633653395911
 11
103.0507296834387
 21
-131.633653395911
 72
     1
 10
103.0507296834387
 20
-131.633653395911
 11
103.0507296834387
 21
-131.902715353309
 97
        0
 75
     2
 76
     1
 98
        0
  0
SPLINE
  5
B7
330
A7
100
AcDbEntity
  8
_U+30EC_U+30A4_U+30E4_U+30FC 1
370
     0
100
AcDbSpline
210
0.0
220
0.0
230
1.0
 70
    11
 71
     3
 72
    53
 73
    49
 74
     0
 42
0.0000000001
 43
0.0000000001
 12
1.0
 22
0.0
 32
0.0
 13
1.0
 23
0.0
 33
0.0
 40
0.0
 40
0.0
 40
0.0
 40
0.0
 40
1.0
 40
1.0
 40
1.0
 40
2.0
 40
2.0
 40
2.0
 40
3.0
 40
3.0
 40
3.0
 40
4.0
 40
4.0
 40
4.0
 40
5.0
 40
5.0
 40
5.0
 40
6.0
 40
6.0
 40
6.0
 40
7.0
 40
7.0
 40
7.0
 40
8.0
 40
8.0
 40
8.0
 40
9.0
 40
9.0
 40
9.0
 40
10.0
 40
10.0
 40
10.0
 40
11.0
 40
11.0
 40
11.0
 40
12.0
 40
12.0
 40
12.0
 40
13.0
 40
13.0
 40
13.0
 40
14.0
 40
14.0
 40
14.0
 40
15.0
 40
15.0
 40
15.0
 40
16.0
 40
16.0
 40
16.0
 40
16.0
 10
103.1013725870719
 20
-130.867119650443
 30
0.0
 10
103.1013725870719
 20
-130.9508354707345
 30
0.0
 10
103.0844916191942
 20
-131.0590114689714
 30
0.0
 10
103.0211018622656
 20
-131.1678764863053
 30
0.0
 10
102.9112033162861
 20
-131.3532226234117
 30
0.0
 10
102.7799451782981
 20
-131.3756157440658
 30
0.0
 10
102.6721136896098
 20
-131.3959418074288
 30
0.0
 10
102.6721136896098
 20
-131.3959418074288
 30
0.0
 10
102.6721136896098
 20
-131.1585747284951
 30
0.0
 10
102.6721136896098
 20
-131.1585747284951
 30
0.0
 10
102.8708956991087
 20
-131.1000081052458
 30
0.0
 10
102.9005235202818
 20
-130.964271343127
 30
0.0
 10
102.9005235202818
 20
-130.8647080836033
 30
0.0
 10
102.9005235202818
 20
-130.715535449092
 30
0.0
 10
102.8009602607581
 20
-130.5525824326396
 30
0.0
 10
102.5684163155037
 20
-130.5525824326396
 30
0.0
 10
102.3124457209497
 20
-130.5525824326396
 30
0.0
 10
102.2425102825991
 20
-130.7448187607166
 30
0.0
 10
102.2425102825991
 20
-130.8736653318649
 30
0.0
 10
102.2425102825991
 20
-130.9077717771689
 30
0.0
 10
102.2425102825991
 20
-131.0590114689714
 30
0.0
 10
102.371701363296
 20
-131.1540961043643
 30
0.0
 10
102.371701363296
 20
-131.1540961043643
 30
0.0
 10
102.3527533381271
 20
-131.3418538083104
 30
0.0
 10
102.3527533381271
 20
-131.3418538083104
 30
0.0
 10
102.3527533381271
 20
-131.3418538083104
 30
0.0
 10
101.5062933774012
 20
-131.213007237162
 30
0.0
 10
101.5062933774012
 20
-131.213007237162
 30
0.0
 10
101.5062933774012
 20
-131.213007237162
 30
0.0
 10
101.5062933774012
 20
-130.3810166774742
 30
0.0
 10
101.5062933774012
 20
-130.3810166774742
 30
0.0
 10
101.5062933774012
 20
-130.3810166774742
 30
0.0
 10
101.7009412723178
 20
-130.3810166774742
 30
0.0
 10
101.7009412723178
 20
-130.3810166774742
 30
0.0
 10
101.7009412723178
 20
-130.3810166774742
 30
0.0
 10
101.7009412723178
 20
-131.0386854056084
 30
0.0
 10
101.7009412723178
 20
-131.0386854056084
 30
0.0
 10
101.7009412723178
 20
-131.0386854056084
 30
0.0
 10
102.1239989979065
 20
-131.1089653535075
 30
0.0
 10
102.1239989979065
 20
-131.1089653535075
 30
0.0
 10
102.0902370621511
 20
-131.0435085392877
 30
0.0
 10
102.0499294449736
 20
-130.9553140948653
 30
0.0
 10
102.0499294449736
 20
-130.8285345810081
 30
0.0
 10
102.0499294449736
 20
-130.557405566319
 30
0.0
 10
102.2363091107257
 20
-130.3041910481531
 30
0.0
 10
102.5494682903349
 20
-130.3041910481531
 30
0.0
 10
102.8667615845264
 20
-130.3041910481531
 30
0.0
 10
103.1013725870719
 20
-130.543625184378
 30
0.0
 10
103.1013725870719
 20
-130.867119650443
 30
0.0
  0
HATCH
  5
B8
330
A7
100
AcDbEntity
  8
_U+30EC_U+30A4_U+30E4_U+30FC 1
 62
     7
420
 16777215
100
AcDbHatch
 10
0.0
 20
0.0
 30
0.0
210
0.0
220
0.0
230
1.0
  2
SOLID
 70
     1
 71
     0
 91
        1
 92
        1
 93
        1
 72
     4
 94
        3
 73
     0
 74
     1
 95
       53
 96
       49
 40
0.0
 40
0.0
 40
0.0
 40
0.0
 40
1.0
 40
1.0
 40
1.0
 40
2.0
 40
2.0
 40
2.0
 40
3.0
 40
3.0
 40
3.0
 40
4.0
 40
4.0
 40
4.0
 40
5.0
 40
5.0
 40
5.0
 40
6.0
 40
6.0
 40
6.0
 40
7.0
 40
7.0
 40
7.0
 40
8.0
 40
8.0
 40
8.0
 40
9.0
 40
9.0
 40
9.0
 40
10.0
 40
10.0
 40
10.0
 40
11.0
 40
11.0
 40
11.0
 40
12.0
 40
12.0
 40
12.0
 40
13.0
 40
13.0
 40
13.0
 40
14.0
 40
14.0
 40
14.0
 40
15.0
 40
15.0
 40
15.0
 40
16.0
 40
16.0
 40
16.0
 40
16.0
 10
103.1013725870719
 20
-130.867119650443
 10
103.1013725870719
 20
-130.9508354707345
 10
103.0844916191942
 20
-131.0590114689714
 10
103.0211018622656
 20
-131.1678764863053
 10
102.9112033162861
 20
-131.3532226234117
 10
102.7799451782981
 20
-131.3756157440658
 10
102.6721136896098
 20
-131.3959418074288
 10
102.6721136896098
 20
-131.3959418074288
 10
102.6721136896098
 20
-131.1585747284951
 10
102.6721136896098
 20
-131.1585747284951
 10
102.8708956991087
 20
-131.1000081052458
 10
102.9005235202818
 20
-130.964271343127
 10
102.9005235202818
 20
-130.8647080836033
 10
102.9005235202818
 20
-130.715535449092
 10
102.8009602607581
 20
-130.5525824326396
 10
102.5684163155037
 20
-130.5525824326396
 10
102.3124457209497
 20
-130.5525824326396
 10
102.2425102825991
 20
-130.7448187607166
 10
102.2425102825991
 20
-130.8736653318649
 10
102.2425102825991
 20
-130.9077717771689
 10
102.2425102825991
 20
-131.0590114689714
 10
102.371701363296
 20
-131.1540961043643
 10
102.371701363296
 20
-131.1540961043643
 10
102.3527533381271
 20
-131.3418538083104
 10
102.3527533381271
 20
-131.3418538083104
 10
102.3527533381271
 20
-131.3418538083104
 10
101.5062933774012
 20
-131.213007237162
 10
101.5062933774012
 20
-131.213007237162
 10
101.5062933774012
 20
-131.213007237162
 10
101.5062933774012
 20
-130.3810166774742
 10
101.5062933774012
 20
-130.3810166774742
 10
101.5062933774012
 20
-130.3810166774742
 10
101.7009412723178
 20
-130.3810166774742
 10
101.7009412723178
 20
-130.3810166774742
 10
101.7009412723178
 20
-130.3810166774742
 10
101.7009412723178
 20
-131.0386854056084
 10
101.7009412723178
 20
-131.0386854056084
 10
101.7009412723178
 20
-131.0386854056084
 10
102.1239989979065
 20
-131.1089653535075
 10
102.1239989979065
 20
-131.1089653535075
 10
102.0902370621511
 20
-131.0435085392877
 10
102.0499294449736
 20
-130.9553140948653
 10
102.0499294449736
 20
-130.8285345810081
 10
102.0499294449736
 20
-130.557405566319
 10
102.2363091107257
 20
-130.3041910481531
 10
102.5494682903349
 20
-130.3041910481531
 10
102.8667615845264
 20
-130.3041910481531
 10
103.1013725870719
 20
-130.543625184378
 10
103.1013725870719
 20
-130.867119650443
 97
        0
 97
        0
 75
     2
 76
     1
 98
        0
  0
ENDBLK
  5
AA
330
A7
100
AcDbEntity
  8
0
100
AcDbBlockEnd
  0
BLOCK
  5
C3
330
C1
100
AcDbEntity
  8
0
100
AcDbBlockBegin
  2
block 5
 70
     0
 10
0.0
 20
0.0
 30
0.0
  3
block 5
  1

  0
SPLINE
  5
C5
330
C1
100
AcDbEntity
  8
_U+30EC_U+30A4_U+30E4_U+30FC 1
370
     0
100
AcDbSpline
210
0.0
220
0.0
230
1.0
 70
    11
 71
     3
 72
    26
 73
    22
 74
     0
 42
0.0000000001
 43
0.0000000001
 12
1.0
 22
0.0
 32
0.0
 13
1.0
 23
0.0
 33
0.0
 40
0.0
 40
0.0
 40
0.0
 40
0.0
 40
1.0
 40
1.0
 40
1.0
 40
2.0
 40
2.0
 40
2.0
 40
3.0
 40
3.0
 40
3.0
 40
4.0
 40
4.0
 40
4.0
 40
5.0
 40
5.0
 40
5.0
 40
6.0
 40
6.0
 40
6.0
 40
7.0
 40
7.0
 40
7.0
 40
7.0
 10
103.0507296834387
 20
-120.6992648352766
 30
0.0
 10
103.0507296834387
 20
-120.6992648352766
 30
0.0
 10
103.0507296834387
 20
-120.9524793534424
 30
0.0
 10
103.0507296834387
 20
-120.9524793534424
 30
0.0
 10
102.7417046184118
 20
-120.9254353538832
 30
0.0
 10
102.2235622574302
 20
-120.7197631534138
 30
0.0
 10
101.7178222401955
 20
-120.2856811222723
 30
0.0
 10
101.7178222401955
 20
-120.2856811222723
 30
0.0
 10
101.7178222401955
 20
-121.1808891841145
 30
0.0
 10
101.7178222401955
 20
-121.1808891841145
 30
0.0
 10
101.7178222401955
 20
-121.1808891841145
 30
0.0
 10
101.5062933774012
 20
-121.1808891841145
 30
0.0
 10
101.5062933774012
 20
-121.1808891841145
 30
0.0
 10
101.5062933774012
 20
-121.1808891841145
 30
0.0
 10
101.5062933774012
 20
-120.0324666041065
 30
0.0
 10
101.5062933774012
 20
-120.0324666041065
 30
0.0
 10
101.5062933774012
 20
-120.0324666041065
 30
0.0
 10
101.7178222401955
 20
-120.0324666041065
 30
0.0
 10
101.7178222401955
 20
-120.0324666041065
 30
0.0
 10
102.0078992800536
 20
-120.3783541908256
 30
0.0
 10
102.600111193968
 20
-120.6630913326815
 30
0.0
 10
103.0507296834387
 20
-120.6992648352766
 30
0.0
  0
HATCH
  5
C6
330
C1
100
AcDbEntity
  8
_U+30EC_U+30A4_U+30E4_U+30FC 1
 62
     7
420
 16777215
100
AcDbHatch
 10
0.0
 20
0.0
 30
0.0
210
0.0
220
0.0
230
1.0
  2
SOLID
 70
     1
 71
     0
 91
        1
 92
        1
 93
        1
 72
     4
 94
        3
 73
     0
 74
     1
 95
       26
 96
       22
 40
0.0
 40
0.0
 40
0.0
 40
0.0
 40
1.0
 40
1.0
 40
1.0
 40
2.0
 40
2.0
 40
2.0
 40
3.0
 40
3.0
 40
3.0
 40
4.0
 40
4.0
 40
4.0
 40
5.0
 40
5.0
 40
5.0
 40
6.0
 40
6.0
 40
6.0
 40
7.0
 40
7.0
 40
7.0
 40
7.0
 10
103.0507296834387
 20
-120.6992648352766
 10
103.0507296834387
 20
-120.6992648352766
 10
103.0507296834387
 20
-120.9524793534424
 10
103.0507296834387
 20
-120.9524793534424
 10
102.7417046184118
 20
-120.9254353538832
 10
102.2235622574302
 20
-120.7197631534138
 10
101.7178222401955
 20
-120.2856811222723
 10
101.7178222401955
 20
-120.2856811222723
 10
101.7178222401955
 20
-121.1808891841145
 10
101.7178222401955
 20
-121.1808891841145
 10
101.7178222401955
 20
-121.1808891841145
 10
101.5062933774012
 20
-121.1808891841145
 10
101.5062933774012
 20
-121.1808891841145
 10
101.5062933774012
 20
-121.1808891841145
 10
101.5062933774012
 20
-120.0324666041065
 10
101.5062933774012
 20
-120.0324666041065
 10
101.5062933774012
 20
-120.0324666041065
 10
101.7178222401955
 20
-120.0324666041065
 10
101.7178222401955
 20
-120.0324666041065
 10
102.0078992800536
 20
-120.3783541908256
 10
102.600111193968
 20
-120.6630913326815
 10
103.0507296834387
 20
-120.6992648352766
 97
        0
 97
        0
 75
     2
 76
     1
 98
        0
  0
ENDBLK
  5
C4
330
C1
100
AcDbEntity
  8
0
100
AcDbBlockEnd
  0
BLOCK
  5
D5
330
D3
100
AcDbEntity
  8
0
100
AcDbBlockBegin
  2
block 6
 70
     0
 10
0.0
 20
0.0
 30
0.0
  3
block 6
  1

  0
SPLINE
  5
D7
330
D3
100
AcDbEntity
  8
_U+30EC_U+30A4_U+30E4_U+30FC 1
370
     0
100
AcDbSpline
210
0.0
220
0.0
230
1.0
 70
    11
 71
     3
 72
    44
 73
    40
 74
     0
 42
0.0000000001
 43
0.0000000001
 12
1.0
 22
0.0
 32
0.0
 13
1.0
 23
0.0
 33
0.0
 40
0.0
 40
0.0
 40
0.0
 40
0.0
 40
1.0
 40
1.0
 40
1.0
 40
2.0
 40
2.0
 40
2.0
 40
3.0
 40
3.0
 40
3.0
 40
4.0
 40
4.0
 40
4.0
 40
5.0
 40
5.0
 40
5.0
 40
6.0
 40
6.0
 40
6.0
 40
7.0
 40
7.0
 40
7.0
 40
8.0
 40
8.0
 40
8.0
 40
9.0
 40
9.0
 40
9.0
 40
10.0
 40
10.0
 40
10.0
 40
11.0
 40
11.0
 40
11.0
 40
12.0
 40
12.0
 40
12.0
 40
13.0
 40
13.0
 40
13.0
 40
13.0
 10
78.46842310321276
 20
-130.3486327799129
 30
0.0
 10
78.62706975030851
 20
-130.5815212347157
 30
0.0
 10
78.70113930324139
 20
-130.6807399846909
 30
0.0
 10
78.84497203975057
 20
-130.7327609265182
 30
0.0
 10
78.84497203975057
 20
-130.7327609265182
 30
0.0
 10
78.84497203975057
 20
-129.9007703668304
 30
0.0
 10
78.84497203975057
 20
-129.9007703668304
 30
0.0
 10
78.84497203975057
 20
-129.9007703668304
 30
0.0
 10
79.0501274758972
 20
-129.9007703668304
 30
0.0
 10
79.0501274758972
 20
-129.9007703668304
 30
0.0
 10
79.0501274758972
 20
-129.9007703668304
 30
0.0
 10
79.0501274758972
 20
-130.9997558266251
 30
0.0
 10
79.0501274758972
 20
-130.9997558266251
 30
0.0
 10
78.69252656452826
 20
-130.9656493813211
 30
0.0
 10
78.6143228970131
 20
-130.8957139429705
 30
0.0
 10
78.31597762799045
 20
-130.4840250324832
 30
0.0
 10
78.11719561849154
 20
-130.2104844509543
 30
0.0
 10
78.04949949220638
 20
-130.1405490126038
 30
0.0
 10
77.91204018234491
 20
-130.1405490126038
 30
0.0
 10
77.79352889765232
 20
-130.1405490126038
 30
0.0
 10
77.6622707596643
 20
-130.2173746419248
 30
0.0
 10
77.6622707596643
 20
-130.4275254665251
 30
0.0
 10
77.6622707596643
 20
-130.7058891817333
 30
0.0
 10
77.89291990240177
 20
-130.7148464299949
 30
0.0
 10
78.00936412980322
 20
-130.7193250541257
 30
0.0
 10
78.00936412980322
 20
-130.7193250541257
 30
0.0
 10
78.00936412980322
 20
-130.9591036998991
 30
0.0
 10
78.00936412980322
 20
-130.9591036998991
 30
0.0
 10
77.88241236117176
 20
-130.949801942089
 30
0.0
 10
77.77027450312688
 20
-130.9384331269876
 30
0.0
 10
77.65176321843428
 20
-130.8526502494049
 30
0.0
 10
77.49104951404738
 20
-130.7351724933579
 30
0.0
 10
77.45711532351767
 20
-130.5360459743104
 30
0.0
 10
77.45711532351767
 20
-130.4116780272929
 30
0.0
 10
77.45711532351767
 20
-130.11574432511
 30
0.0
 10
77.64125567720427
 20
-129.8942246854084
 30
0.0
 10
77.91410723963607
 20
-129.8942246854084
 30
0.0
 10
78.14251707030813
 20
-129.8942246854084
 30
0.0
 10
78.24208032983185
 20
-130.0185926324259
 30
0.0
 10
78.46842310321276
 20
-130.3486327799129
 30
0.0
  0
HATCH
  5
D8
330
D3
100
AcDbEntity
  8
_U+30EC_U+30A4_U+30E4_U+30FC 1
 62
     7
420
 16777215
100
AcDbHatch
 10
0.0
 20
0.0
 30
0.0
210
0.0
220
0.0
230
1.0
  2
SOLID
 70
     1
 71
     0
 91
        1
 92
        1
 93
        1
 72
     4
 94
        3
 73
     0
 74
     1
 95
       44
 96
       40
 40
0.0
 40
0.0
 40
0.0
 40
0.0
 40
1.0
 40
1.0
 40
1.0
 40
2.0
 40
2.0
 40
2.0
 40
3.0
 40
3.0
 40
3.0
 40
4.0
 40
4.0
 40
4.0
 40
5.0
 40
5.0
 40
5.0
 40
6.0
 40
6.0
 40
6.0
 40
7.0
 40
7.0
 40
7.0
 40
8.0
 40
8.0
 40
8.0
 40
9.0
 40
9.0
 40
9.0
 40
10.0
 40
10.0
 40
10.0
 40
11.0
 40
11.0
 40
11.0
 40
12.0
 40
12.0
 40
12.0
 40
13.0
 40
13.0
 40
13.0
 40
13.0
 10
78.46842310321276
 20
-130.3486327799129
 10
78.62706975030851
 20
-130.5815212347157
 10
78.70113930324139
 20
-130.6807399846909
 10
78.84497203975057
 20
-130.7327609265182
 10
78.84497203975057
 20
-130.7327609265182
 10
78.84497203975057
 20
-129.9007703668304
 10
78.84497203975057
 20
-129.9007703668304
 10
78.84497203975057
 20
-129.9007703668304
 10
79.0501274758972
 20
-129.9007703668304
 10
79.0501274758972
 20
-129.9007703668304
 10
79.0501274758972
 20
-129.9007703668304
 10
79.0501274758972
 20
-130.9997558266251
 10
79.0501274758972
 20
-130.9997558266251
 10
78.69252656452826
 20
-130.9656493813211
 10
78.6143228970131
 20
-130.8957139429705
 10
78.31597762799045
 20
-130.4840250324832
 10
78.11719561849154
 20
-130.2104844509543
 10
78.04949949220638
 20
-130.1405490126038
 10
77.91204018234491
 20
-130.1405490126038
 10
77.79352889765232
 20
-130.1405490126038
 10
77.6622707596643
 20
-130.2173746419248
 10
77.6622707596643
 20
-130.4275254665251
 10
77.6622707596643
 20
-130.7058891817333
 10
77.89291990240177
 20
-130.7148464299949
 10
78.00936412980322
 20
-130.7193250541257
 10
78.00936412980322
 20
-130.7193250541257
 10
78.00936412980322
 20
-130.9591036998991
 10
78.00936412980322
 20
-130.9591036998991
 10
77.88241236117176
 20
-130.949801942089
 10
77.77027450312688
 20
-130.9384331269876
 10
77.65176321843428
 20
-130.8526502494049
 10
77.49104951404738
 20
-130.7351724933579
 10
77.45711532351767
 20
-130.5360459743104
 10
77.45711532351767
 20
-130.4116780272929
 10
77.45711532351767
 20
-130.11574432511
 10
77.64125567720427
 20
-129.8942246854084
 10
77.91410723963607
 20
-129.8942246854084
 10
78.14251707030813
 20
-129.8942246854084
 10
78.24208032983185
 20
-130.0185926324259
 10
78.46842310321276
 20
-130.3486327799129
 97
        0
 97
        0
 75
     2
 76
     1
 98
        0
  0
POLYLINE
  5
D9
330
D3
100
AcDbEntity
  8
_U+30EC_U+30A4_U+30E4_U+30FC 1
370
     0
100
AcDb2dPolyline
 66
     1
 10
0.0
 20
0.0
 30
0.0
  0
VERTEX
  5
DA
330
D9
100
AcDbEntity
  8
_U+30EC_U+30A4_U+30E4_U+30FC 1
370
     0
100
AcDbVertex
100
AcDb2dVertex
 10
78.70320636053253
 20
-128.8352023332426
 30
0.0
  0
VERTEX
  5
DB
330
D9
100
AcDbEntity
  8
_U+30EC_U+30A4_U+30E4_U+30FC 1
370
     0
100
AcDbVertex
100
AcDb2dVertex
 10
79.0501274758972
 20
-128.8352023332426
 30
0.0
  0
VERTEX
  5
DC
330
D9
100
AcDbEntity
  8
_U+30EC_U+30A4_U+30E4_U+30FC 1
370
     0
100
AcDbVertex
100
AcDb2dVertex
 10
79.0501274758972
 20
-129.0680907880455
 30
0.0
  0
VERTEX
  5
DD
330
D9
100
AcDbEntity
  8
_U+30EC_U+30A4_U+30E4_U+30FC 1
370
     0
100
AcDbVertex
100
AcDb2dVertex
 10
78.70320636053253
 20
-129.0680907880455
 30
0.0
  0
VERTEX
  5
DE
330
D9
100
AcDbEntity
  8
_U+30EC_U+30A4_U+30E4_U+30FC 1
370
     0
100
AcDbVertex
100
AcDb2dVertex
 10
78.70320636053253
 20
-129.7688232097453
 30
0.0
  0
VERTEX
  5
DF
330
D9
100
AcDbEntity
  8
_U+30EC_U+30A4_U+30E4_U+30FC 1
370
     0
100
AcDbVertex
100
AcDb2dVertex
 10
78.47893064444277
 20
-129.7688232097453
 30
0.0
  0
VERTEX
  5
E0
330
D9
100
AcDbEntity
  8
_U+30EC_U+30A4_U+30E4_U+30FC 1
370
     0
100
AcDbVertex
100
AcDb2dVertex
 10
77.50586342463396
 20
-129.0432861005517
 30
0.0
  0
VERTEX
  5
E1
330
D9
100
AcDbEntity
  8
_U+30EC_U+30A4_U+30E4_U+30FC 1
370
     0
100
AcDbVertex
100
AcDb2dVertex
 10
77.50586342463396
 20
-128.8352023332426
 30
0.0
  0
VERTEX
  5
E2
330
D9
100
AcDbEntity
  8
_U+30EC_U+30A4_U+30E4_U+30FC 1
370
     0
100
AcDbVertex
100
AcDb2dVertex
 10
78.50425209625936
 20
-128.8352023332426
 30
0.0
  0
VERTEX
  5
E3
330
D9
100
AcDbEntity
  8
_U+30EC_U+30A4_U+30E4_U+30FC 1
370
     0
100
AcDbVertex
100
AcDb2dVertex
 10
78.50425209625936
 20
-128.613682693541
 30
0.0
  0
VERTEX
  5
E4
330
D9
100
AcDbEntity
  8
_U+30EC_U+30A4_U+30E4_U+30FC 1
370
     0
100
AcDbVertex
100
AcDb2dVertex
 10
78.70320636053253
 20
-128.613682693541
 30
0.0
  0
VERTEX
  5
E5
330
D9
100
AcDbEntity
  8
_U+30EC_U+30A4_U+30E4_U+30FC 1
370
     0
100
AcDbVertex
100
AcDb2dVertex
 10
78.70320636053253
 20
-128.8352023332426
 30
0.0
  0
SEQEND
  5
E6
330
D9
100
AcDbEntity
  8
_U+30EC_U+30A4_U+30E4_U+30FC 1
370
     0
  0
POLYLINE
  5
E7
330
D3
100
AcDbEntity
  8
_U+30EC_U+30A4_U+30E4_U+30FC 1
370
     0
100
AcDb2dPolyline
 66
     1
 10
0.0
 20
0.0
 30
0.0
  0
VERTEX
  5
E8
330
E7
100
AcDbEntity
  8
_U+30EC_U+30A4_U+30E4_U+30FC 1
370
     0
100
AcDbVertex
100
AcDb2dVertex
 10
77.84847817064205
 20
-129.0680907880455
 30
0.0
  0
VERTEX
  5
E9
330
E7
100
AcDbEntity
  8
_U+30EC_U+30A4_U+30E4_U+30FC 1
370
     0
100
AcDbVertex
100
AcDb2dVertex
 10
78.50425209625936
 20
-129.5566053278539
 30
0.0
  0
VERTEX
  5
EA
330
E7
100
AcDbEntity
  8
_U+30EC_U+30A4_U+30E4_U+30FC 1
370
     0
100
AcDbVertex
100
AcDb2dVertex
 10
78.50425209625936
 20
-129.0680907880455
 30
0.0
  0
VERTEX
  5
EB
330
E7
100
AcDbEntity
  8
_U+30EC_U+30A4_U+30E4_U+30FC 1
370
     0
100
AcDbVertex
100
AcDb2dVertex
 10
77.84847817064205
 20
-129.0680907880455
 30
0.0
  0
SEQEND
  5
EC
330
E7
100
AcDbEntity
  8
_U+30EC_U+30A4_U+30E4_U+30FC 1
370
     0
  0
HATCH
  5
ED
330
D3
100
AcDbEntity
  8
_U+30EC_U+30A4_U+30E4_U+30FC 1
 62
     7
420
 16777215
100
AcDbHatch
 10
0.0
 20
0.0
 30
0.0
210
0.0
220
0.0
230
1.0
  2
SOLID
 70
     1
 71
     0
 91
        2
 92
        1
 93
       11
 72
     1
 10
78.70320636053253
 20
-128.8352023332426
 11
79.0501274758972
 21
-128.8352023332426
 72
     1
 10
79.0501274758972
 20
-128.8352023332426
 11
79.0501274758972
 21
-129.0680907880455
 72
     1
 10
79.0501274758972
 20
-129.0680907880455
 11
78.70320636053253
 21
-129.0680907880455
 72
     1
 10
78.70320636053253
 20
-129.0680907880455
 11
78.70320636053253
 21
-129.7688232097453
 72
     1
 10
78.70320636053253
 20
-129.7688232097453
 11
78.47893064444277
 21
-129.7688232097453
 72
     1
 10
78.47893064444277
 20
-129.7688232097453
 11
77.50586342463396
 21
-129.0432861005517
 72
     1
 10
77.50586342463396
 20
-129.0432861005517
 11
77.50586342463396
 21
-128.8352023332426
 72
     1
 10
77.50586342463396
 20
-128.8352023332426
 11
78.50425209625936
 21
-128.8352023332426
 72
     1
 10
78.50425209625936
 20
-128.8352023332426
 11
78.50425209625936
 21
-128.613682693541
 72
     1
 10
78.50425209625936
 20
-128.613682693541
 11
78.70320636053253
 21
-128.613682693541
 72
     1
 10
78.70320636053253
 20
-128.613682693541
 11
78.70320636053253
 21
-128.8352023332426
 97
        0
 92
        1
 93
        3
 72
     1
 10
77.84847817064205
 20
-129.0680907880455
 11
78.50425209625936
 21
-129.5566053278539
 72
     1
 10
78.50425209625936
 20
-129.5566053278539
 11
78.50425209625936
 21
-129.0680907880455
 72
     1
 10
78.50425209625936
 20
-129.0680907880455
 11
77.84847817064205
 21
-129.0680907880455
 97
        0
 75
     2
 76
     1
 98
        0
  0
POLYLINE
  5
EE
330
D3
100
AcDbEntity
  8
_U+30EC_U+30A4_U+30E4_U+30FC 1
370
     0
100
AcDb2dPolyline
 66
     1
 10
0.0
 20
0.0
 30
0.0
  0
VERTEX
  5
EF
330
EE
100
AcDbEntity
  8
_U+30EC_U+30A4_U+30E4_U+30FC 1
370
     0
100
AcDbVertex
100
AcDb2dVertex
 10
79.0501274758972
 20
-128.4026705950695
 30
0.0
  0
VERTEX
  5
F0
330
EE
100
AcDbEntity
  8
_U+30EC_U+30A4_U+30E4_U+30FC 1
370
     0
100
AcDbVertex
100
AcDb2dVertex
 10
78.7984632506997
 20
-128.4026705950695
 30
0.0
  0
VERTEX
  5
F1
330
EE
100
AcDbEntity
  8
_U+30EC_U+30A4_U+30E4_U+30FC 1
370
     0
100
AcDbVertex
100
AcDb2dVertex
 10
78.7984632506997
 20
-128.1336086376715
 30
0.0
  0
VERTEX
  5
F2
330
EE
100
AcDbEntity
  8
_U+30EC_U+30A4_U+30E4_U+30FC 1
370
     0
100
AcDbVertex
100
AcDb2dVertex
 10
79.0501274758972
 20
-128.1336086376715
 30
0.0
  0
VERTEX
  5
F3
330
EE
100
AcDbEntity
  8
_U+30EC_U+30A4_U+30E4_U+30FC 1
370
     0
100
AcDbVertex
100
AcDb2dVertex
 10
79.0501274758972
 20
-128.4026705950695
 30
0.0
  0
SEQEND
  5
F4
330
EE
100
AcDbEntity
  8
_U+30EC_U+30A4_U+30E4_U+30FC 1
370
     0
  0
HATCH
  5
F5
330
D3
100
AcDbEntity
  8
_U+30EC_U+30A4_U+30E4_U+30FC 1
 62
     7
420
 16777215
100
AcDbHatch
 10
0.0
 20
0.0
 30
0.0
210
0.0
220
0.0
230
1.0
  2
SOLID
 70
     1
 71
     0
 91
        1
 92
        1
 93
        4
 72
     1
 10
79.0501274758972
 20
-128.4026705950695
 11
78.7984632506997
 21
-128.4026705950695
 72
     1
 10
78.7984632506997
 20
-128.4026705950695
 11
78.7984632506997
 21
-128.1336086376715
 72
     1
 10
78.7984632506997
 20
-128.1336086376715
 11
79.0501274758972
 21
-128.1336086376715
 72
     1
 10
79.0501274758972
 20
-128.1336086376715
 11
79.0501274758972
 21
-128.4026705950695
 97
        0
 75
     2
 76
     1
 98
        0
  0
SPLINE
  5
F6
330
D3
100
AcDbEntity
  8
_U+30EC_U+30A4_U+30E4_U+30FC 1
370
     0
100
AcDbSpline
210
0.0
220
0.0
230
1.0
 70
    11
 71
     3
 72
    53
 73
    49
 74
     0
 42
0.0000000001
 43
0.0000000001
 12
1.0
 22
0.0
 32
0.0
 13
1.0
 23
0.0
 33
0.0
 40
0.0
 40
0.0
 40
0.0
 40
0.0
 40
1.0
 40
1.0
 40
1.0
 40
2.0
 40
2.0
 40
2.0
 40
3.0
 40
3.0
 40
3.0
 40
4.0
 40
4.0
 40
4.0
 40
5.0
 40
5.0
 40
5.0
 40
6.0
 40
6.0
 40
6.0
 40
7.0
 40
7.0
 40
7.0
 40
8.0
 40
8.0
 40
8.0
 40
9.0
 40
9.0
 40
9.0
 40
10.0
 40
10.0
 40
10.0
 40
11.0
 40
11.0
 40
11.0
 40
12.0
 40
12.0
 40
12.0
 40
13.0
 40
13.0
 40
13.0
 40
14.0
 40
14.0
 40
14.0
 40
15.0
 40
15.0
 40
15.0
 40
16.0
 40
16.0
 40
16.0
 40
16.0
 10
79.10094263430463
 20
-127.3669026374291
 30
0.0
 10
79.10094263430463
 20
-127.4506184577207
 30
0.0
 10
79.0840616664269
 20
-127.5591389655061
 30
0.0
 10
79.02049965472405
 20
-127.6676594732914
 30
0.0
 10
78.91042885397032
 20
-127.8530056103979
 30
0.0
 10
78.77934297075656
 20
-127.8757432406005
 30
0.0
 10
78.67151148206824
 20
-127.8960693039635
 30
0.0
 10
78.67151148206824
 20
-127.8960693039635
 30
0.0
 10
78.67151148206824
 20
-127.6587022250298
 30
0.0
 10
78.67151148206824
 20
-127.6587022250298
 30
0.0
 10
78.87029349156715
 20
-127.599791092232
 30
0.0
 10
78.8999213127403
 20
-127.4642265848874
 30
0.0
 10
78.8999213127403
 20
-127.3646633253637
 30
0.0
 10
78.8999213127403
 20
-127.2154906908524
 30
0.0
 10
78.80053030799084
 20
-127.0527099291743
 30
0.0
 10
78.56781410796222
 20
-127.0527099291743
 30
0.0
 10
78.31184351340815
 20
-127.0527099291743
 30
0.0
 10
78.24208032983185
 20
-127.2449462572513
 30
0.0
 10
78.24208032983185
 20
-127.3737928283996
 30
0.0
 10
78.24208032983185
 20
-127.4077270189293
 30
0.0
 10
78.24208032983185
 20
-127.5591389655061
 30
0.0
 10
78.37109915575445
 20
-127.6540513461247
 30
0.0
 10
78.37109915575445
 20
-127.6540513461247
 30
0.0
 10
78.35197887581131
 20
-127.8418090500708
 30
0.0
 10
78.35197887581131
 20
-127.8418090500708
 30
0.0
 10
78.35197887581131
 20
-127.8418090500708
 30
0.0
 10
77.50586342463396
 20
-127.7127902241482
 30
0.0
 10
77.50586342463396
 20
-127.7127902241482
 30
0.0
 10
77.50586342463396
 20
-127.7127902241482
 30
0.0
 10
77.50586342463396
 20
-126.8807996644604
 30
0.0
 10
77.50586342463396
 20
-126.8807996644604
 30
0.0
 10
77.50586342463396
 20
-126.8807996644604
 30
0.0
 10
77.70051131955057
 20
-126.8807996644604
 30
0.0
 10
77.70051131955057
 20
-126.8807996644604
 30
0.0
 10
77.70051131955057
 20
-126.8807996644604
 30
0.0
 10
77.70051131955057
 20
-127.5388129021431
 30
0.0
 10
77.70051131955057
 20
-127.5388129021431
 30
0.0
 10
77.70051131955057
 20
-127.5388129021431
 30
0.0
 10
78.12356904513925
 20
-127.6089205952679
 30
0.0
 10
78.12356904513925
 20
-127.6089205952679
 30
0.0
 10
78.08963485460954
 20
-127.5432915262739
 30
0.0
 10
78.04949949220638
 20
-127.4550970818515
 30
0.0
 10
78.04949949220638
 20
-127.3284898227686
 30
0.0
 10
78.04949949220638
 20
-127.0571885533052
 30
0.0
 10
78.23570690318414
 20
-126.8039740351393
 30
0.0
 10
78.54869382801908
 20
-126.8039740351393
 30
0.0
 10
78.86615937698485
 20
-126.8039740351393
 30
0.0
 10
79.10094263430463
 20
-127.0437526809127
 30
0.0
 10
79.10094263430463
 20
-127.3669026374291
 30
0.0
  0
HATCH
  5
F7
330
D3
100
AcDbEntity
  8
_U+30EC_U+30A4_U+30E4_U+30FC 1
 62
     7
420
 16777215
100
AcDbHatch
 10
0.0
 20
0.0
 30
0.0
210
0.0
220
0.0
230
1.0
  2
SOLID
 70
     1
 71
     0
 91
        1
 92
        1
 93
        1
 72
     4
 94
        3
 73
     0
 74
     1
 95
       53
 96
       49
 40
0.0
 40
0.0
 40
0.0
 40
0.0
 40
1.0
 40
1.0
 40
1.0
 40
2.0
 40
2.0
 40
2.0
 40
3.0
 40
3.0
 40
3.0
 40
4.0
 40
4.0
 40
4.0
 40
5.0
 40
5.0
 40
5.0
 40
6.0
 40
6.0
 40
6.0
 40
7.0
 40
7.0
 40
7.0
 40
8.0
 40
8.0
 40
8.0
 40
9.0
 40
9.0
 40
9.0
 40
10.0
 40
10.0
 40
10.0
 40
11.0
 40
11.0
 40
11.0
 40
12.0
 40
12.0
 40
12.0
 40
13.0
 40
13.0
 40
13.0
 40
14.0
 40
14.0
 40
14.0
 40
15.0
 40
15.0
 40
15.0
 40
16.0
 40
16.0
 40
16.0
 40
16.0
 10
79.10094263430463
 20
-127.3669026374291
 10
79.10094263430463
 20
-127.4506184577207
 10
79.0840616664269
 20
-127.5591389655061
 10
79.02049965472405
 20
-127.6676594732914
 10
78.91042885397032
 20
-127.8530056103979
 10
78.77934297075656
 20
-127.8757432406005
 10
78.67151148206824
 20
-127.8960693039635
 10
78.67151148206824
 20
-127.8960693039635
 10
78.67151148206824
 20
-127.6587022250298
 10
78.67151148206824
 20
-127.6587022250298
 10
78.87029349156715
 20
-127.599791092232
 10
78.8999213127403
 20
-127.4642265848874
 10
78.8999213127403
 20
-127.3646633253637
 10
78.8999213127403
 20
-127.2154906908524
 10
78.80053030799084
 20
-127.0527099291743
 10
78.56781410796222
 20
-127.0527099291743
 10
78.31184351340815
 20
-127.0527099291743
 10
78.24208032983185
 20
-127.2449462572513
 10
78.24208032983185
 20
-127.3737928283996
 10
78.24208032983185
 20
-127.4077270189293
 10
78.24208032983185
 20
-127.5591389655061
 10
78.37109915575445
 20
-127.6540513461247
 10
78.37109915575445
 20
-127.6540513461247
 10
78.35197887581131
 20
-127.8418090500708
 10
78.35197887581131
 20
-127.8418090500708
 10
78.35197887581131
 20
-127.8418090500708
 10
77.50586342463396
 20
-127.7127902241482
 10
77.50586342463396
 20
-127.7127902241482
 10
77.50586342463396
 20
-127.7127902241482
 10
77.50586342463396
 20
-126.8807996644604
 10
77.50586342463396
 20
-126.8807996644604
 10
77.50586342463396
 20
-126.8807996644604
 10
77.70051131955057
 20
-126.8807996644604
 10
77.70051131955057
 20
-126.8807996644604
 10
77.70051131955057
 20
-126.8807996644604
 10
77.70051131955057
 20
-127.5388129021431
 10
77.70051131955057
 20
-127.5388129021431
 10
77.70051131955057
 20
-127.5388129021431
 10
78.12356904513925
 20
-127.6089205952679
 10
78.12356904513925
 20
-127.6089205952679
 10
78.08963485460954
 20
-127.5432915262739
 10
78.04949949220638
 20
-127.4550970818515
 10
78.04949949220638
 20
-127.3284898227686
 10
78.04949949220638
 20
-127.0571885533052
 10
78.23570690318414
 20
-126.8039740351393
 10
78.54869382801908
 20
-126.8039740351393
 10
78.86615937698485
 20
-126.8039740351393
 10
79.10094263430463
 20
-127.0437526809127
 10
79.10094263430463
 20
-127.3669026374291
 97
        0
 97
        0
 75
     2
 76
     1
 98
        0
  0
ENDBLK
  5
D6
330
D3
100
AcDbEntity
  8
0
100
AcDbBlockEnd
  0
BLOCK
  5
106
330
104
100
AcDbEntity
  8
0
100
AcDbBlockBegin
  2
block 7
 70
     0
 10
0.0
 20
0.0
 30
0.0
  3
block 7
  1

  0
SPLINE
  5
108
330
104
100
AcDbEntity
  8
_U+30EC_U+30A4_U+30E4_U+30FC 1
370
     0
100
AcDbSpline
210
0.0
220
0.0
230
1.0
 70
    11
 71
     3
 72
    26
 73
    22
 74
     0
 42
0.0000000001
 43
0.0000000001
 12
1.0
 22
0.0
 32
0.0
 13
1.0
 23
0.0
 33
0.0
 40
0.0
 40
0.0
 40
0.0
 40
0.0
 40
1.0
 40
1.0
 40
1.0
 40
2.0
 40
2.0
 40
2.0
 40
3.0
 40
3.0
 40
3.0
 40
4.0
 40
4.0
 40
4.0
 40
5.0
 40
5.0
 40
5.0
 40
6.0
 40
6.0
 40
6.0
 40
7.0
 40
7.0
 40
7.0
 40
7.0
 10
90.9703301096359
 20
-144.5510389178553
 30
0.0
 10
90.9703301096359
 20
-144.5510389178553
 30
0.0
 10
90.9703301096359
 20
-143.4468858148327
 30
0.0
 10
90.9703301096359
 20
-143.4468858148327
 30
0.0
 10
90.9703301096359
 20
-143.4468858148327
 30
0.0
 10
90.61789684149484
 20
-143.4468858148327
 30
0.0
 10
90.61789684149484
 20
-143.4468858148327
 30
0.0
 10
90.61789684149484
 20
-143.4468858148327
 30
0.0
 10
90.61789684149484
 20
-143.298746708967
 30
0.0
 10
90.61789684149484
 20
-143.298746708967
 30
0.0
 10
90.97274167647556
 20
-143.2839327983804
 30
0.0
 10
91.02235105146316
 20
-143.1209797819281
 30
0.0
 10
91.05404592992747
 20
-143.0066026118178
 30
0.0
 10
91.05404592992747
 20
-143.0066026118178
 30
0.0
 10
91.21010875540928
 20
-143.0066026118178
 30
0.0
 10
91.21010875540928
 20
-143.0066026118178
 30
0.0
 10
91.21010875540928
 20
-143.0066026118178
 30
0.0
 10
91.21010875540928
 20
-144.5510389178553
 30
0.0
 10
91.21010875540928
 20
-144.5510389178553
 30
0.0
 10
91.21010875540928
 20
-144.5510389178553
 30
0.0
 10
90.9703301096359
 20
-144.5510389178553
 30
0.0
 10
90.9703301096359
 20
-144.5510389178553
 30
0.0
  0
HATCH
  5
109
330
104
100
AcDbEntity
  8
_U+30EC_U+30A4_U+30E4_U+30FC 1
 62
     7
420
 16777215
100
AcDbHatch
 10
0.0
 20
0.0
 30
0.0
210
0.0
220
0.0
230
1.0
  2
SOLID
 70
     1
 71
     0
 91
        1
 92
        1
 93
        1
 72
     4
 94
        3
 73
     0
 74
     1
 95
       26
 96
       22
 40
0.0
 40
0.0
 40
0.0
 40
0.0
 40
1.0
 40
1.0
 40
1.0
 40
2.0
 40
2.0
 40
2.0
 40
3.0
 40
3.0
 40
3.0
 40
4.0
 40
4.0
 40
4.0
 40
5.0
 40
5.0
 40
5.0
 40
6.0
 40
6.0
 40
6.0
 40
7.0
 40
7.0
 40
7.0
 40
7.0
 10
90.9703301096359
 20
-144.5510389178553
 10
90.9703301096359
 20
-144.5510389178553
 10
90.9703301096359
 20
-143.4468858148327
 10
90.9703301096359
 20
-143.4468858148327
 10
90.9703301096359
 20
-143.4468858148327
 10
90.61789684149484
 20
-143.4468858148327
 10
90.61789684149484
 20
-143.4468858148327
 10
90.61789684149484
 20
-143.4468858148327
 10
90.61789684149484
 20
-143.298746708967
 10
90.61789684149484
 20
-143.298746708967
 10
90.97274167647556
 20
-143.2839327983804
 10
91.02235105146316
 20
-143.1209797819281
 10
91.05404592992747
 20
-143.0066026118178
 10
91.05404592992747
 20
-143.0066026118178
 10
91.21010875540928
 20
-143.0066026118178
 10
91.21010875540928
 20
-143.0066026118178
 10
91.21010875540928
 20
-143.0066026118178
 10
91.21010875540928
 20
-144.5510389178553
 10
91.21010875540928
 20
-144.5510389178553
 10
91.21010875540928
 20
-144.5510389178553
 10
90.9703301096359
 20
-144.5510389178553
 10
90.9703301096359
 20
-144.5510389178553
 97
        0
 97
        0
 75
     2
 76
     1
 98
        0
  0
SPLINE
  5
10A
330
104
100
AcDbEntity
  8
_U+30EC_U+30A4_U+30E4_U+30FC 1
370
     0
100
AcDbSpline
210
0.0
220
0.0
230
1.0
 70
    11
 71
     3
 72
    32
 73
    28
 74
     0
 42
0.0000000001
 43
0.0000000001
 12
1.0
 22
0.0
 32
0.0
 13
1.0
 23
0.0
 33
0.0
 40
0.0
 40
0.0
 40
0.0
 40
0.0
 40
1.0
 40
1.0
 40
1.0
 40
2.0
 40
2.0
 40
2.0
 40
3.0
 40
3.0
 40
3.0
 40
4.0
 40
4.0
 40
4.0
 40
5.0
 40
5.0
 40
5.0
 40
6.0
 40
6.0
 40
6.0
 40
7.0
 40
7.0
 40
7.0
 40
8.0
 40
8.0
 40
8.0
 40
9.0
 40
9.0
 40
9.0
 40
9.0
 10
92.2851508015815
 20
-144.6016818214885
 30
0.0
 10
91.73324650484447
 20
-144.6016818214885
 30
0.0
 10
91.72428925658282
 20
-144.0477104674603
 30
0.0
 10
91.72428925658282
 20
-143.8337700378263
 30
0.0
 10
91.72428925658282
 20
-143.6032931498631
 30
0.0
 10
91.7446153199458
 20
-142.9559597081846
 30
0.0
 10
92.32580292830744
 20
-142.9559597081846
 30
0.0
 10
92.51114906541389
 20
-142.9559597081846
 30
0.0
 10
92.7733208318414
 20
-143.0258951465352
 30
0.0
 10
92.81397295856735
 20
-143.3580023513133
 30
0.0
 10
92.81397295856735
 20
-143.3580023513133
 30
0.0
 10
92.58556312789528
 20
-143.3580023513133
 30
0.0
 10
92.58556312789528
 20
-143.3580023513133
 30
0.0
 10
92.57453882234248
 20
-143.3008137662581
 30
0.0
 10
92.54043237703851
 20
-143.1526746603924
 30
0.0
 10
92.32339136146777
 20
-143.1526746603924
 30
0.0
 10
92.01126571050413
 20
-143.1526746603924
 30
0.0
 10
91.96854652648703
 20
-143.4806477505882
 30
0.0
 10
91.95476614454603
 20
-143.6856309319605
 30
0.0
 10
92.05432940406976
 20
-143.6074272644454
 30
0.0
 10
92.12667640926
 20
-143.5481716220991
 30
0.0
 10
92.32097979462809
 20
-143.5481716220991
 30
0.0
 10
92.51321612270503
 20
-143.5481716220991
 30
0.0
 10
92.83671058876999
 20
-143.6563476203359
 30
0.0
 10
92.83671058876999
 20
-144.0625243780469
 30
0.0
 10
92.83671058876999
 20
-144.3818847295295
 30
0.0
 10
92.62414819733007
 20
-144.6016818214885
 30
0.0
 10
92.2851508015815
 20
-144.6016818214885
 30
0.0
  0
SPLINE
  5
10B
330
104
100
AcDbEntity
  8
_U+30EC_U+30A4_U+30E4_U+30FC 1
370
     0
100
AcDbSpline
210
0.0
220
0.0
230
1.0
 70
    11
 71
     3
 72
    17
 73
    13
 74
     0
 42
0.0000000001
 43
0.0000000001
 12
1.0
 22
0.0
 32
0.0
 13
1.0
 23
0.0
 33
0.0
 40
0.0
 40
0.0
 40
0.0
 40
0.0
 40
1.0
 40
1.0
 40
1.0
 40
2.0
 40
2.0
 40
2.0
 40
3.0
 40
3.0
 40
3.0
 40
4.0
 40
4.0
 40
4.0
 40
4.0
 10
92.3030652981048
 20
-143.7428195170157
 30
0.0
 10
92.02263452560545
 20
-143.7428195170157
 30
0.0
 10
91.98198239887951
 20
-143.95434837981
 30
0.0
 10
91.98198239887951
 20
-144.0707926072115
 30
0.0
 10
91.98198239887951
 20
-144.2464924769592
 30
0.0
 10
92.08361271569437
 20
-144.4094454934115
 30
0.0
 10
92.28032766790214
 20
-144.4094454934115
 30
0.0
 10
92.40917423905049
 20
-144.4094454934115
 30
0.0
 10
92.5969319429966
 20
-144.3501898510652
 30
0.0
 10
92.5969319429966
 20
-144.064591435338
 30
0.0
 10
92.5969319429966
 20
-143.8403157192483
 30
0.0
 10
92.44775930848529
 20
-143.7428195170157
 30
0.0
 10
92.3030652981048
 20
-143.7428195170157
 30
0.0
  0
HATCH
  5
10C
330
104
100
AcDbEntity
  8
_U+30EC_U+30A4_U+30E4_U+30FC 1
 62
     7
420
 16777215
100
AcDbHatch
 10
0.0
 20
0.0
 30
0.0
210
0.0
220
0.0
230
1.0
  2
SOLID
 70
     1
 71
     0
 91
        2
 92
        1
 93
        1
 72
     4
 94
        3
 73
     0
 74
     1
 95
       32
 96
       28
 40
0.0
 40
0.0
 40
0.0
 40
0.0
 40
1.0
 40
1.0
 40
1.0
 40
2.0
 40
2.0
 40
2.0
 40
3.0
 40
3.0
 40
3.0
 40
4.0
 40
4.0
 40
4.0
 40
5.0
 40
5.0
 40
5.0
 40
6.0
 40
6.0
 40
6.0
 40
7.0
 40
7.0
 40
7.0
 40
8.0
 40
8.0
 40
8.0
 40
9.0
 40
9.0
 40
9.0
 40
9.0
 10
92.2851508015815
 20
-144.6016818214885
 10
91.73324650484447
 20
-144.6016818214885
 10
91.72428925658282
 20
-144.0477104674603
 10
91.72428925658282
 20
-143.8337700378263
 10
91.72428925658282
 20
-143.6032931498631
 10
91.7446153199458
 20
-142.9559597081846
 10
92.32580292830744
 20
-142.9559597081846
 10
92.51114906541389
 20
-142.9559597081846
 10
92.7733208318414
 20
-143.0258951465352
 10
92.81397295856735
 20
-143.3580023513133
 10
92.81397295856735
 20
-143.3580023513133
 10
92.58556312789528
 20
-143.3580023513133
 10
92.58556312789528
 20
-143.3580023513133
 10
92.57453882234248
 20
-143.3008137662581
 10
92.54043237703851
 20
-143.1526746603924
 10
92.32339136146777
 20
-143.1526746603924
 10
92.01126571050413
 20
-143.1526746603924
 10
91.96854652648703
 20
-143.4806477505882
 10
91.95476614454603
 20
-143.6856309319605
 10
92.05432940406976
 20
-143.6074272644454
 10
92.12667640926
 20
-143.5481716220991
 10
92.32097979462809
 20
-143.5481716220991
 10
92.51321612270503
 20
-143.5481716220991
 10
92.83671058876999
 20
-143.6563476203359
 10
92.83671058876999
 20
-144.0625243780469
 10
92.83671058876999
 20
-144.3818847295295
 10
92.62414819733007
 20
-144.6016818214885
 10
92.2851508015815
 20
-144.6016818214885
 97
        0
 97
        0
 92
        1
 93
        1
 72
     4
 94
        3
 73
     0
 74
     1
 95
       17
 96
       13
 40
0.0
 40
0.0
 40
0.0
 40
0.0
 40
1.0
 40
1.0
 40
1.0
 40
2.0
 40
2.0
 40
2.0
 40
3.0
 40
3.0
 40
3.0
 40
4.0
 40
4.0
 40
4.0
 40
4.0
 10
92.3030652981048
 20
-143.7428195170157
 10
92.02263452560545
 20
-143.7428195170157
 10
91.98198239887951
 20
-143.95434837981
 10
91.98198239887951
 20
-144.0707926072115
 10
91.98198239887951
 20
-144.2464924769592
 10
92.08361271569437
 20
-144.4094454934115
 10
92.28032766790214
 20
-144.4094454934115
 10
92.40917423905049
 20
-144.4094454934115
 10
92.5969319429966
 20
-144.3501898510652
 10
92.5969319429966
 20
-144.064591435338
 10
92.5969319429966
 20
-143.8403157192483
 10
92.44775930848529
 20
-143.7428195170157
 10
92.3030652981048
 20
-143.7428195170157
 97
        0
 97
        0
 75
     2
 76
     1
 98
        0
  0
ENDBLK
  5
107
330
104
100
AcDbEntity
  8
0
100
AcDbBlockEnd
  0
ENDSEC
  0
SECTION
  2
ENTITIES
  0
SPLINE
  5
41
330
1F
100
AcDbEntity
  8
_U+30EC_U+30A4_U+30E4_U+30FC 1
 62
   253
420
 11711154
370
     9
100
AcDbSpline
210
0.0
220
0.0
230
1.0
 70
    11
 71
     3
 72
    44
 73
    40
 74
     0
 42
0.0000000001
 43
0.0000000001
 12
1.0
 22
0.0
 32
0.0
 13
1.0
 23
0.0
 33
0.0
 40
0.0
 40
0.0
 40
0.0
 40
0.0
 40
1.0
 40
1.0
 40
1.0
 40
2.0
 40
2.0
 40
2.0
 40
3.0
 40
3.0
 40
3.0
 40
4.0
 40
4.0
 40
4.0
 40
5.0
 40
5.0
 40
5.0
 40
6.0
 40
6.0
 40
6.0
 40
7.0
 40
7.0
 40
7.0
 40
8.0
 40
8.0
 40
8.0
 40
9.0
 40
9.0
 40
9.0
 40
10.0
 40
10.0
 40
10.0
 40
11.0
 40
11.0
 40
11.0
 40
12.0
 40
12.0
 40
12.0
 40
13.0
 40
13.0
 40
13.0
 40
13.0
 10
83.56560981250813
 20
-116.660577193057
 30
0.0
 10
83.56560981250813
 20
-116.660577193057
 30
0.0
 10
84.66804033993833
 20
-116.7487716374794
 30
0.0
 10
84.62394311884113
 20
-118.1598827482377
 30
0.0
 10
84.62394311884113
 20
-118.1598827482377
 30
0.0
 10
84.62394311884113
 20
-123.6279383024262
 30
0.0
 10
84.62394311884113
 20
-123.6279383024262
 30
0.0
 10
84.62394311884113
 20
-123.6279383024262
 30
0.0
 10
90.66526240915867
 20
-123.5838410802151
 30
0.0
 10
90.66526240915867
 20
-123.5838410802151
 30
0.0
 10
90.66526240915867
 20
-123.5838410802151
 30
0.0
 10
91.59130405220004
 20
-123.9366188579046
 30
0.0
 10
91.59130405220004
 20
-124.5980771910726
 30
0.0
 10
91.59130405220004
 20
-124.5980771910726
 30
0.0
 10
84.62394311884113
 20
-124.686271635495
 30
0.0
 10
84.62394311884113
 20
-124.686271635495
 30
0.0
 10
84.62394311884113
 20
-124.686271635495
 30
0.0
 10
84.62394311884113
 20
-140.0762021872031
 30
0.0
 10
84.62394311884113
 20
-140.0762021872031
 30
0.0
 10
84.62394311884113
 20
-140.0762021872031
 30
0.0
 10
91.59130405220004
 20
-140.0762021872031
 30
0.0
 10
91.59130405220004
 20
-140.0762021872031
 30
0.0
 10
91.59130405220004
 20
-140.0762021872031
 30
0.0
 10
91.89998459988051
 20
-140.2966882982591
 30
0.0
 10
91.89998459988051
 20
-140.2966882982591
 30
0.0
 10
91.89998459988051
 20
-140.2966882982591
 30
0.0
 10
98.91144275433665
 20
-140.3407855204703
 30
0.0
 10
98.91144275433665
 20
-140.3407855204703
 30
0.0
 10
98.91144275433665
 20
-140.3407855204703
 30
0.0
 10
99.66109551298919
 20
-140.6494660759487
 30
0.0
 10
99.66109551298919
 20
-141.0904382980606
 30
0.0
 10
99.66109551298919
 20
-141.0904382980606
 30
0.0
 10
84.62394311884113
 20
-141.0904382980606
 30
0.0
 10
84.62394311884113
 20
-141.0904382980606
 30
0.0
 10
84.62394311884113
 20
-141.0904382980606
 30
0.0
 10
83.69790147579975
 20
-141.178632742483
 30
0.0
 10
83.65380425470254
 20
-140.0321049649919
 30
0.0
 10
83.65380425470254
 20
-140.0321049649919
 30
0.0
 10
83.56560981250813
 20
-116.660577193057
 30
0.0
 10
83.56560981250813
 20
-116.660577193057
 30
0.0
  0
HATCH
  5
42
330
1F
100
AcDbEntity
  8
_U+30EC_U+30A4_U+30E4_U+30FC 1
 62
   253
420
 11711154
100
AcDbHatch
 10
0.0
 20
0.0
 30
0.0
210
0.0
220
0.0
230
1.0
  2
SOLID
 70
     1
 71
     0
 91
        1
 92
        1
 93
        1
 72
     4
 94
        3
 73
     0
 74
     1
 95
       44
 96
       40
 40
0.0
 40
0.0
 40
0.0
 40
0.0
 40
1.0
 40
1.0
 40
1.0
 40
2.0
 40
2.0
 40
2.0
 40
3.0
 40
3.0
 40
3.0
 40
4.0
 40
4.0
 40
4.0
 40
5.0
 40
5.0
 40
5.0
 40
6.0
 40
6.0
 40
6.0
 40
7.0
 40
7.0
 40
7.0
 40
8.0
 40
8.0
 40
8.0
 40
9.0
 40
9.0
 40
9.0
 40
10.0
 40
10.0
 40
10.0
 40
11.0
 40
11.0
 40
11.0
 40
12.0
 40
12.0
 40
12.0
 40
13.0
 40
13.0
 40
13.0
 40
13.0
 10
83.56560981250813
 20
-116.660577193057
 10
83.56560981250813
 20
-116.660577193057
 10
84.66804033993833
 20
-116.7487716374794
 10
84.62394311884113
 20
-118.1598827482377
 10
84.62394311884113
 20
-118.1598827482377
 10
84.62394311884113
 20
-123.6279383024262
 10
84.62394311884113
 20
-123.6279383024262
 10
84.62394311884113
 20
-123.6279383024262
 10
90.66526240915867
 20
-123.5838410802151
 10
90.66526240915867
 20
-123.5838410802151
 10
90.66526240915867
 20
-123.5838410802151
 10
91.59130405220004
 20
-123.9366188579046
 10
91.59130405220004
 20
-124.5980771910726
 10
91.59130405220004
 20
-124.5980771910726
 10
84.62394311884113
 20
-124.686271635495
 10
84.62394311884113
 20
-124.686271635495
 10
84.62394311884113
 20
-124.686271635495
 10
84.62394311884113
 20
-140.0762021872031
 10
84.62394311884113
 20
-140.0762021872031
 10
84.62394311884113
 20
-140.0762021872031
 10
91.59130405220004
 20
-140.0762021872031
 10
91.59130405220004
 20
-140.0762021872031
 10
91.59130405220004
 20
-140.0762021872031
 10
91.89998459988051
 20
-140.2966882982591
 10
91.89998459988051
 20
-140.2966882982591
 10
91.89998459988051
 20
-140.2966882982591
 10
98.91144275433665
 20
-140.3407855204703
 10
98.91144275433665
 20
-140.3407855204703
 10
98.91144275433665
 20
-140.3407855204703
 10
99.66109551298919
 20
-140.6494660759487
 10
99.66109551298919
 20
-141.0904382980606
 10
99.66109551298919
 20
-141.0904382980606
 10
84.62394311884113
 20
-141.0904382980606
 10
84.62394311884113
 20
-141.0904382980606
 10
84.62394311884113
 20
-141.0904382980606
 10
83.69790147579975
 20
-141.178632742483
 10
83.65380425470254
 20
-140.0321049649919
 10
83.65380425470254
 20
-140.0321049649919
 10
83.56560981250813
 20
-116.660577193057
 10
83.56560981250813
 20
-116.660577193057
 97
        0
 97
        0
 75
     2
 76
     1
 98
        0
  0
SPLINE
  5
43
330
1F
100
AcDbEntity
  8
_U+30EC_U+30A4_U+30E4_U+30FC 1
 62
     7
420
 16777215
370
     9
100
AcDbSpline
210
0.0
220
0.0
230
1.0
 70
    11
 71
     3
 72
    17
 73
    13
 74
     0
 42
0.0000000001
 43
0.0000000001
 12
1.0
 22
0.0
 32
0.0
 13
1.0
 23
0.0
 33
0.0
 40
0.0
 40
0.0
 40
0.0
 40
0.0
 40
1.0
 40
1.0
 40
1.0
 40
2.0
 40
2.0
 40
2.0
 40
3.0
 40
3.0
 40
3.0
 40
4.0
 40
4.0
 40
4.0
 40
4.0
 10
91.84692682345634
 20
-113.4711133049657
 30
0.0
 10
91.84692682345634
 20
-113.4159741383126
 30
0.0
 10
91.80215932459846
 20
-113.3712066383238
 30
0.0
 10
91.74702015933852
 20
-113.3712066383238
 30
0.0
 10
91.69121071631788
 20
-113.3712066383238
 30
0.0
 10
91.64644321746
 20
-113.4159741383126
 30
0.0
 10
91.64644321746
 20
-113.4711133049657
 30
0.0
 10
91.64644321746
 20
-113.5262171938406
 30
0.0
 10
91.69121071631788
 20
-113.5710199716074
 30
0.0
 10
91.74702015933852
 20
-113.5710199716074
 30
0.0
 10
91.80215932459846
 20
-113.5710199716074
 30
0.0
 10
91.84692682345634
 20
-113.5262171938406
 30
0.0
 10
91.84692682345634
 20
-113.4711133049657
 30
0.0
  0
SPLINE
  5
44
330
1F
100
AcDbEntity
  8
_U+30EC_U+30A4_U+30E4_U+30FC 1
 62
     7
420
 16777215
370
     9
100
AcDbSpline
210
0.0
220
0.0
230
1.0
 70
    11
 71
     3
 72
    17
 73
    13
 74
     0
 42
0.0000000001
 43
0.0000000001
 12
1.0
 22
0.0
 32
0.0
 13
1.0
 23
0.0
 33
0.0
 40
0.0
 40
0.0
 40
0.0
 40
0.0
 40
1.0
 40
1.0
 40
1.0
 40
2.0
 40
2.0
 40
2.0
 40
3.0
 40
3.0
 40
3.0
 40
4.0
 40
4.0
 40
4.0
 40
4.0
 10
84.84651061316296
 20
-113.4711133049657
 30
0.0
 10
84.84651061316296
 20
-113.4159741383126
 30
0.0
 10
84.8017078365282
 20
-113.3712066383238
 30
0.0
 10
84.74660394904512
 20
-113.3712066383238
 30
0.0
 10
84.69146478378516
 20
-113.3712066383238
 30
0.0
 10
84.64669728492728
 20
-113.4159741383126
 30
0.0
 10
84.64669728492728
 20
-113.4711133049657
 30
0.0
 10
84.64669728492728
 20
-113.5262171938406
 30
0.0
 10
84.69146478378516
 20
-113.5710199716074
 30
0.0
 10
84.74660394904512
 20
-113.5710199716074
 30
0.0
 10
84.8017078365282
 20
-113.5710199716074
 30
0.0
 10
84.84651061316296
 20
-113.5262171938406
 30
0.0
 10
84.84651061316296
 20
-113.4711133049657
 30
0.0
  0
POLYLINE
  5
45
330
1F
100
AcDbEntity
  8
_U+30EC_U+30A4_U+30E4_U+30FC 1
 62
     7
420
 16777215
370
     9
100
AcDb2dPolyline
 66
     1
 10
0.0
 20
0.0
 30
0.0
  0
VERTEX
  5
46
330
45
100
AcDbEntity
  8
_U+30EC_U+30A4_U+30E4_U+30FC 1
 62
     7
420
 16777215
370
     9
100
AcDbVertex
100
AcDb2dVertex
 10
84.74660394904512
 20
-114.9311546934894
 30
0.0
  0
VERTEX
  5
47
330
45
100
AcDbEntity
  8
_U+30EC_U+30A4_U+30E4_U+30FC 1
 62
     7
420
 16777215
370
     9
100
AcDbVertex
100
AcDb2dVertex
 10
84.74660394904512
 20
-112.4713410829932
 30
0.0
  0
SEQEND
  5
48
330
45
100
AcDbEntity
  8
_U+30EC_U+30A4_U+30E4_U+30FC 1
 62
     7
420
 16777215
370
     9
  0
POLYLINE
  5
49
330
1F
100
AcDbEntity
  8
_U+30EC_U+30A4_U+30E4_U+30FC 1
 62
     7
420
 16777215
370
     9
100
AcDb2dPolyline
 66
     1
 10
0.0
 20
0.0
 30
0.0
  0
VERTEX
  5
4A
330
49
100
AcDbEntity
  8
_U+30EC_U+30A4_U+30E4_U+30FC 1
 62
     7
420
 16777215
370
     9
100
AcDbVertex
100
AcDb2dVertex
 10
84.7472742268058
 20
-113.4711133049657
 30
0.0
  0
VERTEX
  5
4B
330
49
100
AcDbEntity
  8
_U+30EC_U+30A4_U+30E4_U+30FC 1
 62
     7
420
 16777215
370
     9
100
AcDbVertex
100
AcDb2dVertex
 10
91.74702015933852
 20
-113.4711133049657
 30
0.0
  0
SEQEND
  5
4C
330
49
100
AcDbEntity
  8
_U+30EC_U+30A4_U+30E4_U+30FC 1
 62
     7
420
 16777215
370
     9
  0
POLYLINE
  5
4D
330
1F
100
AcDbEntity
  8
_U+30EC_U+30A4_U+30E4_U+30FC 1
 62
     7
420
 16777215
370
     9
100
AcDb2dPolyline
 66
     1
 10
0.0
 20
0.0
 30
0.0
  0
VERTEX
  5
4E
330
4D
100
AcDbEntity
  8
_U+30EC_U+30A4_U+30E4_U+30FC 1
 62
     7
420
 16777215
370
     9
100
AcDbVertex
100
AcDb2dVertex
 10
91.74702015933852
 20
-120.3130619143661
 30
0.0
  0
VERTEX
  5
4F
330
4D
100
AcDbEntity
  8
_U+30EC_U+30A4_U+30E4_U+30FC 1
 62
     7
420
 16777215
370
     9
100
AcDbVertex
100
AcDb2dVertex
 10
91.74702015933852
 20
-112.4713410829932
 30
0.0
  0
SEQEND
  5
50
330
4D
100
AcDbEntity
  8
_U+30EC_U+30A4_U+30E4_U+30FC 1
 62
     7
420
 16777215
370
     9
  0
INSERT
  5
52
330
1F
100
AcDbEntity
  8
_U+30EC_U+30A4_U+30E4_U+30FC 1
100
AcDbBlockReference
  2
block 2
 10
0.0
 20
0.0
 30
0.0
  0
POLYLINE
  5
57
330
1F
100
AcDbEntity
  8
_U+30EC_U+30A4_U+30E4_U+30FC 1
 62
     7
420
 16777215
370
    25
100
AcDb2dPolyline
 66
     1
 10
0.0
 20
0.0
 30
0.0
  0
VERTEX
  5
58
330
57
100
AcDbEntity
  8
_U+30EC_U+30A4_U+30E4_U+30FC 1
 62
     7
420
 16777215
370
    25
100
AcDbVertex
100
AcDb2dVertex
 10
84.64669728492728
 20
-140.147181076074
 30
0.0
  0
VERTEX
  5
59
330
57
100
AcDbEntity
  8
_U+30EC_U+30A4_U+30E4_U+30FC 1
 62
     7
420
 16777215
370
    25
100
AcDbVertex
100
AcDb2dVertex
 10
91.64711349522068
 20
-140.147181076074
 30
0.0
  0
SEQEND
  5
5A
330
57
100
AcDbEntity
  8
_U+30EC_U+30A4_U+30E4_U+30FC 1
 62
     7
420
 16777215
370
    25
  0
POLYLINE
  5
5B
330
1F
100
AcDbEntity
  8
_U+30EC_U+30A4_U+30E4_U+30FC 1
 62
     7
420
 16777215
370
    25
100
AcDb2dPolyline
 66
     1
 10
0.0
 20
0.0
 30
0.0
  0
VERTEX
  5
5C
330
5B
100
AcDbEntity
  8
_U+30EC_U+30A4_U+30E4_U+30FC 1
 62
     7
420
 16777215
370
    25
100
AcDbVertex
100
AcDb2dVertex
 10
84.64669728492728
 20
-124.6470074688383
 30
0.0
  0
VERTEX
  5
5D
330
5B
100
AcDbEntity
  8
_U+30EC_U+30A4_U+30E4_U+30FC 1
 62
     7
420
 16777215
370
    25
100
AcDbVertex
100
AcDb2dVertex
 10
91.64711349522068
 20
-124.6470074688383
 30
0.0
  0
SEQEND
  5
5E
330
5B
100
AcDbEntity
  8
_U+30EC_U+30A4_U+30E4_U+30FC 1
 62
     7
420
 16777215
370
    25
  0
POLYLINE
  5
5F
330
1F
100
AcDbEntity
  8
_U+30EC_U+30A4_U+30E4_U+30FC 1
 62
     7
420
 16777215
370
    25
100
AcDb2dPolyline
 66
     1
 10
0.0
 20
0.0
 30
0.0
  0
VERTEX
  5
60
330
5F
100
AcDbEntity
  8
_U+30EC_U+30A4_U+30E4_U+30FC 1
 62
     7
420
 16777215
370
    25
100
AcDbVertex
100
AcDb2dVertex
 10
84.64669728492728
 20
-141.1469532980466
 30
0.0
  0
VERTEX
  5
61
330
5F
100
AcDbEntity
  8
_U+30EC_U+30A4_U+30E4_U+30FC 1
 62
     7
420
 16777215
370
    25
100
AcDbVertex
100
AcDb2dVertex
 10
99.64698440223808
 20
-141.1469532980466
 30
0.0
  0
SEQEND
  5
62
330
5F
100
AcDbEntity
  8
_U+30EC_U+30A4_U+30E4_U+30FC 1
 62
     7
420
 16777215
370
    25
  0
POLYLINE
  5
63
330
1F
100
AcDbEntity
  8
_U+30EC_U+30A4_U+30E4_U+30FC 1
 62
     7
420
 16777215
370
    25
100
AcDb2dPolyline
 66
     1
 10
0.0
 20
0.0
 30
0.0
  0
VERTEX
  5
64
330
63
100
AcDbEntity
  8
_U+30EC_U+30A4_U+30E4_U+30FC 1
 62
     7
420
 16777215
370
    25
100
AcDbVertex
100
AcDb2dVertex
 10
83.64621953267383
 20
-116.6467835819493
 30
0.0
  0
VERTEX
  5
65
330
63
100
AcDbEntity
  8
_U+30EC_U+30A4_U+30E4_U+30FC 1
 62
     7
420
 16777215
370
    25
100
AcDbVertex
100
AcDb2dVertex
 10
83.64621953267383
 20
-140.1464755205192
 30
0.0
  0
SEQEND
  5
66
330
63
100
AcDbEntity
  8
_U+30EC_U+30A4_U+30E4_U+30FC 1
 62
     7
420
 16777215
370
    25
  0
POLYLINE
  5
67
330
1F
100
AcDbEntity
  8
_U+30EC_U+30A4_U+30E4_U+30FC 1
 62
     7
420
 16777215
370
    25
100
AcDb2dPolyline
 66
     1
 10
0.0
 20
0.0
 30
0.0
  0
VERTEX
  5
68
330
67
100
AcDbEntity
  8
_U+30EC_U+30A4_U+30E4_U+30FC 1
 62
     7
420
 16777215
370
    25
100
AcDbVertex
100
AcDb2dVertex
 10
84.64669728492728
 20
-117.6465558039219
 30
0.0
  0
VERTEX
  5
69
330
67
100
AcDbEntity
  8
_U+30EC_U+30A4_U+30E4_U+30FC 1
 62
     7
420
 16777215
370
    25
100
AcDbVertex
100
AcDb2dVertex
 10
84.64669728492728
 20
-123.6465296913106
 30
0.0
  0
SEQEND
  5
6A
330
67
100
AcDbEntity
  8
_U+30EC_U+30A4_U+30E4_U+30FC 1
 62
     7
420
 16777215
370
    25
  0
POLYLINE
  5
6B
330
1F
100
AcDbEntity
  8
_U+30EC_U+30A4_U+30E4_U+30FC 1
 62
     7
420
 16777215
370
    25
100
AcDb2dPolyline
 66
     1
 10
0.0
 20
0.0
 30
0.0
  0
VERTEX
  5
6C
330
6B
100
AcDbEntity
  8
_U+30EC_U+30A4_U+30E4_U+30FC 1
 62
     7
420
 16777215
370
    25
100
AcDbVertex
100
AcDb2dVertex
 10
84.64669728492728
 20
-123.6465296913106
 30
0.0
  0
VERTEX
  5
6D
330
6B
100
AcDbEntity
  8
_U+30EC_U+30A4_U+30E4_U+30FC 1
 62
     7
420
 16777215
370
    25
100
AcDbVertex
100
AcDb2dVertex
 10
90.6466710207441
 20
-123.6465296913106
 30
0.0
  0
SEQEND
  5
6E
330
6B
100
AcDbEntity
  8
_U+30EC_U+30A4_U+30E4_U+30FC 1
 62
     7
420
 16777215
370
    25
  0
POLYLINE
  5
6F
330
1F
100
AcDbEntity
  8
_U+30EC_U+30A4_U+30E4_U+30FC 1
 62
     7
420
 16777215
370
    25
100
AcDb2dPolyline
 66
     1
 10
0.0
 20
0.0
 30
0.0
  0
VERTEX
  5
70
330
6F
100
AcDbEntity
  8
_U+30EC_U+30A4_U+30E4_U+30FC 1
 62
     7
420
 16777215
370
    25
100
AcDbVertex
100
AcDb2dVertex
 10
84.64669728492728
 20
-124.6470074688383
 30
0.0
  0
VERTEX
  5
71
330
6F
100
AcDbEntity
  8
_U+30EC_U+30A4_U+30E4_U+30FC 1
 62
     7
420
 16777215
370
    25
100
AcDbVertex
100
AcDb2dVertex
 10
84.64669728492728
 20
-140.147181076074
 30
0.0
  0
SEQEND
  5
72
330
6F
100
AcDbEntity
  8
_U+30EC_U+30A4_U+30E4_U+30FC 1
 62
     7
420
 16777215
370
    25
  0
POLYLINE
  5
73
330
1F
100
AcDbEntity
  8
_U+30EC_U+30A4_U+30E4_U+30FC 1
 62
     7
420
 16777215
370
    25
100
AcDb2dPolyline
 66
     1
 10
0.0
 20
0.0
 30
0.0
  0
VERTEX
  5
74
330
73
100
AcDbEntity
  8
_U+30EC_U+30A4_U+30E4_U+30FC 1
 62
     7
420
 16777215
370
    25
100
AcDbVertex
100
AcDb2dVertex
 10
91.99301209750718
 20
-140.346994409358
 30
0.0
  0
VERTEX
  5
75
330
73
100
AcDbEntity
  8
_U+30EC_U+30A4_U+30E4_U+30FC 1
 62
     7
420
 16777215
370
    25
100
AcDbVertex
100
AcDb2dVertex
 10
98.84702553375784
 20
-140.346994409358
 30
0.0
  0
SEQEND
  5
76
330
73
100
AcDbEntity
  8
_U+30EC_U+30A4_U+30E4_U+30FC 1
 62
     7
420
 16777215
370
    25
  0
POLYLINE
  5
77
330
1F
100
AcDbEntity
  8
_U+30EC_U+30A4_U+30E4_U+30FC 1
 62
     7
420
 16777215
370
    25
100
AcDb2dPolyline
 66
     1
 10
0.0
 20
0.0
 30
0.0
  0
VERTEX
  5
78
330
77
100
AcDbEntity
  8
_U+30EC_U+30A4_U+30E4_U+30FC 1
 62
     7
420
 16777215
370
    25
100
AcDbVertex
100
AcDb2dVertex
 10
91.64711349522068
 20
-140.147181076074
 30
0.0
  0
VERTEX
  5
79
330
77
100
AcDbEntity
  8
_U+30EC_U+30A4_U+30E4_U+30FC 1
 62
     7
420
 16777215
370
    25
100
AcDbVertex
100
AcDb2dVertex
 10
91.99368237526785
 20
-140.346994409358
 30
0.0
  0
SEQEND
  5
7A
330
77
100
AcDbEntity
  8
_U+30EC_U+30A4_U+30E4_U+30FC 1
 62
     7
420
 16777215
370
    25
  0
SPLINE
  5
7B
330
1F
100
AcDbEntity
  8
_U+30EC_U+30A4_U+30E4_U+30FC 1
 62
     7
420
 16777215
370
    25
100
AcDbSpline
210
0.0
220
0.0
230
1.0
 70
     8
 71
     3
 72
     8
 73
     4
 74
     0
 42
0.0000000001
 43
0.0000000001
 12
1.0
 22
0.0
 32
0.0
 13
1.0
 23
0.0
 33
0.0
 40
0.0
 40
0.0
 40
0.0
 40
0.0
 40
1.0
 40
1.0
 40
1.0
 40
1.0
 10
83.64621953267383
 20
-140.147181076074
 30
0.0
 10
83.64621953267383
 20
-140.6997721870476
 30
0.0
 10
84.09410831230996
 20
-141.1469532980466
 30
0.0
 10
84.64669728492728
 20
-141.1469532980466
 30
0.0
  0
SPLINE
  5
7C
330
1F
100
AcDbEntity
  8
_U+30EC_U+30A4_U+30E4_U+30FC 1
 62
     7
420
 16777215
370
     9
100
AcDbSpline
210
0.0
220
0.0
230
1.0
 70
    11
 71
     3
 72
    17
 73
    13
 74
     0
 42
0.0000000001
 43
0.0000000001
 12
1.0
 22
0.0
 32
0.0
 13
1.0
 23
0.0
 33
0.0
 40
0.0
 40
0.0
 40
0.0
 40
0.0
 40
1.0
 40
1.0
 40
1.0
 40
2.0
 40
2.0
 40
2.0
 40
3.0
 40
3.0
 40
3.0
 40
4.0
 40
4.0
 40
4.0
 40
4.0
 10
83.74683175232921
 20
-119.6468058034215
 30
0.0
 10
83.74683175232921
 20
-119.5916666367687
 30
0.0
 10
83.70202897569445
 20
-119.546863859002
 30
0.0
 10
83.64621953267383
 20
-119.546863859002
 30
0.0
 10
83.59111564519075
 20
-119.546863859002
 30
0.0
 10
83.54631286855599
 20
-119.5916666367687
 30
0.0
 10
83.54631286855599
 20
-119.6468058034215
 30
0.0
 10
83.54631286855599
 20
-119.7019096922968
 30
0.0
 10
83.59111564519075
 20
-119.7467124700635
 30
0.0
 10
83.64621953267383
 20
-119.7467124700635
 30
0.0
 10
83.70202897569445
 20
-119.7467124700635
 30
0.0
 10
83.74683175232921
 20
-119.7019096922968
 30
0.0
 10
83.74683175232921
 20
-119.6468058034215
 30
0.0
  0
SPLINE
  5
7D
330
1F
100
AcDbEntity
  8
_U+30EC_U+30A4_U+30E4_U+30FC 1
 62
     7
420
 16777215
370
     9
100
AcDbSpline
210
0.0
220
0.0
230
1.0
 70
    11
 71
     3
 72
    17
 73
    13
 74
     0
 42
0.0000000001
 43
0.0000000001
 12
1.0
 22
0.0
 32
0.0
 13
1.0
 23
0.0
 33
0.0
 40
0.0
 40
0.0
 40
0.0
 40
0.0
 40
1.0
 40
1.0
 40
1.0
 40
2.0
 40
2.0
 40
2.0
 40
3.0
 40
3.0
 40
3.0
 40
4.0
 40
4.0
 40
4.0
 40
4.0
 10
84.74660394904512
 20
-119.6468058034215
 30
0.0
 10
84.74660394904512
 20
-119.5916666367687
 30
0.0
 10
84.70180117241036
 20
-119.546863859002
 30
0.0
 10
84.64669728492728
 20
-119.546863859002
 30
0.0
 10
84.59155811966734
 20
-119.546863859002
 30
0.0
 10
84.54679062080945
 20
-119.5916666367687
 30
0.0
 10
84.54679062080945
 20
-119.6468058034215
 30
0.0
 10
84.54679062080945
 20
-119.7019096922968
 30
0.0
 10
84.59155811966734
 20
-119.7467124700635
 30
0.0
 10
84.64669728492728
 20
-119.7467124700635
 30
0.0
 10
84.70180117241036
 20
-119.7467124700635
 30
0.0
 10
84.74660394904512
 20
-119.7019096922968
 30
0.0
 10
84.74660394904512
 20
-119.6468058034215
 30
0.0
  0
SPLINE
  5
7E
330
1F
100
AcDbEntity
  8
_U+30EC_U+30A4_U+30E4_U+30FC 1
 62
     7
420
 16777215
370
     9
100
AcDbSpline
210
0.0
220
0.0
230
1.0
 70
    11
 71
     3
 72
    17
 73
    13
 74
     0
 42
0.0000000001
 43
0.0000000001
 12
1.0
 22
0.0
 32
0.0
 13
1.0
 23
0.0
 33
0.0
 40
0.0
 40
0.0
 40
0.0
 40
0.0
 40
1.0
 40
1.0
 40
1.0
 40
2.0
 40
2.0
 40
2.0
 40
3.0
 40
3.0
 40
3.0
 40
4.0
 40
4.0
 40
4.0
 40
4.0
 10
99.74689106635591
 20
-145.1473827414908
 30
0.0
 10
99.74689106635591
 20
-145.0922788526159
 30
0.0
 10
99.70208828972115
 20
-145.0474760748492
 30
0.0
 10
99.64698440223808
 20
-145.0474760748492
 30
0.0
 10
99.59184523697813
 20
-145.0474760748492
 30
0.0
 10
99.54707773812024
 20
-145.0922788526159
 30
0.0
 10
99.54707773812024
 20
-145.1473827414908
 30
0.0
 10
99.54707773812024
 20
-145.2025219081439
 30
0.0
 10
99.59184523697813
 20
-145.2472894081325
 30
0.0
 10
99.64698440223808
 20
-145.2472894081325
 30
0.0
 10
99.70208828972115
 20
-145.2472894081325
 30
0.0
 10
99.74689106635591
 20
-145.2025219081439
 30
0.0
 10
99.74689106635591
 20
-145.1473827414908
 30
0.0
  0
SPLINE
  5
7F
330
1F
100
AcDbEntity
  8
_U+30EC_U+30A4_U+30E4_U+30FC 1
 62
     7
420
 16777215
370
     9
100
AcDbSpline
210
0.0
220
0.0
230
1.0
 70
    11
 71
     3
 72
    17
 73
    13
 74
     0
 42
0.0000000001
 43
0.0000000001
 12
1.0
 22
0.0
 32
0.0
 13
1.0
 23
0.0
 33
0.0
 40
0.0
 40
0.0
 40
0.0
 40
0.0
 40
1.0
 40
1.0
 40
1.0
 40
2.0
 40
2.0
 40
2.0
 40
3.0
 40
3.0
 40
3.0
 40
4.0
 40
4.0
 40
4.0
 40
4.0
 10
83.74683175232921
 20
-145.1473827414908
 30
0.0
 10
83.74683175232921
 20
-145.0922788526159
 30
0.0
 10
83.70202897569445
 20
-145.0474760748492
 30
0.0
 10
83.64621953267383
 20
-145.0474760748492
 30
0.0
 10
83.59111564519075
 20
-145.0474760748492
 30
0.0
 10
83.54631286855599
 20
-145.0922788526159
 30
0.0
 10
83.54631286855599
 20
-145.1473827414908
 30
0.0
 10
83.54631286855599
 20
-145.2025219081439
 30
0.0
 10
83.59111564519075
 20
-145.2472894081325
 30
0.0
 10
83.64621953267383
 20
-145.2472894081325
 30
0.0
 10
83.70202897569445
 20
-145.2472894081325
 30
0.0
 10
83.74683175232921
 20
-145.2025219081439
 30
0.0
 10
83.74683175232921
 20
-145.1473827414908
 30
0.0
  0
SPLINE
  5
80
330
1F
100
AcDbEntity
  8
_U+30EC_U+30A4_U+30E4_U+30FC 1
 62
     7
420
 16777215
370
    25
100
AcDbSpline
210
0.0
220
0.0
230
1.0
 70
     8
 71
     3
 72
     8
 73
     4
 74
     0
 42
0.0000000001
 43
0.0000000001
 12
1.0
 22
0.0
 32
0.0
 13
1.0
 23
0.0
 33
0.0
 40
0.0
 40
0.0
 40
0.0
 40
0.0
 40
1.0
 40
1.0
 40
1.0
 40
1.0
 10
84.64669728492728
 20
-117.6465558039219
 30
0.0
 10
84.64669728492728
 20
-117.0946702485042
 30
0.0
 10
84.19881062968716
 20
-116.6467835819493
 30
0.0
 10
83.64621953267383
 20
-116.6467835819493
 30
0.0
  0
SPLINE
  5
81
330
1F
100
AcDbEntity
  8
_U+30EC_U+30A4_U+30E4_U+30FC 1
 62
     7
420
 16777215
370
    25
100
AcDbSpline
210
0.0
220
0.0
230
1.0
 70
     8
 71
     3
 72
     8
 73
     4
 74
     0
 42
0.0000000001
 43
0.0000000001
 12
1.0
 22
0.0
 32
0.0
 13
1.0
 23
0.0
 33
0.0
 40
0.0
 40
0.0
 40
0.0
 40
0.0
 40
1.0
 40
1.0
 40
1.0
 40
1.0
 10
91.64644321746
 20
-124.6470074688383
 30
0.0
 10
91.64644321746
 20
-124.0944163578654
 30
0.0
 10
91.19855656221988
 20
-123.6465296913106
 30
0.0
 10
90.6466710207441
 20
-123.6465296913106
 30
0.0
  0
SPLINE
  5
82
330
1F
100
AcDbEntity
  8
_U+30EC_U+30A4_U+30E4_U+30FC 1
 62
     7
420
 16777215
370
    25
100
AcDbSpline
210
0.0
220
0.0
230
1.0
 70
     8
 71
     3
 72
     8
 73
     4
 74
     0
 42
0.0000000001
 43
0.0000000001
 12
1.0
 22
0.0
 32
0.0
 13
1.0
 23
0.0
 33
0.0
 40
0.0
 40
0.0
 40
0.0
 40
0.0
 40
1.0
 40
1.0
 40
1.0
 40
1.0
 10
99.64698440223808
 20
-141.1469532980466
 30
0.0
 10
99.64698440223808
 20
-140.7052755203791
 30
0.0
 10
99.2886680224906
 20
-140.346994409358
 30
0.0
 10
98.84702553375784
 20
-140.346994409358
 30
0.0
  0
SPLINE
  5
83
330
1F
100
AcDbEntity
  8
_U+30EC_U+30A4_U+30E4_U+30FC 1
 62
     7
420
 16777215
370
     9
100
AcDbSpline
210
0.0
220
0.0
230
1.0
 70
    11
 71
     3
 72
    17
 73
    13
 74
     0
 42
0.0000000001
 43
0.0000000001
 12
1.0
 22
0.0
 32
0.0
 13
1.0
 23
0.0
 33
0.0
 40
0.0
 40
0.0
 40
0.0
 40
0.0
 40
1.0
 40
1.0
 40
1.0
 40
2.0
 40
2.0
 40
2.0
 40
3.0
 40
3.0
 40
3.0
 40
4.0
 40
4.0
 40
4.0
 40
4.0
 10
79.74636713216735
 20
-116.6467835819493
 30
0.0
 10
79.74636713216735
 20
-116.5916796930744
 30
0.0
 10
79.70159963330946
 20
-116.5468769153077
 30
0.0
 10
79.64646046804951
 20
-116.5468769153077
 30
0.0
 10
79.59135658056644
 20
-116.5468769153077
 30
0.0
 10
79.54655380393167
 20
-116.5916796930744
 30
0.0
 10
79.54655380393167
 20
-116.6467835819493
 30
0.0
 10
79.54655380393167
 20
-116.7019227486024
 30
0.0
 10
79.59135658056644
 20
-116.746690248591
 30
0.0
 10
79.64646046804951
 20
-116.746690248591
 30
0.0
 10
79.70159963330946
 20
-116.746690248591
 30
0.0
 10
79.74636713216735
 20
-116.7019227486024
 30
0.0
 10
79.74636713216735
 20
-116.6467835819493
 30
0.0
  0
SPLINE
  5
84
330
1F
100
AcDbEntity
  8
_U+30EC_U+30A4_U+30E4_U+30FC 1
 62
     7
420
 16777215
370
     9
100
AcDbSpline
210
0.0
220
0.0
230
1.0
 70
    11
 71
     3
 72
    17
 73
    13
 74
     0
 42
0.0000000001
 43
0.0000000001
 12
1.0
 22
0.0
 32
0.0
 13
1.0
 23
0.0
 33
0.0
 40
0.0
 40
0.0
 40
0.0
 40
0.0
 40
1.0
 40
1.0
 40
1.0
 40
2.0
 40
2.0
 40
2.0
 40
3.0
 40
3.0
 40
3.0
 40
4.0
 40
4.0
 40
4.0
 40
4.0
 10
79.74636713216735
 20
-141.0463410758494
 30
0.0
 10
79.74636713216735
 20
-140.9912371869745
 30
0.0
 10
79.70159963330946
 20
-140.9464344092078
 30
0.0
 10
79.64646046804951
 20
-140.9464344092078
 30
0.0
 10
79.59135658056644
 20
-140.9464344092078
 30
0.0
 10
79.54655380393167
 20
-140.9912371869745
 30
0.0
 10
79.54655380393167
 20
-141.0463410758494
 30
0.0
 10
79.54655380393167
 20
-141.1021505202799
 30
0.0
 10
79.59135658056644
 20
-141.1469532980466
 30
0.0
 10
79.64646046804951
 20
-141.1469532980466
 30
0.0
 10
79.70159963330946
 20
-141.1469532980466
 30
0.0
 10
79.74636713216735
 20
-141.1021505202799
 30
0.0
 10
79.74636713216735
 20
-141.0463410758494
 30
0.0
  0
SPLINE
  5
85
330
1F
100
AcDbEntity
  8
_U+30EC_U+30A4_U+30E4_U+30FC 1
 62
     7
420
 16777215
370
     9
100
AcDbSpline
210
0.0
220
0.0
230
1.0
 70
    11
 71
     3
 72
    17
 73
    13
 74
     0
 42
0.0000000001
 43
0.0000000001
 12
1.0
 22
0.0
 32
0.0
 13
1.0
 23
0.0
 33
0.0
 40
0.0
 40
0.0
 40
0.0
 40
0.0
 40
1.0
 40
1.0
 40
1.0
 40
2.0
 40
2.0
 40
2.0
 40
3.0
 40
3.0
 40
3.0
 40
4.0
 40
4.0
 40
4.0
 40
4.0
 10
103.7466527518408
 20
-116.6467835819493
 30
0.0
 10
103.7466527518408
 20
-116.5916796930744
 30
0.0
 10
103.7018499740747
 20
-116.5468769153077
 30
0.0
 10
103.6467434668624
 20
-116.5468769153077
 30
0.0
 10
103.5916043016024
 20
-116.5468769153077
 30
0.0
 10
103.5468368027446
 20
-116.5916796930744
 30
0.0
 10
103.5468368027446
 20
-116.6467835819493
 30
0.0
 10
103.5468368027446
 20
-116.7019227486024
 30
0.0
 10
103.5916043016024
 20
-116.746690248591
 30
0.0
 10
103.6467434668624
 20
-116.746690248591
 30
0.0
 10
103.7018499740747
 20
-116.746690248591
 30
0.0
 10
103.7466527518408
 20
-116.7019227486024
 30
0.0
 10
103.7466527518408
 20
-116.6467835819493
 30
0.0
  0
SPLINE
  5
86
330
1F
100
AcDbEntity
  8
_U+30EC_U+30A4_U+30E4_U+30FC 1
 62
     7
420
 16777215
370
     9
100
AcDbSpline
210
0.0
220
0.0
230
1.0
 70
    11
 71
     3
 72
    17
 73
    13
 74
     0
 42
0.0000000001
 43
0.0000000001
 12
1.0
 22
0.0
 32
0.0
 13
1.0
 23
0.0
 33
0.0
 40
0.0
 40
0.0
 40
0.0
 40
0.0
 40
1.0
 40
1.0
 40
1.0
 40
2.0
 40
2.0
 40
2.0
 40
3.0
 40
3.0
 40
3.0
 40
4.0
 40
4.0
 40
4.0
 40
4.0
 10
103.7466527518408
 20
-124.6470074688383
 30
0.0
 10
103.7466527518408
 20
-124.5911980244079
 30
0.0
 10
103.7018499740747
 20
-124.5463952466411
 30
0.0
 10
103.6467434668624
 20
-124.5463952466411
 30
0.0
 10
103.5916043016024
 20
-124.5463952466411
 30
0.0
 10
103.5468368027446
 20
-124.5911980244079
 30
0.0
 10
103.5468368027446
 20
-124.6470074688383
 30
0.0
 10
103.5468368027446
 20
-124.7021113577135
 30
0.0
 10
103.5916043016024
 20
-124.7469141354799
 30
0.0
 10
103.6467434668624
 20
-124.7469141354799
 30
0.0
 10
103.7018499740747
 20
-124.7469141354799
 30
0.0
 10
103.7466527518408
 20
-124.7021113577135
 30
0.0
 10
103.7466527518408
 20
-124.6470074688383
 30
0.0
  0
SPLINE
  5
87
330
1F
100
AcDbEntity
  8
_U+30EC_U+30A4_U+30E4_U+30FC 1
 62
     7
420
 16777215
370
     9
100
AcDbSpline
210
0.0
220
0.0
230
1.0
 70
    11
 71
     3
 72
    17
 73
    13
 74
     0
 42
0.0000000001
 43
0.0000000001
 12
1.0
 22
0.0
 32
0.0
 13
1.0
 23
0.0
 33
0.0
 40
0.0
 40
0.0
 40
0.0
 40
0.0
 40
1.0
 40
1.0
 40
1.0
 40
2.0
 40
2.0
 40
2.0
 40
3.0
 40
3.0
 40
3.0
 40
4.0
 40
4.0
 40
4.0
 40
4.0
 10
103.7466527518408
 20
-140.0472744094324
 30
0.0
 10
103.7466527518408
 20
-139.99213524278
 30
0.0
 10
103.7018499740747
 20
-139.9473677427908
 30
0.0
 10
103.6467434668624
 20
-139.9473677427908
 30
0.0
 10
103.5916043016024
 20
-139.9473677427908
 30
0.0
 10
103.5468368027446
 20
-139.99213524278
 30
0.0
 10
103.5468368027446
 20
-140.0472744094324
 30
0.0
 10
103.5468368027446
 20
-140.102378298308
 30
0.0
 10
103.5916043016024
 20
-140.147181076074
 30
0.0
 10
103.6467434668624
 20
-140.147181076074
 30
0.0
 10
103.7018499740747
 20
-140.147181076074
 30
0.0
 10
103.7466527518408
 20
-140.102378298308
 30
0.0
 10
103.7466527518408
 20
-140.0472744094324
 30
0.0
  0
POLYLINE
  5
88
330
1F
100
AcDbEntity
  8
_U+30EC_U+30A4_U+30E4_U+30FC 1
 62
     7
420
 16777215
370
     9
100
AcDb2dPolyline
 66
     1
 10
0.0
 20
0.0
 30
0.0
  0
VERTEX
  5
89
330
88
100
AcDbEntity
  8
_U+30EC_U+30A4_U+30E4_U+30FC 1
 62
     7
420
 16777215
370
     9
100
AcDbVertex
100
AcDb2dVertex
 10
84.64669728492728
 20
-119.6468058034215
 30
0.0
  0
VERTEX
  5
8A
330
88
100
AcDbEntity
  8
_U+30EC_U+30A4_U+30E4_U+30FC 1
 62
     7
420
 16777215
370
     9
100
AcDbVertex
100
AcDb2dVertex
 10
88.4170096887386
 20
-119.6468058034215
 30
0.0
  0
SEQEND
  5
8B
330
88
100
AcDbEntity
  8
_U+30EC_U+30A4_U+30E4_U+30FC 1
 62
     7
420
 16777215
370
     9
  0
POLYLINE
  5
8C
330
1F
100
AcDbEntity
  8
_U+30EC_U+30A4_U+30E4_U+30FC 1
 62
     7
420
 16777215
370
     9
100
AcDb2dPolyline
 66
     1
 10
0.0
 20
0.0
 30
0.0
  0
VERTEX
  5
8D
330
8C
100
AcDbEntity
  8
_U+30EC_U+30A4_U+30E4_U+30FC 1
 62
     7
420
 16777215
370
     9
100
AcDbVertex
100
AcDb2dVertex
 10
82.64644733595792
 20
-119.6468058034215
 30
0.0
  0
VERTEX
  5
8E
330
8C
100
AcDbEntity
  8
_U+30EC_U+30A4_U+30E4_U+30FC 1
 62
     7
420
 16777215
370
     9
100
AcDbVertex
100
AcDb2dVertex
 10
84.64669728492728
 20
-119.6468058034215
 30
0.0
  0
SEQEND
  5
8F
330
8C
100
AcDbEntity
  8
_U+30EC_U+30A4_U+30E4_U+30FC 1
 62
     7
420
 16777215
370
     9
  0
INSERT
  5
91
330
1F
100
AcDbEntity
  8
_U+30EC_U+30A4_U+30E4_U+30FC 1
100
AcDbBlockReference
  2
block 3
 10
0.0
 20
0.0
 30
0.0
  0
POLYLINE
  5
96
330
1F
100
AcDbEntity
  8
_U+30EC_U+30A4_U+30E4_U+30FC 1
 62
     7
420
 16777215
370
     9
100
AcDb2dPolyline
 66
     1
 10
0.0
 20
0.0
 30
0.0
  0
VERTEX
  5
97
330
96
100
AcDbEntity
  8
_U+30EC_U+30A4_U+30E4_U+30FC 1
 62
     7
420
 16777215
370
     9
100
AcDbVertex
100
AcDb2dVertex
 10
103.6467434668624
 20
-140.147181076074
 30
0.0
  0
VERTEX
  5
98
330
96
100
AcDbEntity
  8
_U+30EC_U+30A4_U+30E4_U+30FC 1
 62
     7
420
 16777215
370
     9
100
AcDbVertex
100
AcDb2dVertex
 10
103.6467434668624
 20
-124.6470074688383
 30
0.0
  0
SEQEND
  5
99
330
96
100
AcDbEntity
  8
_U+30EC_U+30A4_U+30E4_U+30FC 1
 62
     7
420
 16777215
370
     9
  0
POLYLINE
  5
9A
330
1F
100
AcDbEntity
  8
_U+30EC_U+30A4_U+30E4_U+30FC 1
 62
     7
420
 16777215
370
     9
100
AcDb2dPolyline
 66
     1
 10
0.0
 20
0.0
 30
0.0
  0
VERTEX
  5
9B
330
9A
100
AcDbEntity
  8
_U+30EC_U+30A4_U+30E4_U+30FC 1
 62
     7
420
 16777215
370
     9
100
AcDbVertex
100
AcDb2dVertex
 10
97.18650057612136
 20
-140.0472744094324
 30
0.0
  0
VERTEX
  5
9C
330
9A
100
AcDbEntity
  8
_U+30EC_U+30A4_U+30E4_U+30FC 1
 62
     7
420
 16777215
370
     9
100
AcDbVertex
100
AcDb2dVertex
 10
104.6464803858014
 20
-140.0472744094324
 30
0.0
  0
SEQEND
  5
9D
330
9A
100
AcDbEntity
  8
_U+30EC_U+30A4_U+30E4_U+30FC 1
 62
     7
420
 16777215
370
     9
  0
POLYLINE
  5
9E
330
1F
100
AcDbEntity
  8
_U+30EC_U+30A4_U+30E4_U+30FC 1
 62
     7
420
 16777215
370
     9
100
AcDb2dPolyline
 66
     1
 10
0.0
 20
0.0
 30
0.0
  0
VERTEX
  5
9F
330
9E
100
AcDbEntity
  8
_U+30EC_U+30A4_U+30E4_U+30FC 1
 62
     7
420
 16777215
370
     9
100
AcDbVertex
100
AcDb2dVertex
 10
97.18650057612136
 20
-124.6470074688383
 30
0.0
  0
VERTEX
  5
A0
330
9E
100
AcDbEntity
  8
_U+30EC_U+30A4_U+30E4_U+30FC 1
 62
     7
420
 16777215
370
     9
100
AcDbVertex
100
AcDb2dVertex
 10
104.6464803858014
 20
-124.6470074688383
 30
0.0
  0
SEQEND
  5
A1
330
9E
100
AcDbEntity
  8
_U+30EC_U+30A4_U+30E4_U+30FC 1
 62
     7
420
 16777215
370
     9
  0
SPLINE
  5
A2
330
1F
100
AcDbEntity
  8
_U+30EC_U+30A4_U+30E4_U+30FC 1
 62
     7
420
 16777215
370
     9
100
AcDbSpline
210
0.0
220
0.0
230
1.0
 70
    11
 71
     3
 72
    17
 73
    13
 74
     0
 42
0.0000000001
 43
0.0000000001
 12
1.0
 22
0.0
 32
0.0
 13
1.0
 23
0.0
 33
0.0
 40
0.0
 40
0.0
 40
0.0
 40
0.0
 40
1.0
 40
1.0
 40
1.0
 40
2.0
 40
2.0
 40
2.0
 40
3.0
 40
3.0
 40
3.0
 40
4.0
 40
4.0
 40
4.0
 40
4.0
 10
103.7466527518408
 20
-123.6465296913106
 30
0.0
 10
103.7466527518408
 20
-123.5914258024356
 30
0.0
 10
103.7018499740747
 20
-123.5466230246689
 30
0.0
 10
103.6467434668624
 20
-123.5466230246689
 30
0.0
 10
103.5916043016024
 20
-123.5466230246689
 30
0.0
 10
103.5468368027446
 20
-123.5914258024356
 30
0.0
 10
103.5468368027446
 20
-123.6465296913106
 30
0.0
 10
103.5468368027446
 20
-123.7016688579636
 30
0.0
 10
103.5916043016024
 20
-123.7464363579522
 30
0.0
 10
103.6467434668624
 20
-123.7464363579522
 30
0.0
 10
103.7018499740747
 20
-123.7464363579522
 30
0.0
 10
103.7466527518408
 20
-123.7016688579636
 30
0.0
 10
103.7466527518408
 20
-123.6465296913106
 30
0.0
  0
POLYLINE
  5
A3
330
1F
100
AcDbEntity
  8
_U+30EC_U+30A4_U+30E4_U+30FC 1
 62
     7
420
 16777215
370
     9
100
AcDb2dPolyline
 66
     1
 10
0.0
 20
0.0
 30
0.0
  0
VERTEX
  5
A4
330
A3
100
AcDbEntity
  8
_U+30EC_U+30A4_U+30E4_U+30FC 1
 62
     7
420
 16777215
370
     9
100
AcDbVertex
100
AcDb2dVertex
 10
97.18650057612136
 20
-123.6465296913106
 30
0.0
  0
VERTEX
  5
A5
330
A3
100
AcDbEntity
  8
_U+30EC_U+30A4_U+30E4_U+30FC 1
 62
     7
420
 16777215
370
     9
100
AcDbVertex
100
AcDb2dVertex
 10
104.6464803858014
 20
-123.6465296913106
 30
0.0
  0
SEQEND
  5
A6
330
A3
100
AcDbEntity
  8
_U+30EC_U+30A4_U+30E4_U+30FC 1
 62
     7
420
 16777215
370
     9
  0
INSERT
  5
A8
330
1F
100
AcDbEntity
  8
_U+30EC_U+30A4_U+30E4_U+30FC 1
100
AcDbBlockReference
  2
block 4
 10
0.0
 20
0.0
 30
0.0
  0
POLYLINE
  5
B9
330
1F
100
AcDbEntity
  8
_U+30EC_U+30A4_U+30E4_U+30FC 1
 62
     7
420
 16777215
370
     9
100
AcDb2dPolyline
 66
     1
 10
0.0
 20
0.0
 30
0.0
  0
VERTEX
  5
BA
330
B9
100
AcDbEntity
  8
_U+30EC_U+30A4_U+30E4_U+30FC 1
 62
     7
420
 16777215
370
     9
100
AcDbVertex
100
AcDb2dVertex
 10
103.6467434668624
 20
-124.6470074688383
 30
0.0
  0
VERTEX
  5
BB
330
B9
100
AcDbEntity
  8
_U+30EC_U+30A4_U+30E4_U+30FC 1
 62
     7
420
 16777215
370
     9
100
AcDbVertex
100
AcDb2dVertex
 10
103.6467434668624
 20
-116.6467835819493
 30
0.0
  0
SEQEND
  5
BC
330
B9
100
AcDbEntity
  8
_U+30EC_U+30A4_U+30E4_U+30FC 1
 62
     7
420
 16777215
370
     9
  0
POLYLINE
  5
BD
330
1F
100
AcDbEntity
  8
_U+30EC_U+30A4_U+30E4_U+30FC 1
 62
     7
420
 16777215
370
     9
100
AcDb2dPolyline
 66
     1
 10
0.0
 20
0.0
 30
0.0
  0
VERTEX
  5
BE
330
BD
100
AcDbEntity
  8
_U+30EC_U+30A4_U+30E4_U+30FC 1
 62
     7
420
 16777215
370
     9
100
AcDbVertex
100
AcDb2dVertex
 10
86.18664280119556
 20
-116.6467835819493
 30
0.0
  0
VERTEX
  5
BF
330
BD
100
AcDbEntity
  8
_U+30EC_U+30A4_U+30E4_U+30FC 1
 62
     7
420
 16777215
370
     9
100
AcDbVertex
100
AcDb2dVertex
 10
104.6464803858014
 20
-116.6467835819493
 30
0.0
  0
SEQEND
  5
C0
330
BD
100
AcDbEntity
  8
_U+30EC_U+30A4_U+30E4_U+30FC 1
 62
     7
420
 16777215
370
     9
  0
INSERT
  5
C2
330
1F
100
AcDbEntity
  8
_U+30EC_U+30A4_U+30E4_U+30FC 1
100
AcDbBlockReference
  2
block 5
 10
0.0
 20
0.0
 30
0.0
  0
POLYLINE
  5
C7
330
1F
100
AcDbEntity
  8
_U+30EC_U+30A4_U+30E4_U+30FC 1
 62
     7
420
 16777215
370
     9
100
AcDb2dPolyline
 66
     1
 10
0.0
 20
0.0
 30
0.0
  0
VERTEX
  5
C8
330
C7
100
AcDbEntity
  8
_U+30EC_U+30A4_U+30E4_U+30FC 1
 62
     7
420
 16777215
370
     9
100
AcDbVertex
100
AcDb2dVertex
 10
79.64646046804951
 20
-141.1469532980466
 30
0.0
  0
VERTEX
  5
C9
330
C7
100
AcDbEntity
  8
_U+30EC_U+30A4_U+30E4_U+30FC 1
 62
     7
420
 16777215
370
     9
100
AcDbVertex
100
AcDb2dVertex
 10
79.64646046804951
 20
-116.6467835819493
 30
0.0
  0
SEQEND
  5
CA
330
C7
100
AcDbEntity
  8
_U+30EC_U+30A4_U+30E4_U+30FC 1
 62
     7
420
 16777215
370
     9
  0
POLYLINE
  5
CB
330
1F
100
AcDbEntity
  8
_U+30EC_U+30A4_U+30E4_U+30FC 1
 62
     7
420
 16777215
370
     9
100
AcDb2dPolyline
 66
     1
 10
0.0
 20
0.0
 30
0.0
  0
VERTEX
  5
CC
330
CB
100
AcDbEntity
  8
_U+30EC_U+30A4_U+30E4_U+30FC 1
 62
     7
420
 16777215
370
     9
100
AcDbVertex
100
AcDb2dVertex
 10
82.10627401640555
 20
-141.0463410758494
 30
0.0
  0
VERTEX
  5
CD
330
CB
100
AcDbEntity
  8
_U+30EC_U+30A4_U+30E4_U+30FC 1
 62
     7
420
 16777215
370
     9
100
AcDbVertex
100
AcDb2dVertex
 10
78.6466882713336
 20
-141.0463410758494
 30
0.0
  0
SEQEND
  5
CE
330
CB
100
AcDbEntity
  8
_U+30EC_U+30A4_U+30E4_U+30FC 1
 62
     7
420
 16777215
370
     9
  0
POLYLINE
  5
CF
330
1F
100
AcDbEntity
  8
_U+30EC_U+30A4_U+30E4_U+30FC 1
 62
     7
420
 16777215
370
     9
100
AcDb2dPolyline
 66
     1
 10
0.0
 20
0.0
 30
0.0
  0
VERTEX
  5
D0
330
CF
100
AcDbEntity
  8
_U+30EC_U+30A4_U+30E4_U+30FC 1
 62
     7
420
 16777215
370
     9
100
AcDbVertex
100
AcDb2dVertex
 10
81.10650181968964
 20
-116.6467835819493
 30
0.0
  0
VERTEX
  5
D1
330
CF
100
AcDbEntity
  8
_U+30EC_U+30A4_U+30E4_U+30FC 1
 62
     7
420
 16777215
370
     9
100
AcDbVertex
100
AcDb2dVertex
 10
78.6466882713336
 20
-116.6467835819493
 30
0.0
  0
SEQEND
  5
D2
330
CF
100
AcDbEntity
  8
_U+30EC_U+30A4_U+30E4_U+30FC 1
 62
     7
420
 16777215
370
     9
  0
INSERT
  5
D4
330
1F
100
AcDbEntity
  8
_U+30EC_U+30A4_U+30E4_U+30FC 1
100
AcDbBlockReference
  2
block 6
 10
0.0
 20
0.0
 30
0.0
  0
POLYLINE
  5
F8
330
1F
100
AcDbEntity
  8
_U+30EC_U+30A4_U+30E4_U+30FC 1
 62
     7
420
 16777215
370
     9
100
AcDb2dPolyline
 66
     1
 10
0.0
 20
0.0
 30
0.0
  0
VERTEX
  5
F9
330
F8
100
AcDbEntity
  8
_U+30EC_U+30A4_U+30E4_U+30FC 1
 62
     7
420
 16777215
370
     9
100
AcDbVertex
100
AcDb2dVertex
 10
83.64621953267383
 20
-145.1473827414908
 30
0.0
  0
VERTEX
  5
FA
330
F8
100
AcDbEntity
  8
_U+30EC_U+30A4_U+30E4_U+30FC 1
 62
     7
420
 16777215
370
     9
100
AcDbVertex
100
AcDb2dVertex
 10
99.64698440223808
 20
-145.1473827414908
 30
0.0
  0
SEQEND
  5
FB
330
F8
100
AcDbEntity
  8
_U+30EC_U+30A4_U+30E4_U+30FC 1
 62
     7
420
 16777215
370
     9
  0
POLYLINE
  5
FC
330
1F
100
AcDbEntity
  8
_U+30EC_U+30A4_U+30E4_U+30FC 1
 62
     7
420
 16777215
370
     9
100
AcDb2dPolyline
 66
     1
 10
0.0
 20
0.0
 30
0.0
  0
VERTEX
  5
FD
330
FC
100
AcDbEntity
  8
_U+30EC_U+30A4_U+30E4_U+30FC 1
 62
     7
420
 16777215
370
     9
100
AcDbVertex
100
AcDb2dVertex
 10
83.64621953267383
 20
-142.6868988532172
 30
0.0
  0
VERTEX
  5
FE
330
FC
100
AcDbEntity
  8
_U+30EC_U+30A4_U+30E4_U+30FC 1
 62
     7
420
 16777215
370
     9
100
AcDbVertex
100
AcDb2dVertex
 10
83.64621953267383
 20
-146.1471549634634
 30
0.0
  0
SEQEND
  5
FF
330
FC
100
AcDbEntity
  8
_U+30EC_U+30A4_U+30E4_U+30FC 1
 62
     7
420
 16777215
370
     9
  0
POLYLINE
  5
100
330
1F
100
AcDbEntity
  8
_U+30EC_U+30A4_U+30E4_U+30FC 1
 62
     7
420
 16777215
370
     9
100
AcDb2dPolyline
 66
     1
 10
0.0
 20
0.0
 30
0.0
  0
VERTEX
  5
101
330
100
100
AcDbEntity
  8
_U+30EC_U+30A4_U+30E4_U+30FC 1
 62
     7
420
 16777215
370
     9
100
AcDbVertex
100
AcDb2dVertex
 10
99.64698440223808
 20
-143.6873413529671
 30
0.0
  0
VERTEX
  5
102
330
100
100
AcDbEntity
  8
_U+30EC_U+30A4_U+30E4_U+30FC 1
 62
     7
420
 16777215
370
     9
100
AcDbVertex
100
AcDb2dVertex
 10
99.64698440223808
 20
-146.1471549634634
 30
0.0
  0
SEQEND
  5
103
330
100
100
AcDbEntity
  8
_U+30EC_U+30A4_U+30E4_U+30FC 1
 62
     7
420
 16777215
370
     9
  0
INSERT
  5
105
330
1F
100
AcDbEntity
  8
_U+30EC_U+30A4_U+30E4_U+30FC 1
100
AcDbBlockReference
  2
block 7
 10
0.0
 20
0.0
 30
0.0
  0
ENDSEC
  0
SECTION
  2
OBJECTS
  0
DICTIONARY
  5
C
330
0
100
AcDbDictionary
281
     1
  3
ACAD_GROUP
350
D
  3
ACAD_LAYOUT
350
1A
  3
ACAD_MATERIAL
350
3B
  3
ACAD_MLEADERSTYLE
350
10E
  3
ACAD_MLINESTYLE
350
17
  3
ACAD_PLOTSETTINGS
350
19
  3
ACAD_PLOTSTYLENAME
350
E
  3
ACAD_TABLESTYLE
350
10D
  3
ACAD_VISUALSTYLE
350
2A
  0
SUN
  5
3F
330
29
100
AcDbSun
 90
        1
290
     0
 63
     7
421
 16777215
 40
1.0
291
     1
 91
  2455826
 92
 54000000
292
     0
 70
     2
 71
   256
280
     1
  0
DICTIONARY
  5
D
102
{ACAD_REACTORS
330
C
102
}
330
C
100
AcDbDictionary
281
     1
  0
DICTIONARY
  5
1A
102
{ACAD_REACTORS
330
C
102
}
330
C
100
AcDbDictionary
281
     1
  3
Layout1
350
1E
  3
Layout2
350
26
  3
Model
350
22
  0
DICTIONARY
  5
3B
102
{ACAD_REACTORS
330
C
102
}
330
C
100
AcDbDictionary
281
     1
  3
ByBlock
350
3D
  3
ByLayer
350
3C
  3
Global
350
3E
  0
DICTIONARY
  5
10E
102
{ACAD_REACTORS
330
C
102
}
330
C
100
AcDbDictionary
281
     1
  0
DICTIONARY
  5
17
102
{ACAD_REACTORS
330
C
102
}
330
C
100
AcDbDictionary
281
     1
  3
Standard
350
18
  0
DICTIONARY
  5
19
102
{ACAD_REACTORS
330
C
102
}
330
C
100
AcDbDictionary
281
     1
  0
ACDBDICTIONARYWDFLT
  5
E
102
{ACAD_REACTORS
330
C
102
}
330
C
100
AcDbDictionary
281
     1
  3
Normal
350
F
100
AcDbDictionaryWithDefault
340
F
  0
DICTIONARY
  5
10D
102
{ACAD_REACTORS
330
C
102
}
330
C
100
AcDbDictionary
281
     1
  0
DICTIONARY
  5
2A
102
{ACAD_REACTORS
330
C
102
}
330
C
100
AcDbDictionary
281
     1
  3
2dWireframe
350
2F
  3
3D Hidden
350
31
  3
3dWireframe
350
30
  3
Basic
350
32
  3
Brighten
350
36
  3
ColorChange
350
3A
  3
Conceptual
350
34
  3
Dim
350
35
  3
Facepattern
350
39
  3
Flat
350
2B
  3
FlatWithEdges
350
2C
  3
Gouraud
350
2D
  3
GouraudWithEdges
350
2E
  3
Linepattern
350
38
  3
Realistic
350
33
  3
Thicken
350
37
  0
LAYOUT
  5
1E
102
{ACAD_REACTORS
330
1A
102
}
330
1A
100
AcDbPlotSettings
  1

  2
none_device
  4

  6

 40
0.0
 41
0.0
 42
0.0
 43
0.0
 44
0.0
 45
0.0
 46
0.0
 47
0.0
 48
0.0
 49
0.0
140
0.0
141
0.0
142
1.0
143
1.0
 70
   688
 72
     0
 73
     0
 74
     5
  7

 75
    16
 76
     0
 77
     2
 78
   300
147
1.0
148
0.0
149
0.0
100
AcDbLayout
  1
Layout1
 70
     1
 71
     1
 10
0.0
 20
0.0
 11
12.0
 21
9.0
 12
0.0
 22
0.0
 32
0.0
 14
1.000000000000000E+20
 24
1.000000000000000E+20
 34
1.000000000000000E+20
 15
-1.000000000000000E+20
 25
-1.000000000000000E+20
 35
-1.000000000000000E+20
146
0.0
 13
0.0
 23
0.0
 33
0.0
 16
1.0
 26
0.0
 36
0.0
 17
0.0
 27
1.0
 37
0.0
 76
     0
330
1B
  0
LAYOUT
  5
26
102
{ACAD_REACTORS
330
1A
102
}
330
1A
100
AcDbPlotSettings
  1

  2
none_device
  4

  6

 40
0.0
 41
0.0
 42
0.0
 43
0.0
 44
0.0
 45
0.0
 46
0.0
 47
0.0
 48
0.0
 49
0.0
140
0.0
141
0.0
142
1.0
143
1.0
 70
   688
 72
     0
 73
     0
 74
     5
  7

 75
    16
 76
     0
 77
     2
 78
   300
147
1.0
148
0.0
149
0.0
100
AcDbLayout
  1
Layout2
 70
     1
 71
     2
 10
0.0
 20
0.0
 11
0.0
 21
0.0
 12
0.0
 22
0.0
 32
0.0
 14
0.0
 24
0.0
 34
0.0
 15
0.0
 25
0.0
 35
0.0
146
0.0
 13
0.0
 23
0.0
 33
0.0
 16
1.0
 26
0.0
 36
0.0
 17
0.0
 27
1.0
 37
0.0
 76
     0
330
23
  0
LAYOUT
  5
22
102
{ACAD_REACTORS
330
1A
102
}
330
1A
100
AcDbPlotSettings
  1

  2
none_device
  4

  6

 40
0.0
 41
0.0
 42
0.0
 43
0.0
 44
0.0
 45
0.0
 46
0.0
 47
0.0
 48
0.0
 49
0.0
140
0.0
141
0.0
142
1.0
143
1.0
 70
  1712
 72
     0
 73
     0
 74
     0
  7

 75
     0
 76
     0
 77
     2
 78
   300
147
1.0
148
0.0
149
0.0
100
AcDbLayout
  1
Model
 70
     1
 71
     0
 10
0.0
 20
0.0
 11
12.0
 21
9.0
 12
0.0
 22
0.0
 32
0.0
 14
1.000000000000000E+20
 24
1.000000000000000E+20
 34
1.000000000000000E+20
 15
-1.000000000000000E+20
 25
-1.000000000000000E+20
 35
-1.000000000000000E+20
146
0.0
 13
0.0
 23
0.0
 33
0.0
 16
1.0
 26
0.0
 36
0.0
 17
0.0
 27
1.0
 37
0.0
 76
     0
330
1F
331
29
  0
MATERIAL
  5
3D
102
{ACAD_REACTORS
330
3B
102
}
330
3B
100
AcDbMaterial
  1
ByBlock
 72
     1
 94
      127
  0
MATERIAL
  5
3C
102
{ACAD_REACTORS
330
3B
102
}
330
3B
100
AcDbMaterial
  1
ByLayer
 72
     1
 94
      127
  0
MATERIAL
  5
3E
102
{ACAD_REACTORS
330
3B
102
}
330
3B
100
AcDbMaterial
  1
Global
 72
     1
 94
      127
  0
MLINESTYLE
  5
18
102
{ACAD_REACTORS
330
17
102
}
330
17
100
AcDbMlineStyle
  2
Standard
 70
     0
  3

 62
   256
 51
90.0
 52
90.0
 71
     2
 49
0.5
 62
   256
  6
BYLAYER
 49
-0.5
 62
   256
  6
BYLAYER
  0
ACDBPLACEHOLDER
  5
F
102
{ACAD_REACTORS
330
E
102
}
330
E
  0
VISUALSTYLE
  5
2F
102
{ACAD_REACTORS
330
2A
102
}
330
2A
100
AcDbVisualStyle
  2
2dWireframe
 70
     4
177
     2
291
     0
 71
     0
176
     1
 72
     2
176
     1
 73
     0
176
     1
 90
        0
176
     1
 40
-0.6
176
     1
 41
-30.0
176
     1
 62
     5
 63
     7
421
 16777215
176
     1
 74
     1
176
     1
 91
        4
176
     1
 64
     7
176
     1
 65
   257
176
     1
 75
     1
176
     1
175
     1
176
     1
 42
1.0
176
     1
 92
        0
176
     1
 66
   257
176
     1
 43
1.0
176
     1
 76
     1
176
     1
 77
     6
176
     1
 78
     2
176
     1
 67
     7
176
     1
 79
     5
176
     1
170
     0
176
     1
171
     0
176
     1
290
     0
176
     1
 93
        1
176
     1
 44
0.0
176
     1
173
     0
176
     1
  0
VISUALSTYLE
  5
31
102
{ACAD_REACTORS
330
2A
102
}
330
2A
100
AcDbVisualStyle
  2
3D Hidden
 70
     6
177
     2
291
     0
 71
     1
176
     1
 72
     2
176
     1
 73
     2
176
     1
 90
        0
176
     1
 40
-0.6
176
     1
 41
-30.0
176
     1
 62
     5
 63
     7
421
 16777215
176
     1
 74
     2
176
     1
 91
        2
176
     1
 64
     7
176
     1
 65
   257
176
     1
 75
     2
176
     1
175
     1
176
     1
 42
40.0
176
     1
 92
        0
176
     1
 66
   257
176
     1
 43
1.0
176
     1
 76
     1
176
     1
 77
     6
176
     1
 78
     2
176
     1
 67
     7
176
     1
 79
     3
176
     1
170
     0
176
     1
171
     0
176
     1
290
     0
176
     1
 93
        1
176
     1
 44
0.0
176
     1
173
     0
176
     1
  0
VISUALSTYLE
  5
30
102
{ACAD_REACTORS
330
2A
102
}
330
2A
100
AcDbVisualStyle
  2
3dWireframe
 70
     5
177
     2
291
     0
 71
     0
176
     1
 72
     2
176
     1
 73
     0
176
     1
 90
        0
176
     1
 40
-0.6
176
     1
 41
-30.0
176
     1
 62
     5
 63
     7
421
 16777215
176
     1
 74
     1
176
     1
 91
        4
176
     1
 64
     7
176
     1
 65
   257
176
     1
 75
     1
176
     1
175
     1
176
     1
 42
1.0
176
     1
 92
        0
176
     1
 66
   257
176
     1
 43
1.0
176
     1
 76
     1
176
     1
 77
     6
176
     1
 78
     2
176
     1
 67
     7
176
     1
 79
     5
176
     1
170
     0
176
     1
171
     0
176
     1
290
     0
176
     1
 93
        1
176
     1
 44
0.0
176
     1
173
     0
176
     1
  0
VISUALSTYLE
  5
32
102
{ACAD_REACTORS
330
2A
102
}
330
2A
100
AcDbVisualStyle
  2
Basic
 70
     7
177
     2
291
     1
 71
     1
176
     1
 72
     0
176
     1
 73
     1
176
     1
 90
        0
176
     1
 40
-0.6
176
     1
 41
-30.0
176
     1
 62
     5
 63
     7
421
 16777215
176
     1
 74
     0
176
     1
 91
        4
176
     1
 64
     7
176
     1
 65
   257
176
     1
 75
     1
176
     1
175
     1
176
     1
 42
1.0
176
     1
 92
        8
176
     1
 66
     7
176
     1
 43
1.0
176
     1
 76
     1
176
     1
 77
     6
176
     1
 78
     2
176
     1
 67
     7
176
     1
 79
     5
176
     1
170
     0
176
     1
171
     0
176
     1
290
     0
176
     1
 93
        1
176
     1
 44
0.0
176
     1
173
     0
176
     1
  0
VISUALSTYLE
  5
36
102
{ACAD_REACTORS
330
2A
102
}
330
2A
100
AcDbVisualStyle
  2
Brighten
 70
    12
177
     2
291
     1
 71
     2
176
     1
 72
     2
176
     1
 73
     0
176
     1
 90
        0
176
     1
 40
-0.6
176
     1
 41
-30.0
176
     1
 62
     5
 63
     7
421
 16777215
176
     1
 74
     1
176
     1
 91
        4
176
     1
 64
     7
176
     1
 65
   257
176
     1
 75
     1
176
     1
175
     1
176
     1
 42
1.0
176
     1
 92
        8
176
     1
 66
     7
176
     1
 43
1.0
176
     1
 76
     1
176
     1
 77
     6
176
     1
 78
     2
176
     1
 67
     7
176
     1
 79
     5
176
     1
170
     0
176
     1
171
     0
176
     1
290
     0
176
     1
 93
        1
176
     1
 44
50.0
176
     1
173
     0
176
     1
  0
VISUALSTYLE
  5
3A
102
{ACAD_REACTORS
330
2A
102
}
330
2A
100
AcDbVisualStyle
  2
ColorChange
 70
    16
177
     2
291
     1
 71
     2
176
     1
 72
     2
176
     1
 73
     3
176
     1
 90
        0
176
     1
 40
-0.6
176
     1
 41
-30.0
176
     1
 62
     5
 63
     8
421
  8421504
176
     1
 74
     1
176
     1
 91
        4
176
     1
 64
     7
176
     1
 65
   257
176
     1
 75
     1
176
     1
175
     1
176
     1
 42
1.0
176
     1
 92
        8
176
     1
 66
     8
424
  8421504
176
     1
 43
1.0
176
     1
 76
     1
176
     1
 77
     6
176
     1
 78
     2
176
     1
 67
     7
176
     1
 79
     5
176
     1
170
     0
176
     1
171
     0
176
     1
290
     0
176
     1
 93
        1
176
     1
 44
0.0
176
     1
173
     0
176
     1
  0
VISUALSTYLE
  5
34
102
{ACAD_REACTORS
330
2A
102
}
330
2A
100
AcDbVisualStyle
  2
Conceptual
 70
     9
177
     2
291
     0
 71
     3
176
     1
 72
     2
176
     1
 73
     0
176
     1
 90
        0
176
     1
 40
-0.6
176
     1
 41
-30.0
176
     1
 62
     5
 63
     7
421
 16777215
176
     1
 74
     2
176
     1
 91
        2
176
     1
 64
     7
176
     1
 65
   257
176
     1
 75
     1
176
     1
175
     1
176
     1
 42
40.0
176
     1
 92
        8
176
     1
 66
     7
176
     1
 43
1.0
176
     1
 76
     1
176
     1
 77
     6
176
     1
 78
     2
176
     1
 67
     7
176
     1
 79
     3
176
     1
170
     0
176
     1
171
     0
176
     1
290
     0
176
     1
 93
        1
176
     1
 44
0.0
176
     1
173
     0
176
     1
  0
VISUALSTYLE
  5
35
102
{ACAD_REACTORS
330
2A
102
}
330
2A
100
AcDbVisualStyle
  2
Dim
 70
    11
177
     2
291
     1
 71
     2
176
     1
 72
     2
176
     1
 73
     0
176
     1
 90
        0
176
     1
 40
-0.6
176
     1
 41
-30.0
176
     1
 62
     5
 63
     7
421
 16777215
176
     1
 74
     1
176
     1
 91
        4
176
     1
 64
     7
176
     1
 65
   257
176
     1
 75
     1
176
     1
175
     1
176
     1
 42
1.0
176
     1
 92
        8
176
     1
 66
     7
176
     1
 43
1.0
176
     1
 76
     1
176
     1
 77
     6
176
     1
 78
     2
176
     1
 67
     7
176
     1
 79
     5
176
     1
170
     0
176
     1
171
     0
176
     1
290
     0
176
     1
 93
        1
176
     1
 44
-50.0
176
     1
173
     0
176
     1
  0
VISUALSTYLE
  5
39
102
{ACAD_REACTORS
330
2A
102
}
330
2A
100
AcDbVisualStyle
  2
Facepattern
 70
    15
177
     2
291
     1
 71
     2
176
     1
 72
     2
176
     1
 73
     0
176
     1
 90
        0
176
     1
 40
-0.6
176
     1
 41
-30.0
176
     1
 62
     5
 63
     7
421
 16777215
176
     1
 74
     1
176
     1
 91
        4
176
     1
 64
     7
176
     1
 65
   257
176
     1
 75
     1
176
     1
175
     1
176
     1
 42
1.0
176
     1
 92
        8
176
     1
 66
     7
176
     1
 43
1.0
176
     1
 76
     1
176
     1
 77
     6
176
     1
 78
     2
176
     1
 67
     7
176
     1
 79
     5
176
     1
170
     0
176
     1
171
     0
176
     1
290
     0
176
     1
 93
        1
176
     1
 44
0.0
176
     1
173
     0
176
     1
  0
VISUALSTYLE
  5
2B
102
{ACAD_REACTORS
330
2A
102
}
330
2A
100
AcDbVisualStyle
  2
Flat
 70
     0
177
     2
291
     1
 71
     2
176
     1
 72
     1
176
     1
 73
     1
176
     1
 90
        2
176
     1
 40
-0.6
176
     1
 41
30.0
176
     1
 62
     5
 63
     7
421
 16777215
176
     1
 74
     0
176
     1
 91
        4
176
     1
 64
     7
176
     1
 65
   257
176
     1
 75
     1
176
     1
175
     1
176
     1
 42
1.0
176
     1
 92
        8
176
     1
 66
     7
176
     1
 43
1.0
176
     1
 76
     1
176
     1
 77
     6
176
     1
 78
     2
176
     1
 67
     7
176
     1
 79
     5
176
     1
170
     0
176
     1
171
     0
176
     1
290
     0
176
     1
 93
       13
176
     1
 44
0.0
176
     1
173
     0
176
     1
  0
VISUALSTYLE
  5
2C
102
{ACAD_REACTORS
330
2A
102
}
330
2A
100
AcDbVisualStyle
  2
FlatWithEdges
 70
     1
177
     2
291
     1
 71
     2
176
     1
 72
     1
176
     1
 73
     1
176
     1
 90
        2
176
     1
 40
-0.6
176
     1
 41
30.0
176
     1
 62
     5
 63
     7
421
 16777215
176
     1
 74
     1
176
     1
 91
        4
176
     1
 64
     7
176
     1
 65
   257
176
     1
 75
     1
176
     1
175
     1
176
     1
 42
1.0
176
     1
 92
        0
176
     1
 66
   257
176
     1
 43
1.0
176
     1
 76
     1
176
     1
 77
     6
176
     1
 78
     2
176
     1
 67
     7
176
     1
 79
     5
176
     1
170
     0
176
     1
171
     0
176
     1
290
     0
176
     1
 93
       13
176
     1
 44
0.0
176
     1
173
     0
176
     1
  0
VISUALSTYLE
  5
2D
102
{ACAD_REACTORS
330
2A
102
}
330
2A
100
AcDbVisualStyle
  2
Gouraud
 70
     2
177
     2
291
     1
 71
     2
176
     1
 72
     2
176
     1
 73
     1
176
     1
 90
        2
176
     1
 40
-0.6
176
     1
 41
30.0
176
     1
 62
     5
 63
     7
421
 16777215
176
     1
 74
     0
176
     1
 91
        4
176
     1
 64
     7
176
     1
 65
   257
176
     1
 75
     1
176
     1
175
     1
176
     1
 42
1.0
176
     1
 92
        0
176
     1
 66
     7
176
     1
 43
1.0
176
     1
 76
     1
176
     1
 77
     6
176
     1
 78
     2
176
     1
 67
     7
176
     1
 79
     5
176
     1
170
     0
176
     1
171
     0
176
     1
290
     0
176
     1
 93
       13
176
     1
 44
0.0
176
     1
173
     0
176
     1
  0
VISUALSTYLE
  5
2E
102
{ACAD_REACTORS
330
2A
102
}
330
2A
100
AcDbVisualStyle
  2
GouraudWithEdges
 70
     3
177
     2
291
     1
 71
     2
176
     1
 72
     2
176
     1
 73
     1
176
     1
 90
        2
176
     1
 40
-0.6
176
     1
 41
30.0
176
     1
 62
     5
 63
     7
421
 16777215
176
     1
 74
     1
176
     1
 91
        4
176
     1
 64
     7
176
     1
 65
   257
176
     1
 75
     1
176
     1
175
     1
176
     1
 42
1.0
176
     1
 92
        0
176
     1
 66
   257
176
     1
 43
1.0
176
     1
 76
     1
176
     1
 77
     6
176
     1
 78
     2
176
     1
 67
     7
176
     1
 79
     5
176
     1
170
     0
176
     1
171
     0
176
     1
290
     0
176
     1
 93
       13
176
     1
 44
0.0
176
     1
173
     0
176
     1
  0
VISUALSTYLE
  5
38
102
{ACAD_REACTORS
330
2A
102
}
330
2A
100
AcDbVisualStyle
  2
Linepattern
 70
    14
177
     2
291
     1
 71
     2
176
     1
 72
     2
176
     1
 73
     0
176
     1
 90
        0
176
     1
 40
-0.6
176
     1
 41
-30.0
176
     1
 62
     5
 63
     7
421
 16777215
176
     1
 74
     1
176
     1
 91
        4
176
     1
 64
     7
176
     1
 65
   257
176
     1
 75
     7
176
     1
175
     7
176
     1
 42
1.0
176
     1
 92
        8
176
     1
 66
     7
176
     1
 43
1.0
176
     1
 76
     1
176
     1
 77
     6
176
     1
 78
     2
176
     1
 67
     7
176
     1
 79
     5
176
     1
170
     0
176
     1
171
     0
176
     1
290
     0
176
     1
 93
        1
176
     1
 44
0.0
176
     1
173
     0
176
     1
  0
VISUALSTYLE
  5
33
102
{ACAD_REACTORS
330
2A
102
}
330
2A
100
AcDbVisualStyle
  2
Realistic
 70
     8
177
     2
291
     0
 71
     2
176
     1
 72
     2
176
     1
 73
     0
176
     1
 90
        0
176
     1
 40
-0.6
176
     1
 41
-30.0
176
     1
 62
     5
 63
     7
421
 16777215
176
     1
 74
     1
176
     1
 91
        0
176
     1
 64
     7
176
     1
 65
   257
176
     1
 75
     1
176
     1
175
     1
176
     1
 42
1.0
176
     1
 92
        8
176
     1
 66
     8
424
  7895160
176
     1
 43
1.0
176
     1
 76
     1
176
     1
 77
     6
176
     1
 78
     2
176
     1
 67
     7
176
     1
 79
     5
176
     1
170
     0
176
     1
171
     0
176
     1
290
     0
176
     1
 93
       13
176
     1
 44
0.0
176
     1
173
     0
176
     1
  0
VISUALSTYLE
  5
37
102
{ACAD_REACTORS
330
2A
102
}
330
2A
100
AcDbVisualStyle
  2
Thicken
 70
    13
177
     2
291
     1
 71
     2
176
     1
 72
     2
176
     1
 73
     0
176
     1
 90
        0
176
     1
 40
-0.6
176
     1
 41
-30.0
176
     1
 62
     5
 63
     7
421
 16777215
176
     1
 74
     1
176
     1
 91
        4
176
     1
 64
     7
176
     1
 65
   257
176
     1
 75
     1
176
     1
175
     1
176
     1
 42
1.0
176
     1
 92
       12
176
     1
 66
     7
176
     1
 43
1.0
176
     1
 76
     1
176
     1
 77
     6
176
     1
 78
     2
176
     1
 67
     7
176
     1
 79
     5
176
     1
170
     0
176
     1
171
     0
176
     1
290
     0
176
     1
 93
        1
176
     1
 44
0.0
176
     1
173
     0
176
     1
  0
ENDSEC
  0
EOF
