  0
SECTION
  2
HEADER
  9
$ACADVER
  1
AC1024
  9
$ACADMAINTVER
 70
     6
  9
$DWGCODEPAGE
  3
UNDEFINED
  9
$INSBASE
 10
0.0
 20
0.0
 30
0.0
  9
$EXTMIN
 10
1.000000000000000E+20
 20
1.000000000000000E+20
 30
1.000000000000000E+20
  9
$EXTMAX
 10
-1.000000000000000E+20
 20
-1.000000000000000E+20
 30
-1.000000000000000E+20
  9
$LIMMIN
 10
0.0
 20
0.0
  9
$LIMMAX
 10
12.0
 20
9.0
  9
$ORTHOMODE
 70
     0
  9
$REGENMODE
 70
     1
  9
$FILLMODE
 70
     1
  9
$QTEXTMODE
 70
     0
  9
$MIRRTEXT
 70
     1
  9
$LTSCALE
 40
1.0
  9
$ATTMODE
 70
     1
  9
$TEXTSIZE
 40
0.2
  9
$TRACEWID
 40
0.05
  9
$TEXTSTYLE
  7
Standard
  9
$CLAYER
  8
0
  9
$CELTYPE
  6
ByLayer
  9
$CECOLOR
 62
   256
  9
$CELTSCALE
 40
1.0
  9
$DISPSILH
 70
     0
  9
$DIMSCALE
 40
1.0
  9
$DIMASZ
 40
0.18
  9
$DIMEXO
 40
0.0625
  9
$DIMDLI
 40
0.38
  9
$DIMRND
 40
0.0
  9
$DIMDLE
 40
0.0
  9
$DIMEXE
 40
0.18
  9
$DIMTP
 40
0.0
  9
$DIMTM
 40
0.0
  9
$DIMTXT
 40
0.18
  9
$DIMCEN
 40
0.09
  9
$DIMTSZ
 40
0.0
  9
$DIMTOL
 70
     0
  9
$DIMLIM
 70
     0
  9
$DIMTIH
 70
     1
  9
$DIMTOH
 70
     1
  9
$DIMSE1
 70
     0
  9
$DIMSE2
 70
     0
  9
$DIMTAD
 70
     0
  9
$DIMZIN
 70
     0
  9
$DIMBLK
  1

  9
$DIMASO
 70
     1
  9
$DIMSHO
 70
     1
  9
$DIMPOST
  1

  9
$DIMAPOST
  1

  9
$DIMALT
 70
     0
  9
$DIMALTD
 70
     2
  9
$DIMALTF
 40
25.4
  9
$DIMLFAC
 40
1.0
  9
$DIMTOFL
 70
     0
  9
$DIMTVP
 40
0.0
  9
$DIMTIX
 70
     0
  9
$DIMSOXD
 70
     0
  9
$DIMSAH
 70
     0
  9
$DIMBLK1
  1

  9
$DIMBLK2
  1

  9
$DIMSTYLE
  2
Standard
  9
$DIMCLRD
 70
     0
  9
$DIMCLRE
 70
     0
  9
$DIMCLRT
 70
     0
  9
$DIMTFAC
 40
1.0
  9
$DIMGAP
 40
0.09
  9
$DIMJUST
 70
     0
  9
$DIMSD1
 70
     0
  9
$DIMSD2
 70
     0
  9
$DIMTOLJ
 70
     1
  9
$DIMTZIN
 70
     0
  9
$DIMALTZ
 70
     0
  9
$DIMALTTZ
 70
     0
  9
$DIMUPT
 70
     0
  9
$DIMDEC
 70
     4
  9
$DIMTDEC
 70
     4
  9
$DIMALTU
 70
     2
  9
$DIMALTTD
 70
     2
  9
$DIMTXSTY
  7
Standard
  9
$DIMAUNIT
 70
     0
  9
$DIMADEC
 70
     0
  9
$DIMALTRND
 40
0.0
  9
$DIMAZIN
 70
     0
  9
$DIMDSEP
 70
    46
  9
$DIMATFIT
 70
     3
  9
$DIMFRAC
 70
     0
  9
$DIMLDRBLK
  1

  9
$DIMLUNIT
 70
     2
  9
$DIMLWD
 70
    -2
  9
$DIMLWE
 70
    -2
  9
$DIMTMOVE
 70
     0
  9
$DIMFXL
 40
1.0
  9
$DIMFXLON
 70
     0
  9
$DIMJOGANG
 40
0.7853981633974483
  9
$DIMTFILL
 70
     0
  9
$DIMTFILLCLR
 70
     0
  9
$DIMARCSYM
 70
     0
  9
$DIMLTYPE
  6

  9
$DIMLTEX1
  6

  9
$DIMLTEX2
  6

  9
$DIMTXTDIRECTION
 70
     0
  9
$LUNITS
 70
     2
  9
$LUPREC
 70
     4
  9
$SKETCHINC
 40
0.1
  9
$FILLETRAD
 40
0.5
  9
$AUNITS
 70
     0
  9
$AUPREC
 70
     0
  9
$MENU
  1
.
  9
$ELEVATION
 40
0.0
  9
$PELEVATION
 40
0.0
  9
$THICKNESS
 40
0.0
  9
$LIMCHECK
 70
     0
  9
$CHAMFERA
 40
0.5
  9
$CHAMFERB
 40
0.5
  9
$CHAMFERC
 40
1.0
  9
$CHAMFERD
 40
0.0
  9
$SKPOLY
 70
     0
  9
$TDCREATE
 40
2457917.619027766
  9
$TDUCREATE
 40
2457917.244027778
  9
$TDUPDATE
 40
2457917.619027766
  9
$TDUUPDATE
 40
2457917.244027778
  9
$TDINDWG
 40
0.0000000116
  9
$TDUSRTIMER
 40
0.0000000116
  9
$USRTIMER
 70
     1
  9
$ANGBASE
 50
0.0
  9
$ANGDIR
 70
     0
  9
$PDMODE
 70
     0
  9
$PDSIZE
 40
0.0
  9
$PLINEWID
 40
0.0
  9
$SPLFRAME
 70
     0
  9
$SPLINETYPE
 70
     6
  9
$SPLINESEGS
 70
     8
  9
$HANDSEED
  5
10D
  9
$SURFTAB1
 70
     6
  9
$SURFTAB2
 70
     6
  9
$SURFTYPE
 70
     6
  9
$SURFU
 70
     6
  9
$SURFV
 70
     6
  9
$UCSBASE
  2

  9
$UCSNAME
  2

  9
$UCSORG
 10
0.0
 20
0.0
 30
0.0
  9
$UCSXDIR
 10
1.0
 20
0.0
 30
0.0
  9
$UCSYDIR
 10
0.0
 20
1.0
 30
0.0
  9
$UCSORTHOREF
  2

  9
$UCSORTHOVIEW
 70
     0
  9
$UCSORGTOP
 10
0.0
 20
0.0
 30
0.0
  9
$UCSORGBOTTOM
 10
0.0
 20
0.0
 30
0.0
  9
$UCSORGLEFT
 10
0.0
 20
0.0
 30
0.0
  9
$UCSORGRIGHT
 10
0.0
 20
0.0
 30
0.0
  9
$UCSORGFRONT
 10
0.0
 20
0.0
 30
0.0
  9
$UCSORGBACK
 10
0.0
 20
0.0
 30
0.0
  9
$PUCSBASE
  2

  9
$PUCSNAME
  2

  9
$PUCSORG
 10
0.0
 20
0.0
 30
0.0
  9
$PUCSXDIR
 10
1.0
 20
0.0
 30
0.0
  9
$PUCSYDIR
 10
0.0
 20
1.0
 30
0.0
  9
$PUCSORTHOREF
  2

  9
$PUCSORTHOVIEW
 70
     0
  9
$PUCSORGTOP
 10
0.0
 20
0.0
 30
0.0
  9
$PUCSORGBOTTOM
 10
0.0
 20
0.0
 30
0.0
  9
$PUCSORGLEFT
 10
0.0
 20
0.0
 30
0.0
  9
$PUCSORGRIGHT
 10
0.0
 20
0.0
 30
0.0
  9
$PUCSORGFRONT
 10
0.0
 20
0.0
 30
0.0
  9
$PUCSORGBACK
 10
0.0
 20
0.0
 30
0.0
  9
$USERI1
 70
     0
  9
$USERI2
 70
     0
  9
$USERI3
 70
     0
  9
$USERI4
 70
     0
  9
$USERI5
 70
     0
  9
$USERR1
 40
0.0
  9
$USERR2
 40
0.0
  9
$USERR3
 40
0.0
  9
$USERR4
 40
0.0
  9
$USERR5
 40
0.0
  9
$WORLDVIEW
 70
     1
  9
$SHADEDGE
 70
     3
  9
$SHADEDIF
 70
    70
  9
$TILEMODE
 70
     1
  9
$MAXACTVP
 70
    64
  9
$PINSBASE
 10
0.0
 20
0.0
 30
0.0
  9
$PLIMCHECK
 70
     0
  9
$PEXTMIN
 10
1.000000000000000E+20
 20
1.000000000000000E+20
 30
1.000000000000000E+20
  9
$PEXTMAX
 10
-1.000000000000000E+20
 20
-1.000000000000000E+20
 30
-1.000000000000000E+20
  9
$PLIMMIN
 10
0.0
 20
0.0
  9
$PLIMMAX
 10
12.0
 20
9.0
  9
$UNITMODE
 70
     0
  9
$VISRETAIN
 70
     1
  9
$PLINEGEN
 70
     0
  9
$PSLTSCALE
 70
     1
  9
$TREEDEPTH
 70
  3020
  9
$CMLSTYLE
  2
Standard
  9
$CMLJUST
 70
     0
  9
$CMLSCALE
 40
1.0
  9
$PROXYGRAPHICS
 70
     1
  9
$MEASUREMENT
 70
     0
  9
$CELWEIGHT
370
    -1
  9
$ENDCAPS
280
     0
  9
$JOINSTYLE
280
     0
  9
$LWDISPLAY
290
     1
  9
$INSUNITS
 70
     1
  9
$HYPERLINKBASE
  1

  9
$STYLESHEET
  1

  9
$XEDIT
290
     1
  9
$CEPSNTYPE
380
     0
  9
$PSTYLEMODE
290
     1
  9
$FINGERPRINTGUID
  2
{5F25BAE1-7650-F0E8-7C84-FED4F16FBFA0}
  9
$VERSIONGUID
  2
{FAEB1C32-E019-11D5-929B-00C0DF256EC4}
  9
$EXTNAMES
290
     1
  9
$PSVPSCALE
 40
0.0
  9
$OLESTARTUP
290
     0
  9
$SORTENTS
280
   127
  9
$INDEXCTL
280
     0
  9
$HIDETEXT
280
     1
  9
$XCLIPFRAME
280
     2
  9
$HALOGAP
280
     0
  9
$OBSCOLOR
 70
   257
  9
$OBSLTYPE
280
     0
  9
$INTERSECTIONDISPLAY
280
     0
  9
$INTERSECTIONCOLOR
 70
   257
  9
$DIMASSOC
280
     2
  9
$PROJECTNAME
  1

  9
$CAMERADISPLAY
290
     0
  9
$LENSLENGTH
 40
50.0
  9
$CAMERAHEIGHT
 40
0.0
  9
$STEPSPERSEC
 40
2.0
  9
$STEPSIZE
 40
6.0
  9
$3DDWFPREC
 40
2.0
  9
$PSOLWIDTH
 40
0.25
  9
$PSOLHEIGHT
 40
4.0
  9
$LOFTANG1
 40
1.570796326794897
  9
$LOFTANG2
 40
1.570796326794897
  9
$LOFTMAG1
 40
0.0
  9
$LOFTMAG2
 40
0.0
  9
$LOFTPARAM
 70
     7
  9
$LOFTNORMALS
280
     1
  9
$LATITUDE
 40
37.795
  9
$LONGITUDE
 40
-122.394
  9
$NORTHDIRECTION
 40
0.0
  9
$TIMEZONE
 70
 -8000
  9
$LIGHTGLYPHDISPLAY
280
     1
  9
$TILEMODELIGHTSYNCH
280
     1
  9
$CMATERIAL
347
3C
  9
$SOLIDHIST
280
     1
  9
$SHOWHIST
280
     1
  9
$DWFFRAME
280
     2
  9
$DGNFRAME
280
     2
  9
$REALWORLDSCALE
290
     1
  9
$INTERFERECOLOR
 62
   256
  9
$CSHADOW
280
     0
  9
$SHADOWPLANELOCATION
 40
0.0
  0
ENDSEC
  0
SECTION
  2
CLASSES
  0
CLASS
  1
ACDBDICTIONARYWDFLT
  2
AcDbDictionaryWithDefault
  3
ObjectDBX Classes
 90
        0
 91
        4
280
     0
281
     0
  0
CLASS
  1
VISUALSTYLE
  2
AcDbVisualStyle
  3
ObjectDBX Classes
 90
     4095
 91
        4
280
     0
281
     0
  0
CLASS
  1
MATERIAL
  2
AcDbMaterial
  3
ObjectDBX Classes
 90
     1153
 91
        4
280
     0
281
     0
  0
CLASS
  1
SUN
  2
AcDbSun
  3
SCENEOE
 90
     1024
 91
        4
280
     0
281
     0
  0
ENDSEC
  0
SECTION
  2
TABLES
  0
TABLE
  2
VPORT
  5
8
330
0
100
AcDbSymbolTable
 70
     1
  0
VPORT
  5
29
330
8
100
AcDbSymbolTableRecord
100
AcDbViewportTableRecord
  2
*Active
 70
     0
 10
0.0
 20
0.0
 11
1.0
 21
1.0
 12
0.0
 22
0.0
 13
0.0
 23
0.0
 14
0.5
 24
0.5
 15
0.5
 25
0.5
 16
0.0
 26
0.0
 36
1.0
 17
91.00082462281999
 27
-128.4993055234307
 37
0.0
 40
256.9986110468615
 41
0.7081814508812795
 42
50.0
 43
0.0
 44
0.0
 50
0.0
 51
0.0
 71
     0
 72
   100
 73
     1
 74
     3
 75
     0
 76
     0
 77
     0
 78
     0
281
     0
 65
     1
110
0.0
120
0.0
130
0.0
111
1.0
121
0.0
131
0.0
112
0.0
122
1.0
132
0.0
 79
     0
146
0.0
 60
     3
 61
     5
292
     1
282
     1
141
0.0
142
0.0
 63
   250
361
3F
  0
ENDTAB
  0
TABLE
  2
LTYPE
  5
5
330
0
100
AcDbSymbolTable
 70
     1
  0
LTYPE
  5
14
330
5
100
AcDbSymbolTableRecord
100
AcDbLinetypeTableRecord
  2
ByBlock
 70
     0
  3

 72
    65
 73
     0
 40
0.0
  0
LTYPE
  5
15
330
5
100
AcDbSymbolTableRecord
100
AcDbLinetypeTableRecord
  2
ByLayer
 70
     0
  3

 72
    65
 73
     0
 40
0.0
  0
LTYPE
  5
16
330
5
100
AcDbSymbolTableRecord
100
AcDbLinetypeTableRecord
  2
Continuous
 70
     0
  3
Solid line
 72
    65
 73
     0
 40
0.0
  0
ENDTAB
  0
TABLE
  2
LAYER
  5
2
330
0
100
AcDbSymbolTable
 70
     2
  0
LAYER
  5
10
330
2
100
AcDbSymbolTableRecord
100
AcDbLayerTableRecord
  2
0
 70
     0
 62
     7
  6
Continuous
370
    -3
390
F
347
3E
  0
LAYER
  5
40
330
2
100
AcDbSymbolTableRecord
100
AcDbLayerTableRecord
  2
_U+30EC_U+30A4_U+30E4_U+30FC 1
 70
     0
 62
     7
  6
Continuous
370
    -3
390
F
347
3E
  0
ENDTAB
  0
TABLE
  2
STYLE
  5
3
330
0
100
AcDbSymbolTable
 70
     1
  0
STYLE
  5
11
330
3
100
AcDbSymbolTableRecord
100
AcDbTextStyleTableRecord
  2
Standard
 70
     0
 40
0.0
 41
1.0
 50
0.0
 71
     0
 42
0.2
  3
txt
  4

  0
ENDTAB
  0
TABLE
  2
VIEW
  5
6
330
0
100
AcDbSymbolTable
 70
     0
  0
ENDTAB
  0
TABLE
  2
UCS
  5
7
330
0
100
AcDbSymbolTable
 70
     0
  0
ENDTAB
  0
TABLE
  2
APPID
  5
9
330
0
100
AcDbSymbolTable
 70
     1
  0
APPID
  5
12
330
9
100
AcDbSymbolTableRecord
100
AcDbRegAppTableRecord
  2
ACAD
 70
     0
  0
ENDTAB
  0
TABLE
  2
DIMSTYLE
  5
A
330
0
100
AcDbSymbolTable
 70
     1
100
AcDbDimStyleTable
  0
DIMSTYLE
105
27
330
A
100
AcDbSymbolTableRecord
100
AcDbDimStyleTableRecord
  2
Standard
 70
     0
178
     0
340
11
  0
ENDTAB
  0
TABLE
  2
BLOCK_RECORD
  5
1
330
0
100
AcDbSymbolTable
 70
     7
  0
BLOCK_RECORD
  5
1F
330
1
100
AcDbSymbolTableRecord
100
AcDbBlockTableRecord
  2
*Model_Space
340
22
 70
     0
280
     1
281
     0
  0
BLOCK_RECORD
  5
1B
330
1
100
AcDbSymbolTableRecord
100
AcDbBlockTableRecord
  2
*Paper_Space
340
1E
 70
     0
280
     1
281
     0
  0
BLOCK_RECORD
  5
23
330
1
100
AcDbSymbolTableRecord
100
AcDbBlockTableRecord
  2
*Paper_Space0
340
26
 70
     0
280
     1
281
     0
  0
BLOCK_RECORD
  5
51
330
1
100
AcDbSymbolTableRecord
100
AcDbBlockTableRecord
  2
block 2
340
0
102
{BLKREFS
331
52
102
}
 70
     0
280
     1
281
     0
  0
BLOCK_RECORD
  5
90
330
1
100
AcDbSymbolTableRecord
100
AcDbBlockTableRecord
  2
block 3
340
0
102
{BLKREFS
331
91
102
}
 70
     0
280
     1
281
     0
  0
BLOCK_RECORD
  5
A7
330
1
100
AcDbSymbolTableRecord
100
AcDbBlockTableRecord
  2
block 4
340
0
102
{BLKREFS
331
A8
102
}
 70
     0
280
     1
281
     0
  0
BLOCK_RECORD
  5
D2
330
1
100
AcDbSymbolTableRecord
100
AcDbBlockTableRecord
  2
block 5
340
0
102
{BLKREFS
331
D3
102
}
 70
     0
280
     1
281
     0
  0
BLOCK_RECORD
  5
E4
330
1
100
AcDbSymbolTableRecord
100
AcDbBlockTableRecord
  2
block 6
340
0
102
{BLKREFS
331
E5
102
}
 70
     0
280
     1
281
     0
  0
BLOCK_RECORD
  5
102
330
1
100
AcDbSymbolTableRecord
100
AcDbBlockTableRecord
  2
block 7
340
0
102
{BLKREFS
331
103
102
}
 70
     0
280
     1
281
     0
  0
ENDTAB
  0
ENDSEC
  0
SECTION
  2
BLOCKS
  0
BLOCK
  5
20
330
1F
100
AcDbEntity
  8
0
100
AcDbBlockBegin
  2
*Model_Space
 70
     0
 10
0.0
 20
0.0
 30
0.0
  3
*Model_Space
  1

  0
ENDBLK
  5
21
330
1F
100
AcDbEntity
  8
0
100
AcDbBlockEnd
  0
BLOCK
  5
1C
330
1B
100
AcDbEntity
 67
     1
  8
0
100
AcDbBlockBegin
  2
*Paper_Space
 70
     0
 10
0.0
 20
0.0
 30
0.0
  3
*Paper_Space
  1

  0
ENDBLK
  5
1D
330
1B
100
AcDbEntity
 67
     1
  8
0
100
AcDbBlockEnd
  0
BLOCK
  5
24
330
23
100
AcDbEntity
  8
0
100
AcDbBlockBegin
  2
*Paper_Space0
 70
     0
 10
0.0
 20
0.0
 30
0.0
  3
*Paper_Space0
  1

  0
ENDBLK
  5
25
330
23
100
AcDbEntity
  8
0
100
AcDbBlockEnd
  0
BLOCK
  5
53
330
51
100
AcDbEntity
  8
0
100
AcDbBlockBegin
  2
block 2
 70
     0
 10
0.0
 20
0.0
 30
0.0
  3
block 2
  1

  0
SPLINE
  5
55
330
51
100
AcDbEntity
  8
_U+30EC_U+30A4_U+30E4_U+30FC 1
370
     0
100
AcDbSpline
210
0.0
220
0.0
230
1.0
 70
    11
 71
     3
 72
    26
 73
    22
 74
     0
 42
0.0000000001
 43
0.0000000001
 12
1.0
 22
0.0
 32
0.0
 13
1.0
 23
0.0
 33
0.0
 40
0.0
 40
0.0
 40
0.0
 40
0.0
 40
1.0
 40
1.0
 40
1.0
 40
2.0
 40
2.0
 40
2.0
 40
3.0
 40
3.0
 40
3.0
 40
4.0
 40
4.0
 40
4.0
 40
5.0
 40
5.0
 40
5.0
 40
6.0
 40
6.0
 40
6.0
 40
7.0
 40
7.0
 40
7.0
 40
7.0
 10
86.78229978299193
 20
-118.5247205649869
 30
0.0
 10
86.78229978299193
 20
-118.5247205649869
 30
0.0
 10
86.52908526482607
 20
-118.5247205649869
 30
0.0
 10
86.52908526482607
 20
-118.5247205649869
 30
0.0
 10
86.55612926438528
 20
-118.2158677547342
 30
0.0
 10
86.7618014648547
 20
-117.6975531389784
 30
0.0
 10
87.19588349599617
 20
-117.191985376518
 30
0.0
 10
87.19588349599617
 20
-117.191985376518
 30
0.0
 10
86.300675434154
 20
-117.191985376518
 30
0.0
 10
86.300675434154
 20
-117.191985376518
 30
0.0
 10
86.300675434154
 20
-117.191985376518
 30
0.0
 10
86.300675434154
 20
-116.9804565137236
 30
0.0
 10
86.300675434154
 20
-116.9804565137236
 30
0.0
 10
86.300675434154
 20
-116.9804565137236
 30
0.0
 10
87.44909801416203
 20
-116.9804565137236
 30
0.0
 10
87.44909801416203
 20
-116.9804565137236
 30
0.0
 10
87.44909801416203
 20
-116.9804565137236
 30
0.0
 10
87.44909801416203
 20
-117.191985376518
 30
0.0
 10
87.44909801416203
 20
-117.191985376518
 30
0.0
 10
87.10321042744295
 20
-117.4817179068275
 30
0.0
 10
86.81847328558705
 20
-118.0741020755162
 30
0.0
 10
86.78229978299193
 20
-118.5247205649869
 30
0.0
  0
HATCH
  5
56
330
51
100
AcDbEntity
  8
_U+30EC_U+30A4_U+30E4_U+30FC 1
 62
     7
420
 16777215
100
AcDbHatch
 10
0.0
 20
0.0
 30
0.0
210
0.0
220
0.0
230
1.0
  2
SOLID
 70
     1
 71
     0
 91
        1
 92
        1
 93
        1
 72
     4
 94
        3
 73
     0
 74
     1
 95
       26
 96
       22
 40
0.0
 40
0.0
 40
0.0
 40
0.0
 40
1.0
 40
1.0
 40
1.0
 40
2.0
 40
2.0
 40
2.0
 40
3.0
 40
3.0
 40
3.0
 40
4.0
 40
4.0
 40
4.0
 40
5.0
 40
5.0
 40
5.0
 40
6.0
 40
6.0
 40
6.0
 40
7.0
 40
7.0
 40
7.0
 40
7.0
 10
86.78229978299193
 20
-118.5247205649869
 10
86.78229978299193
 20
-118.5247205649869
 10
86.52908526482607
 20
-118.5247205649869
 10
86.52908526482607
 20
-118.5247205649869
 10
86.55612926438528
 20
-118.2158677547342
 10
86.7618014648547
 20
-117.6975531389784
 10
87.19588349599617
 20
-117.191985376518
 10
87.19588349599617
 20
-117.191985376518
 10
86.300675434154
 20
-117.191985376518
 10
86.300675434154
 20
-117.191985376518
 10
86.300675434154
 20
-117.191985376518
 10
86.300675434154
 20
-116.9804565137236
 10
86.300675434154
 20
-116.9804565137236
 10
86.300675434154
 20
-116.9804565137236
 10
87.44909801416203
 20
-116.9804565137236
 10
87.44909801416203
 20
-116.9804565137236
 10
87.44909801416203
 20
-116.9804565137236
 10
87.44909801416203
 20
-117.191985376518
 10
87.44909801416203
 20
-117.191985376518
 10
87.10321042744295
 20
-117.4817179068275
 10
86.81847328558705
 20
-118.0741020755162
 10
86.78229978299193
 20
-118.5247205649869
 97
        0
 97
        0
 75
     2
 76
     1
 98
        0
  0
ENDBLK
  5
54
330
51
100
AcDbEntity
  8
0
100
AcDbBlockEnd
  0
BLOCK
  5
92
330
90
100
AcDbEntity
  8
0
100
AcDbBlockBegin
  2
block 3
 70
     0
 10
0.0
 20
0.0
 30
0.0
  3
block 3
  1

  0
SPLINE
  5
94
330
90
100
AcDbEntity
  8
_U+30EC_U+30A4_U+30E4_U+30FC 1
370
     0
100
AcDbSpline
210
0.0
220
0.0
230
1.0
 70
    11
 71
     3
 72
    26
 73
    22
 74
     0
 42
0.0000000001
 43
0.0000000001
 12
1.0
 22
0.0
 32
0.0
 13
1.0
 23
0.0
 33
0.0
 40
0.0
 40
0.0
 40
0.0
 40
0.0
 40
1.0
 40
1.0
 40
1.0
 40
2.0
 40
2.0
 40
2.0
 40
3.0
 40
3.0
 40
3.0
 40
4.0
 40
4.0
 40
4.0
 40
5.0
 40
5.0
 40
5.0
 40
6.0
 40
6.0
 40
6.0
 40
7.0
 40
7.0
 40
7.0
 40
7.0
 10
86.34322236339683
 20
-124.8471597995174
 30
0.0
 10
86.34322236339683
 20
-124.8471597995174
 30
0.0
 10
86.34322236339683
 20
-123.7428344417205
 30
0.0
 10
86.34322236339683
 20
-123.7428344417205
 30
0.0
 10
86.34322236339683
 20
-123.7428344417205
 30
0.0
 10
85.99044458570725
 20
-123.7428344417205
 30
0.0
 10
85.99044458570725
 20
-123.7428344417205
 30
0.0
 10
85.99044458570725
 20
-123.7428344417205
 30
0.0
 10
85.99044458570725
 20
-123.5948675906291
 30
0.0
 10
85.99044458570725
 20
-123.5948675906291
 30
0.0
 10
86.34546167546225
 20
-123.5800536800425
 30
0.0
 10
86.39524330522411
 20
-123.4171006635902
 30
0.0
 10
86.42676592891415
 20
-123.3028957482541
 30
0.0
 10
86.42676592891415
 20
-123.3028957482541
 30
0.0
 10
86.58282875439596
 20
-123.3028957482541
 30
0.0
 10
86.58282875439596
 20
-123.3028957482541
 30
0.0
 10
86.58282875439596
 20
-123.3028957482541
 30
0.0
 10
86.58282875439596
 20
-124.8471597995174
 30
0.0
 10
86.58282875439596
 20
-124.8471597995174
 30
0.0
 10
86.58282875439596
 20
-124.8471597995174
 30
0.0
 10
86.34322236339683
 20
-124.8471597995174
 30
0.0
 10
86.34322236339683
 20
-124.8471597995174
 30
0.0
  0
HATCH
  5
95
330
90
100
AcDbEntity
  8
_U+30EC_U+30A4_U+30E4_U+30FC 1
 62
     7
420
 16777215
100
AcDbHatch
 10
0.0
 20
0.0
 30
0.0
210
0.0
220
0.0
230
1.0
  2
SOLID
 70
     1
 71
     0
 91
        1
 92
        1
 93
        1
 72
     4
 94
        3
 73
     0
 74
     1
 95
       26
 96
       22
 40
0.0
 40
0.0
 40
0.0
 40
0.0
 40
1.0
 40
1.0
 40
1.0
 40
2.0
 40
2.0
 40
2.0
 40
3.0
 40
3.0
 40
3.0
 40
4.0
 40
4.0
 40
4.0
 40
5.0
 40
5.0
 40
5.0
 40
6.0
 40
6.0
 40
6.0
 40
7.0
 40
7.0
 40
7.0
 40
7.0
 10
86.34322236339683
 20
-124.8471597995174
 10
86.34322236339683
 20
-124.8471597995174
 10
86.34322236339683
 20
-123.7428344417205
 10
86.34322236339683
 20
-123.7428344417205
 10
86.34322236339683
 20
-123.7428344417205
 10
85.99044458570725
 20
-123.7428344417205
 10
85.99044458570725
 20
-123.7428344417205
 10
85.99044458570725
 20
-123.7428344417205
 10
85.99044458570725
 20
-123.5948675906291
 10
85.99044458570725
 20
-123.5948675906291
 10
86.34546167546225
 20
-123.5800536800425
 10
86.39524330522411
 20
-123.4171006635902
 10
86.42676592891415
 20
-123.3028957482541
 10
86.42676592891415
 20
-123.3028957482541
 10
86.58282875439596
 20
-123.3028957482541
 10
86.58282875439596
 20
-123.3028957482541
 10
86.58282875439596
 20
-123.3028957482541
 10
86.58282875439596
 20
-124.8471597995174
 10
86.58282875439596
 20
-124.8471597995174
 10
86.58282875439596
 20
-124.8471597995174
 10
86.34322236339683
 20
-124.8471597995174
 10
86.34322236339683
 20
-124.8471597995174
 97
        0
 97
        0
 75
     2
 76
     1
 98
        0
  0
ENDBLK
  5
93
330
90
100
AcDbEntity
  8
0
100
AcDbBlockEnd
  0
BLOCK
  5
A9
330
A7
100
AcDbEntity
  8
0
100
AcDbBlockBegin
  2
block 4
 70
     0
 10
0.0
 20
0.0
 30
0.0
  3
block 4
  1

  0
POLYLINE
  5
AB
330
A7
100
AcDbEntity
  8
_U+30EC_U+30A4_U+30E4_U+30FC 1
370
     0
100
AcDb2dPolyline
 66
     1
 10
0.0
 20
0.0
 30
0.0
  0
VERTEX
  5
AC
330
AB
100
AcDbEntity
  8
_U+30EC_U+30A4_U+30E4_U+30FC 1
370
     0
100
AcDbVertex
100
AcDb2dVertex
 10
105.1139973695548
 20
-133.1136664163744
 30
0.0
  0
VERTEX
  5
AD
330
AB
100
AcDbEntity
  8
_U+30EC_U+30A4_U+30E4_U+30FC 1
370
     0
100
AcDbVertex
100
AcDb2dVertex
 10
105.4609184849195
 20
-133.1136664163744
 30
0.0
  0
VERTEX
  5
AE
330
AB
100
AcDbEntity
  8
_U+30EC_U+30A4_U+30E4_U+30FC 1
370
     0
100
AcDbVertex
100
AcDb2dVertex
 10
105.4609184849195
 20
-133.3465548711773
 30
0.0
  0
VERTEX
  5
AF
330
AB
100
AcDbEntity
  8
_U+30EC_U+30A4_U+30E4_U+30FC 1
370
     0
100
AcDbVertex
100
AcDb2dVertex
 10
105.1139973695548
 20
-133.3465548711773
 30
0.0
  0
VERTEX
  5
B0
330
AB
100
AcDbEntity
  8
_U+30EC_U+30A4_U+30E4_U+30FC 1
370
     0
100
AcDbVertex
100
AcDb2dVertex
 10
105.1139973695548
 20
-134.0476318024256
 30
0.0
  0
VERTEX
  5
B1
330
AB
100
AcDbEntity
  8
_U+30EC_U+30A4_U+30E4_U+30FC 1
370
     0
100
AcDbVertex
100
AcDb2dVertex
 10
104.8897216534651
 20
-134.0476318024256
 30
0.0
  0
VERTEX
  5
B2
330
AB
100
AcDbEntity
  8
_U+30EC_U+30A4_U+30E4_U+30FC 1
370
     0
100
AcDbVertex
100
AcDb2dVertex
 10
103.916482178882
 20
-133.3217501836835
 30
0.0
  0
VERTEX
  5
B3
330
AB
100
AcDbEntity
  8
_U+30EC_U+30A4_U+30E4_U+30FC 1
370
     0
100
AcDbVertex
100
AcDb2dVertex
 10
103.916482178882
 20
-133.1136664163744
 30
0.0
  0
VERTEX
  5
B4
330
AB
100
AcDbEntity
  8
_U+30EC_U+30A4_U+30E4_U+30FC 1
370
     0
100
AcDbVertex
100
AcDb2dVertex
 10
104.9152153600559
 20
-133.1136664163744
 30
0.0
  0
VERTEX
  5
B5
330
AB
100
AcDbEntity
  8
_U+30EC_U+30A4_U+30E4_U+30FC 1
370
     0
100
AcDbVertex
100
AcDb2dVertex
 10
104.9152153600559
 20
-132.8921467766728
 30
0.0
  0
VERTEX
  5
B6
330
AB
100
AcDbEntity
  8
_U+30EC_U+30A4_U+30E4_U+30FC 1
370
     0
100
AcDbVertex
100
AcDb2dVertex
 10
105.1139973695548
 20
-132.8921467766728
 30
0.0
  0
VERTEX
  5
B7
330
AB
100
AcDbEntity
  8
_U+30EC_U+30A4_U+30E4_U+30FC 1
370
     0
100
AcDbVertex
100
AcDb2dVertex
 10
105.1139973695548
 20
-133.1136664163744
 30
0.0
  0
SEQEND
  5
B8
330
AB
100
AcDbEntity
  8
_U+30EC_U+30A4_U+30E4_U+30FC 1
370
     0
  0
POLYLINE
  5
B9
330
A7
100
AcDbEntity
  8
_U+30EC_U+30A4_U+30E4_U+30FC 1
370
     0
100
AcDb2dPolyline
 66
     1
 10
0.0
 20
0.0
 30
0.0
  0
VERTEX
  5
BA
330
B9
100
AcDbEntity
  8
_U+30EC_U+30A4_U+30E4_U+30FC 1
370
     0
100
AcDbVertex
100
AcDb2dVertex
 10
104.2592691796644
 20
-133.3465548711773
 30
0.0
  0
VERTEX
  5
BB
330
B9
100
AcDbEntity
  8
_U+30EC_U+30A4_U+30E4_U+30FC 1
370
     0
100
AcDbVertex
100
AcDb2dVertex
 10
104.9152153600559
 20
-133.8350694109857
 30
0.0
  0
VERTEX
  5
BC
330
B9
100
AcDbEntity
  8
_U+30EC_U+30A4_U+30E4_U+30FC 1
370
     0
100
AcDbVertex
100
AcDb2dVertex
 10
104.9152153600559
 20
-133.3465548711773
 30
0.0
  0
VERTEX
  5
BD
330
B9
100
AcDbEntity
  8
_U+30EC_U+30A4_U+30E4_U+30FC 1
370
     0
100
AcDbVertex
100
AcDb2dVertex
 10
104.2592691796644
 20
-133.3465548711773
 30
0.0
  0
SEQEND
  5
BE
330
B9
100
AcDbEntity
  8
_U+30EC_U+30A4_U+30E4_U+30FC 1
370
     0
  0
HATCH
  5
BF
330
A7
100
AcDbEntity
  8
_U+30EC_U+30A4_U+30E4_U+30FC 1
 62
     7
420
 16777215
100
AcDbHatch
 10
0.0
 20
0.0
 30
0.0
210
0.0
220
0.0
230
1.0
  2
SOLID
 70
     1
 71
     0
 91
        2
 92
        1
 93
       11
 72
     1
 10
105.1139973695548
 20
-133.1136664163744
 11
105.4609184849195
 21
-133.1136664163744
 72
     1
 10
105.4609184849195
 20
-133.1136664163744
 11
105.4609184849195
 21
-133.3465548711773
 72
     1
 10
105.4609184849195
 20
-133.3465548711773
 11
105.1139973695548
 21
-133.3465548711773
 72
     1
 10
105.1139973695548
 20
-133.3465548711773
 11
105.1139973695548
 21
-134.0476318024256
 72
     1
 10
105.1139973695548
 20
-134.0476318024256
 11
104.8897216534651
 21
-134.0476318024256
 72
     1
 10
104.8897216534651
 20
-134.0476318024256
 11
103.916482178882
 21
-133.3217501836835
 72
     1
 10
103.916482178882
 20
-133.3217501836835
 11
103.916482178882
 21
-133.1136664163744
 72
     1
 10
103.916482178882
 20
-133.1136664163744
 11
104.9152153600559
 21
-133.1136664163744
 72
     1
 10
104.9152153600559
 20
-133.1136664163744
 11
104.9152153600559
 21
-132.8921467766728
 72
     1
 10
104.9152153600559
 20
-132.8921467766728
 11
105.1139973695548
 21
-132.8921467766728
 72
     1
 10
105.1139973695548
 20
-132.8921467766728
 11
105.1139973695548
 21
-133.1136664163744
 97
        0
 92
        1
 93
        3
 72
     1
 10
104.2592691796644
 20
-133.3465548711773
 11
104.9152153600559
 21
-133.8350694109857
 72
     1
 10
104.9152153600559
 20
-133.8350694109857
 11
104.9152153600559
 21
-133.3465548711773
 72
     1
 10
104.9152153600559
 20
-133.3465548711773
 11
104.2592691796644
 21
-133.3465548711773
 97
        0
 75
     2
 76
     1
 98
        0
  0
POLYLINE
  5
C0
330
A7
100
AcDbEntity
  8
_U+30EC_U+30A4_U+30E4_U+30FC 1
370
     0
100
AcDb2dPolyline
 66
     1
 10
0.0
 20
0.0
 30
0.0
  0
VERTEX
  5
C1
330
C0
100
AcDbEntity
  8
_U+30EC_U+30A4_U+30E4_U+30FC 1
370
     0
100
AcDbVertex
100
AcDb2dVertex
 10
105.4609184849195
 20
-132.6813069329755
 30
0.0
  0
VERTEX
  5
C2
330
C0
100
AcDbEntity
  8
_U+30EC_U+30A4_U+30E4_U+30FC 1
370
     0
100
AcDbVertex
100
AcDb2dVertex
 10
105.2090820049477
 20
-132.6813069329755
 30
0.0
  0
VERTEX
  5
C3
330
C0
100
AcDbEntity
  8
_U+30EC_U+30A4_U+30E4_U+30FC 1
370
     0
100
AcDbVertex
100
AcDb2dVertex
 10
105.2090820049477
 20
-132.4122449755775
 30
0.0
  0
VERTEX
  5
C4
330
C0
100
AcDbEntity
  8
_U+30EC_U+30A4_U+30E4_U+30FC 1
370
     0
100
AcDbVertex
100
AcDb2dVertex
 10
105.4609184849195
 20
-132.4122449755775
 30
0.0
  0
VERTEX
  5
C5
330
C0
100
AcDbEntity
  8
_U+30EC_U+30A4_U+30E4_U+30FC 1
370
     0
100
AcDbVertex
100
AcDb2dVertex
 10
105.4609184849195
 20
-132.6813069329755
 30
0.0
  0
SEQEND
  5
C6
330
C0
100
AcDbEntity
  8
_U+30EC_U+30A4_U+30E4_U+30FC 1
370
     0
  0
HATCH
  5
C7
330
A7
100
AcDbEntity
  8
_U+30EC_U+30A4_U+30E4_U+30FC 1
 62
     7
420
 16777215
100
AcDbHatch
 10
0.0
 20
0.0
 30
0.0
210
0.0
220
0.0
230
1.0
  2
SOLID
 70
     1
 71
     0
 91
        1
 92
        1
 93
        4
 72
     1
 10
105.4609184849195
 20
-132.6813069329755
 11
105.2090820049477
 21
-132.6813069329755
 72
     1
 10
105.2090820049477
 20
-132.6813069329755
 11
105.2090820049477
 21
-132.4122449755775
 72
     1
 10
105.2090820049477
 20
-132.4122449755775
 11
105.4609184849195
 21
-132.4122449755775
 72
     1
 10
105.4609184849195
 20
-132.4122449755775
 11
105.4609184849195
 21
-132.6813069329755
 97
        0
 75
     2
 76
     1
 98
        0
  0
SPLINE
  5
C8
330
A7
100
AcDbEntity
  8
_U+30EC_U+30A4_U+30E4_U+30FC 1
370
     0
100
AcDbSpline
210
0.0
220
0.0
230
1.0
 70
    11
 71
     3
 72
    53
 73
    49
 74
     0
 42
0.0000000001
 43
0.0000000001
 12
1.0
 22
0.0
 32
0.0
 13
1.0
 23
0.0
 33
0.0
 40
0.0
 40
0.0
 40
0.0
 40
0.0
 40
1.0
 40
1.0
 40
1.0
 40
2.0
 40
2.0
 40
2.0
 40
3.0
 40
3.0
 40
3.0
 40
4.0
 40
4.0
 40
4.0
 40
5.0
 40
5.0
 40
5.0
 40
6.0
 40
6.0
 40
6.0
 40
7.0
 40
7.0
 40
7.0
 40
8.0
 40
8.0
 40
8.0
 40
9.0
 40
9.0
 40
9.0
 40
10.0
 40
10.0
 40
10.0
 40
11.0
 40
11.0
 40
11.0
 40
12.0
 40
12.0
 40
12.0
 40
13.0
 40
13.0
 40
13.0
 40
14.0
 40
14.0
 40
14.0
 40
15.0
 40
15.0
 40
15.0
 40
16.0
 40
16.0
 40
16.0
 40
16.0
 10
105.5115613885527
 20
-131.6453667205609
 30
0.0
 10
105.5115613885527
 20
-131.7290825408525
 30
0.0
 10
105.4946804206749
 20
-131.8372585390893
 30
0.0
 10
105.4312906637464
 20
-131.9461235564232
 30
0.0
 10
105.3213921177669
 20
-132.1314696935297
 30
0.0
 10
105.1901339797789
 20
-132.1538628141838
 30
0.0
 10
105.0823024910905
 20
-132.1741888775467
 30
0.0
 10
105.0823024910905
 20
-132.1741888775467
 30
0.0
 10
105.0823024910905
 20
-131.936821798613
 30
0.0
 10
105.0823024910905
 20
-131.936821798613
 30
0.0
 10
105.2810845005895
 20
-131.8782551753638
 30
0.0
 10
105.3107123217626
 20
-131.7425184132449
 30
0.0
 10
105.3107123217626
 20
-131.6429551537212
 30
0.0
 10
105.3107123217626
 20
-131.4937825192099
 30
0.0
 10
105.2111490622389
 20
-131.3308295027576
 30
0.0
 10
104.9786051169845
 20
-131.3308295027576
 30
0.0
 10
104.7226345224305
 20
-131.3308295027576
 30
0.0
 10
104.6526990840799
 20
-131.5230658308345
 30
0.0
 10
104.6526990840799
 20
-131.6519124019829
 30
0.0
 10
104.6526990840799
 20
-131.6860188472868
 30
0.0
 10
104.6526990840799
 20
-131.8372585390893
 30
0.0
 10
104.7818901647768
 20
-131.9323431744822
 30
0.0
 10
104.7818901647768
 20
-131.9323431744822
 30
0.0
 10
104.7629421396079
 20
-132.1201008784283
 30
0.0
 10
104.7629421396079
 20
-132.1201008784283
 30
0.0
 10
104.7629421396079
 20
-132.1201008784283
 30
0.0
 10
103.916482178882
 20
-131.99125430728
 30
0.0
 10
103.916482178882
 20
-131.99125430728
 30
0.0
 10
103.916482178882
 20
-131.99125430728
 30
0.0
 10
103.916482178882
 20
-131.1592637475921
 30
0.0
 10
103.916482178882
 20
-131.1592637475921
 30
0.0
 10
103.916482178882
 20
-131.1592637475921
 30
0.0
 10
104.1111300737986
 20
-131.1592637475921
 30
0.0
 10
104.1111300737986
 20
-131.1592637475921
 30
0.0
 10
104.1111300737986
 20
-131.1592637475921
 30
0.0
 10
104.1111300737986
 20
-131.8169324757263
 30
0.0
 10
104.1111300737986
 20
-131.8169324757263
 30
0.0
 10
104.1111300737986
 20
-131.8169324757263
 30
0.0
 10
104.5341877993873
 20
-131.8872124236254
 30
0.0
 10
104.5341877993873
 20
-131.8872124236254
 30
0.0
 10
104.5004258636318
 20
-131.8217556094057
 30
0.0
 10
104.4601182464544
 20
-131.7335611649833
 30
0.0
 10
104.4601182464544
 20
-131.6067816511261
 30
0.0
 10
104.4601182464544
 20
-131.3356526364369
 30
0.0
 10
104.6464979122064
 20
-131.0824381182711
 30
0.0
 10
104.9596570918156
 20
-131.0824381182711
 30
0.0
 10
105.2769503860072
 20
-131.0824381182711
 30
0.0
 10
105.5115613885527
 20
-131.3218722544959
 30
0.0
 10
105.5115613885527
 20
-131.6453667205609
 30
0.0
  0
HATCH
  5
C9
330
A7
100
AcDbEntity
  8
_U+30EC_U+30A4_U+30E4_U+30FC 1
 62
     7
420
 16777215
100
AcDbHatch
 10
0.0
 20
0.0
 30
0.0
210
0.0
220
0.0
230
1.0
  2
SOLID
 70
     1
 71
     0
 91
        1
 92
        1
 93
        1
 72
     4
 94
        3
 73
     0
 74
     1
 95
       53
 96
       49
 40
0.0
 40
0.0
 40
0.0
 40
0.0
 40
1.0
 40
1.0
 40
1.0
 40
2.0
 40
2.0
 40
2.0
 40
3.0
 40
3.0
 40
3.0
 40
4.0
 40
4.0
 40
4.0
 40
5.0
 40
5.0
 40
5.0
 40
6.0
 40
6.0
 40
6.0
 40
7.0
 40
7.0
 40
7.0
 40
8.0
 40
8.0
 40
8.0
 40
9.0
 40
9.0
 40
9.0
 40
10.0
 40
10.0
 40
10.0
 40
11.0
 40
11.0
 40
11.0
 40
12.0
 40
12.0
 40
12.0
 40
13.0
 40
13.0
 40
13.0
 40
14.0
 40
14.0
 40
14.0
 40
15.0
 40
15.0
 40
15.0
 40
16.0
 40
16.0
 40
16.0
 40
16.0
 10
105.5115613885527
 20
-131.6453667205609
 10
105.5115613885527
 20
-131.7290825408525
 10
105.4946804206749
 20
-131.8372585390893
 10
105.4312906637464
 20
-131.9461235564232
 10
105.3213921177669
 20
-132.1314696935297
 10
105.1901339797789
 20
-132.1538628141838
 10
105.0823024910905
 20
-132.1741888775467
 10
105.0823024910905
 20
-132.1741888775467
 10
105.0823024910905
 20
-131.936821798613
 10
105.0823024910905
 20
-131.936821798613
 10
105.2810845005895
 20
-131.8782551753638
 10
105.3107123217626
 20
-131.7425184132449
 10
105.3107123217626
 20
-131.6429551537212
 10
105.3107123217626
 20
-131.4937825192099
 10
105.2111490622389
 20
-131.3308295027576
 10
104.9786051169845
 20
-131.3308295027576
 10
104.7226345224305
 20
-131.3308295027576
 10
104.6526990840799
 20
-131.5230658308345
 10
104.6526990840799
 20
-131.6519124019829
 10
104.6526990840799
 20
-131.6860188472868
 10
104.6526990840799
 20
-131.8372585390893
 10
104.7818901647768
 20
-131.9323431744822
 10
104.7818901647768
 20
-131.9323431744822
 10
104.7629421396079
 20
-132.1201008784283
 10
104.7629421396079
 20
-132.1201008784283
 10
104.7629421396079
 20
-132.1201008784283
 10
103.916482178882
 20
-131.99125430728
 10
103.916482178882
 20
-131.99125430728
 10
103.916482178882
 20
-131.99125430728
 10
103.916482178882
 20
-131.1592637475921
 10
103.916482178882
 20
-131.1592637475921
 10
103.916482178882
 20
-131.1592637475921
 10
104.1111300737986
 20
-131.1592637475921
 10
104.1111300737986
 20
-131.1592637475921
 10
104.1111300737986
 20
-131.1592637475921
 10
104.1111300737986
 20
-131.8169324757263
 10
104.1111300737986
 20
-131.8169324757263
 10
104.1111300737986
 20
-131.8169324757263
 10
104.5341877993873
 20
-131.8872124236254
 10
104.5341877993873
 20
-131.8872124236254
 10
104.5004258636318
 20
-131.8217556094057
 10
104.4601182464544
 20
-131.7335611649833
 10
104.4601182464544
 20
-131.6067816511261
 10
104.4601182464544
 20
-131.3356526364369
 10
104.6464979122064
 20
-131.0824381182711
 10
104.9596570918156
 20
-131.0824381182711
 10
105.2769503860072
 20
-131.0824381182711
 10
105.5115613885527
 20
-131.3218722544959
 10
105.5115613885527
 20
-131.6453667205609
 97
        0
 97
        0
 75
     2
 76
     1
 98
        0
  0
ENDBLK
  5
AA
330
A7
100
AcDbEntity
  8
0
100
AcDbBlockEnd
  0
BLOCK
  5
D4
330
D2
100
AcDbEntity
  8
0
100
AcDbBlockBegin
  2
block 5
 70
     0
 10
0.0
 20
0.0
 30
0.0
  3
block 5
  1

  0
SPLINE
  5
D6
330
D2
100
AcDbEntity
  8
_U+30EC_U+30A4_U+30E4_U+30FC 1
370
     0
100
AcDbSpline
210
0.0
220
0.0
230
1.0
 70
    11
 71
     3
 72
    26
 73
    22
 74
     0
 42
0.0000000001
 43
0.0000000001
 12
1.0
 22
0.0
 32
0.0
 13
1.0
 23
0.0
 33
0.0
 40
0.0
 40
0.0
 40
0.0
 40
0.0
 40
1.0
 40
1.0
 40
1.0
 40
2.0
 40
2.0
 40
2.0
 40
3.0
 40
3.0
 40
3.0
 40
4.0
 40
4.0
 40
4.0
 40
5.0
 40
5.0
 40
5.0
 40
6.0
 40
6.0
 40
6.0
 40
7.0
 40
7.0
 40
7.0
 40
7.0
 10
101.7570963287274
 20
-126.3488769215378
 30
0.0
 10
101.7570963287274
 20
-126.3488769215378
 30
0.0
 10
101.7570963287274
 20
-126.6020914397037
 30
0.0
 10
101.7570963287274
 20
-126.6020914397037
 30
0.0
 10
101.4480712637005
 20
-126.5750474401444
 30
0.0
 10
100.9299289027189
 20
-126.369375239675
 30
0.0
 10
100.4241888854842
 20
-125.9352932085335
 30
0.0
 10
100.4241888854842
 20
-125.9352932085335
 30
0.0
 10
100.4241888854842
 20
-126.8305012703757
 30
0.0
 10
100.4241888854842
 20
-126.8305012703757
 30
0.0
 10
100.4241888854842
 20
-126.8305012703757
 30
0.0
 10
100.2126600226899
 20
-126.8305012703757
 30
0.0
 10
100.2126600226899
 20
-126.8305012703757
 30
0.0
 10
100.2126600226899
 20
-126.8305012703757
 30
0.0
 10
100.2126600226899
 20
-125.6820786903677
 30
0.0
 10
100.2126600226899
 20
-125.6820786903677
 30
0.0
 10
100.2126600226899
 20
-125.6820786903677
 30
0.0
 10
100.4241888854842
 20
-125.6820786903677
 30
0.0
 10
100.4241888854842
 20
-125.6820786903677
 30
0.0
 10
100.7142659253423
 20
-126.0279662770868
 30
0.0
 10
101.3064778392567
 20
-126.3127034189427
 30
0.0
 10
101.7570963287274
 20
-126.3488769215378
 30
0.0
  0
HATCH
  5
D7
330
D2
100
AcDbEntity
  8
_U+30EC_U+30A4_U+30E4_U+30FC 1
 62
     7
420
 16777215
100
AcDbHatch
 10
0.0
 20
0.0
 30
0.0
210
0.0
220
0.0
230
1.0
  2
SOLID
 70
     1
 71
     0
 91
        1
 92
        1
 93
        1
 72
     4
 94
        3
 73
     0
 74
     1
 95
       26
 96
       22
 40
0.0
 40
0.0
 40
0.0
 40
0.0
 40
1.0
 40
1.0
 40
1.0
 40
2.0
 40
2.0
 40
2.0
 40
3.0
 40
3.0
 40
3.0
 40
4.0
 40
4.0
 40
4.0
 40
5.0
 40
5.0
 40
5.0
 40
6.0
 40
6.0
 40
6.0
 40
7.0
 40
7.0
 40
7.0
 40
7.0
 10
101.7570963287274
 20
-126.3488769215378
 10
101.7570963287274
 20
-126.3488769215378
 10
101.7570963287274
 20
-126.6020914397037
 10
101.7570963287274
 20
-126.6020914397037
 10
101.4480712637005
 20
-126.5750474401444
 10
100.9299289027189
 20
-126.369375239675
 10
100.4241888854842
 20
-125.9352932085335
 10
100.4241888854842
 20
-125.9352932085335
 10
100.4241888854842
 20
-126.8305012703757
 10
100.4241888854842
 20
-126.8305012703757
 10
100.4241888854842
 20
-126.8305012703757
 10
100.2126600226899
 20
-126.8305012703757
 10
100.2126600226899
 20
-126.8305012703757
 10
100.2126600226899
 20
-126.8305012703757
 10
100.2126600226899
 20
-125.6820786903677
 10
100.2126600226899
 20
-125.6820786903677
 10
100.2126600226899
 20
-125.6820786903677
 10
100.4241888854842
 20
-125.6820786903677
 10
100.4241888854842
 20
-125.6820786903677
 10
100.7142659253423
 20
-126.0279662770868
 10
101.3064778392567
 20
-126.3127034189427
 10
101.7570963287274
 20
-126.3488769215378
 97
        0
 97
        0
 75
     2
 76
     1
 98
        0
  0
ENDBLK
  5
D5
330
D2
100
AcDbEntity
  8
0
100
AcDbBlockEnd
  0
BLOCK
  5
E6
330
E4
100
AcDbEntity
  8
0
100
AcDbBlockBegin
  2
block 6
 70
     0
 10
0.0
 20
0.0
 30
0.0
  3
block 6
  1

  0
SPLINE
  5
E8
330
E4
100
AcDbEntity
  8
_U+30EC_U+30A4_U+30E4_U+30FC 1
370
     0
100
AcDbSpline
210
0.0
220
0.0
230
1.0
 70
    11
 71
     3
 72
    26
 73
    22
 74
     0
 42
0.0000000001
 43
0.0000000001
 12
1.0
 22
0.0
 32
0.0
 13
1.0
 23
0.0
 33
0.0
 40
0.0
 40
0.0
 40
0.0
 40
0.0
 40
1.0
 40
1.0
 40
1.0
 40
2.0
 40
2.0
 40
2.0
 40
3.0
 40
3.0
 40
3.0
 40
4.0
 40
4.0
 40
4.0
 40
5.0
 40
5.0
 40
5.0
 40
6.0
 40
6.0
 40
6.0
 40
7.0
 40
7.0
 40
7.0
 40
7.0
 10
77.75632186641161
 20
-130.6497341253237
 30
0.0
 10
77.75632186641161
 20
-130.6497341253237
 30
0.0
 10
76.65199650861479
 20
-130.6497341253237
 30
0.0
 10
76.65199650861479
 20
-130.6497341253237
 30
0.0
 10
76.65199650861479
 20
-130.6497341253237
 30
0.0
 10
76.65199650861479
 20
-131.0025119030133
 30
0.0
 10
76.65199650861479
 20
-131.0025119030133
 30
0.0
 10
76.65199650861479
 20
-131.0025119030133
 30
0.0
 10
76.50385740274903
 20
-131.0025119030133
 30
0.0
 10
76.50385740274903
 20
-131.0025119030133
 30
0.0
 10
76.48921574693672
 20
-130.647322558484
 30
0.0
 10
76.32626273048442
 20
-130.5977131834964
 30
0.0
 10
76.21205781514838
 20
-130.5660183050321
 30
0.0
 10
76.21205781514838
 20
-130.5660183050321
 30
0.0
 10
76.21205781514838
 20
-130.4099554795503
 30
0.0
 10
76.21205781514838
 20
-130.4099554795503
 30
0.0
 10
76.21205781514838
 20
-130.4099554795503
 30
0.0
 10
77.75632186641161
 20
-130.4099554795503
 30
0.0
 10
77.75632186641161
 20
-130.4099554795503
 30
0.0
 10
77.75632186641161
 20
-130.4099554795503
 30
0.0
 10
77.75632186641161
 20
-130.6497341253237
 30
0.0
 10
77.75632186641161
 20
-130.6497341253237
 30
0.0
  0
HATCH
  5
E9
330
E4
100
AcDbEntity
  8
_U+30EC_U+30A4_U+30E4_U+30FC 1
 62
     7
420
 16777215
100
AcDbHatch
 10
0.0
 20
0.0
 30
0.0
210
0.0
220
0.0
230
1.0
  2
SOLID
 70
     1
 71
     0
 91
        1
 92
        1
 93
        1
 72
     4
 94
        3
 73
     0
 74
     1
 95
       26
 96
       22
 40
0.0
 40
0.0
 40
0.0
 40
0.0
 40
1.0
 40
1.0
 40
1.0
 40
2.0
 40
2.0
 40
2.0
 40
3.0
 40
3.0
 40
3.0
 40
4.0
 40
4.0
 40
4.0
 40
5.0
 40
5.0
 40
5.0
 40
6.0
 40
6.0
 40
6.0
 40
7.0
 40
7.0
 40
7.0
 40
7.0
 10
77.75632186641161
 20
-130.6497341253237
 10
77.75632186641161
 20
-130.6497341253237
 10
76.65199650861479
 20
-130.6497341253237
 10
76.65199650861479
 20
-130.6497341253237
 10
76.65199650861479
 20
-130.6497341253237
 10
76.65199650861479
 20
-131.0025119030133
 10
76.65199650861479
 20
-131.0025119030133
 10
76.65199650861479
 20
-131.0025119030133
 10
76.50385740274903
 20
-131.0025119030133
 10
76.50385740274903
 20
-131.0025119030133
 10
76.48921574693672
 20
-130.647322558484
 10
76.32626273048442
 20
-130.5977131834964
 10
76.21205781514838
 20
-130.5660183050321
 10
76.21205781514838
 20
-130.5660183050321
 10
76.21205781514838
 20
-130.4099554795503
 10
76.21205781514838
 20
-130.4099554795503
 10
76.21205781514838
 20
-130.4099554795503
 10
77.75632186641161
 20
-130.4099554795503
 10
77.75632186641161
 20
-130.4099554795503
 10
77.75632186641161
 20
-130.4099554795503
 10
77.75632186641161
 20
-130.6497341253237
 10
77.75632186641161
 20
-130.6497341253237
 97
        0
 97
        0
 75
     2
 76
     1
 98
        0
  0
SPLINE
  5
EA
330
E4
100
AcDbEntity
  8
_U+30EC_U+30A4_U+30E4_U+30FC 1
370
     0
100
AcDbSpline
210
0.0
220
0.0
230
1.0
 70
    11
 71
     3
 72
    62
 73
    58
 74
     0
 42
0.0000000001
 43
0.0000000001
 12
1.0
 22
0.0
 32
0.0
 13
1.0
 23
0.0
 33
0.0
 40
0.0
 40
0.0
 40
0.0
 40
0.0
 40
1.0
 40
1.0
 40
1.0
 40
2.0
 40
2.0
 40
2.0
 40
3.0
 40
3.0
 40
3.0
 40
4.0
 40
4.0
 40
4.0
 40
5.0
 40
5.0
 40
5.0
 40
6.0
 40
6.0
 40
6.0
 40
7.0
 40
7.0
 40
7.0
 40
8.0
 40
8.0
 40
8.0
 40
9.0
 40
9.0
 40
9.0
 40
10.0
 40
10.0
 40
10.0
 40
11.0
 40
11.0
 40
11.0
 40
12.0
 40
12.0
 40
12.0
 40
13.0
 40
13.0
 40
13.0
 40
14.0
 40
14.0
 40
14.0
 40
15.0
 40
15.0
 40
15.0
 40
16.0
 40
16.0
 40
16.0
 40
17.0
 40
17.0
 40
17.0
 40
18.0
 40
18.0
 40
18.0
 40
19.0
 40
19.0
 40
19.0
 40
19.0
 10
77.80713702481906
 20
-129.3488660700934
 30
0.0
 10
77.80713702481906
 20
-129.4504963869082
 30
0.0
 10
77.78594968758476
 20
-129.6833848417111
 30
0.0
 10
77.59974227660702
 20
-129.8170545465388
 30
0.0
 10
77.48760441856213
 20
-129.895947233151
 30
0.0
 10
77.38821341381268
 20
-129.9004258572818
 30
0.0
 10
77.30363631964978
 20
-129.9049044814127
 30
0.0
 10
77.30363631964978
 20
-129.9049044814127
 30
0.0
 10
77.30363631964978
 20
-129.6699489693186
 30
0.0
 10
77.30363631964978
 20
-129.6699489693186
 30
0.0
 10
77.37770587258267
 20
-129.667537402479
 30
0.0
 10
77.61248912990244
 20
-129.6565130969261
 30
0.0
 10
77.61248912990244
 20
-129.3533446942242
 30
0.0
 10
77.61248912990244
 20
-129.2065836265525
 30
0.0
 10
77.54272594632613
 20
-129.0436306101002
 30
0.0
 10
77.3141438608798
 20
-129.0436306101002
 30
0.0
 10
77.19787188825262
 20
-129.0436306101002
 30
0.0
 10
77.14912378713633
 20
-129.0842827368262
 30
0.0
 10
77.11742890867204
 20
-129.1183891821301
 30
0.0
 10
77.04335935573917
 20
-129.1972818687424
 30
0.0
 10
77.030784757218
 20
-129.3216498157599
 30
0.0
 10
77.030784757218
 20
-129.3805609485576
 30
0.0
 10
77.030784757218
 20
-129.4008870119206
 30
0.0
 10
77.03285181450916
 20
-129.4394720813554
 30
0.0
 10
77.03698592909146
 20
-129.46875539298
 30
0.0
 10
77.03698592909146
 20
-129.46875539298
 30
0.0
 10
76.8425102889491
 20
-129.46875539298
 30
0.0
 10
76.8425102889491
 20
-129.46875539298
 30
0.0
 10
76.84871146082254
 20
-129.4281032662541
 30
0.0
 10
76.85095077288796
 20
-129.3829725153973
 30
0.0
 10
76.85095077288796
 20
-129.3760823244268
 30
0.0
 10
76.85095077288796
 20
-129.3058023765277
 30
0.0
 10
76.82976343565367
 20
-129.0935844946363
 30
0.0
 10
76.59274086626849
 20
-129.0935844946363
 30
0.0
 10
76.41514619400385
 20
-129.0935844946363
 30
0.0
 10
76.36002466623985
 20
-129.2334553713375
 30
0.0
 10
76.36002466623985
 20
-129.351277636933
 30
0.0
 10
76.36002466623985
 20
-129.6337754667235
 30
0.0
 10
76.59274086626849
 20
-129.6427327149852
 30
0.0
 10
76.66474336191021
 20
-129.647211339116
 30
0.0
 10
76.66474336191021
 20
-129.647211339116
 30
0.0
 10
76.66474336191021
 20
-129.8642523546867
 30
0.0
 10
76.66474336191021
 20
-129.8642523546867
 30
0.0
 10
76.5398586505699
 20
-129.8552951064251
 30
0.0
 10
76.1633097140321
 20
-129.8260117948005
 30
0.0
 10
76.1633097140321
 20
-129.337497254992
 30
0.0
 10
76.1633097140321
 20
-129.0980631187672
 30
0.0
 10
76.29026148266355
 20
-128.8403699764705
 30
0.0
 10
76.58636743962077
 20
-128.8403699764705
 30
0.0
 10
76.77257485059853
 20
-128.8403699764705
 30
0.0
 10
76.85508488747026
 20
-128.9420002932853
 30
0.0
 10
76.91640758710771
 20
-129.048109234231
 30
0.0
 10
76.9439683509897
 20
-128.9826524200113
 30
0.0
 10
77.02441133057029
 20
-128.7883490346432
 30
0.0
 10
77.30156926235864
 20
-128.7883490346432
 30
0.0
 10
77.64004989378444
 20
-128.7883490346432
 30
0.0
 10
77.80713702481906
 20
-129.0525878583618
 30
0.0
 10
77.80713702481906
 20
-129.3488660700934
 30
0.0
  0
HATCH
  5
EB
330
E4
100
AcDbEntity
  8
_U+30EC_U+30A4_U+30E4_U+30FC 1
 62
     7
420
 16777215
100
AcDbHatch
 10
0.0
 20
0.0
 30
0.0
210
0.0
220
0.0
230
1.0
  2
SOLID
 70
     1
 71
     0
 91
        1
 92
        1
 93
        1
 72
     4
 94
        3
 73
     0
 74
     1
 95
       62
 96
       58
 40
0.0
 40
0.0
 40
0.0
 40
0.0
 40
1.0
 40
1.0
 40
1.0
 40
2.0
 40
2.0
 40
2.0
 40
3.0
 40
3.0
 40
3.0
 40
4.0
 40
4.0
 40
4.0
 40
5.0
 40
5.0
 40
5.0
 40
6.0
 40
6.0
 40
6.0
 40
7.0
 40
7.0
 40
7.0
 40
8.0
 40
8.0
 40
8.0
 40
9.0
 40
9.0
 40
9.0
 40
10.0
 40
10.0
 40
10.0
 40
11.0
 40
11.0
 40
11.0
 40
12.0
 40
12.0
 40
12.0
 40
13.0
 40
13.0
 40
13.0
 40
14.0
 40
14.0
 40
14.0
 40
15.0
 40
15.0
 40
15.0
 40
16.0
 40
16.0
 40
16.0
 40
17.0
 40
17.0
 40
17.0
 40
18.0
 40
18.0
 40
18.0
 40
19.0
 40
19.0
 40
19.0
 40
19.0
 10
77.80713702481906
 20
-129.3488660700934
 10
77.80713702481906
 20
-129.4504963869082
 10
77.78594968758476
 20
-129.6833848417111
 10
77.59974227660702
 20
-129.8170545465388
 10
77.48760441856213
 20
-129.895947233151
 10
77.38821341381268
 20
-129.9004258572818
 10
77.30363631964978
 20
-129.9049044814127
 10
77.30363631964978
 20
-129.9049044814127
 10
77.30363631964978
 20
-129.6699489693186
 10
77.30363631964978
 20
-129.6699489693186
 10
77.37770587258267
 20
-129.667537402479
 10
77.61248912990244
 20
-129.6565130969261
 10
77.61248912990244
 20
-129.3533446942242
 10
77.61248912990244
 20
-129.2065836265525
 10
77.54272594632613
 20
-129.0436306101002
 10
77.3141438608798
 20
-129.0436306101002
 10
77.19787188825262
 20
-129.0436306101002
 10
77.14912378713633
 20
-129.0842827368262
 10
77.11742890867204
 20
-129.1183891821301
 10
77.04335935573917
 20
-129.1972818687424
 10
77.030784757218
 20
-129.3216498157599
 10
77.030784757218
 20
-129.3805609485576
 10
77.030784757218
 20
-129.4008870119206
 10
77.03285181450916
 20
-129.4394720813554
 10
77.03698592909146
 20
-129.46875539298
 10
77.03698592909146
 20
-129.46875539298
 10
76.8425102889491
 20
-129.46875539298
 10
76.8425102889491
 20
-129.46875539298
 10
76.84871146082254
 20
-129.4281032662541
 10
76.85095077288796
 20
-129.3829725153973
 10
76.85095077288796
 20
-129.3760823244268
 10
76.85095077288796
 20
-129.3058023765277
 10
76.82976343565367
 20
-129.0935844946363
 10
76.59274086626849
 20
-129.0935844946363
 10
76.41514619400385
 20
-129.0935844946363
 10
76.36002466623985
 20
-129.2334553713375
 10
76.36002466623985
 20
-129.351277636933
 10
76.36002466623985
 20
-129.6337754667235
 10
76.59274086626849
 20
-129.6427327149852
 10
76.66474336191021
 20
-129.647211339116
 10
76.66474336191021
 20
-129.647211339116
 10
76.66474336191021
 20
-129.8642523546867
 10
76.66474336191021
 20
-129.8642523546867
 10
76.5398586505699
 20
-129.8552951064251
 10
76.1633097140321
 20
-129.8260117948005
 10
76.1633097140321
 20
-129.337497254992
 10
76.1633097140321
 20
-129.0980631187672
 10
76.29026148266355
 20
-128.8403699764705
 10
76.58636743962077
 20
-128.8403699764705
 10
76.77257485059853
 20
-128.8403699764705
 10
76.85508488747026
 20
-128.9420002932853
 10
76.91640758710771
 20
-129.048109234231
 10
76.9439683509897
 20
-128.9826524200113
 10
77.02441133057029
 20
-128.7883490346432
 10
77.30156926235864
 20
-128.7883490346432
 10
77.64004989378444
 20
-128.7883490346432
 10
77.80713702481906
 20
-129.0525878583618
 10
77.80713702481906
 20
-129.3488660700934
 97
        0
 97
        0
 75
     2
 76
     1
 98
        0
  0
POLYLINE
  5
EC
330
E4
100
AcDbEntity
  8
_U+30EC_U+30A4_U+30E4_U+30FC 1
370
     0
100
AcDb2dPolyline
 66
     1
 10
0.0
 20
0.0
 30
0.0
  0
VERTEX
  5
ED
330
EC
100
AcDbEntity
  8
_U+30EC_U+30A4_U+30E4_U+30FC 1
370
     0
100
AcDbVertex
100
AcDb2dVertex
 10
77.75632186641161
 20
-128.5521877391293
 30
0.0
  0
VERTEX
  5
EE
330
EC
100
AcDbEntity
  8
_U+30EC_U+30A4_U+30E4_U+30FC 1
370
     0
100
AcDbVertex
100
AcDb2dVertex
 10
77.50465764121412
 20
-128.5521877391293
 30
0.0
  0
VERTEX
  5
EF
330
EC
100
AcDbEntity
  8
_U+30EC_U+30A4_U+30E4_U+30FC 1
370
     0
100
AcDbVertex
100
AcDb2dVertex
 10
77.50465764121412
 20
-128.2831257817313
 30
0.0
  0
VERTEX
  5
F0
330
EC
100
AcDbEntity
  8
_U+30EC_U+30A4_U+30E4_U+30FC 1
370
     0
100
AcDbVertex
100
AcDb2dVertex
 10
77.75632186641161
 20
-128.2831257817313
 30
0.0
  0
VERTEX
  5
F1
330
EC
100
AcDbEntity
  8
_U+30EC_U+30A4_U+30E4_U+30FC 1
370
     0
100
AcDbVertex
100
AcDb2dVertex
 10
77.75632186641161
 20
-128.5521877391293
 30
0.0
  0
SEQEND
  5
F2
330
EC
100
AcDbEntity
  8
_U+30EC_U+30A4_U+30E4_U+30FC 1
370
     0
  0
HATCH
  5
F3
330
E4
100
AcDbEntity
  8
_U+30EC_U+30A4_U+30E4_U+30FC 1
 62
     7
420
 16777215
100
AcDbHatch
 10
0.0
 20
0.0
 30
0.0
210
0.0
220
0.0
230
1.0
  2
SOLID
 70
     1
 71
     0
 91
        1
 92
        1
 93
        4
 72
     1
 10
77.75632186641161
 20
-128.5521877391293
 11
77.50465764121412
 21
-128.5521877391293
 72
     1
 10
77.50465764121412
 20
-128.5521877391293
 11
77.50465764121412
 21
-128.2831257817313
 72
     1
 10
77.50465764121412
 20
-128.2831257817313
 11
77.75632186641161
 21
-128.2831257817313
 72
     1
 10
77.75632186641161
 20
-128.2831257817313
 11
77.75632186641161
 21
-128.5521877391293
 97
        0
 75
     2
 76
     1
 98
        0
  0
SPLINE
  5
F4
330
E4
100
AcDbEntity
  8
_U+30EC_U+30A4_U+30E4_U+30FC 1
370
     0
100
AcDbSpline
210
0.0
220
0.0
230
1.0
 70
    11
 71
     3
 72
    53
 73
    49
 74
     0
 42
0.0000000001
 43
0.0000000001
 12
1.0
 22
0.0
 32
0.0
 13
1.0
 23
0.0
 33
0.0
 40
0.0
 40
0.0
 40
0.0
 40
0.0
 40
1.0
 40
1.0
 40
1.0
 40
2.0
 40
2.0
 40
2.0
 40
3.0
 40
3.0
 40
3.0
 40
4.0
 40
4.0
 40
4.0
 40
5.0
 40
5.0
 40
5.0
 40
6.0
 40
6.0
 40
6.0
 40
7.0
 40
7.0
 40
7.0
 40
8.0
 40
8.0
 40
8.0
 40
9.0
 40
9.0
 40
9.0
 40
10.0
 40
10.0
 40
10.0
 40
11.0
 40
11.0
 40
11.0
 40
12.0
 40
12.0
 40
12.0
 40
13.0
 40
13.0
 40
13.0
 40
14.0
 40
14.0
 40
14.0
 40
15.0
 40
15.0
 40
15.0
 40
16.0
 40
16.0
 40
16.0
 40
16.0
 10
77.80713702481906
 20
-127.516419781489
 30
0.0
 10
77.80713702481906
 20
-127.6001356017805
 30
0.0
 10
77.79025605694133
 20
-127.7086561095659
 30
0.0
 10
77.72669404523847
 20
-127.8171766173513
 30
0.0
 10
77.61662324448474
 20
-128.0025227544577
 30
0.0
 10
77.48553736127099
 20
-128.0252603846604
 30
0.0
 10
77.37770587258267
 20
-128.0455864480233
 30
0.0
 10
77.37770587258267
 20
-128.0455864480233
 30
0.0
 10
77.37770587258267
 20
-127.8082193690896
 30
0.0
 10
77.37770587258267
 20
-127.8082193690896
 30
0.0
 10
77.57648788208158
 20
-127.7493082362918
 30
0.0
 10
77.60611570325473
 20
-127.6137437289473
 30
0.0
 10
77.60611570325473
 20
-127.5141804694236
 30
0.0
 10
77.60611570325473
 20
-127.3650078349122
 30
0.0
 10
77.50672469850527
 20
-127.2022270732342
 30
0.0
 10
77.27400849847665
 20
-127.2022270732342
 30
0.0
 10
77.01803790392258
 20
-127.2022270732342
 30
0.0
 10
76.94827472034626
 20
-127.3944634013111
 30
0.0
 10
76.94827472034626
 20
-127.5233099724595
 30
0.0
 10
76.94827472034626
 20
-127.5572441629892
 30
0.0
 10
76.94827472034626
 20
-127.7086561095659
 30
0.0
 10
77.07729354626888
 20
-127.8035684901845
 30
0.0
 10
77.07729354626888
 20
-127.8035684901845
 30
0.0
 10
77.05817326632574
 20
-127.9913261941307
 30
0.0
 10
77.05817326632574
 20
-127.9913261941307
 30
0.0
 10
77.05817326632574
 20
-127.9913261941307
 30
0.0
 10
76.21205781514838
 20
-127.862307368208
 30
0.0
 10
76.21205781514838
 20
-127.862307368208
 30
0.0
 10
76.21205781514838
 20
-127.862307368208
 30
0.0
 10
76.21205781514838
 20
-127.0303168085202
 30
0.0
 10
76.21205781514838
 20
-127.0303168085202
 30
0.0
 10
76.21205781514838
 20
-127.0303168085202
 30
0.0
 10
76.406705710065
 20
-127.0303168085202
 30
0.0
 10
76.406705710065
 20
-127.0303168085202
 30
0.0
 10
76.406705710065
 20
-127.0303168085202
 30
0.0
 10
76.406705710065
 20
-127.6883300462029
 30
0.0
 10
76.406705710065
 20
-127.6883300462029
 30
0.0
 10
76.406705710065
 20
-127.6883300462029
 30
0.0
 10
76.82976343565367
 20
-127.7584377393278
 30
0.0
 10
76.82976343565367
 20
-127.7584377393278
 30
0.0
 10
76.79582924512397
 20
-127.6928086703337
 30
0.0
 10
76.7556938827208
 20
-127.6046142259113
 30
0.0
 10
76.7556938827208
 20
-127.4780069668284
 30
0.0
 10
76.7556938827208
 20
-127.206705697365
 30
0.0
 10
76.94190129369855
 20
-126.9534911791991
 30
0.0
 10
77.25488821853351
 20
-126.9534911791991
 30
0.0
 10
77.57235376749928
 20
-126.9534911791991
 30
0.0
 10
77.80713702481906
 20
-127.1932698249725
 30
0.0
 10
77.80713702481906
 20
-127.516419781489
 30
0.0
  0
HATCH
  5
F5
330
E4
100
AcDbEntity
  8
_U+30EC_U+30A4_U+30E4_U+30FC 1
 62
     7
420
 16777215
100
AcDbHatch
 10
0.0
 20
0.0
 30
0.0
210
0.0
220
0.0
230
1.0
  2
SOLID
 70
     1
 71
     0
 91
        1
 92
        1
 93
        1
 72
     4
 94
        3
 73
     0
 74
     1
 95
       53
 96
       49
 40
0.0
 40
0.0
 40
0.0
 40
0.0
 40
1.0
 40
1.0
 40
1.0
 40
2.0
 40
2.0
 40
2.0
 40
3.0
 40
3.0
 40
3.0
 40
4.0
 40
4.0
 40
4.0
 40
5.0
 40
5.0
 40
5.0
 40
6.0
 40
6.0
 40
6.0
 40
7.0
 40
7.0
 40
7.0
 40
8.0
 40
8.0
 40
8.0
 40
9.0
 40
9.0
 40
9.0
 40
10.0
 40
10.0
 40
10.0
 40
11.0
 40
11.0
 40
11.0
 40
12.0
 40
12.0
 40
12.0
 40
13.0
 40
13.0
 40
13.0
 40
14.0
 40
14.0
 40
14.0
 40
15.0
 40
15.0
 40
15.0
 40
16.0
 40
16.0
 40
16.0
 40
16.0
 10
77.80713702481906
 20
-127.516419781489
 10
77.80713702481906
 20
-127.6001356017805
 10
77.79025605694133
 20
-127.7086561095659
 10
77.72669404523847
 20
-127.8171766173513
 10
77.61662324448474
 20
-128.0025227544577
 10
77.48553736127099
 20
-128.0252603846604
 10
77.37770587258267
 20
-128.0455864480233
 10
77.37770587258267
 20
-128.0455864480233
 10
77.37770587258267
 20
-127.8082193690896
 10
77.37770587258267
 20
-127.8082193690896
 10
77.57648788208158
 20
-127.7493082362918
 10
77.60611570325473
 20
-127.6137437289473
 10
77.60611570325473
 20
-127.5141804694236
 10
77.60611570325473
 20
-127.3650078349122
 10
77.50672469850527
 20
-127.2022270732342
 10
77.27400849847665
 20
-127.2022270732342
 10
77.01803790392258
 20
-127.2022270732342
 10
76.94827472034626
 20
-127.3944634013111
 10
76.94827472034626
 20
-127.5233099724595
 10
76.94827472034626
 20
-127.5572441629892
 10
76.94827472034626
 20
-127.7086561095659
 10
77.07729354626888
 20
-127.8035684901845
 10
77.07729354626888
 20
-127.8035684901845
 10
77.05817326632574
 20
-127.9913261941307
 10
77.05817326632574
 20
-127.9913261941307
 10
77.05817326632574
 20
-127.9913261941307
 10
76.21205781514838
 20
-127.862307368208
 10
76.21205781514838
 20
-127.862307368208
 10
76.21205781514838
 20
-127.862307368208
 10
76.21205781514838
 20
-127.0303168085202
 10
76.21205781514838
 20
-127.0303168085202
 10
76.21205781514838
 20
-127.0303168085202
 10
76.406705710065
 20
-127.0303168085202
 10
76.406705710065
 20
-127.0303168085202
 10
76.406705710065
 20
-127.0303168085202
 10
76.406705710065
 20
-127.6883300462029
 10
76.406705710065
 20
-127.6883300462029
 10
76.406705710065
 20
-127.6883300462029
 10
76.82976343565367
 20
-127.7584377393278
 10
76.82976343565367
 20
-127.7584377393278
 10
76.79582924512397
 20
-127.6928086703337
 10
76.7556938827208
 20
-127.6046142259113
 10
76.7556938827208
 20
-127.4780069668284
 10
76.7556938827208
 20
-127.206705697365
 10
76.94190129369855
 20
-126.9534911791991
 10
77.25488821853351
 20
-126.9534911791991
 10
77.57235376749928
 20
-126.9534911791991
 10
77.80713702481906
 20
-127.1932698249725
 10
77.80713702481906
 20
-127.516419781489
 97
        0
 97
        0
 75
     2
 76
     1
 98
        0
  0
ENDBLK
  5
E7
330
E4
100
AcDbEntity
  8
0
100
AcDbBlockEnd
  0
BLOCK
  5
104
330
102
100
AcDbEntity
  8
0
100
AcDbBlockBegin
  2
block 7
 70
     0
 10
0.0
 20
0.0
 30
0.0
  3
block 7
  1

  0
SPLINE
  5
106
330
102
100
AcDbEntity
  8
_U+30EC_U+30A4_U+30E4_U+30FC 1
370
     0
100
AcDbSpline
210
0.0
220
0.0
230
1.0
 70
    11
 71
     3
 72
    26
 73
    22
 74
     0
 42
0.0000000001
 43
0.0000000001
 12
1.0
 22
0.0
 32
0.0
 13
1.0
 23
0.0
 33
0.0
 40
0.0
 40
0.0
 40
0.0
 40
0.0
 40
1.0
 40
1.0
 40
1.0
 40
2.0
 40
2.0
 40
2.0
 40
3.0
 40
3.0
 40
3.0
 40
4.0
 40
4.0
 40
4.0
 40
5.0
 40
5.0
 40
5.0
 40
6.0
 40
6.0
 40
6.0
 40
7.0
 40
7.0
 40
7.0
 40
7.0
 10
89.67652450015032
 20
-139.2001166101653
 30
0.0
 10
89.67652450015032
 20
-139.2001166101653
 30
0.0
 10
89.67652450015032
 20
-138.0959635071427
 30
0.0
 10
89.67652450015032
 20
-138.0959635071427
 30
0.0
 10
89.67652450015032
 20
-138.0959635071427
 30
0.0
 10
89.32409123200927
 20
-138.0959635071427
 30
0.0
 10
89.32409123200927
 20
-138.0959635071427
 30
0.0
 10
89.32409123200927
 20
-138.0959635071427
 30
0.0
 10
89.32409123200927
 20
-137.9478244012769
 30
0.0
 10
89.32409123200927
 20
-137.9478244012769
 30
0.0
 10
89.67893606698999
 20
-137.9330104906904
 30
0.0
 10
89.72854544197759
 20
-137.7700574742381
 30
0.0
 10
89.7602403204419
 20
-137.6556803041277
 30
0.0
 10
89.7602403204419
 20
-137.6556803041277
 30
0.0
 10
89.9163031459237
 20
-137.6556803041277
 30
0.0
 10
89.9163031459237
 20
-137.6556803041277
 30
0.0
 10
89.9163031459237
 20
-137.6556803041277
 30
0.0
 10
89.9163031459237
 20
-139.2001166101653
 30
0.0
 10
89.9163031459237
 20
-139.2001166101653
 30
0.0
 10
89.9163031459237
 20
-139.2001166101653
 30
0.0
 10
89.67652450015032
 20
-139.2001166101653
 30
0.0
 10
89.67652450015032
 20
-139.2001166101653
 30
0.0
  0
HATCH
  5
107
330
102
100
AcDbEntity
  8
_U+30EC_U+30A4_U+30E4_U+30FC 1
 62
     7
420
 16777215
100
AcDbHatch
 10
0.0
 20
0.0
 30
0.0
210
0.0
220
0.0
230
1.0
  2
SOLID
 70
     1
 71
     0
 91
        1
 92
        1
 93
        1
 72
     4
 94
        3
 73
     0
 74
     1
 95
       26
 96
       22
 40
0.0
 40
0.0
 40
0.0
 40
0.0
 40
1.0
 40
1.0
 40
1.0
 40
2.0
 40
2.0
 40
2.0
 40
3.0
 40
3.0
 40
3.0
 40
4.0
 40
4.0
 40
4.0
 40
5.0
 40
5.0
 40
5.0
 40
6.0
 40
6.0
 40
6.0
 40
7.0
 40
7.0
 40
7.0
 40
7.0
 10
89.67652450015032
 20
-139.2001166101653
 10
89.67652450015032
 20
-139.2001166101653
 10
89.67652450015032
 20
-138.0959635071427
 10
89.67652450015032
 20
-138.0959635071427
 10
89.67652450015032
 20
-138.0959635071427
 10
89.32409123200927
 20
-138.0959635071427
 10
89.32409123200927
 20
-138.0959635071427
 10
89.32409123200927
 20
-138.0959635071427
 10
89.32409123200927
 20
-137.9478244012769
 10
89.32409123200927
 20
-137.9478244012769
 10
89.67893606698999
 20
-137.9330104906904
 10
89.72854544197759
 20
-137.7700574742381
 10
89.7602403204419
 20
-137.6556803041277
 10
89.7602403204419
 20
-137.6556803041277
 10
89.9163031459237
 20
-137.6556803041277
 10
89.9163031459237
 20
-137.6556803041277
 10
89.9163031459237
 20
-137.6556803041277
 10
89.9163031459237
 20
-139.2001166101653
 10
89.9163031459237
 20
-139.2001166101653
 10
89.9163031459237
 20
-139.2001166101653
 10
89.67652450015032
 20
-139.2001166101653
 10
89.67652450015032
 20
-139.2001166101653
 97
        0
 97
        0
 75
     2
 76
     1
 98
        0
  0
SPLINE
  5
108
330
102
100
AcDbEntity
  8
_U+30EC_U+30A4_U+30E4_U+30FC 1
370
     0
100
AcDbSpline
210
0.0
220
0.0
230
1.0
 70
    11
 71
     3
 72
    32
 73
    28
 74
     0
 42
0.0000000001
 43
0.0000000001
 12
1.0
 22
0.0
 32
0.0
 13
1.0
 23
0.0
 33
0.0
 40
0.0
 40
0.0
 40
0.0
 40
0.0
 40
1.0
 40
1.0
 40
1.0
 40
2.0
 40
2.0
 40
2.0
 40
3.0
 40
3.0
 40
3.0
 40
4.0
 40
4.0
 40
4.0
 40
5.0
 40
5.0
 40
5.0
 40
6.0
 40
6.0
 40
6.0
 40
7.0
 40
7.0
 40
7.0
 40
8.0
 40
8.0
 40
8.0
 40
9.0
 40
9.0
 40
9.0
 40
9.0
 10
90.99117293732165
 20
-139.2507595137984
 30
0.0
 10
90.43926864058463
 20
-139.2507595137984
 30
0.0
 10
90.43031139232298
 20
-138.6967881597703
 30
0.0
 10
90.43031139232298
 20
-138.4828477301362
 30
0.0
 10
90.43031139232298
 20
-138.252370842173
 30
0.0
 10
90.45063745568595
 20
-137.6050374004946
 30
0.0
 10
91.03182506404761
 20
-137.6050374004946
 30
0.0
 10
91.21717120115404
 20
-137.6050374004946
 30
0.0
 10
91.47934296758156
 20
-137.6749728388452
 30
0.0
 10
91.5199950943075
 20
-138.0070800436232
 30
0.0
 10
91.5199950943075
 20
-138.0070800436232
 30
0.0
 10
91.29158526363544
 20
-138.0070800436232
 30
0.0
 10
91.29158526363544
 20
-138.0070800436232
 30
0.0
 10
91.28056095808265
 20
-137.9498914585681
 30
0.0
 10
91.24645451277867
 20
-137.8017523527024
 30
0.0
 10
91.02941349720793
 20
-137.8017523527024
 30
0.0
 10
90.71728784624429
 20
-137.8017523527024
 30
0.0
 10
90.6745686622272
 20
-138.1297254428981
 30
0.0
 10
90.6607882802862
 20
-138.3347086242705
 30
0.0
 10
90.76035153980992
 20
-138.2565049567553
 30
0.0
 10
90.83269854500016
 20
-138.197249314409
 30
0.0
 10
91.02700193036826
 20
-138.197249314409
 30
0.0
 10
91.21923825844519
 20
-138.197249314409
 30
0.0
 10
91.54273272451016
 20
-138.3054253126459
 30
0.0
 10
91.54273272451016
 20
-138.7116020703568
 30
0.0
 10
91.54273272451016
 20
-139.0309624218395
 30
0.0
 10
91.33017033307024
 20
-139.2507595137984
 30
0.0
 10
90.99117293732165
 20
-139.2507595137984
 30
0.0
  0
SPLINE
  5
109
330
102
100
AcDbEntity
  8
_U+30EC_U+30A4_U+30E4_U+30FC 1
370
     0
100
AcDbSpline
210
0.0
220
0.0
230
1.0
 70
    11
 71
     3
 72
    17
 73
    13
 74
     0
 42
0.0000000001
 43
0.0000000001
 12
1.0
 22
0.0
 32
0.0
 13
1.0
 23
0.0
 33
0.0
 40
0.0
 40
0.0
 40
0.0
 40
0.0
 40
1.0
 40
1.0
 40
1.0
 40
2.0
 40
2.0
 40
2.0
 40
3.0
 40
3.0
 40
3.0
 40
4.0
 40
4.0
 40
4.0
 40
4.0
 10
91.00908743384495
 20
-138.3918972093256
 30
0.0
 10
90.72865666134562
 20
-138.3918972093256
 30
0.0
 10
90.68800453461967
 20
-138.60342607212
 30
0.0
 10
90.68800453461967
 20
-138.7198702995214
 30
0.0
 10
90.68800453461967
 20
-138.8955701692692
 30
0.0
 10
90.78963485143454
 20
-139.0585231857215
 30
0.0
 10
90.98634980364231
 20
-139.0585231857215
 30
0.0
 10
91.11519637479066
 20
-139.0585231857215
 30
0.0
 10
91.30295407873676
 20
-138.9992675433752
 30
0.0
 10
91.30295407873676
 20
-138.713669127648
 30
0.0
 10
91.30295407873676
 20
-138.4893934115582
 30
0.0
 10
91.15378144422544
 20
-138.3918972093256
 30
0.0
 10
91.00908743384495
 20
-138.3918972093256
 30
0.0
  0
HATCH
  5
10A
330
102
100
AcDbEntity
  8
_U+30EC_U+30A4_U+30E4_U+30FC 1
 62
     7
420
 16777215
100
AcDbHatch
 10
0.0
 20
0.0
 30
0.0
210
0.0
220
0.0
230
1.0
  2
SOLID
 70
     1
 71
     0
 91
        2
 92
        1
 93
        1
 72
     4
 94
        3
 73
     0
 74
     1
 95
       32
 96
       28
 40
0.0
 40
0.0
 40
0.0
 40
0.0
 40
1.0
 40
1.0
 40
1.0
 40
2.0
 40
2.0
 40
2.0
 40
3.0
 40
3.0
 40
3.0
 40
4.0
 40
4.0
 40
4.0
 40
5.0
 40
5.0
 40
5.0
 40
6.0
 40
6.0
 40
6.0
 40
7.0
 40
7.0
 40
7.0
 40
8.0
 40
8.0
 40
8.0
 40
9.0
 40
9.0
 40
9.0
 40
9.0
 10
90.99117293732165
 20
-139.2507595137984
 10
90.43926864058463
 20
-139.2507595137984
 10
90.43031139232298
 20
-138.6967881597703
 10
90.43031139232298
 20
-138.4828477301362
 10
90.43031139232298
 20
-138.252370842173
 10
90.45063745568595
 20
-137.6050374004946
 10
91.03182506404761
 20
-137.6050374004946
 10
91.21717120115404
 20
-137.6050374004946
 10
91.47934296758156
 20
-137.6749728388452
 10
91.5199950943075
 20
-138.0070800436232
 10
91.5199950943075
 20
-138.0070800436232
 10
91.29158526363544
 20
-138.0070800436232
 10
91.29158526363544
 20
-138.0070800436232
 10
91.28056095808265
 20
-137.9498914585681
 10
91.24645451277867
 20
-137.8017523527024
 10
91.02941349720793
 20
-137.8017523527024
 10
90.71728784624429
 20
-137.8017523527024
 10
90.6745686622272
 20
-138.1297254428981
 10
90.6607882802862
 20
-138.3347086242705
 10
90.76035153980992
 20
-138.2565049567553
 10
90.83269854500016
 20
-138.197249314409
 10
91.02700193036826
 20
-138.197249314409
 10
91.21923825844519
 20
-138.197249314409
 10
91.54273272451016
 20
-138.3054253126459
 10
91.54273272451016
 20
-138.7116020703568
 10
91.54273272451016
 20
-139.0309624218395
 10
91.33017033307024
 20
-139.2507595137984
 10
90.99117293732165
 20
-139.2507595137984
 97
        0
 97
        0
 92
        1
 93
        1
 72
     4
 94
        3
 73
     0
 74
     1
 95
       17
 96
       13
 40
0.0
 40
0.0
 40
0.0
 40
0.0
 40
1.0
 40
1.0
 40
1.0
 40
2.0
 40
2.0
 40
2.0
 40
3.0
 40
3.0
 40
3.0
 40
4.0
 40
4.0
 40
4.0
 40
4.0
 10
91.00908743384495
 20
-138.3918972093256
 10
90.72865666134562
 20
-138.3918972093256
 10
90.68800453461967
 20
-138.60342607212
 10
90.68800453461967
 20
-138.7198702995214
 10
90.68800453461967
 20
-138.8955701692692
 10
90.78963485143454
 20
-139.0585231857215
 10
90.98634980364231
 20
-139.0585231857215
 10
91.11519637479066
 20
-139.0585231857215
 10
91.30295407873676
 20
-138.9992675433752
 10
91.30295407873676
 20
-138.713669127648
 10
91.30295407873676
 20
-138.4893934115582
 10
91.15378144422544
 20
-138.3918972093256
 10
91.00908743384495
 20
-138.3918972093256
 97
        0
 97
        0
 75
     2
 76
     1
 98
        0
  0
ENDBLK
  5
105
330
102
100
AcDbEntity
  8
0
100
AcDbBlockEnd
  0
ENDSEC
  0
SECTION
  2
ENTITIES
  0
SPLINE
  5
41
330
1F
100
AcDbEntity
  8
_U+30EC_U+30A4_U+30E4_U+30FC 1
 62
   253
420
 11711154
370
     9
100
AcDbSpline
210
0.0
220
0.0
230
1.0
 70
    11
 71
     3
 72
    44
 73
    40
 74
     0
 42
0.0000000001
 43
0.0000000001
 12
1.0
 22
0.0
 32
0.0
 13
1.0
 23
0.0
 33
0.0
 40
0.0
 40
0.0
 40
0.0
 40
0.0
 40
1.0
 40
1.0
 40
1.0
 40
2.0
 40
2.0
 40
2.0
 40
3.0
 40
3.0
 40
3.0
 40
4.0
 40
4.0
 40
4.0
 40
5.0
 40
5.0
 40
5.0
 40
6.0
 40
6.0
 40
6.0
 40
7.0
 40
7.0
 40
7.0
 40
8.0
 40
8.0
 40
8.0
 40
9.0
 40
9.0
 40
9.0
 40
10.0
 40
10.0
 40
10.0
 40
11.0
 40
11.0
 40
11.0
 40
12.0
 40
12.0
 40
12.0
 40
13.0
 40
13.0
 40
13.0
 40
13.0
 10
82.30538178910366
 20
-122.3405110805261
 30
0.0
 10
82.30538178910366
 20
-122.3405110805261
 30
0.0
 10
83.44436009337925
 20
-122.5379255249211
 30
0.0
 10
83.42262898282253
 20
-123.1949035803123
 30
0.0
 10
83.42262898282253
 20
-123.1949035803123
 30
0.0
 10
83.31309148561706
 20
-129.2413735788005
 30
0.0
 10
83.31309148561706
 20
-129.2413735788005
 30
0.0
 10
83.31309148561706
 20
-129.2413735788005
 30
0.0
 10
89.40334105246409
 20
-129.2413735788005
 30
0.0
 10
89.40334105246409
 20
-129.2413735788005
 30
0.0
 10
89.40334105246409
 20
-129.2413735788005
 30
0.0
 10
90.34522241732357
 20
-129.5697038564965
 30
0.0
 10
90.34522241732357
 20
-130.3145235785327
 30
0.0
 10
90.34522241732357
 20
-130.3145235785327
 30
0.0
 10
83.29139565283724
 20
-130.3365721896383
 30
0.0
 10
83.29139565283724
 20
-130.3365721896383
 30
0.0
 10
83.29139565283724
 20
-130.3365721896383
 30
0.0
 10
83.37888453949411
 20
-134.8055610774098
 30
0.0
 10
83.37888453949411
 20
-134.8055610774098
 30
0.0
 10
83.37888453949411
 20
-134.8055610774098
 30
0.0
 10
90.25769825288984
 20
-134.7400855218704
 30
0.0
 10
90.25769825288984
 20
-134.7400855218704
 30
0.0
 10
90.25769825288984
 20
-134.7400855218704
 30
0.0
 10
90.67387018671685
 20
-135.0246713551329
 30
0.0
 10
90.67387018671685
 20
-135.0246713551329
 30
0.0
 10
90.67387018671685
 20
-135.0246713551329
 30
0.0
 10
97.61815945399772
 20
-135.0246713551329
 30
0.0
 10
97.61815945399772
 20
-135.0246713551329
 30
0.0
 10
97.61815945399772
 20
-135.0246713551329
 30
0.0
 10
98.29753888110974
 20
-135.2871732995117
 30
0.0
 10
98.31958749165835
 20
-135.8132355216025
 30
0.0
 10
98.31958749165835
 20
-135.8132355216025
 30
0.0
 10
83.22556942363805
 20
-135.8573327438137
 30
0.0
 10
83.22556942363805
 20
-135.8573327438137
 30
0.0
 10
83.22556942363805
 20
-135.8573327438137
 30
0.0
 10
82.414954564086
 20
-135.6385752438684
 30
0.0
 10
82.34947901020087
 20
-134.849658299621
 30
0.0
 10
82.34947901020087
 20
-134.849658299621
 30
0.0
 10
82.30538178910366
 20
-122.3405110805261
 30
0.0
 10
82.30538178910366
 20
-122.3405110805261
 30
0.0
  0
HATCH
  5
42
330
1F
100
AcDbEntity
  8
_U+30EC_U+30A4_U+30E4_U+30FC 1
 62
   253
420
 11711154
100
AcDbHatch
 10
0.0
 20
0.0
 30
0.0
210
0.0
220
0.0
230
1.0
  2
SOLID
 70
     1
 71
     0
 91
        1
 92
        1
 93
        1
 72
     4
 94
        3
 73
     0
 74
     1
 95
       44
 96
       40
 40
0.0
 40
0.0
 40
0.0
 40
0.0
 40
1.0
 40
1.0
 40
1.0
 40
2.0
 40
2.0
 40
2.0
 40
3.0
 40
3.0
 40
3.0
 40
4.0
 40
4.0
 40
4.0
 40
5.0
 40
5.0
 40
5.0
 40
6.0
 40
6.0
 40
6.0
 40
7.0
 40
7.0
 40
7.0
 40
8.0
 40
8.0
 40
8.0
 40
9.0
 40
9.0
 40
9.0
 40
10.0
 40
10.0
 40
10.0
 40
11.0
 40
11.0
 40
11.0
 40
12.0
 40
12.0
 40
12.0
 40
13.0
 40
13.0
 40
13.0
 40
13.0
 10
82.30538178910366
 20
-122.3405110805261
 10
82.30538178910366
 20
-122.3405110805261
 10
83.44436009337925
 20
-122.5379255249211
 10
83.42262898282253
 20
-123.1949035803123
 10
83.42262898282253
 20
-123.1949035803123
 10
83.31309148561706
 20
-129.2413735788005
 10
83.31309148561706
 20
-129.2413735788005
 10
83.31309148561706
 20
-129.2413735788005
 10
89.40334105246409
 20
-129.2413735788005
 10
89.40334105246409
 20
-129.2413735788005
 10
89.40334105246409
 20
-129.2413735788005
 10
90.34522241732357
 20
-129.5697038564965
 10
90.34522241732357
 20
-130.3145235785327
 10
90.34522241732357
 20
-130.3145235785327
 10
83.29139565283724
 20
-130.3365721896383
 10
83.29139565283724
 20
-130.3365721896383
 10
83.29139565283724
 20
-130.3365721896383
 10
83.37888453949411
 20
-134.8055610774098
 10
83.37888453949411
 20
-134.8055610774098
 10
83.37888453949411
 20
-134.8055610774098
 10
90.25769825288984
 20
-134.7400855218704
 10
90.25769825288984
 20
-134.7400855218704
 10
90.25769825288984
 20
-134.7400855218704
 10
90.67387018671685
 20
-135.0246713551329
 10
90.67387018671685
 20
-135.0246713551329
 10
90.67387018671685
 20
-135.0246713551329
 10
97.61815945399772
 20
-135.0246713551329
 10
97.61815945399772
 20
-135.0246713551329
 10
97.61815945399772
 20
-135.0246713551329
 10
98.29753888110974
 20
-135.2871732995117
 10
98.31958749165835
 20
-135.8132355216025
 10
98.31958749165835
 20
-135.8132355216025
 10
83.22556942363805
 20
-135.8573327438137
 10
83.22556942363805
 20
-135.8573327438137
 10
83.22556942363805
 20
-135.8573327438137
 10
82.414954564086
 20
-135.6385752438684
 10
82.34947901020087
 20
-134.849658299621
 10
82.34947901020087
 20
-134.849658299621
 10
82.30538178910366
 20
-122.3405110805261
 10
82.30538178910366
 20
-122.3405110805261
 97
        0
 97
        0
 75
     2
 76
     1
 98
        0
  0
SPLINE
  5
43
330
1F
100
AcDbEntity
  8
_U+30EC_U+30A4_U+30E4_U+30FC 1
 62
     7
420
 16777215
370
     9
100
AcDbSpline
210
0.0
220
0.0
230
1.0
 70
    11
 71
     3
 72
    17
 73
    13
 74
     0
 42
0.0000000001
 43
0.0000000001
 12
1.0
 22
0.0
 32
0.0
 13
1.0
 23
0.0
 33
0.0
 40
0.0
 40
0.0
 40
0.0
 40
0.0
 40
1.0
 40
1.0
 40
1.0
 40
2.0
 40
2.0
 40
2.0
 40
3.0
 40
3.0
 40
3.0
 40
4.0
 40
4.0
 40
4.0
 40
4.0
 10
90.55329074534865
 20
-119.1207083035531
 30
0.0
 10
90.55329074534865
 20
-119.0656044146779
 30
0.0
 10
90.50852324649075
 20
-119.0208016369115
 30
0.0
 10
90.45338408123081
 20
-119.0208016369115
 30
0.0
 10
90.39757463821019
 20
-119.0208016369115
 30
0.0
 10
90.3528071393523
 20
-119.0656044146779
 30
0.0
 10
90.3528071393523
 20
-119.1207083035531
 30
0.0
 10
90.3528071393523
 20
-119.1758474702059
 30
0.0
 10
90.39757463821019
 20
-119.2206149701948
 30
0.0
 10
90.45338408123081
 20
-119.2206149701948
 30
0.0
 10
90.50852324649075
 20
-119.2206149701948
 30
0.0
 10
90.55329074534865
 20
-119.1758474702059
 30
0.0
 10
90.55329074534865
 20
-119.1207083035531
 30
0.0
  0
SPLINE
  5
44
330
1F
100
AcDbEntity
  8
_U+30EC_U+30A4_U+30E4_U+30FC 1
 62
     7
420
 16777215
370
     9
100
AcDbSpline
210
0.0
220
0.0
230
1.0
 70
    11
 71
     3
 72
    17
 73
    13
 74
     0
 42
0.0000000001
 43
0.0000000001
 12
1.0
 22
0.0
 32
0.0
 13
1.0
 23
0.0
 33
0.0
 40
0.0
 40
0.0
 40
0.0
 40
0.0
 40
1.0
 40
1.0
 40
1.0
 40
2.0
 40
2.0
 40
2.0
 40
3.0
 40
3.0
 40
3.0
 40
4.0
 40
4.0
 40
4.0
 40
4.0
 10
83.55287453505525
 20
-119.1207083035531
 30
0.0
 10
83.55287453505525
 20
-119.0656044146779
 30
0.0
 10
83.50807175842048
 20
-119.0208016369115
 30
0.0
 10
83.45296787093741
 20
-119.0208016369115
 30
0.0
 10
83.39782870567747
 20
-119.0208016369115
 30
0.0
 10
83.35306120681958
 20
-119.0656044146779
 30
0.0
 10
83.35306120681958
 20
-119.1207083035531
 30
0.0
 10
83.35306120681958
 20
-119.1758474702059
 30
0.0
 10
83.39782870567747
 20
-119.2206149701948
 30
0.0
 10
83.45296787093741
 20
-119.2206149701948
 30
0.0
 10
83.50807175842048
 20
-119.2206149701948
 30
0.0
 10
83.55287453505525
 20
-119.1758474702059
 30
0.0
 10
83.55287453505525
 20
-119.1207083035531
 30
0.0
  0
POLYLINE
  5
45
330
1F
100
AcDbEntity
  8
_U+30EC_U+30A4_U+30E4_U+30FC 1
 62
     7
420
 16777215
370
     9
100
AcDb2dPolyline
 66
     1
 10
0.0
 20
0.0
 30
0.0
  0
VERTEX
  5
46
330
45
100
AcDbEntity
  8
_U+30EC_U+30A4_U+30E4_U+30FC 1
 62
     7
420
 16777215
370
     9
100
AcDbVertex
100
AcDb2dVertex
 10
83.45296787093741
 20
-120.5807496920772
 30
0.0
  0
VERTEX
  5
47
330
45
100
AcDbEntity
  8
_U+30EC_U+30A4_U+30E4_U+30FC 1
 62
     7
420
 16777215
370
     9
100
AcDbVertex
100
AcDb2dVertex
 10
83.45296787093741
 20
-118.1209713593588
 30
0.0
  0
SEQEND
  5
48
330
45
100
AcDbEntity
  8
_U+30EC_U+30A4_U+30E4_U+30FC 1
 62
     7
420
 16777215
370
     9
  0
POLYLINE
  5
49
330
1F
100
AcDbEntity
  8
_U+30EC_U+30A4_U+30E4_U+30FC 1
 62
     7
420
 16777215
370
     9
100
AcDb2dPolyline
 66
     1
 10
0.0
 20
0.0
 30
0.0
  0
VERTEX
  5
4A
330
49
100
AcDbEntity
  8
_U+30EC_U+30A4_U+30E4_U+30FC 1
 62
     7
420
 16777215
370
     9
100
AcDbVertex
100
AcDb2dVertex
 10
83.45363814869809
 20
-119.1207083035531
 30
0.0
  0
VERTEX
  5
4B
330
49
100
AcDbEntity
  8
_U+30EC_U+30A4_U+30E4_U+30FC 1
 62
     7
420
 16777215
370
     9
100
AcDbVertex
100
AcDb2dVertex
 10
90.45338408123081
 20
-119.1207083035531
 30
0.0
  0
SEQEND
  5
4C
330
49
100
AcDbEntity
  8
_U+30EC_U+30A4_U+30E4_U+30FC 1
 62
     7
420
 16777215
370
     9
  0
POLYLINE
  5
4D
330
1F
100
AcDbEntity
  8
_U+30EC_U+30A4_U+30E4_U+30FC 1
 62
     7
420
 16777215
370
     9
100
AcDb2dPolyline
 66
     1
 10
0.0
 20
0.0
 30
0.0
  0
VERTEX
  5
4E
330
4D
100
AcDbEntity
  8
_U+30EC_U+30A4_U+30E4_U+30FC 1
 62
     7
420
 16777215
370
     9
100
AcDbVertex
100
AcDb2dVertex
 10
90.45338408123081
 20
-125.9626921907314
 30
0.0
  0
VERTEX
  5
4F
330
4D
100
AcDbEntity
  8
_U+30EC_U+30A4_U+30E4_U+30FC 1
 62
     7
420
 16777215
370
     9
100
AcDbVertex
100
AcDb2dVertex
 10
90.45338408123081
 20
-118.1209713593588
 30
0.0
  0
SEQEND
  5
50
330
4D
100
AcDbEntity
  8
_U+30EC_U+30A4_U+30E4_U+30FC 1
 62
     7
420
 16777215
370
     9
  0
INSERT
  5
52
330
1F
100
AcDbEntity
  8
_U+30EC_U+30A4_U+30E4_U+30FC 1
100
AcDbBlockReference
  2
block 2
 10
0.0
 20
0.0
 30
0.0
  0
POLYLINE
  5
57
330
1F
100
AcDbEntity
  8
_U+30EC_U+30A4_U+30E4_U+30FC 1
 62
     7
420
 16777215
370
    25
100
AcDb2dPolyline
 66
     1
 10
0.0
 20
0.0
 30
0.0
  0
VERTEX
  5
58
330
57
100
AcDbEntity
  8
_U+30EC_U+30A4_U+30E4_U+30FC 1
 62
     7
420
 16777215
370
    25
100
AcDbVertex
100
AcDb2dVertex
 10
83.35306120681958
 20
-134.7966005218563
 30
0.0
  0
VERTEX
  5
59
330
57
100
AcDbEntity
  8
_U+30EC_U+30A4_U+30E4_U+30FC 1
 62
     7
420
 16777215
370
    25
100
AcDbVertex
100
AcDb2dVertex
 10
90.3531246393442
 20
-134.7966005218563
 30
0.0
  0
SEQEND
  5
5A
330
57
100
AcDbEntity
  8
_U+30EC_U+30A4_U+30E4_U+30FC 1
 62
     7
420
 16777215
370
    25
  0
POLYLINE
  5
5B
330
1F
100
AcDbEntity
  8
_U+30EC_U+30A4_U+30E4_U+30FC 1
 62
     7
420
 16777215
370
    25
100
AcDb2dPolyline
 66
     1
 10
0.0
 20
0.0
 30
0.0
  0
VERTEX
  5
5C
330
5B
100
AcDbEntity
  8
_U+30EC_U+30A4_U+30E4_U+30FC 1
 62
     7
420
 16777215
370
    25
100
AcDbVertex
100
AcDb2dVertex
 10
83.35306120681958
 20
-130.2966024674257
 30
0.0
  0
VERTEX
  5
5D
330
5B
100
AcDbEntity
  8
_U+30EC_U+30A4_U+30E4_U+30FC 1
 62
     7
420
 16777215
370
    25
100
AcDbVertex
100
AcDb2dVertex
 10
90.3531246393442
 20
-130.2966024674257
 30
0.0
  0
SEQEND
  5
5E
330
5B
100
AcDbEntity
  8
_U+30EC_U+30A4_U+30E4_U+30FC 1
 62
     7
420
 16777215
370
    25
  0
POLYLINE
  5
5F
330
1F
100
AcDbEntity
  8
_U+30EC_U+30A4_U+30E4_U+30FC 1
 62
     7
420
 16777215
370
    25
100
AcDb2dPolyline
 66
     1
 10
0.0
 20
0.0
 30
0.0
  0
VERTEX
  5
60
330
5F
100
AcDbEntity
  8
_U+30EC_U+30A4_U+30E4_U+30FC 1
 62
     7
420
 16777215
370
    25
100
AcDbVertex
100
AcDb2dVertex
 10
83.35306120681958
 20
-135.7960199660511
 30
0.0
  0
VERTEX
  5
61
330
5F
100
AcDbEntity
  8
_U+30EC_U+30A4_U+30E4_U+30FC 1
 62
     7
420
 16777215
370
    25
100
AcDbVertex
100
AcDb2dVertex
 10
98.35334832413038
 20
-135.7960199660511
 30
0.0
  0
SEQEND
  5
62
330
5F
100
AcDbEntity
  8
_U+30EC_U+30A4_U+30E4_U+30FC 1
 62
     7
420
 16777215
370
    25
  0
POLYLINE
  5
63
330
1F
100
AcDbEntity
  8
_U+30EC_U+30A4_U+30E4_U+30FC 1
 62
     7
420
 16777215
370
    25
100
AcDb2dPolyline
 66
     1
 10
0.0
 20
0.0
 30
0.0
  0
VERTEX
  5
64
330
63
100
AcDbEntity
  8
_U+30EC_U+30A4_U+30E4_U+30FC 1
 62
     7
420
 16777215
370
    25
100
AcDbVertex
100
AcDb2dVertex
 10
82.35258345456612
 20
-122.2964138583149
 30
0.0
  0
VERTEX
  5
65
330
63
100
AcDbEntity
  8
_U+30EC_U+30A4_U+30E4_U+30FC 1
 62
     7
420
 16777215
370
    25
100
AcDbVertex
100
AcDb2dVertex
 10
82.35258345456612
 20
-134.7962477440786
 30
0.0
  0
SEQEND
  5
66
330
63
100
AcDbEntity
  8
_U+30EC_U+30A4_U+30E4_U+30FC 1
 62
     7
420
 16777215
370
    25
  0
POLYLINE
  5
67
330
1F
100
AcDbEntity
  8
_U+30EC_U+30A4_U+30E4_U+30FC 1
 62
     7
420
 16777215
370
    25
100
AcDb2dPolyline
 66
     1
 10
0.0
 20
0.0
 30
0.0
  0
VERTEX
  5
68
330
67
100
AcDbEntity
  8
_U+30EC_U+30A4_U+30E4_U+30FC 1
 62
     7
420
 16777215
370
    25
100
AcDbVertex
100
AcDb2dVertex
 10
83.35306120681958
 20
-123.2961860802871
 30
0.0
  0
VERTEX
  5
69
330
67
100
AcDbEntity
  8
_U+30EC_U+30A4_U+30E4_U+30FC 1
 62
     7
420
 16777215
370
    25
100
AcDbVertex
100
AcDb2dVertex
 10
83.35306120681958
 20
-129.2961599676758
 30
0.0
  0
SEQEND
  5
6A
330
67
100
AcDbEntity
  8
_U+30EC_U+30A4_U+30E4_U+30FC 1
 62
     7
420
 16777215
370
    25
  0
POLYLINE
  5
6B
330
1F
100
AcDbEntity
  8
_U+30EC_U+30A4_U+30E4_U+30FC 1
 62
     7
420
 16777215
370
    25
100
AcDb2dPolyline
 66
     1
 10
0.0
 20
0.0
 30
0.0
  0
VERTEX
  5
6C
330
6B
100
AcDbEntity
  8
_U+30EC_U+30A4_U+30E4_U+30FC 1
 62
     7
420
 16777215
370
    25
100
AcDbVertex
100
AcDb2dVertex
 10
83.35306120681958
 20
-129.2961599676758
 30
0.0
  0
VERTEX
  5
6D
330
6B
100
AcDbEntity
  8
_U+30EC_U+30A4_U+30E4_U+30FC 1
 62
     7
420
 16777215
370
    25
100
AcDbVertex
100
AcDb2dVertex
 10
89.35303494263638
 20
-129.2961599676758
 30
0.0
  0
SEQEND
  5
6E
330
6B
100
AcDbEntity
  8
_U+30EC_U+30A4_U+30E4_U+30FC 1
 62
     7
420
 16777215
370
    25
  0
POLYLINE
  5
6F
330
1F
100
AcDbEntity
  8
_U+30EC_U+30A4_U+30E4_U+30FC 1
 62
     7
420
 16777215
370
    25
100
AcDb2dPolyline
 66
     1
 10
0.0
 20
0.0
 30
0.0
  0
VERTEX
  5
70
330
6F
100
AcDbEntity
  8
_U+30EC_U+30A4_U+30E4_U+30FC 1
 62
     7
420
 16777215
370
    25
100
AcDbVertex
100
AcDb2dVertex
 10
83.35306120681958
 20
-130.2966024674257
 30
0.0
  0
VERTEX
  5
71
330
6F
100
AcDbEntity
  8
_U+30EC_U+30A4_U+30E4_U+30FC 1
 62
     7
420
 16777215
370
    25
100
AcDbVertex
100
AcDb2dVertex
 10
83.35306120681958
 20
-134.7966005218563
 30
0.0
  0
SEQEND
  5
72
330
6F
100
AcDbEntity
  8
_U+30EC_U+30A4_U+30E4_U+30FC 1
 62
     7
420
 16777215
370
    25
  0
POLYLINE
  5
73
330
1F
100
AcDbEntity
  8
_U+30EC_U+30A4_U+30E4_U+30FC 1
 62
     7
420
 16777215
370
    25
100
AcDb2dPolyline
 66
     1
 10
0.0
 20
0.0
 30
0.0
  0
VERTEX
  5
74
330
73
100
AcDbEntity
  8
_U+30EC_U+30A4_U+30E4_U+30FC 1
 62
     7
420
 16777215
370
    25
100
AcDbVertex
100
AcDb2dVertex
 10
90.69937601939948
 20
-134.9964138551396
 30
0.0
  0
VERTEX
  5
75
330
73
100
AcDbEntity
  8
_U+30EC_U+30A4_U+30E4_U+30FC 1
 62
     7
420
 16777215
370
    25
100
AcDbVertex
100
AcDb2dVertex
 10
97.55338945565013
 20
-134.9964138551396
 30
0.0
  0
SEQEND
  5
76
330
73
100
AcDbEntity
  8
_U+30EC_U+30A4_U+30E4_U+30FC 1
 62
     7
420
 16777215
370
    25
  0
POLYLINE
  5
77
330
1F
100
AcDbEntity
  8
_U+30EC_U+30A4_U+30E4_U+30FC 1
 62
     7
420
 16777215
370
    25
100
AcDb2dPolyline
 66
     1
 10
0.0
 20
0.0
 30
0.0
  0
VERTEX
  5
78
330
77
100
AcDbEntity
  8
_U+30EC_U+30A4_U+30E4_U+30FC 1
 62
     7
420
 16777215
370
    25
100
AcDbVertex
100
AcDb2dVertex
 10
90.3531246393442
 20
-134.7966005218563
 30
0.0
  0
VERTEX
  5
79
330
77
100
AcDbEntity
  8
_U+30EC_U+30A4_U+30E4_U+30FC 1
 62
     7
420
 16777215
370
    25
100
AcDbVertex
100
AcDb2dVertex
 10
90.69972879716825
 20
-134.9964138551396
 30
0.0
  0
SEQEND
  5
7A
330
77
100
AcDbEntity
  8
_U+30EC_U+30A4_U+30E4_U+30FC 1
 62
     7
420
 16777215
370
    25
  0
SPLINE
  5
7B
330
1F
100
AcDbEntity
  8
_U+30EC_U+30A4_U+30E4_U+30FC 1
 62
     7
420
 16777215
370
    25
100
AcDbSpline
210
0.0
220
0.0
230
1.0
 70
     8
 71
     3
 72
     8
 73
     4
 74
     0
 42
0.0000000001
 43
0.0000000001
 12
1.0
 22
0.0
 32
0.0
 13
1.0
 23
0.0
 33
0.0
 40
0.0
 40
0.0
 40
0.0
 40
0.0
 40
1.0
 40
1.0
 40
1.0
 40
1.0
 10
82.35258345456612
 20
-134.7962477440786
 30
0.0
 10
82.35258345456612
 20
-135.3488388550514
 30
0.0
 10
82.80047220152213
 20
-135.7960199660511
 30
0.0
 10
83.35306120681958
 20
-135.7960199660511
 30
0.0
  0
SPLINE
  5
7C
330
1F
100
AcDbEntity
  8
_U+30EC_U+30A4_U+30E4_U+30FC 1
 62
     7
420
 16777215
370
     9
100
AcDbSpline
210
0.0
220
0.0
230
1.0
 70
    11
 71
     3
 72
    17
 73
    13
 74
     0
 42
0.0000000001
 43
0.0000000001
 12
1.0
 22
0.0
 32
0.0
 13
1.0
 23
0.0
 33
0.0
 40
0.0
 40
0.0
 40
0.0
 40
0.0
 40
1.0
 40
1.0
 40
1.0
 40
2.0
 40
2.0
 40
2.0
 40
3.0
 40
3.0
 40
3.0
 40
4.0
 40
4.0
 40
4.0
 40
4.0
 10
82.4531956742215
 20
-125.2964008020093
 30
0.0
 10
82.4531956742215
 20
-125.2412616353565
 30
0.0
 10
82.40839289758674
 20
-125.1964941353676
 30
0.0
 10
82.35258345456612
 20
-125.1964941353676
 30
0.0
 10
82.29747956708304
 20
-125.1964941353676
 30
0.0
 10
82.25267679044828
 20
-125.2412616353565
 30
0.0
 10
82.25267679044828
 20
-125.2964008020093
 30
0.0
 10
82.25267679044828
 20
-125.3515046908845
 30
0.0
 10
82.29747956708304
 20
-125.3963074686509
 30
0.0
 10
82.35258345456612
 20
-125.3963074686509
 30
0.0
 10
82.40839289758674
 20
-125.3963074686509
 30
0.0
 10
82.4531956742215
 20
-125.3515046908845
 30
0.0
 10
82.4531956742215
 20
-125.2964008020093
 30
0.0
  0
SPLINE
  5
7D
330
1F
100
AcDbEntity
  8
_U+30EC_U+30A4_U+30E4_U+30FC 1
 62
     7
420
 16777215
370
     9
100
AcDbSpline
210
0.0
220
0.0
230
1.0
 70
    11
 71
     3
 72
    17
 73
    13
 74
     0
 42
0.0000000001
 43
0.0000000001
 12
1.0
 22
0.0
 32
0.0
 13
1.0
 23
0.0
 33
0.0
 40
0.0
 40
0.0
 40
0.0
 40
0.0
 40
1.0
 40
1.0
 40
1.0
 40
2.0
 40
2.0
 40
2.0
 40
3.0
 40
3.0
 40
3.0
 40
4.0
 40
4.0
 40
4.0
 40
4.0
 10
83.45296787093741
 20
-125.2964008020093
 30
0.0
 10
83.45296787093741
 20
-125.2412616353565
 30
0.0
 10
83.40816509430265
 20
-125.1964941353676
 30
0.0
 10
83.35306120681958
 20
-125.1964941353676
 30
0.0
 10
83.29792204155963
 20
-125.1964941353676
 30
0.0
 10
83.25315454270175
 20
-125.2412616353565
 30
0.0
 10
83.25315454270175
 20
-125.2964008020093
 30
0.0
 10
83.25315454270175
 20
-125.3515046908845
 30
0.0
 10
83.29792204155963
 20
-125.3963074686509
 30
0.0
 10
83.35306120681958
 20
-125.3963074686509
 30
0.0
 10
83.40816509430265
 20
-125.3963074686509
 30
0.0
 10
83.45296787093741
 20
-125.3515046908845
 30
0.0
 10
83.45296787093741
 20
-125.2964008020093
 30
0.0
  0
SPLINE
  5
7E
330
1F
100
AcDbEntity
  8
_U+30EC_U+30A4_U+30E4_U+30FC 1
 62
     7
420
 16777215
370
     9
100
AcDbSpline
210
0.0
220
0.0
230
1.0
 70
    11
 71
     3
 72
    17
 73
    13
 74
     0
 42
0.0000000001
 43
0.0000000001
 12
1.0
 22
0.0
 32
0.0
 13
1.0
 23
0.0
 33
0.0
 40
0.0
 40
0.0
 40
0.0
 40
0.0
 40
1.0
 40
1.0
 40
1.0
 40
2.0
 40
2.0
 40
2.0
 40
3.0
 40
3.0
 40
3.0
 40
4.0
 40
4.0
 40
4.0
 40
4.0
 10
98.4532549882482
 20
-139.7964494094954
 30
0.0
 10
98.4532549882482
 20
-139.7413455206204
 30
0.0
 10
98.40845221161345
 20
-139.6965427428537
 30
0.0
 10
98.35334832413038
 20
-139.6965427428537
 30
0.0
 10
98.29820915887042
 20
-139.6965427428537
 30
0.0
 10
98.25344166001254
 20
-139.7413455206204
 30
0.0
 10
98.25344166001254
 20
-139.7964494094954
 30
0.0
 10
98.25344166001254
 20
-139.8515885761484
 30
0.0
 10
98.29820915887042
 20
-139.896356076137
 30
0.0
 10
98.35334832413038
 20
-139.896356076137
 30
0.0
 10
98.40845221161345
 20
-139.896356076137
 30
0.0
 10
98.4532549882482
 20
-139.8515885761484
 30
0.0
 10
98.4532549882482
 20
-139.7964494094954
 30
0.0
  0
SPLINE
  5
7F
330
1F
100
AcDbEntity
  8
_U+30EC_U+30A4_U+30E4_U+30FC 1
 62
     7
420
 16777215
370
     9
100
AcDbSpline
210
0.0
220
0.0
230
1.0
 70
    11
 71
     3
 72
    17
 73
    13
 74
     0
 42
0.0000000001
 43
0.0000000001
 12
1.0
 22
0.0
 32
0.0
 13
1.0
 23
0.0
 33
0.0
 40
0.0
 40
0.0
 40
0.0
 40
0.0
 40
1.0
 40
1.0
 40
1.0
 40
2.0
 40
2.0
 40
2.0
 40
3.0
 40
3.0
 40
3.0
 40
4.0
 40
4.0
 40
4.0
 40
4.0
 10
82.4531956742215
 20
-139.7964494094954
 30
0.0
 10
82.4531956742215
 20
-139.7413455206204
 30
0.0
 10
82.40839289758674
 20
-139.6965427428537
 30
0.0
 10
82.35258345456612
 20
-139.6965427428537
 30
0.0
 10
82.29747956708304
 20
-139.6965427428537
 30
0.0
 10
82.25267679044828
 20
-139.7413455206204
 30
0.0
 10
82.25267679044828
 20
-139.7964494094954
 30
0.0
 10
82.25267679044828
 20
-139.8515885761484
 30
0.0
 10
82.29747956708304
 20
-139.896356076137
 30
0.0
 10
82.35258345456612
 20
-139.896356076137
 30
0.0
 10
82.40839289758674
 20
-139.896356076137
 30
0.0
 10
82.4531956742215
 20
-139.8515885761484
 30
0.0
 10
82.4531956742215
 20
-139.7964494094954
 30
0.0
  0
SPLINE
  5
80
330
1F
100
AcDbEntity
  8
_U+30EC_U+30A4_U+30E4_U+30FC 1
 62
     7
420
 16777215
370
    25
100
AcDbSpline
210
0.0
220
0.0
230
1.0
 70
     8
 71
     3
 72
     8
 73
     4
 74
     0
 42
0.0000000001
 43
0.0000000001
 12
1.0
 22
0.0
 32
0.0
 13
1.0
 23
0.0
 33
0.0
 40
0.0
 40
0.0
 40
0.0
 40
0.0
 40
1.0
 40
1.0
 40
1.0
 40
1.0
 10
83.35306120681958
 20
-123.2961860802871
 30
0.0
 10
83.35306120681958
 20
-122.7442652470916
 30
0.0
 10
82.90517455157945
 20
-122.2964138583149
 30
0.0
 10
82.35258345456612
 20
-122.2964138583149
 30
0.0
  0
SPLINE
  5
81
330
1F
100
AcDbEntity
  8
_U+30EC_U+30A4_U+30E4_U+30FC 1
 62
     7
420
 16777215
370
    25
100
AcDbSpline
210
0.0
220
0.0
230
1.0
 70
     8
 71
     3
 72
     8
 73
     4
 74
     0
 42
0.0000000001
 43
0.0000000001
 12
1.0
 22
0.0
 32
0.0
 13
1.0
 23
0.0
 33
0.0
 40
0.0
 40
0.0
 40
0.0
 40
0.0
 40
1.0
 40
1.0
 40
1.0
 40
1.0
 10
90.3528071393523
 20
-130.2966024674257
 30
0.0
 10
90.3528071393523
 20
-129.7440113564529
 30
0.0
 10
89.90492048411217
 20
-129.2961599676758
 30
0.0
 10
89.35303494263638
 20
-129.2961599676758
 30
0.0
  0
SPLINE
  5
82
330
1F
100
AcDbEntity
  8
_U+30EC_U+30A4_U+30E4_U+30FC 1
 62
     7
420
 16777215
370
    25
100
AcDbSpline
210
0.0
220
0.0
230
1.0
 70
     8
 71
     3
 72
     8
 73
     4
 74
     0
 42
0.0000000001
 43
0.0000000001
 12
1.0
 22
0.0
 32
0.0
 13
1.0
 23
0.0
 33
0.0
 40
0.0
 40
0.0
 40
0.0
 40
0.0
 40
1.0
 40
1.0
 40
1.0
 40
1.0
 10
98.35334832413038
 20
-135.7963727438289
 30
0.0
 10
98.35334832413038
 20
-135.3546949661614
 30
0.0
 10
97.99506722215978
 20
-134.9964138551396
 30
0.0
 10
97.55338945565013
 20
-134.9964138551396
 30
0.0
  0
SPLINE
  5
83
330
1F
100
AcDbEntity
  8
_U+30EC_U+30A4_U+30E4_U+30FC 1
 62
     7
420
 16777215
370
     9
100
AcDbSpline
210
0.0
220
0.0
230
1.0
 70
    11
 71
     3
 72
    17
 73
    13
 74
     0
 42
0.0000000001
 43
0.0000000001
 12
1.0
 22
0.0
 32
0.0
 13
1.0
 23
0.0
 33
0.0
 40
0.0
 40
0.0
 40
0.0
 40
0.0
 40
1.0
 40
1.0
 40
1.0
 40
2.0
 40
2.0
 40
2.0
 40
3.0
 40
3.0
 40
3.0
 40
4.0
 40
4.0
 40
4.0
 40
4.0
 10
78.45273105405964
 20
-122.2964138583149
 30
0.0
 10
78.45273105405964
 20
-122.2412746916618
 30
0.0
 10
78.40796355520176
 20
-122.196507191673
 30
0.0
 10
78.3528243899418
 20
-122.196507191673
 30
0.0
 10
78.29772050245873
 20
-122.196507191673
 30
0.0
 10
78.25291772582396
 20
-122.2412746916618
 30
0.0
 10
78.25291772582396
 20
-122.2964138583149
 30
0.0
 10
78.25291772582396
 20
-122.3515177471898
 30
0.0
 10
78.29772050245873
 20
-122.3963205249566
 30
0.0
 10
78.3528243899418
 20
-122.3963205249566
 30
0.0
 10
78.40796355520176
 20
-122.3963205249566
 30
0.0
 10
78.45273105405964
 20
-122.3515177471898
 30
0.0
 10
78.45273105405964
 20
-122.2964138583149
 30
0.0
  0
SPLINE
  5
84
330
1F
100
AcDbEntity
  8
_U+30EC_U+30A4_U+30E4_U+30FC 1
 62
     7
420
 16777215
370
     9
100
AcDbSpline
210
0.0
220
0.0
230
1.0
 70
    11
 71
     3
 72
    17
 73
    13
 74
     0
 42
0.0000000001
 43
0.0000000001
 12
1.0
 22
0.0
 32
0.0
 13
1.0
 23
0.0
 33
0.0
 40
0.0
 40
0.0
 40
0.0
 40
0.0
 40
1.0
 40
1.0
 40
1.0
 40
2.0
 40
2.0
 40
2.0
 40
3.0
 40
3.0
 40
3.0
 40
4.0
 40
4.0
 40
4.0
 40
4.0
 10
78.45273105405964
 20
-135.6957605216317
 30
0.0
 10
78.45273105405964
 20
-135.6406566327568
 30
0.0
 10
78.40796355520176
 20
-135.5958538549901
 30
0.0
 10
78.3528243899418
 20
-135.5958538549901
 30
0.0
 10
78.29772050245873
 20
-135.5958538549901
 30
0.0
 10
78.25291772582396
 20
-135.6406566327568
 30
0.0
 10
78.25291772582396
 20
-135.6957605216317
 30
0.0
 10
78.25291772582396
 20
-135.7515699660621
 30
0.0
 10
78.29772050245873
 20
-135.7963727438289
 30
0.0
 10
78.3528243899418
 20
-135.7963727438289
 30
0.0
 10
78.40796355520176
 20
-135.7963727438289
 30
0.0
 10
78.45273105405964
 20
-135.7515699660621
 30
0.0
 10
78.45273105405964
 20
-135.6957605216317
 30
0.0
  0
SPLINE
  5
85
330
1F
100
AcDbEntity
  8
_U+30EC_U+30A4_U+30E4_U+30FC 1
 62
     7
420
 16777215
370
     9
100
AcDbSpline
210
0.0
220
0.0
230
1.0
 70
    11
 71
     3
 72
    17
 73
    13
 74
     0
 42
0.0000000001
 43
0.0000000001
 12
1.0
 22
0.0
 32
0.0
 13
1.0
 23
0.0
 33
0.0
 40
0.0
 40
0.0
 40
0.0
 40
0.0
 40
1.0
 40
1.0
 40
1.0
 40
2.0
 40
2.0
 40
2.0
 40
3.0
 40
3.0
 40
3.0
 40
4.0
 40
4.0
 40
4.0
 40
4.0
 10
102.4530166410533
 20
-122.2964138583149
 30
0.0
 10
102.4530166410533
 20
-122.2412746916618
 30
0.0
 10
102.4082138632866
 20
-122.196507191673
 30
0.0
 10
102.3531073887547
 20
-122.196507191673
 30
0.0
 10
102.2979682234947
 20
-122.196507191673
 30
0.0
 10
102.2532007246369
 20
-122.2412746916618
 30
0.0
 10
102.2532007246369
 20
-122.2964138583149
 30
0.0
 10
102.2532007246369
 20
-122.3515177471898
 30
0.0
 10
102.2979682234947
 20
-122.3963205249566
 30
0.0
 10
102.3531073887547
 20
-122.3963205249566
 30
0.0
 10
102.4082138632866
 20
-122.3963205249566
 30
0.0
 10
102.4530166410533
 20
-122.3515177471898
 30
0.0
 10
102.4530166410533
 20
-122.2964138583149
 30
0.0
  0
SPLINE
  5
86
330
1F
100
AcDbEntity
  8
_U+30EC_U+30A4_U+30E4_U+30FC 1
 62
     7
420
 16777215
370
     9
100
AcDbSpline
210
0.0
220
0.0
230
1.0
 70
    11
 71
     3
 72
    17
 73
    13
 74
     0
 42
0.0000000001
 43
0.0000000001
 12
1.0
 22
0.0
 32
0.0
 13
1.0
 23
0.0
 33
0.0
 40
0.0
 40
0.0
 40
0.0
 40
0.0
 40
1.0
 40
1.0
 40
1.0
 40
2.0
 40
2.0
 40
2.0
 40
3.0
 40
3.0
 40
3.0
 40
4.0
 40
4.0
 40
4.0
 40
4.0
 10
102.4530166410533
 20
-130.2966024674257
 30
0.0
 10
102.4530166410533
 20
-130.2407930229953
 30
0.0
 10
102.4082138632866
 20
-130.1960255230067
 30
0.0
 10
102.3531073887547
 20
-130.1960255230067
 30
0.0
 10
102.2979682234947
 20
-130.1960255230067
 30
0.0
 10
102.2532007246369
 20
-130.2407930229953
 30
0.0
 10
102.2532007246369
 20
-130.2966024674257
 30
0.0
 10
102.2532007246369
 20
-130.3517416340788
 30
0.0
 10
102.2979682234947
 20
-130.3965091340674
 30
0.0
 10
102.3531073887547
 20
-130.3965091340674
 30
0.0
 10
102.4082138632866
 20
-130.3965091340674
 30
0.0
 10
102.4530166410533
 20
-130.3517416340788
 30
0.0
 10
102.4530166410533
 20
-130.2966024674257
 30
0.0
  0
SPLINE
  5
87
330
1F
100
AcDbEntity
  8
_U+30EC_U+30A4_U+30E4_U+30FC 1
 62
     7
420
 16777215
370
     9
100
AcDbSpline
210
0.0
220
0.0
230
1.0
 70
    11
 71
     3
 72
    17
 73
    13
 74
     0
 42
0.0000000001
 43
0.0000000001
 12
1.0
 22
0.0
 32
0.0
 13
1.0
 23
0.0
 33
0.0
 40
0.0
 40
0.0
 40
0.0
 40
0.0
 40
1.0
 40
1.0
 40
1.0
 40
2.0
 40
2.0
 40
2.0
 40
3.0
 40
3.0
 40
3.0
 40
4.0
 40
4.0
 40
4.0
 40
4.0
 10
102.4530166410533
 20
-134.6966938552147
 30
0.0
 10
102.4530166410533
 20
-134.6415546885616
 30
0.0
 10
102.4082138632866
 20
-134.596787188573
 30
0.0
 10
102.3531073887547
 20
-134.596787188573
 30
0.0
 10
102.2979682234947
 20
-134.596787188573
 30
0.0
 10
102.2532007246369
 20
-134.6415546885616
 30
0.0
 10
102.2532007246369
 20
-134.6966938552147
 30
0.0
 10
102.2532007246369
 20
-134.7517977440896
 30
0.0
 10
102.2979682234947
 20
-134.7966005218563
 30
0.0
 10
102.3531073887547
 20
-134.7966005218563
 30
0.0
 10
102.4082138632866
 20
-134.7966005218563
 30
0.0
 10
102.4530166410533
 20
-134.7517977440896
 30
0.0
 10
102.4530166410533
 20
-134.6966938552147
 30
0.0
  0
POLYLINE
  5
88
330
1F
100
AcDbEntity
  8
_U+30EC_U+30A4_U+30E4_U+30FC 1
 62
     7
420
 16777215
370
     9
100
AcDb2dPolyline
 66
     1
 10
0.0
 20
0.0
 30
0.0
  0
VERTEX
  5
89
330
88
100
AcDbEntity
  8
_U+30EC_U+30A4_U+30E4_U+30FC 1
 62
     7
420
 16777215
370
     9
100
AcDbVertex
100
AcDb2dVertex
 10
83.35306120681958
 20
-125.2964008020093
 30
0.0
  0
VERTEX
  5
8A
330
88
100
AcDbEntity
  8
_U+30EC_U+30A4_U+30E4_U+30FC 1
 62
     7
420
 16777215
370
     9
100
AcDbVertex
100
AcDb2dVertex
 10
87.12337361063089
 20
-125.2964008020093
 30
0.0
  0
SEQEND
  5
8B
330
88
100
AcDbEntity
  8
_U+30EC_U+30A4_U+30E4_U+30FC 1
 62
     7
420
 16777215
370
     9
  0
POLYLINE
  5
8C
330
1F
100
AcDbEntity
  8
_U+30EC_U+30A4_U+30E4_U+30FC 1
 62
     7
420
 16777215
370
     9
100
AcDb2dPolyline
 66
     1
 10
0.0
 20
0.0
 30
0.0
  0
VERTEX
  5
8D
330
8C
100
AcDbEntity
  8
_U+30EC_U+30A4_U+30E4_U+30FC 1
 62
     7
420
 16777215
370
     9
100
AcDbVertex
100
AcDb2dVertex
 10
81.3528112578502
 20
-125.2964008020093
 30
0.0
  0
VERTEX
  5
8E
330
8C
100
AcDbEntity
  8
_U+30EC_U+30A4_U+30E4_U+30FC 1
 62
     7
420
 16777215
370
     9
100
AcDbVertex
100
AcDb2dVertex
 10
83.35306120681958
 20
-125.2964008020093
 30
0.0
  0
SEQEND
  5
8F
330
8C
100
AcDbEntity
  8
_U+30EC_U+30A4_U+30E4_U+30FC 1
 62
     7
420
 16777215
370
     9
  0
INSERT
  5
91
330
1F
100
AcDbEntity
  8
_U+30EC_U+30A4_U+30E4_U+30FC 1
100
AcDbBlockReference
  2
block 3
 10
0.0
 20
0.0
 30
0.0
  0
POLYLINE
  5
96
330
1F
100
AcDbEntity
  8
_U+30EC_U+30A4_U+30E4_U+30FC 1
 62
     7
420
 16777215
370
     9
100
AcDb2dPolyline
 66
     1
 10
0.0
 20
0.0
 30
0.0
  0
VERTEX
  5
97
330
96
100
AcDbEntity
  8
_U+30EC_U+30A4_U+30E4_U+30FC 1
 62
     7
420
 16777215
370
     9
100
AcDbVertex
100
AcDb2dVertex
 10
102.3531073887547
 20
-134.7966005218563
 30
0.0
  0
VERTEX
  5
98
330
96
100
AcDbEntity
  8
_U+30EC_U+30A4_U+30E4_U+30FC 1
 62
     7
420
 16777215
370
     9
100
AcDbVertex
100
AcDb2dVertex
 10
102.3531073887547
 20
-130.2966024674257
 30
0.0
  0
SEQEND
  5
99
330
96
100
AcDbEntity
  8
_U+30EC_U+30A4_U+30E4_U+30FC 1
 62
     7
420
 16777215
370
     9
  0
POLYLINE
  5
9A
330
1F
100
AcDbEntity
  8
_U+30EC_U+30A4_U+30E4_U+30FC 1
 62
     7
420
 16777215
370
     9
100
AcDb2dPolyline
 66
     1
 10
0.0
 20
0.0
 30
0.0
  0
VERTEX
  5
9B
330
9A
100
AcDbEntity
  8
_U+30EC_U+30A4_U+30E4_U+30FC 1
 62
     7
420
 16777215
370
     9
100
AcDbVertex
100
AcDb2dVertex
 10
95.89286449801365
 20
-134.6966938552147
 30
0.0
  0
VERTEX
  5
9C
330
9A
100
AcDbEntity
  8
_U+30EC_U+30A4_U+30E4_U+30FC 1
 62
     7
420
 16777215
370
     9
100
AcDbVertex
100
AcDb2dVertex
 10
103.3528795854706
 20
-134.6966938552147
 30
0.0
  0
SEQEND
  5
9D
330
9A
100
AcDbEntity
  8
_U+30EC_U+30A4_U+30E4_U+30FC 1
 62
     7
420
 16777215
370
     9
  0
POLYLINE
  5
9E
330
1F
100
AcDbEntity
  8
_U+30EC_U+30A4_U+30E4_U+30FC 1
 62
     7
420
 16777215
370
     9
100
AcDb2dPolyline
 66
     1
 10
0.0
 20
0.0
 30
0.0
  0
VERTEX
  5
9F
330
9E
100
AcDbEntity
  8
_U+30EC_U+30A4_U+30E4_U+30FC 1
 62
     7
420
 16777215
370
     9
100
AcDbVertex
100
AcDb2dVertex
 10
95.89286449801365
 20
-130.2966024674257
 30
0.0
  0
VERTEX
  5
A0
330
9E
100
AcDbEntity
  8
_U+30EC_U+30A4_U+30E4_U+30FC 1
 62
     7
420
 16777215
370
     9
100
AcDbVertex
100
AcDb2dVertex
 10
103.3528795854706
 20
-130.2966024674257
 30
0.0
  0
SEQEND
  5
A1
330
9E
100
AcDbEntity
  8
_U+30EC_U+30A4_U+30E4_U+30FC 1
 62
     7
420
 16777215
370
     9
  0
SPLINE
  5
A2
330
1F
100
AcDbEntity
  8
_U+30EC_U+30A4_U+30E4_U+30FC 1
 62
     7
420
 16777215
370
     9
100
AcDbSpline
210
0.0
220
0.0
230
1.0
 70
    11
 71
     3
 72
    17
 73
    13
 74
     0
 42
0.0000000001
 43
0.0000000001
 12
1.0
 22
0.0
 32
0.0
 13
1.0
 23
0.0
 33
0.0
 40
0.0
 40
0.0
 40
0.0
 40
0.0
 40
1.0
 40
1.0
 40
1.0
 40
2.0
 40
2.0
 40
2.0
 40
3.0
 40
3.0
 40
3.0
 40
4.0
 40
4.0
 40
4.0
 40
4.0
 10
102.4530166410533
 20
-129.2961599676758
 30
0.0
 10
102.4530166410533
 20
-129.2410208010234
 30
0.0
 10
102.4082138632866
 20
-129.1962533010342
 30
0.0
 10
102.3531073887547
 20
-129.1962533010342
 30
0.0
 10
102.2979682234947
 20
-129.1962533010342
 30
0.0
 10
102.2532007246369
 20
-129.2410208010234
 30
0.0
 10
102.2532007246369
 20
-129.2961599676758
 30
0.0
 10
102.2532007246369
 20
-129.3512638565514
 30
0.0
 10
102.2979682234947
 20
-129.3960666343175
 30
0.0
 10
102.3531073887547
 20
-129.3960666343175
 30
0.0
 10
102.4082138632866
 20
-129.3960666343175
 30
0.0
 10
102.4530166410533
 20
-129.3512638565514
 30
0.0
 10
102.4530166410533
 20
-129.2961599676758
 30
0.0
  0
POLYLINE
  5
A3
330
1F
100
AcDbEntity
  8
_U+30EC_U+30A4_U+30E4_U+30FC 1
 62
     7
420
 16777215
370
     9
100
AcDb2dPolyline
 66
     1
 10
0.0
 20
0.0
 30
0.0
  0
VERTEX
  5
A4
330
A3
100
AcDbEntity
  8
_U+30EC_U+30A4_U+30E4_U+30FC 1
 62
     7
420
 16777215
370
     9
100
AcDbVertex
100
AcDb2dVertex
 10
95.89286449801365
 20
-129.2961599676758
 30
0.0
  0
VERTEX
  5
A5
330
A3
100
AcDbEntity
  8
_U+30EC_U+30A4_U+30E4_U+30FC 1
 62
     7
420
 16777215
370
     9
100
AcDbVertex
100
AcDb2dVertex
 10
103.3528795854706
 20
-129.2961599676758
 30
0.0
  0
SEQEND
  5
A6
330
A3
100
AcDbEntity
  8
_U+30EC_U+30A4_U+30E4_U+30FC 1
 62
     7
420
 16777215
370
     9
  0
INSERT
  5
A8
330
1F
100
AcDbEntity
  8
_U+30EC_U+30A4_U+30E4_U+30FC 1
100
AcDbBlockReference
  2
block 4
 10
0.0
 20
0.0
 30
0.0
  0
POLYLINE
  5
CA
330
1F
100
AcDbEntity
  8
_U+30EC_U+30A4_U+30E4_U+30FC 1
 62
     7
420
 16777215
370
     9
100
AcDb2dPolyline
 66
     1
 10
0.0
 20
0.0
 30
0.0
  0
VERTEX
  5
CB
330
CA
100
AcDbEntity
  8
_U+30EC_U+30A4_U+30E4_U+30FC 1
 62
     7
420
 16777215
370
     9
100
AcDbVertex
100
AcDb2dVertex
 10
102.3531073887547
 20
-130.2966024674257
 30
0.0
  0
VERTEX
  5
CC
330
CA
100
AcDbEntity
  8
_U+30EC_U+30A4_U+30E4_U+30FC 1
 62
     7
420
 16777215
370
     9
100
AcDbVertex
100
AcDb2dVertex
 10
102.3531073887547
 20
-122.2964138583149
 30
0.0
  0
SEQEND
  5
CD
330
CA
100
AcDbEntity
  8
_U+30EC_U+30A4_U+30E4_U+30FC 1
 62
     7
420
 16777215
370
     9
  0
POLYLINE
  5
CE
330
1F
100
AcDbEntity
  8
_U+30EC_U+30A4_U+30E4_U+30FC 1
 62
     7
420
 16777215
370
     9
100
AcDb2dPolyline
 66
     1
 10
0.0
 20
0.0
 30
0.0
  0
VERTEX
  5
CF
330
CE
100
AcDbEntity
  8
_U+30EC_U+30A4_U+30E4_U+30FC 1
 62
     7
420
 16777215
370
     9
100
AcDbVertex
100
AcDb2dVertex
 10
84.89300672308785
 20
-122.2964138583149
 30
0.0
  0
VERTEX
  5
D0
330
CE
100
AcDbEntity
  8
_U+30EC_U+30A4_U+30E4_U+30FC 1
 62
     7
420
 16777215
370
     9
100
AcDbVertex
100
AcDb2dVertex
 10
103.3528795854706
 20
-122.2964138583149
 30
0.0
  0
SEQEND
  5
D1
330
CE
100
AcDbEntity
  8
_U+30EC_U+30A4_U+30E4_U+30FC 1
 62
     7
420
 16777215
370
     9
  0
INSERT
  5
D3
330
1F
100
AcDbEntity
  8
_U+30EC_U+30A4_U+30E4_U+30FC 1
100
AcDbBlockReference
  2
block 5
 10
0.0
 20
0.0
 30
0.0
  0
POLYLINE
  5
D8
330
1F
100
AcDbEntity
  8
_U+30EC_U+30A4_U+30E4_U+30FC 1
 62
     7
420
 16777215
370
     9
100
AcDb2dPolyline
 66
     1
 10
0.0
 20
0.0
 30
0.0
  0
VERTEX
  5
D9
330
D8
100
AcDbEntity
  8
_U+30EC_U+30A4_U+30E4_U+30FC 1
 62
     7
420
 16777215
370
     9
100
AcDbVertex
100
AcDb2dVertex
 10
78.3528243899418
 20
-135.7963727438289
 30
0.0
  0
VERTEX
  5
DA
330
D8
100
AcDbEntity
  8
_U+30EC_U+30A4_U+30E4_U+30FC 1
 62
     7
420
 16777215
370
     9
100
AcDbVertex
100
AcDb2dVertex
 10
78.3528243899418
 20
-122.2964138583149
 30
0.0
  0
SEQEND
  5
DB
330
D8
100
AcDbEntity
  8
_U+30EC_U+30A4_U+30E4_U+30FC 1
 62
     7
420
 16777215
370
     9
  0
POLYLINE
  5
DC
330
1F
100
AcDbEntity
  8
_U+30EC_U+30A4_U+30E4_U+30FC 1
 62
     7
420
 16777215
370
     9
100
AcDb2dPolyline
 66
     1
 10
0.0
 20
0.0
 30
0.0
  0
VERTEX
  5
DD
330
DC
100
AcDbEntity
  8
_U+30EC_U+30A4_U+30E4_U+30FC 1
 62
     7
420
 16777215
370
     9
100
AcDbVertex
100
AcDb2dVertex
 10
80.81263793829784
 20
-135.6957605216317
 30
0.0
  0
VERTEX
  5
DE
330
DC
100
AcDbEntity
  8
_U+30EC_U+30A4_U+30E4_U+30FC 1
 62
     7
420
 16777215
370
     9
100
AcDbVertex
100
AcDb2dVertex
 10
77.35308747100278
 20
-135.6957605216317
 30
0.0
  0
SEQEND
  5
DF
330
DC
100
AcDbEntity
  8
_U+30EC_U+30A4_U+30E4_U+30FC 1
 62
     7
420
 16777215
370
     9
  0
POLYLINE
  5
E0
330
1F
100
AcDbEntity
  8
_U+30EC_U+30A4_U+30E4_U+30FC 1
 62
     7
420
 16777215
370
     9
100
AcDb2dPolyline
 66
     1
 10
0.0
 20
0.0
 30
0.0
  0
VERTEX
  5
E1
330
E0
100
AcDbEntity
  8
_U+30EC_U+30A4_U+30E4_U+30FC 1
 62
     7
420
 16777215
370
     9
100
AcDbVertex
100
AcDb2dVertex
 10
79.81286574158193
 20
-122.2964138583149
 30
0.0
  0
VERTEX
  5
E2
330
E0
100
AcDbEntity
  8
_U+30EC_U+30A4_U+30E4_U+30FC 1
 62
     7
420
 16777215
370
     9
100
AcDbVertex
100
AcDb2dVertex
 10
77.35308747100278
 20
-122.2964138583149
 30
0.0
  0
SEQEND
  5
E3
330
E0
100
AcDbEntity
  8
_U+30EC_U+30A4_U+30E4_U+30FC 1
 62
     7
420
 16777215
370
     9
  0
INSERT
  5
E5
330
1F
100
AcDbEntity
  8
_U+30EC_U+30A4_U+30E4_U+30FC 1
100
AcDbBlockReference
  2
block 6
 10
0.0
 20
0.0
 30
0.0
  0
POLYLINE
  5
F6
330
1F
100
AcDbEntity
  8
_U+30EC_U+30A4_U+30E4_U+30FC 1
 62
     7
420
 16777215
370
     9
100
AcDb2dPolyline
 66
     1
 10
0.0
 20
0.0
 30
0.0
  0
VERTEX
  5
F7
330
F6
100
AcDbEntity
  8
_U+30EC_U+30A4_U+30E4_U+30FC 1
 62
     7
420
 16777215
370
     9
100
AcDbVertex
100
AcDb2dVertex
 10
82.35258345456612
 20
-139.7964494094954
 30
0.0
  0
VERTEX
  5
F8
330
F6
100
AcDbEntity
  8
_U+30EC_U+30A4_U+30E4_U+30FC 1
 62
     7
420
 16777215
370
     9
100
AcDbVertex
100
AcDb2dVertex
 10
98.35334832413038
 20
-139.7964494094954
 30
0.0
  0
SEQEND
  5
F9
330
F6
100
AcDbEntity
  8
_U+30EC_U+30A4_U+30E4_U+30FC 1
 62
     7
420
 16777215
370
     9
  0
POLYLINE
  5
FA
330
1F
100
AcDbEntity
  8
_U+30EC_U+30A4_U+30E4_U+30FC 1
 62
     7
420
 16777215
370
     9
100
AcDb2dPolyline
 66
     1
 10
0.0
 20
0.0
 30
0.0
  0
VERTEX
  5
FB
330
FA
100
AcDbEntity
  8
_U+30EC_U+30A4_U+30E4_U+30FC 1
 62
     7
420
 16777215
370
     9
100
AcDbVertex
100
AcDb2dVertex
 10
82.35258345456612
 20
-137.3359655212217
 30
0.0
  0
VERTEX
  5
FC
330
FA
100
AcDbEntity
  8
_U+30EC_U+30A4_U+30E4_U+30FC 1
 62
     7
420
 16777215
370
     9
100
AcDbVertex
100
AcDb2dVertex
 10
82.35258345456612
 20
-140.7962216314679
 30
0.0
  0
SEQEND
  5
FD
330
FA
100
AcDbEntity
  8
_U+30EC_U+30A4_U+30E4_U+30FC 1
 62
     7
420
 16777215
370
     9
  0
POLYLINE
  5
FE
330
1F
100
AcDbEntity
  8
_U+30EC_U+30A4_U+30E4_U+30FC 1
 62
     7
420
 16777215
370
     9
100
AcDb2dPolyline
 66
     1
 10
0.0
 20
0.0
 30
0.0
  0
VERTEX
  5
FF
330
FE
100
AcDbEntity
  8
_U+30EC_U+30A4_U+30E4_U+30FC 1
 62
     7
420
 16777215
370
     9
100
AcDbVertex
100
AcDb2dVertex
 10
98.35334832413038
 20
-138.3364432987492
 30
0.0
  0
VERTEX
  5
100
330
FE
100
AcDbEntity
  8
_U+30EC_U+30A4_U+30E4_U+30FC 1
 62
     7
420
 16777215
370
     9
100
AcDbVertex
100
AcDb2dVertex
 10
98.35334832413038
 20
-140.7962216314679
 30
0.0
  0
SEQEND
  5
101
330
FE
100
AcDbEntity
  8
_U+30EC_U+30A4_U+30E4_U+30FC 1
 62
     7
420
 16777215
370
     9
  0
INSERT
  5
103
330
1F
100
AcDbEntity
  8
_U+30EC_U+30A4_U+30E4_U+30FC 1
100
AcDbBlockReference
  2
block 7
 10
0.0
 20
0.0
 30
0.0
  0
ENDSEC
  0
SECTION
  2
OBJECTS
  0
DICTIONARY
  5
C
330
0
100
AcDbDictionary
281
     1
  3
ACAD_GROUP
350
D
  3
ACAD_LAYOUT
350
1A
  3
ACAD_MATERIAL
350
3B
  3
ACAD_MLEADERSTYLE
350
10C
  3
ACAD_MLINESTYLE
350
17
  3
ACAD_PLOTSETTINGS
350
19
  3
ACAD_PLOTSTYLENAME
350
E
  3
ACAD_TABLESTYLE
350
10B
  3
ACAD_VISUALSTYLE
350
2A
  0
SUN
  5
3F
330
29
100
AcDbSun
 90
        1
290
     0
 63
     7
421
 16777215
 40
1.0
291
     1
 91
  2455826
 92
 54000000
292
     0
 70
     2
 71
   256
280
     1
  0
DICTIONARY
  5
D
102
{ACAD_REACTORS
330
C
102
}
330
C
100
AcDbDictionary
281
     1
  0
DICTIONARY
  5
1A
102
{ACAD_REACTORS
330
C
102
}
330
C
100
AcDbDictionary
281
     1
  3
Layout1
350
1E
  3
Layout2
350
26
  3
Model
350
22
  0
DICTIONARY
  5
3B
102
{ACAD_REACTORS
330
C
102
}
330
C
100
AcDbDictionary
281
     1
  3
ByBlock
350
3D
  3
ByLayer
350
3C
  3
Global
350
3E
  0
DICTIONARY
  5
10C
102
{ACAD_REACTORS
330
C
102
}
330
C
100
AcDbDictionary
281
     1
  0
DICTIONARY
  5
17
102
{ACAD_REACTORS
330
C
102
}
330
C
100
AcDbDictionary
281
     1
  3
Standard
350
18
  0
DICTIONARY
  5
19
102
{ACAD_REACTORS
330
C
102
}
330
C
100
AcDbDictionary
281
     1
  0
ACDBDICTIONARYWDFLT
  5
E
102
{ACAD_REACTORS
330
C
102
}
330
C
100
AcDbDictionary
281
     1
  3
Normal
350
F
100
AcDbDictionaryWithDefault
340
F
  0
DICTIONARY
  5
10B
102
{ACAD_REACTORS
330
C
102
}
330
C
100
AcDbDictionary
281
     1
  0
DICTIONARY
  5
2A
102
{ACAD_REACTORS
330
C
102
}
330
C
100
AcDbDictionary
281
     1
  3
2dWireframe
350
2F
  3
3D Hidden
350
31
  3
3dWireframe
350
30
  3
Basic
350
32
  3
Brighten
350
36
  3
ColorChange
350
3A
  3
Conceptual
350
34
  3
Dim
350
35
  3
Facepattern
350
39
  3
Flat
350
2B
  3
FlatWithEdges
350
2C
  3
Gouraud
350
2D
  3
GouraudWithEdges
350
2E
  3
Linepattern
350
38
  3
Realistic
350
33
  3
Thicken
350
37
  0
LAYOUT
  5
1E
102
{ACAD_REACTORS
330
1A
102
}
330
1A
100
AcDbPlotSettings
  1

  2
none_device
  4

  6

 40
0.0
 41
0.0
 42
0.0
 43
0.0
 44
0.0
 45
0.0
 46
0.0
 47
0.0
 48
0.0
 49
0.0
140
0.0
141
0.0
142
1.0
143
1.0
 70
   688
 72
     0
 73
     0
 74
     5
  7

 75
    16
 76
     0
 77
     2
 78
   300
147
1.0
148
0.0
149
0.0
100
AcDbLayout
  1
Layout1
 70
     1
 71
     1
 10
0.0
 20
0.0
 11
12.0
 21
9.0
 12
0.0
 22
0.0
 32
0.0
 14
1.000000000000000E+20
 24
1.000000000000000E+20
 34
1.000000000000000E+20
 15
-1.000000000000000E+20
 25
-1.000000000000000E+20
 35
-1.000000000000000E+20
146
0.0
 13
0.0
 23
0.0
 33
0.0
 16
1.0
 26
0.0
 36
0.0
 17
0.0
 27
1.0
 37
0.0
 76
     0
330
1B
  0
LAYOUT
  5
26
102
{ACAD_REACTORS
330
1A
102
}
330
1A
100
AcDbPlotSettings
  1

  2
none_device
  4

  6

 40
0.0
 41
0.0
 42
0.0
 43
0.0
 44
0.0
 45
0.0
 46
0.0
 47
0.0
 48
0.0
 49
0.0
140
0.0
141
0.0
142
1.0
143
1.0
 70
   688
 72
     0
 73
     0
 74
     5
  7

 75
    16
 76
     0
 77
     2
 78
   300
147
1.0
148
0.0
149
0.0
100
AcDbLayout
  1
Layout2
 70
     1
 71
     2
 10
0.0
 20
0.0
 11
0.0
 21
0.0
 12
0.0
 22
0.0
 32
0.0
 14
0.0
 24
0.0
 34
0.0
 15
0.0
 25
0.0
 35
0.0
146
0.0
 13
0.0
 23
0.0
 33
0.0
 16
1.0
 26
0.0
 36
0.0
 17
0.0
 27
1.0
 37
0.0
 76
     0
330
23
  0
LAYOUT
  5
22
102
{ACAD_REACTORS
330
1A
102
}
330
1A
100
AcDbPlotSettings
  1

  2
none_device
  4

  6

 40
0.0
 41
0.0
 42
0.0
 43
0.0
 44
0.0
 45
0.0
 46
0.0
 47
0.0
 48
0.0
 49
0.0
140
0.0
141
0.0
142
1.0
143
1.0
 70
  1712
 72
     0
 73
     0
 74
     0
  7

 75
     0
 76
     0
 77
     2
 78
   300
147
1.0
148
0.0
149
0.0
100
AcDbLayout
  1
Model
 70
     1
 71
     0
 10
0.0
 20
0.0
 11
12.0
 21
9.0
 12
0.0
 22
0.0
 32
0.0
 14
1.000000000000000E+20
 24
1.000000000000000E+20
 34
1.000000000000000E+20
 15
-1.000000000000000E+20
 25
-1.000000000000000E+20
 35
-1.000000000000000E+20
146
0.0
 13
0.0
 23
0.0
 33
0.0
 16
1.0
 26
0.0
 36
0.0
 17
0.0
 27
1.0
 37
0.0
 76
     0
330
1F
331
29
  0
MATERIAL
  5
3D
102
{ACAD_REACTORS
330
3B
102
}
330
3B
100
AcDbMaterial
  1
ByBlock
 72
     1
 94
      127
  0
MATERIAL
  5
3C
102
{ACAD_REACTORS
330
3B
102
}
330
3B
100
AcDbMaterial
  1
ByLayer
 72
     1
 94
      127
  0
MATERIAL
  5
3E
102
{ACAD_REACTORS
330
3B
102
}
330
3B
100
AcDbMaterial
  1
Global
 72
     1
 94
      127
  0
MLINESTYLE
  5
18
102
{ACAD_REACTORS
330
17
102
}
330
17
100
AcDbMlineStyle
  2
Standard
 70
     0
  3

 62
   256
 51
90.0
 52
90.0
 71
     2
 49
0.5
 62
   256
  6
BYLAYER
 49
-0.5
 62
   256
  6
BYLAYER
  0
ACDBPLACEHOLDER
  5
F
102
{ACAD_REACTORS
330
E
102
}
330
E
  0
VISUALSTYLE
  5
2F
102
{ACAD_REACTORS
330
2A
102
}
330
2A
100
AcDbVisualStyle
  2
2dWireframe
 70
     4
177
     2
291
     0
 71
     0
176
     1
 72
     2
176
     1
 73
     0
176
     1
 90
        0
176
     1
 40
-0.6
176
     1
 41
-30.0
176
     1
 62
     5
 63
     7
421
 16777215
176
     1
 74
     1
176
     1
 91
        4
176
     1
 64
     7
176
     1
 65
   257
176
     1
 75
     1
176
     1
175
     1
176
     1
 42
1.0
176
     1
 92
        0
176
     1
 66
   257
176
     1
 43
1.0
176
     1
 76
     1
176
     1
 77
     6
176
     1
 78
     2
176
     1
 67
     7
176
     1
 79
     5
176
     1
170
     0
176
     1
171
     0
176
     1
290
     0
176
     1
 93
        1
176
     1
 44
0.0
176
     1
173
     0
176
     1
  0
VISUALSTYLE
  5
31
102
{ACAD_REACTORS
330
2A
102
}
330
2A
100
AcDbVisualStyle
  2
3D Hidden
 70
     6
177
     2
291
     0
 71
     1
176
     1
 72
     2
176
     1
 73
     2
176
     1
 90
        0
176
     1
 40
-0.6
176
     1
 41
-30.0
176
     1
 62
     5
 63
     7
421
 16777215
176
     1
 74
     2
176
     1
 91
        2
176
     1
 64
     7
176
     1
 65
   257
176
     1
 75
     2
176
     1
175
     1
176
     1
 42
40.0
176
     1
 92
        0
176
     1
 66
   257
176
     1
 43
1.0
176
     1
 76
     1
176
     1
 77
     6
176
     1
 78
     2
176
     1
 67
     7
176
     1
 79
     3
176
     1
170
     0
176
     1
171
     0
176
     1
290
     0
176
     1
 93
        1
176
     1
 44
0.0
176
     1
173
     0
176
     1
  0
VISUALSTYLE
  5
30
102
{ACAD_REACTORS
330
2A
102
}
330
2A
100
AcDbVisualStyle
  2
3dWireframe
 70
     5
177
     2
291
     0
 71
     0
176
     1
 72
     2
176
     1
 73
     0
176
     1
 90
        0
176
     1
 40
-0.6
176
     1
 41
-30.0
176
     1
 62
     5
 63
     7
421
 16777215
176
     1
 74
     1
176
     1
 91
        4
176
     1
 64
     7
176
     1
 65
   257
176
     1
 75
     1
176
     1
175
     1
176
     1
 42
1.0
176
     1
 92
        0
176
     1
 66
   257
176
     1
 43
1.0
176
     1
 76
     1
176
     1
 77
     6
176
     1
 78
     2
176
     1
 67
     7
176
     1
 79
     5
176
     1
170
     0
176
     1
171
     0
176
     1
290
     0
176
     1
 93
        1
176
     1
 44
0.0
176
     1
173
     0
176
     1
  0
VISUALSTYLE
  5
32
102
{ACAD_REACTORS
330
2A
102
}
330
2A
100
AcDbVisualStyle
  2
Basic
 70
     7
177
     2
291
     1
 71
     1
176
     1
 72
     0
176
     1
 73
     1
176
     1
 90
        0
176
     1
 40
-0.6
176
     1
 41
-30.0
176
     1
 62
     5
 63
     7
421
 16777215
176
     1
 74
     0
176
     1
 91
        4
176
     1
 64
     7
176
     1
 65
   257
176
     1
 75
     1
176
     1
175
     1
176
     1
 42
1.0
176
     1
 92
        8
176
     1
 66
     7
176
     1
 43
1.0
176
     1
 76
     1
176
     1
 77
     6
176
     1
 78
     2
176
     1
 67
     7
176
     1
 79
     5
176
     1
170
     0
176
     1
171
     0
176
     1
290
     0
176
     1
 93
        1
176
     1
 44
0.0
176
     1
173
     0
176
     1
  0
VISUALSTYLE
  5
36
102
{ACAD_REACTORS
330
2A
102
}
330
2A
100
AcDbVisualStyle
  2
Brighten
 70
    12
177
     2
291
     1
 71
     2
176
     1
 72
     2
176
     1
 73
     0
176
     1
 90
        0
176
     1
 40
-0.6
176
     1
 41
-30.0
176
     1
 62
     5
 63
     7
421
 16777215
176
     1
 74
     1
176
     1
 91
        4
176
     1
 64
     7
176
     1
 65
   257
176
     1
 75
     1
176
     1
175
     1
176
     1
 42
1.0
176
     1
 92
        8
176
     1
 66
     7
176
     1
 43
1.0
176
     1
 76
     1
176
     1
 77
     6
176
     1
 78
     2
176
     1
 67
     7
176
     1
 79
     5
176
     1
170
     0
176
     1
171
     0
176
     1
290
     0
176
     1
 93
        1
176
     1
 44
50.0
176
     1
173
     0
176
     1
  0
VISUALSTYLE
  5
3A
102
{ACAD_REACTORS
330
2A
102
}
330
2A
100
AcDbVisualStyle
  2
ColorChange
 70
    16
177
     2
291
     1
 71
     2
176
     1
 72
     2
176
     1
 73
     3
176
     1
 90
        0
176
     1
 40
-0.6
176
     1
 41
-30.0
176
     1
 62
     5
 63
     8
421
  8421504
176
     1
 74
     1
176
     1
 91
        4
176
     1
 64
     7
176
     1
 65
   257
176
     1
 75
     1
176
     1
175
     1
176
     1
 42
1.0
176
     1
 92
        8
176
     1
 66
     8
424
  8421504
176
     1
 43
1.0
176
     1
 76
     1
176
     1
 77
     6
176
     1
 78
     2
176
     1
 67
     7
176
     1
 79
     5
176
     1
170
     0
176
     1
171
     0
176
     1
290
     0
176
     1
 93
        1
176
     1
 44
0.0
176
     1
173
     0
176
     1
  0
VISUALSTYLE
  5
34
102
{ACAD_REACTORS
330
2A
102
}
330
2A
100
AcDbVisualStyle
  2
Conceptual
 70
     9
177
     2
291
     0
 71
     3
176
     1
 72
     2
176
     1
 73
     0
176
     1
 90
        0
176
     1
 40
-0.6
176
     1
 41
-30.0
176
     1
 62
     5
 63
     7
421
 16777215
176
     1
 74
     2
176
     1
 91
        2
176
     1
 64
     7
176
     1
 65
   257
176
     1
 75
     1
176
     1
175
     1
176
     1
 42
40.0
176
     1
 92
        8
176
     1
 66
     7
176
     1
 43
1.0
176
     1
 76
     1
176
     1
 77
     6
176
     1
 78
     2
176
     1
 67
     7
176
     1
 79
     3
176
     1
170
     0
176
     1
171
     0
176
     1
290
     0
176
     1
 93
        1
176
     1
 44
0.0
176
     1
173
     0
176
     1
  0
VISUALSTYLE
  5
35
102
{ACAD_REACTORS
330
2A
102
}
330
2A
100
AcDbVisualStyle
  2
Dim
 70
    11
177
     2
291
     1
 71
     2
176
     1
 72
     2
176
     1
 73
     0
176
     1
 90
        0
176
     1
 40
-0.6
176
     1
 41
-30.0
176
     1
 62
     5
 63
     7
421
 16777215
176
     1
 74
     1
176
     1
 91
        4
176
     1
 64
     7
176
     1
 65
   257
176
     1
 75
     1
176
     1
175
     1
176
     1
 42
1.0
176
     1
 92
        8
176
     1
 66
     7
176
     1
 43
1.0
176
     1
 76
     1
176
     1
 77
     6
176
     1
 78
     2
176
     1
 67
     7
176
     1
 79
     5
176
     1
170
     0
176
     1
171
     0
176
     1
290
     0
176
     1
 93
        1
176
     1
 44
-50.0
176
     1
173
     0
176
     1
  0
VISUALSTYLE
  5
39
102
{ACAD_REACTORS
330
2A
102
}
330
2A
100
AcDbVisualStyle
  2
Facepattern
 70
    15
177
     2
291
     1
 71
     2
176
     1
 72
     2
176
     1
 73
     0
176
     1
 90
        0
176
     1
 40
-0.6
176
     1
 41
-30.0
176
     1
 62
     5
 63
     7
421
 16777215
176
     1
 74
     1
176
     1
 91
        4
176
     1
 64
     7
176
     1
 65
   257
176
     1
 75
     1
176
     1
175
     1
176
     1
 42
1.0
176
     1
 92
        8
176
     1
 66
     7
176
     1
 43
1.0
176
     1
 76
     1
176
     1
 77
     6
176
     1
 78
     2
176
     1
 67
     7
176
     1
 79
     5
176
     1
170
     0
176
     1
171
     0
176
     1
290
     0
176
     1
 93
        1
176
     1
 44
0.0
176
     1
173
     0
176
     1
  0
VISUALSTYLE
  5
2B
102
{ACAD_REACTORS
330
2A
102
}
330
2A
100
AcDbVisualStyle
  2
Flat
 70
     0
177
     2
291
     1
 71
     2
176
     1
 72
     1
176
     1
 73
     1
176
     1
 90
        2
176
     1
 40
-0.6
176
     1
 41
30.0
176
     1
 62
     5
 63
     7
421
 16777215
176
     1
 74
     0
176
     1
 91
        4
176
     1
 64
     7
176
     1
 65
   257
176
     1
 75
     1
176
     1
175
     1
176
     1
 42
1.0
176
     1
 92
        8
176
     1
 66
     7
176
     1
 43
1.0
176
     1
 76
     1
176
     1
 77
     6
176
     1
 78
     2
176
     1
 67
     7
176
     1
 79
     5
176
     1
170
     0
176
     1
171
     0
176
     1
290
     0
176
     1
 93
       13
176
     1
 44
0.0
176
     1
173
     0
176
     1
  0
VISUALSTYLE
  5
2C
102
{ACAD_REACTORS
330
2A
102
}
330
2A
100
AcDbVisualStyle
  2
FlatWithEdges
 70
     1
177
     2
291
     1
 71
     2
176
     1
 72
     1
176
     1
 73
     1
176
     1
 90
        2
176
     1
 40
-0.6
176
     1
 41
30.0
176
     1
 62
     5
 63
     7
421
 16777215
176
     1
 74
     1
176
     1
 91
        4
176
     1
 64
     7
176
     1
 65
   257
176
     1
 75
     1
176
     1
175
     1
176
     1
 42
1.0
176
     1
 92
        0
176
     1
 66
   257
176
     1
 43
1.0
176
     1
 76
     1
176
     1
 77
     6
176
     1
 78
     2
176
     1
 67
     7
176
     1
 79
     5
176
     1
170
     0
176
     1
171
     0
176
     1
290
     0
176
     1
 93
       13
176
     1
 44
0.0
176
     1
173
     0
176
     1
  0
VISUALSTYLE
  5
2D
102
{ACAD_REACTORS
330
2A
102
}
330
2A
100
AcDbVisualStyle
  2
Gouraud
 70
     2
177
     2
291
     1
 71
     2
176
     1
 72
     2
176
     1
 73
     1
176
     1
 90
        2
176
     1
 40
-0.6
176
     1
 41
30.0
176
     1
 62
     5
 63
     7
421
 16777215
176
     1
 74
     0
176
     1
 91
        4
176
     1
 64
     7
176
     1
 65
   257
176
     1
 75
     1
176
     1
175
     1
176
     1
 42
1.0
176
     1
 92
        0
176
     1
 66
     7
176
     1
 43
1.0
176
     1
 76
     1
176
     1
 77
     6
176
     1
 78
     2
176
     1
 67
     7
176
     1
 79
     5
176
     1
170
     0
176
     1
171
     0
176
     1
290
     0
176
     1
 93
       13
176
     1
 44
0.0
176
     1
173
     0
176
     1
  0
VISUALSTYLE
  5
2E
102
{ACAD_REACTORS
330
2A
102
}
330
2A
100
AcDbVisualStyle
  2
GouraudWithEdges
 70
     3
177
     2
291
     1
 71
     2
176
     1
 72
     2
176
     1
 73
     1
176
     1
 90
        2
176
     1
 40
-0.6
176
     1
 41
30.0
176
     1
 62
     5
 63
     7
421
 16777215
176
     1
 74
     1
176
     1
 91
        4
176
     1
 64
     7
176
     1
 65
   257
176
     1
 75
     1
176
     1
175
     1
176
     1
 42
1.0
176
     1
 92
        0
176
     1
 66
   257
176
     1
 43
1.0
176
     1
 76
     1
176
     1
 77
     6
176
     1
 78
     2
176
     1
 67
     7
176
     1
 79
     5
176
     1
170
     0
176
     1
171
     0
176
     1
290
     0
176
     1
 93
       13
176
     1
 44
0.0
176
     1
173
     0
176
     1
  0
VISUALSTYLE
  5
38
102
{ACAD_REACTORS
330
2A
102
}
330
2A
100
AcDbVisualStyle
  2
Linepattern
 70
    14
177
     2
291
     1
 71
     2
176
     1
 72
     2
176
     1
 73
     0
176
     1
 90
        0
176
     1
 40
-0.6
176
     1
 41
-30.0
176
     1
 62
     5
 63
     7
421
 16777215
176
     1
 74
     1
176
     1
 91
        4
176
     1
 64
     7
176
     1
 65
   257
176
     1
 75
     7
176
     1
175
     7
176
     1
 42
1.0
176
     1
 92
        8
176
     1
 66
     7
176
     1
 43
1.0
176
     1
 76
     1
176
     1
 77
     6
176
     1
 78
     2
176
     1
 67
     7
176
     1
 79
     5
176
     1
170
     0
176
     1
171
     0
176
     1
290
     0
176
     1
 93
        1
176
     1
 44
0.0
176
     1
173
     0
176
     1
  0
VISUALSTYLE
  5
33
102
{ACAD_REACTORS
330
2A
102
}
330
2A
100
AcDbVisualStyle
  2
Realistic
 70
     8
177
     2
291
     0
 71
     2
176
     1
 72
     2
176
     1
 73
     0
176
     1
 90
        0
176
     1
 40
-0.6
176
     1
 41
-30.0
176
     1
 62
     5
 63
     7
421
 16777215
176
     1
 74
     1
176
     1
 91
        0
176
     1
 64
     7
176
     1
 65
   257
176
     1
 75
     1
176
     1
175
     1
176
     1
 42
1.0
176
     1
 92
        8
176
     1
 66
     8
424
  7895160
176
     1
 43
1.0
176
     1
 76
     1
176
     1
 77
     6
176
     1
 78
     2
176
     1
 67
     7
176
     1
 79
     5
176
     1
170
     0
176
     1
171
     0
176
     1
290
     0
176
     1
 93
       13
176
     1
 44
0.0
176
     1
173
     0
176
     1
  0
VISUALSTYLE
  5
37
102
{ACAD_REACTORS
330
2A
102
}
330
2A
100
AcDbVisualStyle
  2
Thicken
 70
    13
177
     2
291
     1
 71
     2
176
     1
 72
     2
176
     1
 73
     0
176
     1
 90
        0
176
     1
 40
-0.6
176
     1
 41
-30.0
176
     1
 62
     5
 63
     7
421
 16777215
176
     1
 74
     1
176
     1
 91
        4
176
     1
 64
     7
176
     1
 65
   257
176
     1
 75
     1
176
     1
175
     1
176
     1
 42
1.0
176
     1
 92
       12
176
     1
 66
     7
176
     1
 43
1.0
176
     1
 76
     1
176
     1
 77
     6
176
     1
 78
     2
176
     1
 67
     7
176
     1
 79
     5
176
     1
170
     0
176
     1
171
     0
176
     1
290
     0
176
     1
 93
        1
176
     1
 44
0.0
176
     1
173
     0
176
     1
  0
ENDSEC
  0
EOF
