  0
SECTION
  2
HEADER
  9
$ACADVER
  1
AC1024
  9
$ACADMAINTVER
 70
     6
  9
$DWGCODEPAGE
  3
UNDEFINED
  9
$INSBASE
 10
0.0
 20
0.0
 30
0.0
  9
$EXTMIN
 10
1.000000000000000E+20
 20
1.000000000000000E+20
 30
1.000000000000000E+20
  9
$EXTMAX
 10
-1.000000000000000E+20
 20
-1.000000000000000E+20
 30
-1.000000000000000E+20
  9
$LIMMIN
 10
0.0
 20
0.0
  9
$LIMMAX
 10
12.0
 20
9.0
  9
$ORTHOMODE
 70
     0
  9
$REGENMODE
 70
     1
  9
$FILLMODE
 70
     1
  9
$QTEXTMODE
 70
     0
  9
$MIRRTEXT
 70
     1
  9
$LTSCALE
 40
1.0
  9
$ATTMODE
 70
     1
  9
$TEXTSIZE
 40
0.2
  9
$TRACEWID
 40
0.05
  9
$TEXTSTYLE
  7
Standard
  9
$CLAYER
  8
0
  9
$CELTYPE
  6
ByLayer
  9
$CECOLOR
 62
   256
  9
$CELTSCALE
 40
1.0
  9
$DISPSILH
 70
     0
  9
$DIMSCALE
 40
1.0
  9
$DIMASZ
 40
0.18
  9
$DIMEXO
 40
0.0625
  9
$DIMDLI
 40
0.38
  9
$DIMRND
 40
0.0
  9
$DIMDLE
 40
0.0
  9
$DIMEXE
 40
0.18
  9
$DIMTP
 40
0.0
  9
$DIMTM
 40
0.0
  9
$DIMTXT
 40
0.18
  9
$DIMCEN
 40
0.09
  9
$DIMTSZ
 40
0.0
  9
$DIMTOL
 70
     0
  9
$DIMLIM
 70
     0
  9
$DIMTIH
 70
     1
  9
$DIMTOH
 70
     1
  9
$DIMSE1
 70
     0
  9
$DIMSE2
 70
     0
  9
$DIMTAD
 70
     0
  9
$DIMZIN
 70
     0
  9
$DIMBLK
  1

  9
$DIMASO
 70
     1
  9
$DIMSHO
 70
     1
  9
$DIMPOST
  1

  9
$DIMAPOST
  1

  9
$DIMALT
 70
     0
  9
$DIMALTD
 70
     2
  9
$DIMALTF
 40
25.4
  9
$DIMLFAC
 40
1.0
  9
$DIMTOFL
 70
     0
  9
$DIMTVP
 40
0.0
  9
$DIMTIX
 70
     0
  9
$DIMSOXD
 70
     0
  9
$DIMSAH
 70
     0
  9
$DIMBLK1
  1

  9
$DIMBLK2
  1

  9
$DIMSTYLE
  2
Standard
  9
$DIMCLRD
 70
     0
  9
$DIMCLRE
 70
     0
  9
$DIMCLRT
 70
     0
  9
$DIMTFAC
 40
1.0
  9
$DIMGAP
 40
0.09
  9
$DIMJUST
 70
     0
  9
$DIMSD1
 70
     0
  9
$DIMSD2
 70
     0
  9
$DIMTOLJ
 70
     1
  9
$DIMTZIN
 70
     0
  9
$DIMALTZ
 70
     0
  9
$DIMALTTZ
 70
     0
  9
$DIMUPT
 70
     0
  9
$DIMDEC
 70
     4
  9
$DIMTDEC
 70
     4
  9
$DIMALTU
 70
     2
  9
$DIMALTTD
 70
     2
  9
$DIMTXSTY
  7
Standard
  9
$DIMAUNIT
 70
     0
  9
$DIMADEC
 70
     0
  9
$DIMALTRND
 40
0.0
  9
$DIMAZIN
 70
     0
  9
$DIMDSEP
 70
    46
  9
$DIMATFIT
 70
     3
  9
$DIMFRAC
 70
     0
  9
$DIMLDRBLK
  1

  9
$DIMLUNIT
 70
     2
  9
$DIMLWD
 70
    -2
  9
$DIMLWE
 70
    -2
  9
$DIMTMOVE
 70
     0
  9
$DIMFXL
 40
1.0
  9
$DIMFXLON
 70
     0
  9
$DIMJOGANG
 40
0.7853981633974483
  9
$DIMTFILL
 70
     0
  9
$DIMTFILLCLR
 70
     0
  9
$DIMARCSYM
 70
     0
  9
$DIMLTYPE
  6

  9
$DIMLTEX1
  6

  9
$DIMLTEX2
  6

  9
$DIMTXTDIRECTION
 70
     0
  9
$LUNITS
 70
     2
  9
$LUPREC
 70
     4
  9
$SKETCHINC
 40
0.1
  9
$FILLETRAD
 40
0.5
  9
$AUNITS
 70
     0
  9
$AUPREC
 70
     0
  9
$MENU
  1
.
  9
$ELEVATION
 40
0.0
  9
$PELEVATION
 40
0.0
  9
$THICKNESS
 40
0.0
  9
$LIMCHECK
 70
     0
  9
$CHAMFERA
 40
0.5
  9
$CHAMFERB
 40
0.5
  9
$CHAMFERC
 40
1.0
  9
$CHAMFERD
 40
0.0
  9
$SKPOLY
 70
     0
  9
$TDCREATE
 40
2457917.619004618
  9
$TDUCREATE
 40
2457917.24400463
  9
$TDUPDATE
 40
2457917.619004618
  9
$TDUUPDATE
 40
2457917.24400463
  9
$TDINDWG
 40
0.0000000116
  9
$TDUSRTIMER
 40
0.0000000116
  9
$USRTIMER
 70
     1
  9
$ANGBASE
 50
0.0
  9
$ANGDIR
 70
     0
  9
$PDMODE
 70
     0
  9
$PDSIZE
 40
0.0
  9
$PLINEWID
 40
0.0
  9
$SPLFRAME
 70
     0
  9
$SPLINETYPE
 70
     6
  9
$SPLINESEGS
 70
     8
  9
$HANDSEED
  5
102
  9
$SURFTAB1
 70
     6
  9
$SURFTAB2
 70
     6
  9
$SURFTYPE
 70
     6
  9
$SURFU
 70
     6
  9
$SURFV
 70
     6
  9
$UCSBASE
  2

  9
$UCSNAME
  2

  9
$UCSORG
 10
0.0
 20
0.0
 30
0.0
  9
$UCSXDIR
 10
1.0
 20
0.0
 30
0.0
  9
$UCSYDIR
 10
0.0
 20
1.0
 30
0.0
  9
$UCSORTHOREF
  2

  9
$UCSORTHOVIEW
 70
     0
  9
$UCSORGTOP
 10
0.0
 20
0.0
 30
0.0
  9
$UCSORGBOTTOM
 10
0.0
 20
0.0
 30
0.0
  9
$UCSORGLEFT
 10
0.0
 20
0.0
 30
0.0
  9
$UCSORGRIGHT
 10
0.0
 20
0.0
 30
0.0
  9
$UCSORGFRONT
 10
0.0
 20
0.0
 30
0.0
  9
$UCSORGBACK
 10
0.0
 20
0.0
 30
0.0
  9
$PUCSBASE
  2

  9
$PUCSNAME
  2

  9
$PUCSORG
 10
0.0
 20
0.0
 30
0.0
  9
$PUCSXDIR
 10
1.0
 20
0.0
 30
0.0
  9
$PUCSYDIR
 10
0.0
 20
1.0
 30
0.0
  9
$PUCSORTHOREF
  2

  9
$PUCSORTHOVIEW
 70
     0
  9
$PUCSORGTOP
 10
0.0
 20
0.0
 30
0.0
  9
$PUCSORGBOTTOM
 10
0.0
 20
0.0
 30
0.0
  9
$PUCSORGLEFT
 10
0.0
 20
0.0
 30
0.0
  9
$PUCSORGRIGHT
 10
0.0
 20
0.0
 30
0.0
  9
$PUCSORGFRONT
 10
0.0
 20
0.0
 30
0.0
  9
$PUCSORGBACK
 10
0.0
 20
0.0
 30
0.0
  9
$USERI1
 70
     0
  9
$USERI2
 70
     0
  9
$USERI3
 70
     0
  9
$USERI4
 70
     0
  9
$USERI5
 70
     0
  9
$USERR1
 40
0.0
  9
$USERR2
 40
0.0
  9
$USERR3
 40
0.0
  9
$USERR4
 40
0.0
  9
$USERR5
 40
0.0
  9
$WORLDVIEW
 70
     1
  9
$SHADEDGE
 70
     3
  9
$SHADEDIF
 70
    70
  9
$TILEMODE
 70
     1
  9
$MAXACTVP
 70
    64
  9
$PINSBASE
 10
0.0
 20
0.0
 30
0.0
  9
$PLIMCHECK
 70
     0
  9
$PEXTMIN
 10
1.000000000000000E+20
 20
1.000000000000000E+20
 30
1.000000000000000E+20
  9
$PEXTMAX
 10
-1.000000000000000E+20
 20
-1.000000000000000E+20
 30
-1.000000000000000E+20
  9
$PLIMMIN
 10
0.0
 20
0.0
  9
$PLIMMAX
 10
12.0
 20
9.0
  9
$UNITMODE
 70
     0
  9
$VISRETAIN
 70
     1
  9
$PLINEGEN
 70
     0
  9
$PSLTSCALE
 70
     1
  9
$TREEDEPTH
 70
  3020
  9
$CMLSTYLE
  2
Standard
  9
$CMLJUST
 70
     0
  9
$CMLSCALE
 40
1.0
  9
$PROXYGRAPHICS
 70
     1
  9
$MEASUREMENT
 70
     0
  9
$CELWEIGHT
370
    -1
  9
$ENDCAPS
280
     0
  9
$JOINSTYLE
280
     0
  9
$LWDISPLAY
290
     1
  9
$INSUNITS
 70
     1
  9
$HYPERLINKBASE
  1

  9
$STYLESHEET
  1

  9
$XEDIT
290
     1
  9
$CEPSNTYPE
380
     0
  9
$PSTYLEMODE
290
     1
  9
$FINGERPRINTGUID
  2
{752D7115-F37F-C1BA-8E84-38D264E9A5C9}
  9
$VERSIONGUID
  2
{FAEB1C32-E019-11D5-929B-00C0DF256EC4}
  9
$EXTNAMES
290
     1
  9
$PSVPSCALE
 40
0.0
  9
$OLESTARTUP
290
     0
  9
$SORTENTS
280
   127
  9
$INDEXCTL
280
     0
  9
$HIDETEXT
280
     1
  9
$XCLIPFRAME
280
     2
  9
$HALOGAP
280
     0
  9
$OBSCOLOR
 70
   257
  9
$OBSLTYPE
280
     0
  9
$INTERSECTIONDISPLAY
280
     0
  9
$INTERSECTIONCOLOR
 70
   257
  9
$DIMASSOC
280
     2
  9
$PROJECTNAME
  1

  9
$CAMERADISPLAY
290
     0
  9
$LENSLENGTH
 40
50.0
  9
$CAMERAHEIGHT
 40
0.0
  9
$STEPSPERSEC
 40
2.0
  9
$STEPSIZE
 40
6.0
  9
$3DDWFPREC
 40
2.0
  9
$PSOLWIDTH
 40
0.25
  9
$PSOLHEIGHT
 40
4.0
  9
$LOFTANG1
 40
1.570796326794897
  9
$LOFTANG2
 40
1.570796326794897
  9
$LOFTMAG1
 40
0.0
  9
$LOFTMAG2
 40
0.0
  9
$LOFTPARAM
 70
     7
  9
$LOFTNORMALS
280
     1
  9
$LATITUDE
 40
37.795
  9
$LONGITUDE
 40
-122.394
  9
$NORTHDIRECTION
 40
0.0
  9
$TIMEZONE
 70
 -8000
  9
$LIGHTGLYPHDISPLAY
280
     1
  9
$TILEMODELIGHTSYNCH
280
     1
  9
$CMATERIAL
347
3C
  9
$SOLIDHIST
280
     1
  9
$SHOWHIST
280
     1
  9
$DWFFRAME
280
     2
  9
$DGNFRAME
280
     2
  9
$REALWORLDSCALE
290
     1
  9
$INTERFERECOLOR
 62
   256
  9
$CSHADOW
280
     0
  9
$SHADOWPLANELOCATION
 40
0.0
  0
ENDSEC
  0
SECTION
  2
CLASSES
  0
CLASS
  1
ACDBDICTIONARYWDFLT
  2
AcDbDictionaryWithDefault
  3
ObjectDBX Classes
 90
        0
 91
        4
280
     0
281
     0
  0
CLASS
  1
VISUALSTYLE
  2
AcDbVisualStyle
  3
ObjectDBX Classes
 90
     4095
 91
        4
280
     0
281
     0
  0
CLASS
  1
MATERIAL
  2
AcDbMaterial
  3
ObjectDBX Classes
 90
     1153
 91
        4
280
     0
281
     0
  0
CLASS
  1
SUN
  2
AcDbSun
  3
SCENEOE
 90
     1024
 91
        4
280
     0
281
     0
  0
ENDSEC
  0
SECTION
  2
TABLES
  0
TABLE
  2
VPORT
  5
8
330
0
100
AcDbSymbolTable
 70
     1
  0
VPORT
  5
29
330
8
100
AcDbSymbolTableRecord
100
AcDbViewportTableRecord
  2
*Active
 70
     0
 10
0.0
 20
0.0
 11
1.0
 21
1.0
 12
0.0
 22
0.0
 13
0.0
 23
0.0
 14
0.5
 24
0.5
 15
0.5
 25
0.5
 16
0.0
 26
0.0
 36
1.0
 17
91.00082462281999
 27
-128.4993055234307
 37
0.0
 40
256.9986110468615
 41
0.7081814508812795
 42
50.0
 43
0.0
 44
0.0
 50
0.0
 51
0.0
 71
     0
 72
   100
 73
     1
 74
     3
 75
     0
 76
     0
 77
     0
 78
     0
281
     0
 65
     1
110
0.0
120
0.0
130
0.0
111
1.0
121
0.0
131
0.0
112
0.0
122
1.0
132
0.0
 79
     0
146
0.0
 60
     3
 61
     5
292
     1
282
     1
141
0.0
142
0.0
 63
   250
361
3F
  0
ENDTAB
  0
TABLE
  2
LTYPE
  5
5
330
0
100
AcDbSymbolTable
 70
     2
  0
LTYPE
  5
14
330
5
100
AcDbSymbolTableRecord
100
AcDbLinetypeTableRecord
  2
ByBlock
 70
     0
  3

 72
    65
 73
     0
 40
0.0
  0
LTYPE
  5
15
330
5
100
AcDbSymbolTableRecord
100
AcDbLinetypeTableRecord
  2
ByLayer
 70
     0
  3

 72
    65
 73
     0
 40
0.0
  0
LTYPE
  5
16
330
5
100
AcDbSymbolTableRecord
100
AcDbLinetypeTableRecord
  2
Continuous
 70
     0
  3
Solid line
 72
    65
 73
     0
 40
0.0
  0
LTYPE
  5
49
330
5
100
AcDbSymbolTableRecord
100
AcDbLinetypeTableRecord
  2
AI-Linetype-1
 70
     0
  3
Adobe Illustrator Linetype No. 1
 72
    65
 73
     2
 40
1.411111110758333
 49
0.7055555553791667
 74
     0
 49
-0.7055555553791667
 74
     0
  0
ENDTAB
  0
TABLE
  2
LAYER
  5
2
330
0
100
AcDbSymbolTable
 70
     2
  0
LAYER
  5
10
330
2
100
AcDbSymbolTableRecord
100
AcDbLayerTableRecord
  2
0
 70
     0
 62
     7
  6
Continuous
370
    -3
390
F
347
3E
  0
LAYER
  5
40
330
2
100
AcDbSymbolTableRecord
100
AcDbLayerTableRecord
  2
_U+30EC_U+30A4_U+30E4_U+30FC 1
 70
     0
 62
     7
  6
Continuous
370
    -3
390
F
347
3E
  0
ENDTAB
  0
TABLE
  2
STYLE
  5
3
330
0
100
AcDbSymbolTable
 70
     1
  0
STYLE
  5
11
330
3
100
AcDbSymbolTableRecord
100
AcDbTextStyleTableRecord
  2
Standard
 70
     0
 40
0.0
 41
1.0
 50
0.0
 71
     0
 42
0.2
  3
txt
  4

  0
ENDTAB
  0
TABLE
  2
VIEW
  5
6
330
0
100
AcDbSymbolTable
 70
     0
  0
ENDTAB
  0
TABLE
  2
UCS
  5
7
330
0
100
AcDbSymbolTable
 70
     0
  0
ENDTAB
  0
TABLE
  2
APPID
  5
9
330
0
100
AcDbSymbolTable
 70
     1
  0
APPID
  5
12
330
9
100
AcDbSymbolTableRecord
100
AcDbRegAppTableRecord
  2
ACAD
 70
     0
  0
ENDTAB
  0
TABLE
  2
DIMSTYLE
  5
A
330
0
100
AcDbSymbolTable
 70
     1
100
AcDbDimStyleTable
  0
DIMSTYLE
105
27
330
A
100
AcDbSymbolTableRecord
100
AcDbDimStyleTableRecord
  2
Standard
 70
     0
178
     0
340
11
  0
ENDTAB
  0
TABLE
  2
BLOCK_RECORD
  5
1
330
0
100
AcDbSymbolTable
 70
     7
  0
BLOCK_RECORD
  5
1F
330
1
100
AcDbSymbolTableRecord
100
AcDbBlockTableRecord
  2
*Model_Space
340
22
 70
     0
280
     1
281
     0
  0
BLOCK_RECORD
  5
1B
330
1
100
AcDbSymbolTableRecord
100
AcDbBlockTableRecord
  2
*Paper_Space
340
1E
 70
     0
280
     1
281
     0
  0
BLOCK_RECORD
  5
23
330
1
100
AcDbSymbolTableRecord
100
AcDbBlockTableRecord
  2
*Paper_Space0
340
26
 70
     0
280
     1
281
     0
  0
BLOCK_RECORD
  5
84
330
1
100
AcDbSymbolTableRecord
100
AcDbBlockTableRecord
  2
block 2
340
0
102
{BLKREFS
331
85
102
}
 70
     0
280
     1
281
     0
  0
BLOCK_RECORD
  5
9B
330
1
100
AcDbSymbolTableRecord
100
AcDbBlockTableRecord
  2
block 3
340
0
102
{BLKREFS
331
9C
102
}
 70
     0
280
     1
281
     0
  0
BLOCK_RECORD
  5
B3
330
1
100
AcDbSymbolTableRecord
100
AcDbBlockTableRecord
  2
block 4
340
0
102
{BLKREFS
331
B4
102
}
 70
     0
280
     1
281
     0
  0
BLOCK_RECORD
  5
C5
330
1
100
AcDbSymbolTableRecord
100
AcDbBlockTableRecord
  2
block 5
340
0
102
{BLKREFS
331
C6
102
}
 70
     0
280
     1
281
     0
  0
BLOCK_RECORD
  5
E3
330
1
100
AcDbSymbolTableRecord
100
AcDbBlockTableRecord
  2
block 6
340
0
102
{BLKREFS
331
E4
102
}
 70
     0
280
     1
281
     0
  0
BLOCK_RECORD
  5
FA
330
1
100
AcDbSymbolTableRecord
100
AcDbBlockTableRecord
  2
block 7
340
0
102
{BLKREFS
331
FB
102
}
 70
     0
280
     1
281
     0
  0
ENDTAB
  0
ENDSEC
  0
SECTION
  2
BLOCKS
  0
BLOCK
  5
20
330
1F
100
AcDbEntity
  8
0
100
AcDbBlockBegin
  2
*Model_Space
 70
     0
 10
0.0
 20
0.0
 30
0.0
  3
*Model_Space
  1

  0
ENDBLK
  5
21
330
1F
100
AcDbEntity
  8
0
100
AcDbBlockEnd
  0
BLOCK
  5
1C
330
1B
100
AcDbEntity
 67
     1
  8
0
100
AcDbBlockBegin
  2
*Paper_Space
 70
     0
 10
0.0
 20
0.0
 30
0.0
  3
*Paper_Space
  1

  0
ENDBLK
  5
1D
330
1B
100
AcDbEntity
 67
     1
  8
0
100
AcDbBlockEnd
  0
BLOCK
  5
24
330
23
100
AcDbEntity
  8
0
100
AcDbBlockBegin
  2
*Paper_Space0
 70
     0
 10
0.0
 20
0.0
 30
0.0
  3
*Paper_Space0
  1

  0
ENDBLK
  5
25
330
23
100
AcDbEntity
  8
0
100
AcDbBlockEnd
  0
BLOCK
  5
86
330
84
100
AcDbEntity
  8
0
100
AcDbBlockBegin
  2
block 2
 70
     0
 10
0.0
 20
0.0
 30
0.0
  3
block 2
  1

  0
SPLINE
  5
88
330
84
100
AcDbEntity
  8
_U+30EC_U+30A4_U+30E4_U+30FC 1
370
     0
100
AcDbSpline
210
0.0
220
0.0
230
1.0
 70
    11
 71
     3
 72
    26
 73
    22
 74
     0
 42
0.0000000001
 43
0.0000000001
 12
1.0
 22
0.0
 32
0.0
 13
1.0
 23
0.0
 33
0.0
 40
0.0
 40
0.0
 40
0.0
 40
0.0
 40
1.0
 40
1.0
 40
1.0
 40
2.0
 40
2.0
 40
2.0
 40
3.0
 40
3.0
 40
3.0
 40
4.0
 40
4.0
 40
4.0
 40
5.0
 40
5.0
 40
5.0
 40
6.0
 40
6.0
 40
6.0
 40
7.0
 40
7.0
 40
7.0
 40
7.0
 10
86.29051240247252
 20
-124.9949543958346
 30
0.0
 10
86.29051240247252
 20
-124.9949543958346
 30
0.0
 10
86.29051240247252
 20
-123.8906290380378
 30
0.0
 10
86.29051240247252
 20
-123.8906290380378
 30
0.0
 10
86.29051240247252
 20
-123.8906290380378
 30
0.0
 10
85.93773462478293
 20
-123.8906290380378
 30
0.0
 10
85.93773462478293
 20
-123.8906290380378
 30
0.0
 10
85.93773462478293
 20
-123.8906290380378
 30
0.0
 10
85.93773462478293
 20
-123.7426621869463
 30
0.0
 10
85.93773462478293
 20
-123.7426621869463
 30
0.0
 10
86.29275171453793
 20
-123.7278482763597
 30
0.0
 10
86.34253334429978
 20
-123.5648952599074
 30
0.0
 10
86.37405596798982
 20
-123.4506903445714
 30
0.0
 10
86.37405596798982
 20
-123.4506903445714
 30
0.0
 10
86.53011879347164
 20
-123.4506903445714
 30
0.0
 10
86.53011879347164
 20
-123.4506903445714
 30
0.0
 10
86.53011879347164
 20
-123.4506903445714
 30
0.0
 10
86.53011879347164
 20
-124.9949543958346
 30
0.0
 10
86.53011879347164
 20
-124.9949543958346
 30
0.0
 10
86.53011879347164
 20
-124.9949543958346
 30
0.0
 10
86.29051240247252
 20
-124.9949543958346
 30
0.0
 10
86.29051240247252
 20
-124.9949543958346
 30
0.0
  0
HATCH
  5
89
330
84
100
AcDbEntity
  8
_U+30EC_U+30A4_U+30E4_U+30FC 1
 62
     7
420
 16777215
100
AcDbHatch
 10
0.0
 20
0.0
 30
0.0
210
0.0
220
0.0
230
1.0
  2
SOLID
 70
     1
 71
     0
 91
        1
 92
        1
 93
        1
 72
     4
 94
        3
 73
     0
 74
     1
 95
       26
 96
       22
 40
0.0
 40
0.0
 40
0.0
 40
0.0
 40
1.0
 40
1.0
 40
1.0
 40
2.0
 40
2.0
 40
2.0
 40
3.0
 40
3.0
 40
3.0
 40
4.0
 40
4.0
 40
4.0
 40
5.0
 40
5.0
 40
5.0
 40
6.0
 40
6.0
 40
6.0
 40
7.0
 40
7.0
 40
7.0
 40
7.0
 10
86.29051240247252
 20
-124.9949543958346
 10
86.29051240247252
 20
-124.9949543958346
 10
86.29051240247252
 20
-123.8906290380378
 10
86.29051240247252
 20
-123.8906290380378
 10
86.29051240247252
 20
-123.8906290380378
 10
85.93773462478293
 20
-123.8906290380378
 10
85.93773462478293
 20
-123.8906290380378
 10
85.93773462478293
 20
-123.8906290380378
 10
85.93773462478293
 20
-123.7426621869463
 10
85.93773462478293
 20
-123.7426621869463
 10
86.29275171453793
 20
-123.7278482763597
 10
86.34253334429978
 20
-123.5648952599074
 10
86.37405596798982
 20
-123.4506903445714
 10
86.37405596798982
 20
-123.4506903445714
 10
86.53011879347164
 20
-123.4506903445714
 10
86.53011879347164
 20
-123.4506903445714
 10
86.53011879347164
 20
-123.4506903445714
 10
86.53011879347164
 20
-124.9949543958346
 10
86.53011879347164
 20
-124.9949543958346
 10
86.53011879347164
 20
-124.9949543958346
 10
86.29051240247252
 20
-124.9949543958346
 10
86.29051240247252
 20
-124.9949543958346
 97
        0
 97
        0
 75
     2
 76
     1
 98
        0
  0
ENDBLK
  5
87
330
84
100
AcDbEntity
  8
0
100
AcDbBlockEnd
  0
BLOCK
  5
9D
330
9B
100
AcDbEntity
  8
0
100
AcDbBlockBegin
  2
block 3
 70
     0
 10
0.0
 20
0.0
 30
0.0
  3
block 3
  1

  0
SPLINE
  5
9F
330
9B
100
AcDbEntity
  8
_U+30EC_U+30A4_U+30E4_U+30FC 1
370
     0
100
AcDbSpline
210
0.0
220
0.0
230
1.0
 70
    11
 71
     3
 72
    62
 73
    58
 74
     0
 42
0.0000000001
 43
0.0000000001
 12
1.0
 22
0.0
 32
0.0
 13
1.0
 23
0.0
 33
0.0
 40
0.0
 40
0.0
 40
0.0
 40
0.0
 40
1.0
 40
1.0
 40
1.0
 40
2.0
 40
2.0
 40
2.0
 40
3.0
 40
3.0
 40
3.0
 40
4.0
 40
4.0
 40
4.0
 40
5.0
 40
5.0
 40
5.0
 40
6.0
 40
6.0
 40
6.0
 40
7.0
 40
7.0
 40
7.0
 40
8.0
 40
8.0
 40
8.0
 40
9.0
 40
9.0
 40
9.0
 40
10.0
 40
10.0
 40
10.0
 40
11.0
 40
11.0
 40
11.0
 40
12.0
 40
12.0
 40
12.0
 40
13.0
 40
13.0
 40
13.0
 40
14.0
 40
14.0
 40
14.0
 40
15.0
 40
15.0
 40
15.0
 40
16.0
 40
16.0
 40
16.0
 40
17.0
 40
17.0
 40
17.0
 40
18.0
 40
18.0
 40
18.0
 40
19.0
 40
19.0
 40
19.0
 40
19.0
 10
105.4585069180798
 20
-133.2590494458519
 30
0.0
 10
105.4585069180798
 20
-133.3606797626668
 30
0.0
 10
105.4374918356198
 20
-133.5935682174697
 30
0.0
 10
105.2514566794163
 20
-133.7268934127488
 30
0.0
 10
105.1391465665972
 20
-133.8061306089096
 30
0.0
 10
105.039927816622
 20
-133.8106092330404
 30
0.0
 10
104.9551784676848
 20
-133.8150878571712
 30
0.0
 10
104.9551784676848
 20
-133.8150878571712
 30
0.0
 10
104.9551784676848
 20
-133.5801323450772
 30
0.0
 10
104.9551784676848
 20
-133.5801323450772
 30
0.0
 10
105.0292480206177
 20
-133.5777207782375
 30
0.0
 10
105.2638590231632
 20
-133.5663519631362
 30
0.0
 10
105.2638590231632
 20
-133.2635280699827
 30
0.0
 10
105.2638590231632
 20
-133.1164224927626
 30
0.0
 10
105.1942680943612
 20
-132.9538139858588
 30
0.0
 10
104.9658582636891
 20
-132.9538139858588
 30
0.0
 10
104.8494140362877
 20
-132.9538139858588
 30
0.0
 10
104.8008381899456
 20
-132.9944661125847
 30
0.0
 10
104.7691433114813
 20
-133.0282280483402
 30
0.0
 10
104.6950737585485
 20
-133.1074652445009
 30
0.0
 10
104.682326905253
 20
-133.2318331915184
 30
0.0
 10
104.682326905253
 20
-133.2907443243162
 30
0.0
 10
104.682326905253
 20
-133.3110703876792
 30
0.0
 10
104.6843939625442
 20
-133.3493109475654
 30
0.0
 10
104.6885280771265
 20
-133.3789387687386
 30
0.0
 10
104.6885280771265
 20
-133.3789387687386
 30
0.0
 10
104.4938801822099
 20
-133.3789387687386
 30
0.0
 10
104.4938801822099
 20
-133.3789387687386
 30
0.0
 10
104.5004258636318
 20
-133.3382866420127
 30
0.0
 10
104.502492920923
 20
-133.2928113816074
 30
0.0
 10
104.502492920923
 20
-133.2862657001854
 30
0.0
 10
104.502492920923
 20
-133.2159857522863
 30
0.0
 10
104.4811333289144
 20
-133.0034233608464
 30
0.0
 10
104.2444552690778
 20
-133.0034233608464
 30
0.0
 10
104.0666883420389
 20
-133.0034233608464
 30
0.0
 10
104.0115668142749
 20
-133.143638747096
 30
0.0
 10
104.0115668142749
 20
-133.2611165031431
 30
0.0
 10
104.0115668142749
 20
-133.5439588424821
 30
0.0
 10
104.2444552690778
 20
-133.5529160907437
 30
0.0
 10
104.316113255171
 20
-133.5573947148745
 30
0.0
 10
104.316113255171
 20
-133.5573947148745
 30
0.0
 10
104.316113255171
 20
-133.7744357304453
 30
0.0
 10
104.316113255171
 20
-133.7744357304453
 30
0.0
 10
104.1914007986049
 20
-133.7654784821836
 30
0.0
 10
103.8148518620671
 20
-133.736195170559
 30
0.0
 10
103.8148518620671
 20
-133.2476806307506
 30
0.0
 10
103.8148518620671
 20
-133.0079019849772
 30
0.0
 10
103.9419758854728
 20
-132.7502088426805
 30
0.0
 10
104.2379095876558
 20
-132.7502088426805
 30
0.0
 10
104.4242892534078
 20
-132.7502088426805
 30
0.0
 10
104.5066270355053
 20
-132.8521836690439
 30
0.0
 10
104.5679497351427
 20
-132.9582926099896
 30
0.0
 10
104.5955104990247
 20
-132.8928357957699
 30
0.0
 10
104.6757812238311
 20
-132.6981879008532
 30
0.0
 10
104.9531114103937
 20
-132.6981879008532
 30
0.0
 10
105.2914197870452
 20
-132.6981879008532
 30
0.0
 10
105.4585069180798
 20
-132.9627712341204
 30
0.0
 10
105.4585069180798
 20
-133.2590494458519
 30
0.0
  0
HATCH
  5
A0
330
9B
100
AcDbEntity
  8
_U+30EC_U+30A4_U+30E4_U+30FC 1
 62
     7
420
 16777215
100
AcDbHatch
 10
0.0
 20
0.0
 30
0.0
210
0.0
220
0.0
230
1.0
  2
SOLID
 70
     1
 71
     0
 91
        1
 92
        1
 93
        1
 72
     4
 94
        3
 73
     0
 74
     1
 95
       62
 96
       58
 40
0.0
 40
0.0
 40
0.0
 40
0.0
 40
1.0
 40
1.0
 40
1.0
 40
2.0
 40
2.0
 40
2.0
 40
3.0
 40
3.0
 40
3.0
 40
4.0
 40
4.0
 40
4.0
 40
5.0
 40
5.0
 40
5.0
 40
6.0
 40
6.0
 40
6.0
 40
7.0
 40
7.0
 40
7.0
 40
8.0
 40
8.0
 40
8.0
 40
9.0
 40
9.0
 40
9.0
 40
10.0
 40
10.0
 40
10.0
 40
11.0
 40
11.0
 40
11.0
 40
12.0
 40
12.0
 40
12.0
 40
13.0
 40
13.0
 40
13.0
 40
14.0
 40
14.0
 40
14.0
 40
15.0
 40
15.0
 40
15.0
 40
16.0
 40
16.0
 40
16.0
 40
17.0
 40
17.0
 40
17.0
 40
18.0
 40
18.0
 40
18.0
 40
19.0
 40
19.0
 40
19.0
 40
19.0
 10
105.4585069180798
 20
-133.2590494458519
 10
105.4585069180798
 20
-133.3606797626668
 10
105.4374918356198
 20
-133.5935682174697
 10
105.2514566794163
 20
-133.7268934127488
 10
105.1391465665972
 20
-133.8061306089096
 10
105.039927816622
 20
-133.8106092330404
 10
104.9551784676848
 20
-133.8150878571712
 10
104.9551784676848
 20
-133.8150878571712
 10
104.9551784676848
 20
-133.5801323450772
 10
104.9551784676848
 20
-133.5801323450772
 10
105.0292480206177
 20
-133.5777207782375
 10
105.2638590231632
 20
-133.5663519631362
 10
105.2638590231632
 20
-133.2635280699827
 10
105.2638590231632
 20
-133.1164224927626
 10
105.1942680943612
 20
-132.9538139858588
 10
104.9658582636891
 20
-132.9538139858588
 10
104.8494140362877
 20
-132.9538139858588
 10
104.8008381899456
 20
-132.9944661125847
 10
104.7691433114813
 20
-133.0282280483402
 10
104.6950737585485
 20
-133.1074652445009
 10
104.682326905253
 20
-133.2318331915184
 10
104.682326905253
 20
-133.2907443243162
 10
104.682326905253
 20
-133.3110703876792
 10
104.6843939625442
 20
-133.3493109475654
 10
104.6885280771265
 20
-133.3789387687386
 10
104.6885280771265
 20
-133.3789387687386
 10
104.4938801822099
 20
-133.3789387687386
 10
104.4938801822099
 20
-133.3789387687386
 10
104.5004258636318
 20
-133.3382866420127
 10
104.502492920923
 20
-133.2928113816074
 10
104.502492920923
 20
-133.2862657001854
 10
104.502492920923
 20
-133.2159857522863
 10
104.4811333289144
 20
-133.0034233608464
 10
104.2444552690778
 20
-133.0034233608464
 10
104.0666883420389
 20
-133.0034233608464
 10
104.0115668142749
 20
-133.143638747096
 10
104.0115668142749
 20
-133.2611165031431
 10
104.0115668142749
 20
-133.5439588424821
 10
104.2444552690778
 20
-133.5529160907437
 10
104.316113255171
 20
-133.5573947148745
 10
104.316113255171
 20
-133.5573947148745
 10
104.316113255171
 20
-133.7744357304453
 10
104.316113255171
 20
-133.7744357304453
 10
104.1914007986049
 20
-133.7654784821836
 10
103.8148518620671
 20
-133.736195170559
 10
103.8148518620671
 20
-133.2476806307506
 10
103.8148518620671
 20
-133.0079019849772
 10
103.9419758854728
 20
-132.7502088426805
 10
104.2379095876558
 20
-132.7502088426805
 10
104.4242892534078
 20
-132.7502088426805
 10
104.5066270355053
 20
-132.8521836690439
 10
104.5679497351427
 20
-132.9582926099896
 10
104.5955104990247
 20
-132.8928357957699
 10
104.6757812238311
 20
-132.6981879008532
 10
104.9531114103937
 20
-132.6981879008532
 10
105.2914197870452
 20
-132.6981879008532
 10
105.4585069180798
 20
-132.9627712341204
 10
105.4585069180798
 20
-133.2590494458519
 97
        0
 97
        0
 75
     2
 76
     1
 98
        0
  0
POLYLINE
  5
A1
330
9B
100
AcDbEntity
  8
_U+30EC_U+30A4_U+30E4_U+30FC 1
370
     0
100
AcDb2dPolyline
 66
     1
 10
0.0
 20
0.0
 30
0.0
  0
VERTEX
  5
A2
330
A1
100
AcDbEntity
  8
_U+30EC_U+30A4_U+30E4_U+30FC 1
370
     0
100
AcDbVertex
100
AcDb2dVertex
 10
105.4078640144466
 20
-132.4625433696621
 30
0.0
  0
VERTEX
  5
A3
330
A1
100
AcDbEntity
  8
_U+30EC_U+30A4_U+30E4_U+30FC 1
370
     0
100
AcDbVertex
100
AcDb2dVertex
 10
105.1560275344749
 20
-132.4625433696621
 30
0.0
  0
VERTEX
  5
A4
330
A1
100
AcDbEntity
  8
_U+30EC_U+30A4_U+30E4_U+30FC 1
370
     0
100
AcDbVertex
100
AcDb2dVertex
 10
105.1560275344749
 20
-132.1934814122641
 30
0.0
  0
VERTEX
  5
A5
330
A1
100
AcDbEntity
  8
_U+30EC_U+30A4_U+30E4_U+30FC 1
370
     0
100
AcDbVertex
100
AcDb2dVertex
 10
105.4078640144466
 20
-132.1934814122641
 30
0.0
  0
VERTEX
  5
A6
330
A1
100
AcDbEntity
  8
_U+30EC_U+30A4_U+30E4_U+30FC 1
370
     0
100
AcDbVertex
100
AcDb2dVertex
 10
105.4078640144466
 20
-132.4625433696621
 30
0.0
  0
SEQEND
  5
A7
330
A1
100
AcDbEntity
  8
_U+30EC_U+30A4_U+30E4_U+30FC 1
370
     0
  0
HATCH
  5
A8
330
9B
100
AcDbEntity
  8
_U+30EC_U+30A4_U+30E4_U+30FC 1
 62
     7
420
 16777215
100
AcDbHatch
 10
0.0
 20
0.0
 30
0.0
210
0.0
220
0.0
230
1.0
  2
SOLID
 70
     1
 71
     0
 91
        1
 92
        1
 93
        4
 72
     1
 10
105.4078640144466
 20
-132.4625433696621
 11
105.1560275344749
 21
-132.4625433696621
 72
     1
 10
105.1560275344749
 20
-132.4625433696621
 11
105.1560275344749
 21
-132.1934814122641
 72
     1
 10
105.1560275344749
 20
-132.1934814122641
 11
105.4078640144466
 21
-132.1934814122641
 72
     1
 10
105.4078640144466
 20
-132.1934814122641
 11
105.4078640144466
 21
-132.4625433696621
 97
        0
 75
     2
 76
     1
 98
        0
  0
SPLINE
  5
A9
330
9B
100
AcDbEntity
  8
_U+30EC_U+30A4_U+30E4_U+30FC 1
370
     0
100
AcDbSpline
210
0.0
220
0.0
230
1.0
 70
    11
 71
     3
 72
    53
 73
    49
 74
     0
 42
0.0000000001
 43
0.0000000001
 12
1.0
 22
0.0
 32
0.0
 13
1.0
 23
0.0
 33
0.0
 40
0.0
 40
0.0
 40
0.0
 40
0.0
 40
1.0
 40
1.0
 40
1.0
 40
2.0
 40
2.0
 40
2.0
 40
3.0
 40
3.0
 40
3.0
 40
4.0
 40
4.0
 40
4.0
 40
5.0
 40
5.0
 40
5.0
 40
6.0
 40
6.0
 40
6.0
 40
7.0
 40
7.0
 40
7.0
 40
8.0
 40
8.0
 40
8.0
 40
9.0
 40
9.0
 40
9.0
 40
10.0
 40
10.0
 40
10.0
 40
11.0
 40
11.0
 40
11.0
 40
12.0
 40
12.0
 40
12.0
 40
13.0
 40
13.0
 40
13.0
 40
14.0
 40
14.0
 40
14.0
 40
15.0
 40
15.0
 40
15.0
 40
16.0
 40
16.0
 40
16.0
 40
16.0
 10
105.4585069180798
 20
-131.4266031572475
 30
0.0
 10
105.4585069180798
 20
-131.5103189775391
 30
0.0
 10
105.4416259502021
 20
-131.6184949757759
 30
0.0
 10
105.3782361932735
 20
-131.7273599931098
 30
0.0
 10
105.268337647294
 20
-131.9127061302163
 30
0.0
 10
105.137079509306
 20
-131.9350992508704
 30
0.0
 10
105.0292480206177
 20
-131.9554253142334
 30
0.0
 10
105.0292480206177
 20
-131.9554253142334
 30
0.0
 10
105.0292480206177
 20
-131.7180582352997
 30
0.0
 10
105.0292480206177
 20
-131.7180582352997
 30
0.0
 10
105.2280300301166
 20
-131.6594916120504
 30
0.0
 10
105.2576578512898
 20
-131.5237548499316
 30
0.0
 10
105.2576578512898
 20
-131.4241915904078
 30
0.0
 10
105.2576578512898
 20
-131.2750189558965
 30
0.0
 10
105.158094591766
 20
-131.1120659394442
 30
0.0
 10
104.9255506465117
 20
-131.1120659394442
 30
0.0
 10
104.6695800519576
 20
-131.1120659394442
 30
0.0
 10
104.599644613607
 20
-131.3043022675212
 30
0.0
 10
104.599644613607
 20
-131.4331488386695
 30
0.0
 10
104.599644613607
 20
-131.4672552839735
 30
0.0
 10
104.599644613607
 20
-131.6184949757759
 30
0.0
 10
104.7288356943039
 20
-131.7135796111688
 30
0.0
 10
104.7288356943039
 20
-131.7135796111688
 30
0.0
 10
104.709887669135
 20
-131.9013373151149
 30
0.0
 10
104.709887669135
 20
-131.9013373151149
 30
0.0
 10
104.709887669135
 20
-131.9013373151149
 30
0.0
 10
103.8634277084091
 20
-131.7724907439666
 30
0.0
 10
103.8634277084091
 20
-131.7724907439666
 30
0.0
 10
103.8634277084091
 20
-131.7724907439666
 30
0.0
 10
103.8634277084091
 20
-130.9405001842788
 30
0.0
 10
103.8634277084091
 20
-130.9405001842788
 30
0.0
 10
103.8634277084091
 20
-130.9405001842788
 30
0.0
 10
104.0580756033258
 20
-130.9405001842788
 30
0.0
 10
104.0580756033258
 20
-130.9405001842788
 30
0.0
 10
104.0580756033258
 20
-130.9405001842788
 30
0.0
 10
104.0580756033258
 20
-131.598168912413
 30
0.0
 10
104.0580756033258
 20
-131.598168912413
 30
0.0
 10
104.0580756033258
 20
-131.598168912413
 30
0.0
 10
104.4811333289144
 20
-131.6684488603121
 30
0.0
 10
104.4811333289144
 20
-131.6684488603121
 30
0.0
 10
104.447371393159
 20
-131.6029920460923
 30
0.0
 10
104.4070637759816
 20
-131.5147976016699
 30
0.0
 10
104.4070637759816
 20
-131.3880180878127
 30
0.0
 10
104.4070637759816
 20
-131.1168890731236
 30
0.0
 10
104.5934434417336
 20
-130.8636745549577
 30
0.0
 10
104.9066026213428
 20
-130.8636745549577
 30
0.0
 10
105.2238959155343
 20
-130.8636745549577
 30
0.0
 10
105.4585069180798
 20
-131.1031086911826
 30
0.0
 10
105.4585069180798
 20
-131.4266031572475
 30
0.0
  0
HATCH
  5
AA
330
9B
100
AcDbEntity
  8
_U+30EC_U+30A4_U+30E4_U+30FC 1
 62
     7
420
 16777215
100
AcDbHatch
 10
0.0
 20
0.0
 30
0.0
210
0.0
220
0.0
230
1.0
  2
SOLID
 70
     1
 71
     0
 91
        1
 92
        1
 93
        1
 72
     4
 94
        3
 73
     0
 74
     1
 95
       53
 96
       49
 40
0.0
 40
0.0
 40
0.0
 40
0.0
 40
1.0
 40
1.0
 40
1.0
 40
2.0
 40
2.0
 40
2.0
 40
3.0
 40
3.0
 40
3.0
 40
4.0
 40
4.0
 40
4.0
 40
5.0
 40
5.0
 40
5.0
 40
6.0
 40
6.0
 40
6.0
 40
7.0
 40
7.0
 40
7.0
 40
8.0
 40
8.0
 40
8.0
 40
9.0
 40
9.0
 40
9.0
 40
10.0
 40
10.0
 40
10.0
 40
11.0
 40
11.0
 40
11.0
 40
12.0
 40
12.0
 40
12.0
 40
13.0
 40
13.0
 40
13.0
 40
14.0
 40
14.0
 40
14.0
 40
15.0
 40
15.0
 40
15.0
 40
16.0
 40
16.0
 40
16.0
 40
16.0
 10
105.4585069180798
 20
-131.4266031572475
 10
105.4585069180798
 20
-131.5103189775391
 10
105.4416259502021
 20
-131.6184949757759
 10
105.3782361932735
 20
-131.7273599931098
 10
105.268337647294
 20
-131.9127061302163
 10
105.137079509306
 20
-131.9350992508704
 10
105.0292480206177
 20
-131.9554253142334
 10
105.0292480206177
 20
-131.9554253142334
 10
105.0292480206177
 20
-131.7180582352997
 10
105.0292480206177
 20
-131.7180582352997
 10
105.2280300301166
 20
-131.6594916120504
 10
105.2576578512898
 20
-131.5237548499316
 10
105.2576578512898
 20
-131.4241915904078
 10
105.2576578512898
 20
-131.2750189558965
 10
105.158094591766
 20
-131.1120659394442
 10
104.9255506465117
 20
-131.1120659394442
 10
104.6695800519576
 20
-131.1120659394442
 10
104.599644613607
 20
-131.3043022675212
 10
104.599644613607
 20
-131.4331488386695
 10
104.599644613607
 20
-131.4672552839735
 10
104.599644613607
 20
-131.6184949757759
 10
104.7288356943039
 20
-131.7135796111688
 10
104.7288356943039
 20
-131.7135796111688
 10
104.709887669135
 20
-131.9013373151149
 10
104.709887669135
 20
-131.9013373151149
 10
104.709887669135
 20
-131.9013373151149
 10
103.8634277084091
 20
-131.7724907439666
 10
103.8634277084091
 20
-131.7724907439666
 10
103.8634277084091
 20
-131.7724907439666
 10
103.8634277084091
 20
-130.9405001842788
 10
103.8634277084091
 20
-130.9405001842788
 10
103.8634277084091
 20
-130.9405001842788
 10
104.0580756033258
 20
-130.9405001842788
 10
104.0580756033258
 20
-130.9405001842788
 10
104.0580756033258
 20
-130.9405001842788
 10
104.0580756033258
 20
-131.598168912413
 10
104.0580756033258
 20
-131.598168912413
 10
104.0580756033258
 20
-131.598168912413
 10
104.4811333289144
 20
-131.6684488603121
 10
104.4811333289144
 20
-131.6684488603121
 10
104.447371393159
 20
-131.6029920460923
 10
104.4070637759816
 20
-131.5147976016699
 10
104.4070637759816
 20
-131.3880180878127
 10
104.4070637759816
 20
-131.1168890731236
 10
104.5934434417336
 20
-130.8636745549577
 10
104.9066026213428
 20
-130.8636745549577
 10
105.2238959155343
 20
-130.8636745549577
 10
105.4585069180798
 20
-131.1031086911826
 10
105.4585069180798
 20
-131.4266031572475
 97
        0
 97
        0
 75
     2
 76
     1
 98
        0
  0
ENDBLK
  5
9E
330
9B
100
AcDbEntity
  8
0
100
AcDbBlockEnd
  0
BLOCK
  5
B5
330
B3
100
AcDbEntity
  8
0
100
AcDbBlockBegin
  2
block 4
 70
     0
 10
0.0
 20
0.0
 30
0.0
  3
block 4
  1

  0
SPLINE
  5
B7
330
B3
100
AcDbEntity
  8
_U+30EC_U+30A4_U+30E4_U+30FC 1
370
     0
100
AcDbSpline
210
0.0
220
0.0
230
1.0
 70
    11
 71
     3
 72
    26
 73
    22
 74
     0
 42
0.0000000001
 43
0.0000000001
 12
1.0
 22
0.0
 32
0.0
 13
1.0
 23
0.0
 33
0.0
 40
0.0
 40
0.0
 40
0.0
 40
0.0
 40
1.0
 40
1.0
 40
1.0
 40
2.0
 40
2.0
 40
2.0
 40
3.0
 40
3.0
 40
3.0
 40
4.0
 40
4.0
 40
4.0
 40
5.0
 40
5.0
 40
5.0
 40
6.0
 40
6.0
 40
6.0
 40
7.0
 40
7.0
 40
7.0
 40
7.0
 10
101.7040418582546
 20
-126.5390461923236
 30
0.0
 10
101.7040418582546
 20
-126.5390461923236
 30
0.0
 10
101.7040418582546
 20
-126.7922607104894
 30
0.0
 10
101.7040418582546
 20
-126.7922607104894
 30
0.0
 10
101.3950167932276
 20
-126.7652167109302
 30
0.0
 10
100.8768744322461
 20
-126.5595445104608
 30
0.0
 10
100.3711344150114
 20
-126.1254624793193
 30
0.0
 10
100.3711344150114
 20
-126.1254624793193
 30
0.0
 10
100.3711344150114
 20
-127.0206705411615
 30
0.0
 10
100.3711344150114
 20
-127.0206705411615
 30
0.0
 10
100.3711344150114
 20
-127.0206705411615
 30
0.0
 10
100.159605552217
 20
-127.0206705411615
 30
0.0
 10
100.159605552217
 20
-127.0206705411615
 30
0.0
 10
100.159605552217
 20
-127.0206705411615
 30
0.0
 10
100.159605552217
 20
-125.8722479611535
 30
0.0
 10
100.159605552217
 20
-125.8722479611535
 30
0.0
 10
100.159605552217
 20
-125.8722479611535
 30
0.0
 10
100.3711344150114
 20
-125.8722479611535
 30
0.0
 10
100.3711344150114
 20
-125.8722479611535
 30
0.0
 10
100.6612114548694
 20
-126.2181355478725
 30
0.0
 10
101.2534233687839
 20
-126.5028726897284
 30
0.0
 10
101.7040418582546
 20
-126.5390461923236
 30
0.0
  0
HATCH
  5
B8
330
B3
100
AcDbEntity
  8
_U+30EC_U+30A4_U+30E4_U+30FC 1
 62
     7
420
 16777215
100
AcDbHatch
 10
0.0
 20
0.0
 30
0.0
210
0.0
220
0.0
230
1.0
  2
SOLID
 70
     1
 71
     0
 91
        1
 92
        1
 93
        1
 72
     4
 94
        3
 73
     0
 74
     1
 95
       26
 96
       22
 40
0.0
 40
0.0
 40
0.0
 40
0.0
 40
1.0
 40
1.0
 40
1.0
 40
2.0
 40
2.0
 40
2.0
 40
3.0
 40
3.0
 40
3.0
 40
4.0
 40
4.0
 40
4.0
 40
5.0
 40
5.0
 40
5.0
 40
6.0
 40
6.0
 40
6.0
 40
7.0
 40
7.0
 40
7.0
 40
7.0
 10
101.7040418582546
 20
-126.5390461923236
 10
101.7040418582546
 20
-126.5390461923236
 10
101.7040418582546
 20
-126.7922607104894
 10
101.7040418582546
 20
-126.7922607104894
 10
101.3950167932276
 20
-126.7652167109302
 10
100.8768744322461
 20
-126.5595445104608
 10
100.3711344150114
 20
-126.1254624793193
 10
100.3711344150114
 20
-126.1254624793193
 10
100.3711344150114
 20
-127.0206705411615
 10
100.3711344150114
 20
-127.0206705411615
 10
100.3711344150114
 20
-127.0206705411615
 10
100.159605552217
 20
-127.0206705411615
 10
100.159605552217
 20
-127.0206705411615
 10
100.159605552217
 20
-127.0206705411615
 10
100.159605552217
 20
-125.8722479611535
 10
100.159605552217
 20
-125.8722479611535
 10
100.159605552217
 20
-125.8722479611535
 10
100.3711344150114
 20
-125.8722479611535
 10
100.3711344150114
 20
-125.8722479611535
 10
100.6612114548694
 20
-126.2181355478725
 10
101.2534233687839
 20
-126.5028726897284
 10
101.7040418582546
 20
-126.5390461923236
 97
        0
 97
        0
 75
     2
 76
     1
 98
        0
  0
ENDBLK
  5
B6
330
B3
100
AcDbEntity
  8
0
100
AcDbBlockEnd
  0
BLOCK
  5
C7
330
C5
100
AcDbEntity
  8
0
100
AcDbBlockBegin
  2
block 5
 70
     0
 10
0.0
 20
0.0
 30
0.0
  3
block 5
  1

  0
SPLINE
  5
C9
330
C5
100
AcDbEntity
  8
_U+30EC_U+30A4_U+30E4_U+30FC 1
370
     0
100
AcDbSpline
210
0.0
220
0.0
230
1.0
 70
    11
 71
     3
 72
    26
 73
    22
 74
     0
 42
0.0000000001
 43
0.0000000001
 12
1.0
 22
0.0
 32
0.0
 13
1.0
 23
0.0
 33
0.0
 40
0.0
 40
0.0
 40
0.0
 40
0.0
 40
1.0
 40
1.0
 40
1.0
 40
2.0
 40
2.0
 40
2.0
 40
3.0
 40
3.0
 40
3.0
 40
4.0
 40
4.0
 40
4.0
 40
5.0
 40
5.0
 40
5.0
 40
6.0
 40
6.0
 40
6.0
 40
7.0
 40
7.0
 40
7.0
 40
7.0
 10
77.70343965071304
 20
-130.0375406575948
 30
0.0
 10
77.70343965071304
 20
-130.0375406575948
 30
0.0
 10
76.5991142929162
 20
-130.0375406575948
 30
0.0
 10
76.5991142929162
 20
-130.0375406575948
 30
0.0
 10
76.5991142929162
 20
-130.0375406575948
 30
0.0
 10
76.5991142929162
 20
-130.3903184352844
 30
0.0
 10
76.5991142929162
 20
-130.3903184352844
 30
0.0
 10
76.5991142929162
 20
-130.3903184352844
 30
0.0
 10
76.45097518705046
 20
-130.3903184352844
 30
0.0
 10
76.45097518705046
 20
-130.3903184352844
 30
0.0
 10
76.43633353123815
 20
-130.0354736003036
 30
0.0
 10
76.27338051478583
 20
-129.9855197157675
 30
0.0
 10
76.1591755994498
 20
-129.9541693468517
 30
0.0
 10
76.1591755994498
 20
-129.9541693468517
 30
0.0
 10
76.1591755994498
 20
-129.7981065213699
 30
0.0
 10
76.1591755994498
 20
-129.7981065213699
 30
0.0
 10
76.1591755994498
 20
-129.7981065213699
 30
0.0
 10
77.70343965071304
 20
-129.7981065213699
 30
0.0
 10
77.70343965071304
 20
-129.7981065213699
 30
0.0
 10
77.70343965071304
 20
-129.7981065213699
 30
0.0
 10
77.70343965071304
 20
-130.0375406575948
 30
0.0
 10
77.70343965071304
 20
-130.0375406575948
 30
0.0
  0
HATCH
  5
CA
330
C5
100
AcDbEntity
  8
_U+30EC_U+30A4_U+30E4_U+30FC 1
 62
     7
420
 16777215
100
AcDbHatch
 10
0.0
 20
0.0
 30
0.0
210
0.0
220
0.0
230
1.0
  2
SOLID
 70
     1
 71
     0
 91
        1
 92
        1
 93
        1
 72
     4
 94
        3
 73
     0
 74
     1
 95
       26
 96
       22
 40
0.0
 40
0.0
 40
0.0
 40
0.0
 40
1.0
 40
1.0
 40
1.0
 40
2.0
 40
2.0
 40
2.0
 40
3.0
 40
3.0
 40
3.0
 40
4.0
 40
4.0
 40
4.0
 40
5.0
 40
5.0
 40
5.0
 40
6.0
 40
6.0
 40
6.0
 40
7.0
 40
7.0
 40
7.0
 40
7.0
 10
77.70343965071304
 20
-130.0375406575948
 10
77.70343965071304
 20
-130.0375406575948
 10
76.5991142929162
 20
-130.0375406575948
 10
76.5991142929162
 20
-130.0375406575948
 10
76.5991142929162
 20
-130.0375406575948
 10
76.5991142929162
 20
-130.3903184352844
 10
76.5991142929162
 20
-130.3903184352844
 10
76.5991142929162
 20
-130.3903184352844
 10
76.45097518705046
 20
-130.3903184352844
 10
76.45097518705046
 20
-130.3903184352844
 10
76.43633353123815
 20
-130.0354736003036
 10
76.27338051478583
 20
-129.9855197157675
 10
76.1591755994498
 20
-129.9541693468517
 10
76.1591755994498
 20
-129.9541693468517
 10
76.1591755994498
 20
-129.7981065213699
 10
76.1591755994498
 20
-129.7981065213699
 10
76.1591755994498
 20
-129.7981065213699
 10
77.70343965071304
 20
-129.7981065213699
 10
77.70343965071304
 20
-129.7981065213699
 10
77.70343965071304
 20
-129.7981065213699
 10
77.70343965071304
 20
-130.0375406575948
 10
77.70343965071304
 20
-130.0375406575948
 97
        0
 97
        0
 75
     2
 76
     1
 98
        0
  0
SPLINE
  5
CB
330
C5
100
AcDbEntity
  8
_U+30EC_U+30A4_U+30E4_U+30FC 1
370
     0
100
AcDbSpline
210
0.0
220
0.0
230
1.0
 70
    11
 71
     3
 72
    44
 73
    40
 74
     0
 42
0.0000000001
 43
0.0000000001
 12
1.0
 22
0.0
 32
0.0
 13
1.0
 23
0.0
 33
0.0
 40
0.0
 40
0.0
 40
0.0
 40
0.0
 40
1.0
 40
1.0
 40
1.0
 40
2.0
 40
2.0
 40
2.0
 40
3.0
 40
3.0
 40
3.0
 40
4.0
 40
4.0
 40
4.0
 40
5.0
 40
5.0
 40
5.0
 40
6.0
 40
6.0
 40
6.0
 40
7.0
 40
7.0
 40
7.0
 40
8.0
 40
8.0
 40
8.0
 40
9.0
 40
9.0
 40
9.0
 40
10.0
 40
10.0
 40
10.0
 40
11.0
 40
11.0
 40
11.0
 40
12.0
 40
12.0
 40
12.0
 40
13.0
 40
13.0
 40
13.0
 40
13.0
 10
77.1217352780286
 20
-128.6284966041276
 30
0.0
 10
77.28038192512436
 20
-128.8613850589305
 30
0.0
 10
77.35445147805723
 20
-128.9606038089057
 30
0.0
 10
77.49828421456641
 20
-129.012624750733
 30
0.0
 10
77.49828421456641
 20
-129.012624750733
 30
0.0
 10
77.49828421456641
 20
-128.1808064458194
 30
0.0
 10
77.49828421456641
 20
-128.1808064458194
 30
0.0
 10
77.49828421456641
 20
-128.1808064458194
 30
0.0
 10
77.70343965071304
 20
-128.1808064458194
 30
0.0
 10
77.70343965071304
 20
-128.1808064458194
 30
0.0
 10
77.70343965071304
 20
-128.1808064458194
 30
0.0
 10
77.70343965071304
 20
-129.2796196508398
 30
0.0
 10
77.70343965071304
 20
-129.2796196508398
 30
0.0
 10
77.3458387393441
 20
-129.2455132055358
 30
0.0
 10
77.26763507182893
 20
-129.1755777671853
 30
0.0
 10
76.96928980280629
 20
-128.7638888566979
 30
0.0
 10
76.77050779330737
 20
-128.4905205299434
 30
0.0
 10
76.70281166702222
 20
-128.4204128368185
 30
0.0
 10
76.56535235716075
 20
-128.4204128368185
 30
0.0
 10
76.44684107246816
 20
-128.4204128368185
 30
0.0
 10
76.31558293448013
 20
-128.4972384661396
 30
0.0
 10
76.31558293448013
 20
-128.7075615455141
 30
0.0
 10
76.31558293448013
 20
-128.985753005948
 30
0.0
 10
76.54623207721761
 20
-128.9947102542097
 30
0.0
 10
76.66267630461905
 20
-128.9991888783405
 30
0.0
 10
76.66267630461905
 20
-128.9991888783405
 30
0.0
 10
76.66267630461905
 20
-129.2389675241139
 30
0.0
 10
76.66267630461905
 20
-129.2389675241139
 30
0.0
 10
76.5357245359876
 20
-129.2296657663037
 30
0.0
 10
76.42358667794272
 20
-129.2182969512024
 30
0.0
 10
76.30507539325012
 20
-129.1325140736197
 30
0.0
 10
76.14436168886321
 20
-129.0150363175726
 30
0.0
 10
76.11042749833351
 20
-128.8159097985252
 30
0.0
 10
76.11042749833351
 20
-128.6917141062819
 30
0.0
 10
76.11042749833351
 20
-128.3956081493247
 30
0.0
 10
76.29456785202011
 20
-128.1740885096231
 30
0.0
 10
76.5674194144519
 20
-128.1740885096231
 30
0.0
 10
76.79582924512397
 20
-128.1740885096231
 30
0.0
 10
76.89539250464769
 20
-128.2984564566407
 30
0.0
 10
77.1217352780286
 20
-128.6284966041276
 30
0.0
  0
HATCH
  5
CC
330
C5
100
AcDbEntity
  8
_U+30EC_U+30A4_U+30E4_U+30FC 1
 62
     7
420
 16777215
100
AcDbHatch
 10
0.0
 20
0.0
 30
0.0
210
0.0
220
0.0
230
1.0
  2
SOLID
 70
     1
 71
     0
 91
        1
 92
        1
 93
        1
 72
     4
 94
        3
 73
     0
 74
     1
 95
       44
 96
       40
 40
0.0
 40
0.0
 40
0.0
 40
0.0
 40
1.0
 40
1.0
 40
1.0
 40
2.0
 40
2.0
 40
2.0
 40
3.0
 40
3.0
 40
3.0
 40
4.0
 40
4.0
 40
4.0
 40
5.0
 40
5.0
 40
5.0
 40
6.0
 40
6.0
 40
6.0
 40
7.0
 40
7.0
 40
7.0
 40
8.0
 40
8.0
 40
8.0
 40
9.0
 40
9.0
 40
9.0
 40
10.0
 40
10.0
 40
10.0
 40
11.0
 40
11.0
 40
11.0
 40
12.0
 40
12.0
 40
12.0
 40
13.0
 40
13.0
 40
13.0
 40
13.0
 10
77.1217352780286
 20
-128.6284966041276
 10
77.28038192512436
 20
-128.8613850589305
 10
77.35445147805723
 20
-128.9606038089057
 10
77.49828421456641
 20
-129.012624750733
 10
77.49828421456641
 20
-129.012624750733
 10
77.49828421456641
 20
-128.1808064458194
 10
77.49828421456641
 20
-128.1808064458194
 10
77.49828421456641
 20
-128.1808064458194
 10
77.70343965071304
 20
-128.1808064458194
 10
77.70343965071304
 20
-128.1808064458194
 10
77.70343965071304
 20
-128.1808064458194
 10
77.70343965071304
 20
-129.2796196508398
 10
77.70343965071304
 20
-129.2796196508398
 10
77.3458387393441
 20
-129.2455132055358
 10
77.26763507182893
 20
-129.1755777671853
 10
76.96928980280629
 20
-128.7638888566979
 10
76.77050779330737
 20
-128.4905205299434
 10
76.70281166702222
 20
-128.4204128368185
 10
76.56535235716075
 20
-128.4204128368185
 10
76.44684107246816
 20
-128.4204128368185
 10
76.31558293448013
 20
-128.4972384661396
 10
76.31558293448013
 20
-128.7075615455141
 10
76.31558293448013
 20
-128.985753005948
 10
76.54623207721761
 20
-128.9947102542097
 10
76.66267630461905
 20
-128.9991888783405
 10
76.66267630461905
 20
-128.9991888783405
 10
76.66267630461905
 20
-129.2389675241139
 10
76.66267630461905
 20
-129.2389675241139
 10
76.5357245359876
 20
-129.2296657663037
 10
76.42358667794272
 20
-129.2182969512024
 10
76.30507539325012
 20
-129.1325140736197
 10
76.14436168886321
 20
-129.0150363175726
 10
76.11042749833351
 20
-128.8159097985252
 10
76.11042749833351
 20
-128.6917141062819
 10
76.11042749833351
 20
-128.3956081493247
 10
76.29456785202011
 20
-128.1740885096231
 10
76.5674194144519
 20
-128.1740885096231
 10
76.79582924512397
 20
-128.1740885096231
 10
76.89539250464769
 20
-128.2984564566407
 10
77.1217352780286
 20
-128.6284966041276
 97
        0
 97
        0
 75
     2
 76
     1
 98
        0
  0
POLYLINE
  5
CD
330
C5
100
AcDbEntity
  8
_U+30EC_U+30A4_U+30E4_U+30FC 1
370
     0
100
AcDb2dPolyline
 66
     1
 10
0.0
 20
0.0
 30
0.0
  0
VERTEX
  5
CE
330
CD
100
AcDbEntity
  8
_U+30EC_U+30A4_U+30E4_U+30FC 1
370
     0
100
AcDbVertex
100
AcDb2dVertex
 10
77.70343965071304
 20
-127.9403387809489
 30
0.0
  0
VERTEX
  5
CF
330
CD
100
AcDbEntity
  8
_U+30EC_U+30A4_U+30E4_U+30FC 1
370
     0
100
AcDbVertex
100
AcDb2dVertex
 10
77.45177542551554
 20
-127.9403387809489
 30
0.0
  0
VERTEX
  5
D0
330
CD
100
AcDbEntity
  8
_U+30EC_U+30A4_U+30E4_U+30FC 1
370
     0
100
AcDbVertex
100
AcDb2dVertex
 10
77.45177542551554
 20
-127.6712768235509
 30
0.0
  0
VERTEX
  5
D1
330
CD
100
AcDbEntity
  8
_U+30EC_U+30A4_U+30E4_U+30FC 1
370
     0
100
AcDbVertex
100
AcDb2dVertex
 10
77.70343965071304
 20
-127.6712768235509
 30
0.0
  0
VERTEX
  5
D2
330
CD
100
AcDbEntity
  8
_U+30EC_U+30A4_U+30E4_U+30FC 1
370
     0
100
AcDbVertex
100
AcDb2dVertex
 10
77.70343965071304
 20
-127.9403387809489
 30
0.0
  0
SEQEND
  5
D3
330
CD
100
AcDbEntity
  8
_U+30EC_U+30A4_U+30E4_U+30FC 1
370
     0
  0
HATCH
  5
D4
330
C5
100
AcDbEntity
  8
_U+30EC_U+30A4_U+30E4_U+30FC 1
 62
     7
420
 16777215
100
AcDbHatch
 10
0.0
 20
0.0
 30
0.0
210
0.0
220
0.0
230
1.0
  2
SOLID
 70
     1
 71
     0
 91
        1
 92
        1
 93
        4
 72
     1
 10
77.70343965071304
 20
-127.9403387809489
 11
77.45177542551554
 21
-127.9403387809489
 72
     1
 10
77.45177542551554
 20
-127.9403387809489
 11
77.45177542551554
 21
-127.6712768235509
 72
     1
 10
77.45177542551554
 20
-127.6712768235509
 11
77.70343965071304
 21
-127.6712768235509
 72
     1
 10
77.70343965071304
 20
-127.6712768235509
 11
77.70343965071304
 21
-127.9403387809489
 97
        0
 75
     2
 76
     1
 98
        0
  0
SPLINE
  5
D5
330
C5
100
AcDbEntity
  8
_U+30EC_U+30A4_U+30E4_U+30FC 1
370
     0
100
AcDbSpline
210
0.0
220
0.0
230
1.0
 70
    11
 71
     3
 72
    53
 73
    49
 74
     0
 42
0.0000000001
 43
0.0000000001
 12
1.0
 22
0.0
 32
0.0
 13
1.0
 23
0.0
 33
0.0
 40
0.0
 40
0.0
 40
0.0
 40
0.0
 40
1.0
 40
1.0
 40
1.0
 40
2.0
 40
2.0
 40
2.0
 40
3.0
 40
3.0
 40
3.0
 40
4.0
 40
4.0
 40
4.0
 40
5.0
 40
5.0
 40
5.0
 40
6.0
 40
6.0
 40
6.0
 40
7.0
 40
7.0
 40
7.0
 40
8.0
 40
8.0
 40
8.0
 40
9.0
 40
9.0
 40
9.0
 40
10.0
 40
10.0
 40
10.0
 40
11.0
 40
11.0
 40
11.0
 40
12.0
 40
12.0
 40
12.0
 40
13.0
 40
13.0
 40
13.0
 40
14.0
 40
14.0
 40
14.0
 40
15.0
 40
15.0
 40
15.0
 40
16.0
 40
16.0
 40
16.0
 40
16.0
 10
77.75425480912047
 20
-126.9045708233086
 30
0.0
 10
77.75425480912047
 20
-126.9882866436002
 30
0.0
 10
77.73737384124274
 20
-127.0968071513855
 30
0.0
 10
77.67381182953989
 20
-127.2053276591709
 30
0.0
 10
77.56374102878615
 20
-127.3906737962773
 30
0.0
 10
77.4326551455724
 20
-127.41341142648
 30
0.0
 10
77.32482365688408
 20
-127.433737489843
 30
0.0
 10
77.32482365688408
 20
-127.433737489843
 30
0.0
 10
77.32482365688408
 20
-127.1963704109093
 30
0.0
 10
77.32482365688408
 20
-127.1963704109093
 30
0.0
 10
77.52360566638299
 20
-127.1374592781115
 30
0.0
 10
77.55323348755614
 20
-127.0018947707669
 30
0.0
 10
77.55323348755614
 20
-126.9023315112432
 30
0.0
 10
77.55323348755614
 20
-126.7531588767319
 30
0.0
 10
77.45384248280668
 20
-126.5903781150538
 30
0.0
 10
77.22112628277806
 20
-126.5903781150538
 30
0.0
 10
76.96515568822399
 20
-126.5903781150538
 30
0.0
 10
76.89539250464769
 20
-126.7826144431307
 30
0.0
 10
76.89539250464769
 20
-126.9114610142791
 30
0.0
 10
76.89539250464769
 20
-126.9453952048088
 30
0.0
 10
76.89539250464769
 20
-127.0968071513855
 30
0.0
 10
77.02441133057029
 20
-127.1917195320042
 30
0.0
 10
77.02441133057029
 20
-127.1917195320042
 30
0.0
 10
77.00529105062715
 20
-127.3794772359503
 30
0.0
 10
77.00529105062715
 20
-127.3794772359503
 30
0.0
 10
77.00529105062715
 20
-127.3794772359503
 30
0.0
 10
76.1591755994498
 20
-127.2504584100277
 30
0.0
 10
76.1591755994498
 20
-127.2504584100277
 30
0.0
 10
76.1591755994498
 20
-127.2504584100277
 30
0.0
 10
76.1591755994498
 20
-126.4184678503398
 30
0.0
 10
76.1591755994498
 20
-126.4184678503398
 30
0.0
 10
76.1591755994498
 20
-126.4184678503398
 30
0.0
 10
76.35382349436641
 20
-126.4184678503398
 30
0.0
 10
76.35382349436641
 20
-126.4184678503398
 30
0.0
 10
76.35382349436641
 20
-126.4184678503398
 30
0.0
 10
76.35382349436641
 20
-127.0764810880225
 30
0.0
 10
76.35382349436641
 20
-127.0764810880225
 30
0.0
 10
76.35382349436641
 20
-127.0764810880225
 30
0.0
 10
76.77688121995509
 20
-127.1465887811474
 30
0.0
 10
76.77688121995509
 20
-127.1465887811474
 30
0.0
 10
76.74294702942538
 20
-127.0809597121534
 30
0.0
 10
76.70281166702222
 20
-126.992765267731
 30
0.0
 10
76.70281166702222
 20
-126.866158008648
 30
0.0
 10
76.70281166702222
 20
-126.5948567391846
 30
0.0
 10
76.88901907799998
 20
-126.3416422210188
 30
0.0
 10
77.20200600283492
 20
-126.3416422210188
 30
0.0
 10
77.51947155180069
 20
-126.3416422210188
 30
0.0
 10
77.75425480912047
 20
-126.5814208667922
 30
0.0
 10
77.75425480912047
 20
-126.9045708233086
 30
0.0
  0
HATCH
  5
D6
330
C5
100
AcDbEntity
  8
_U+30EC_U+30A4_U+30E4_U+30FC 1
 62
     7
420
 16777215
100
AcDbHatch
 10
0.0
 20
0.0
 30
0.0
210
0.0
220
0.0
230
1.0
  2
SOLID
 70
     1
 71
     0
 91
        1
 92
        1
 93
        1
 72
     4
 94
        3
 73
     0
 74
     1
 95
       53
 96
       49
 40
0.0
 40
0.0
 40
0.0
 40
0.0
 40
1.0
 40
1.0
 40
1.0
 40
2.0
 40
2.0
 40
2.0
 40
3.0
 40
3.0
 40
3.0
 40
4.0
 40
4.0
 40
4.0
 40
5.0
 40
5.0
 40
5.0
 40
6.0
 40
6.0
 40
6.0
 40
7.0
 40
7.0
 40
7.0
 40
8.0
 40
8.0
 40
8.0
 40
9.0
 40
9.0
 40
9.0
 40
10.0
 40
10.0
 40
10.0
 40
11.0
 40
11.0
 40
11.0
 40
12.0
 40
12.0
 40
12.0
 40
13.0
 40
13.0
 40
13.0
 40
14.0
 40
14.0
 40
14.0
 40
15.0
 40
15.0
 40
15.0
 40
16.0
 40
16.0
 40
16.0
 40
16.0
 10
77.75425480912047
 20
-126.9045708233086
 10
77.75425480912047
 20
-126.9882866436002
 10
77.73737384124274
 20
-127.0968071513855
 10
77.67381182953989
 20
-127.2053276591709
 10
77.56374102878615
 20
-127.3906737962773
 10
77.4326551455724
 20
-127.41341142648
 10
77.32482365688408
 20
-127.433737489843
 10
77.32482365688408
 20
-127.433737489843
 10
77.32482365688408
 20
-127.1963704109093
 10
77.32482365688408
 20
-127.1963704109093
 10
77.52360566638299
 20
-127.1374592781115
 10
77.55323348755614
 20
-127.0018947707669
 10
77.55323348755614
 20
-126.9023315112432
 10
77.55323348755614
 20
-126.7531588767319
 10
77.45384248280668
 20
-126.5903781150538
 10
77.22112628277806
 20
-126.5903781150538
 10
76.96515568822399
 20
-126.5903781150538
 10
76.89539250464769
 20
-126.7826144431307
 10
76.89539250464769
 20
-126.9114610142791
 10
76.89539250464769
 20
-126.9453952048088
 10
76.89539250464769
 20
-127.0968071513855
 10
77.02441133057029
 20
-127.1917195320042
 10
77.02441133057029
 20
-127.1917195320042
 10
77.00529105062715
 20
-127.3794772359503
 10
77.00529105062715
 20
-127.3794772359503
 10
77.00529105062715
 20
-127.3794772359503
 10
76.1591755994498
 20
-127.2504584100277
 10
76.1591755994498
 20
-127.2504584100277
 10
76.1591755994498
 20
-127.2504584100277
 10
76.1591755994498
 20
-126.4184678503398
 10
76.1591755994498
 20
-126.4184678503398
 10
76.1591755994498
 20
-126.4184678503398
 10
76.35382349436641
 20
-126.4184678503398
 10
76.35382349436641
 20
-126.4184678503398
 10
76.35382349436641
 20
-126.4184678503398
 10
76.35382349436641
 20
-127.0764810880225
 10
76.35382349436641
 20
-127.0764810880225
 10
76.35382349436641
 20
-127.0764810880225
 10
76.77688121995509
 20
-127.1465887811474
 10
76.77688121995509
 20
-127.1465887811474
 10
76.74294702942538
 20
-127.0809597121534
 10
76.70281166702222
 20
-126.992765267731
 10
76.70281166702222
 20
-126.866158008648
 10
76.70281166702222
 20
-126.5948567391846
 10
76.88901907799998
 20
-126.3416422210188
 10
77.20200600283492
 20
-126.3416422210188
 10
77.51947155180069
 20
-126.3416422210188
 10
77.75425480912047
 20
-126.5814208667922
 10
77.75425480912047
 20
-126.9045708233086
 97
        0
 97
        0
 75
     2
 76
     1
 98
        0
  0
ENDBLK
  5
C8
330
C5
100
AcDbEntity
  8
0
100
AcDbBlockEnd
  0
BLOCK
  5
E5
330
E3
100
AcDbEntity
  8
0
100
AcDbBlockBegin
  2
block 6
 70
     0
 10
0.0
 20
0.0
 30
0.0
  3
block 6
  1

  0
SPLINE
  5
E7
330
E3
100
AcDbEntity
  8
_U+30EC_U+30A4_U+30E4_U+30FC 1
370
     0
100
AcDbSpline
210
0.0
220
0.0
230
1.0
 70
    11
 71
     3
 72
    26
 73
    22
 74
     0
 42
0.0000000001
 43
0.0000000001
 12
1.0
 22
0.0
 32
0.0
 13
1.0
 23
0.0
 33
0.0
 40
0.0
 40
0.0
 40
0.0
 40
0.0
 40
1.0
 40
1.0
 40
1.0
 40
2.0
 40
2.0
 40
2.0
 40
3.0
 40
3.0
 40
3.0
 40
4.0
 40
4.0
 40
4.0
 40
5.0
 40
5.0
 40
5.0
 40
6.0
 40
6.0
 40
6.0
 40
7.0
 40
7.0
 40
7.0
 40
7.0
 10
89.62364228445173
 20
-138.3471109680174
 30
0.0
 10
89.62364228445173
 20
-138.3471109680174
 30
0.0
 10
89.62364228445173
 20
-137.2429578649948
 30
0.0
 10
89.62364228445173
 20
-137.2429578649948
 30
0.0
 10
89.62364228445173
 20
-137.2429578649948
 30
0.0
 10
89.27120901631068
 20
-137.2429578649948
 30
0.0
 10
89.27120901631068
 20
-137.2429578649948
 30
0.0
 10
89.27120901631068
 20
-137.2429578649948
 30
0.0
 10
89.27120901631068
 20
-137.0948187591291
 30
0.0
 10
89.27120901631068
 20
-137.0948187591291
 30
0.0
 10
89.6260538512914
 20
-137.0800048485425
 30
0.0
 10
89.675663226279
 20
-136.9170518320902
 30
0.0
 10
89.7073581047433
 20
-136.8026746619799
 30
0.0
 10
89.7073581047433
 20
-136.8026746619799
 30
0.0
 10
89.86342093022512
 20
-136.8026746619799
 30
0.0
 10
89.86342093022512
 20
-136.8026746619799
 30
0.0
 10
89.86342093022512
 20
-136.8026746619799
 30
0.0
 10
89.86342093022512
 20
-138.3471109680174
 30
0.0
 10
89.86342093022512
 20
-138.3471109680174
 30
0.0
 10
89.86342093022512
 20
-138.3471109680174
 30
0.0
 10
89.62364228445173
 20
-138.3471109680174
 30
0.0
 10
89.62364228445173
 20
-138.3471109680174
 30
0.0
  0
HATCH
  5
E8
330
E3
100
AcDbEntity
  8
_U+30EC_U+30A4_U+30E4_U+30FC 1
 62
     7
420
 16777215
100
AcDbHatch
 10
0.0
 20
0.0
 30
0.0
210
0.0
220
0.0
230
1.0
  2
SOLID
 70
     1
 71
     0
 91
        1
 92
        1
 93
        1
 72
     4
 94
        3
 73
     0
 74
     1
 95
       26
 96
       22
 40
0.0
 40
0.0
 40
0.0
 40
0.0
 40
1.0
 40
1.0
 40
1.0
 40
2.0
 40
2.0
 40
2.0
 40
3.0
 40
3.0
 40
3.0
 40
4.0
 40
4.0
 40
4.0
 40
5.0
 40
5.0
 40
5.0
 40
6.0
 40
6.0
 40
6.0
 40
7.0
 40
7.0
 40
7.0
 40
7.0
 10
89.62364228445173
 20
-138.3471109680174
 10
89.62364228445173
 20
-138.3471109680174
 10
89.62364228445173
 20
-137.2429578649948
 10
89.62364228445173
 20
-137.2429578649948
 10
89.62364228445173
 20
-137.2429578649948
 10
89.27120901631068
 20
-137.2429578649948
 10
89.27120901631068
 20
-137.2429578649948
 10
89.27120901631068
 20
-137.2429578649948
 10
89.27120901631068
 20
-137.0948187591291
 10
89.27120901631068
 20
-137.0948187591291
 10
89.6260538512914
 20
-137.0800048485425
 10
89.675663226279
 20
-136.9170518320902
 10
89.7073581047433
 20
-136.8026746619799
 10
89.7073581047433
 20
-136.8026746619799
 10
89.86342093022512
 20
-136.8026746619799
 10
89.86342093022512
 20
-136.8026746619799
 10
89.86342093022512
 20
-136.8026746619799
 10
89.86342093022512
 20
-138.3471109680174
 10
89.86342093022512
 20
-138.3471109680174
 10
89.86342093022512
 20
-138.3471109680174
 10
89.62364228445173
 20
-138.3471109680174
 10
89.62364228445173
 20
-138.3471109680174
 97
        0
 97
        0
 75
     2
 76
     1
 98
        0
  0
SPLINE
  5
E9
330
E3
100
AcDbEntity
  8
_U+30EC_U+30A4_U+30E4_U+30FC 1
370
     0
100
AcDbSpline
210
0.0
220
0.0
230
1.0
 70
    11
 71
     3
 72
    32
 73
    28
 74
     0
 42
0.0000000001
 43
0.0000000001
 12
1.0
 22
0.0
 32
0.0
 13
1.0
 23
0.0
 33
0.0
 40
0.0
 40
0.0
 40
0.0
 40
0.0
 40
1.0
 40
1.0
 40
1.0
 40
2.0
 40
2.0
 40
2.0
 40
3.0
 40
3.0
 40
3.0
 40
4.0
 40
4.0
 40
4.0
 40
5.0
 40
5.0
 40
5.0
 40
6.0
 40
6.0
 40
6.0
 40
7.0
 40
7.0
 40
7.0
 40
8.0
 40
8.0
 40
8.0
 40
9.0
 40
9.0
 40
9.0
 40
9.0
 10
90.93829072162308
 20
-138.3977538716506
 30
0.0
 10
90.38638642488604
 20
-138.3977538716506
 30
0.0
 10
90.3774291766244
 20
-137.8437825176224
 30
0.0
 10
90.3774291766244
 20
-137.6298420879884
 30
0.0
 10
90.3774291766244
 20
-137.3993652000252
 30
0.0
 10
90.39775523998738
 20
-136.7520317583467
 30
0.0
 10
90.97894284834902
 20
-136.7520317583467
 30
0.0
 10
91.16428898545546
 20
-136.7520317583467
 30
0.0
 10
91.42628849710871
 20
-136.8219671966973
 30
0.0
 10
91.46694062383466
 20
-137.1540744014754
 30
0.0
 10
91.46694062383466
 20
-137.1540744014754
 30
0.0
 10
91.23870304793685
 20
-137.1540744014754
 30
0.0
 10
91.23870304793685
 20
-137.1540744014754
 30
0.0
 10
91.22767874238406
 20
-137.0968858164202
 30
0.0
 10
91.19357229708008
 20
-136.9487467105545
 30
0.0
 10
90.97653128150934
 20
-136.9487467105545
 30
0.0
 10
90.6644056305457
 20
-136.9487467105545
 30
0.0
 10
90.62168644652861
 20
-137.2767198007503
 30
0.0
 10
90.60790606458761
 20
-137.4817029821226
 30
0.0
 10
90.70746932411133
 20
-137.4034993146075
 30
0.0
 10
90.77981632930158
 20
-137.3442436722612
 30
0.0
 10
90.97411971466967
 20
-137.3442436722612
 30
0.0
 10
91.16635604274661
 20
-137.3442436722612
 30
0.0
 10
91.4896782540373
 20
-137.452419670498
 30
0.0
 10
91.4896782540373
 20
-137.858596428209
 30
0.0
 10
91.4896782540373
 20
-138.1779567796916
 30
0.0
 10
91.27728811737165
 20
-138.3977538716506
 30
0.0
 10
90.93829072162308
 20
-138.3977538716506
 30
0.0
  0
SPLINE
  5
EA
330
E3
100
AcDbEntity
  8
_U+30EC_U+30A4_U+30E4_U+30FC 1
370
     0
100
AcDbSpline
210
0.0
220
0.0
230
1.0
 70
    11
 71
     3
 72
    17
 73
    13
 74
     0
 42
0.0000000001
 43
0.0000000001
 12
1.0
 22
0.0
 32
0.0
 13
1.0
 23
0.0
 33
0.0
 40
0.0
 40
0.0
 40
0.0
 40
0.0
 40
1.0
 40
1.0
 40
1.0
 40
2.0
 40
2.0
 40
2.0
 40
3.0
 40
3.0
 40
3.0
 40
4.0
 40
4.0
 40
4.0
 40
4.0
 10
90.95620521814637
 20
-137.5388915671778
 30
0.0
 10
90.67577444564704
 20
-137.5388915671778
 30
0.0
 10
90.63512231892109
 20
-137.7504204299721
 30
0.0
 10
90.63512231892109
 20
-137.8668646573736
 30
0.0
 10
90.63512231892109
 20
-138.0425645271213
 30
0.0
 10
90.73675263573595
 20
-138.2055175435736
 30
0.0
 10
90.93346758794372
 20
-138.2055175435736
 30
0.0
 10
91.06231415909207
 20
-138.2055175435736
 30
0.0
 10
91.25007186303819
 20
-138.1462619012273
 30
0.0
 10
91.25007186303819
 20
-137.8606634855001
 30
0.0
 10
91.25007186303819
 20
-137.6363877694104
 30
0.0
 10
91.10089922852686
 20
-137.5388915671778
 30
0.0
 10
90.95620521814637
 20
-137.5388915671778
 30
0.0
  0
HATCH
  5
EB
330
E3
100
AcDbEntity
  8
_U+30EC_U+30A4_U+30E4_U+30FC 1
 62
     7
420
 16777215
100
AcDbHatch
 10
0.0
 20
0.0
 30
0.0
210
0.0
220
0.0
230
1.0
  2
SOLID
 70
     1
 71
     0
 91
        2
 92
        1
 93
        1
 72
     4
 94
        3
 73
     0
 74
     1
 95
       32
 96
       28
 40
0.0
 40
0.0
 40
0.0
 40
0.0
 40
1.0
 40
1.0
 40
1.0
 40
2.0
 40
2.0
 40
2.0
 40
3.0
 40
3.0
 40
3.0
 40
4.0
 40
4.0
 40
4.0
 40
5.0
 40
5.0
 40
5.0
 40
6.0
 40
6.0
 40
6.0
 40
7.0
 40
7.0
 40
7.0
 40
8.0
 40
8.0
 40
8.0
 40
9.0
 40
9.0
 40
9.0
 40
9.0
 10
90.93829072162308
 20
-138.3977538716506
 10
90.38638642488604
 20
-138.3977538716506
 10
90.3774291766244
 20
-137.8437825176224
 10
90.3774291766244
 20
-137.6298420879884
 10
90.3774291766244
 20
-137.3993652000252
 10
90.39775523998738
 20
-136.7520317583467
 10
90.97894284834902
 20
-136.7520317583467
 10
91.16428898545546
 20
-136.7520317583467
 10
91.42628849710871
 20
-136.8219671966973
 10
91.46694062383466
 20
-137.1540744014754
 10
91.46694062383466
 20
-137.1540744014754
 10
91.23870304793685
 20
-137.1540744014754
 10
91.23870304793685
 20
-137.1540744014754
 10
91.22767874238406
 20
-137.0968858164202
 10
91.19357229708008
 20
-136.9487467105545
 10
90.97653128150934
 20
-136.9487467105545
 10
90.6644056305457
 20
-136.9487467105545
 10
90.62168644652861
 20
-137.2767198007503
 10
90.60790606458761
 20
-137.4817029821226
 10
90.70746932411133
 20
-137.4034993146075
 10
90.77981632930158
 20
-137.3442436722612
 10
90.97411971466967
 20
-137.3442436722612
 10
91.16635604274661
 20
-137.3442436722612
 10
91.4896782540373
 20
-137.452419670498
 10
91.4896782540373
 20
-137.858596428209
 10
91.4896782540373
 20
-138.1779567796916
 10
91.27728811737165
 20
-138.3977538716506
 10
90.93829072162308
 20
-138.3977538716506
 97
        0
 97
        0
 92
        1
 93
        1
 72
     4
 94
        3
 73
     0
 74
     1
 95
       17
 96
       13
 40
0.0
 40
0.0
 40
0.0
 40
0.0
 40
1.0
 40
1.0
 40
1.0
 40
2.0
 40
2.0
 40
2.0
 40
3.0
 40
3.0
 40
3.0
 40
4.0
 40
4.0
 40
4.0
 40
4.0
 10
90.95620521814637
 20
-137.5388915671778
 10
90.67577444564704
 20
-137.5388915671778
 10
90.63512231892109
 20
-137.7504204299721
 10
90.63512231892109
 20
-137.8668646573736
 10
90.63512231892109
 20
-138.0425645271213
 10
90.73675263573595
 20
-138.2055175435736
 10
90.93346758794372
 20
-138.2055175435736
 10
91.06231415909207
 20
-138.2055175435736
 10
91.25007186303819
 20
-138.1462619012273
 10
91.25007186303819
 20
-137.8606634855001
 10
91.25007186303819
 20
-137.6363877694104
 10
91.10089922852686
 20
-137.5388915671778
 10
90.95620521814637
 20
-137.5388915671778
 97
        0
 97
        0
 75
     2
 76
     1
 98
        0
  0
ENDBLK
  5
E6
330
E3
100
AcDbEntity
  8
0
100
AcDbBlockEnd
  0
BLOCK
  5
FC
330
FA
100
AcDbEntity
  8
0
100
AcDbBlockBegin
  2
block 7
 70
     0
 10
0.0
 20
0.0
 30
0.0
  3
block 7
  1

  0
SPLINE
  5
FE
330
FA
100
AcDbEntity
  8
_U+30EC_U+30A4_U+30E4_U+30FC 1
370
     0
100
AcDbSpline
210
0.0
220
0.0
230
1.0
 70
    11
 71
     3
 72
    26
 73
    22
 74
     0
 42
0.0000000001
 43
0.0000000001
 12
1.0
 22
0.0
 32
0.0
 13
1.0
 23
0.0
 33
0.0
 40
0.0
 40
0.0
 40
0.0
 40
0.0
 40
1.0
 40
1.0
 40
1.0
 40
2.0
 40
2.0
 40
2.0
 40
3.0
 40
3.0
 40
3.0
 40
4.0
 40
4.0
 40
4.0
 40
5.0
 40
5.0
 40
5.0
 40
6.0
 40
6.0
 40
6.0
 40
7.0
 40
7.0
 40
7.0
 40
7.0
 10
86.72958982206761
 20
-118.9233181126303
 30
0.0
 10
86.72958982206761
 20
-118.9233181126303
 30
0.0
 10
86.47637530390175
 20
-118.9233181126303
 30
0.0
 10
86.47637530390175
 20
-118.9233181126303
 30
0.0
 10
86.50341930346096
 20
-118.6144653023776
 30
0.0
 10
86.70909150393037
 20
-118.0961506866218
 30
0.0
 10
87.14317353507185
 20
-117.5905829241614
 30
0.0
 10
87.14317353507185
 20
-117.5905829241614
 30
0.0
 10
86.24796547322968
 20
-117.5905829241614
 30
0.0
 10
86.24796547322968
 20
-117.5905829241614
 30
0.0
 10
86.24796547322968
 20
-117.5905829241614
 30
0.0
 10
86.24796547322968
 20
-117.379054061367
 30
0.0
 10
86.24796547322968
 20
-117.379054061367
 30
0.0
 10
86.24796547322968
 20
-117.379054061367
 30
0.0
 10
87.39638805323771
 20
-117.379054061367
 30
0.0
 10
87.39638805323771
 20
-117.379054061367
 30
0.0
 10
87.39638805323771
 20
-117.379054061367
 30
0.0
 10
87.39638805323771
 20
-117.5905829241614
 30
0.0
 10
87.39638805323771
 20
-117.5905829241614
 30
0.0
 10
87.05050046651863
 20
-117.8803154544709
 30
0.0
 10
86.76576332466273
 20
-118.4726996231596
 30
0.0
 10
86.72958982206761
 20
-118.9233181126303
 30
0.0
  0
HATCH
  5
FF
330
FA
100
AcDbEntity
  8
_U+30EC_U+30A4_U+30E4_U+30FC 1
 62
     7
420
 16777215
100
AcDbHatch
 10
0.0
 20
0.0
 30
0.0
210
0.0
220
0.0
230
1.0
  2
SOLID
 70
     1
 71
     0
 91
        1
 92
        1
 93
        1
 72
     4
 94
        3
 73
     0
 74
     1
 95
       26
 96
       22
 40
0.0
 40
0.0
 40
0.0
 40
0.0
 40
1.0
 40
1.0
 40
1.0
 40
2.0
 40
2.0
 40
2.0
 40
3.0
 40
3.0
 40
3.0
 40
4.0
 40
4.0
 40
4.0
 40
5.0
 40
5.0
 40
5.0
 40
6.0
 40
6.0
 40
6.0
 40
7.0
 40
7.0
 40
7.0
 40
7.0
 10
86.72958982206761
 20
-118.9233181126303
 10
86.72958982206761
 20
-118.9233181126303
 10
86.47637530390175
 20
-118.9233181126303
 10
86.47637530390175
 20
-118.9233181126303
 10
86.50341930346096
 20
-118.6144653023776
 10
86.70909150393037
 20
-118.0961506866218
 10
87.14317353507185
 20
-117.5905829241614
 10
87.14317353507185
 20
-117.5905829241614
 10
86.24796547322968
 20
-117.5905829241614
 10
86.24796547322968
 20
-117.5905829241614
 10
86.24796547322968
 20
-117.5905829241614
 10
86.24796547322968
 20
-117.379054061367
 10
86.24796547322968
 20
-117.379054061367
 10
86.24796547322968
 20
-117.379054061367
 10
87.39638805323771
 20
-117.379054061367
 10
87.39638805323771
 20
-117.379054061367
 10
87.39638805323771
 20
-117.379054061367
 10
87.39638805323771
 20
-117.5905829241614
 10
87.39638805323771
 20
-117.5905829241614
 10
87.05050046651863
 20
-117.8803154544709
 10
86.76576332466273
 20
-118.4726996231596
 10
86.72958982206761
 20
-118.9233181126303
 97
        0
 97
        0
 75
     2
 76
     1
 98
        0
  0
ENDBLK
  5
FD
330
FA
100
AcDbEntity
  8
0
100
AcDbBlockEnd
  0
ENDSEC
  0
SECTION
  2
ENTITIES
  0
SPLINE
  5
41
330
1F
100
AcDbEntity
  8
_U+30EC_U+30A4_U+30E4_U+30FC 1
 62
   253
420
 11711154
370
     9
100
AcDbSpline
210
0.0
220
0.0
230
1.0
 70
    11
 71
     3
 72
    44
 73
    40
 74
     0
 42
0.0000000001
 43
0.0000000001
 12
1.0
 22
0.0
 32
0.0
 13
1.0
 23
0.0
 33
0.0
 40
0.0
 40
0.0
 40
0.0
 40
0.0
 40
1.0
 40
1.0
 40
1.0
 40
2.0
 40
2.0
 40
2.0
 40
3.0
 40
3.0
 40
3.0
 40
4.0
 40
4.0
 40
4.0
 40
5.0
 40
5.0
 40
5.0
 40
6.0
 40
6.0
 40
6.0
 40
7.0
 40
7.0
 40
7.0
 40
8.0
 40
8.0
 40
8.0
 40
9.0
 40
9.0
 40
9.0
 40
10.0
 40
10.0
 40
10.0
 40
11.0
 40
11.0
 40
11.0
 40
12.0
 40
12.0
 40
12.0
 40
13.0
 40
13.0
 40
13.0
 40
13.0
 10
82.24957234608304
 20
-122.5029299693744
 30
0.0
 10
82.24957234608304
 20
-122.5029299693744
 30
0.0
 10
82.24957234608304
 20
-133.4388999666404
 30
0.0
 10
82.24957234608304
 20
-133.4388999666404
 30
0.0
 10
82.24957234608304
 20
-133.4388999666404
 30
0.0
 10
82.0731834616942
 20
-134.908572188495
 30
0.0
 10
83.39610009461046
 20
-134.9382055218211
 30
0.0
 10
83.39610009461046
 20
-134.9382055218211
 30
0.0
 10
98.30096082546689
 20
-134.9382055218211
 30
0.0
 10
98.30096082546689
 20
-134.9382055218211
 30
0.0
 10
98.30096082546689
 20
-134.9382055218211
 30
0.0
 10
98.21276638327248
 20
-134.1154924664714
 30
0.0
 10
97.1840664095168
 20
-134.1154924664714
 30
0.0
 10
97.1840664095168
 20
-134.1154924664714
 30
0.0
 10
93.59705733436236
 20
-134.1154924664714
 30
0.0
 10
93.59705733436236
 20
-134.1154924664714
 30
0.0
 10
93.59705733436236
 20
-134.1154924664714
 30
0.0
 10
93.36207206257956
 20
-133.8805424665298
 30
0.0
 10
93.36207206257956
 20
-133.8805424665298
 30
0.0
 10
93.36207206257956
 20
-133.8805424665298
 30
0.0
 10
83.36650203981002
 20
-133.9680666331748
 30
0.0
 10
83.36650203981002
 20
-133.9680666331748
 30
0.0
 10
83.36650203981002
 20
-133.9680666331748
 30
0.0
 10
83.36650203981002
 20
-130.4995202451532
 30
0.0
 10
83.36650203981002
 20
-130.4995202451532
 30
0.0
 10
83.36650203981002
 20
-130.4995202451532
 30
0.0
 10
90.24566853097451
 20
-130.4995202451532
 30
0.0
 10
90.24566853097451
 20
-130.4995202451532
 30
0.0
 10
90.24566853097451
 20
-130.4995202451532
 30
0.0
 10
90.30454714058351
 20
-129.558344412055
 30
0.0
 10
89.36372410903034
 20
-129.4701499676326
 30
0.0
 10
89.36372410903034
 20
-129.4701499676326
 30
0.0
 10
83.36650203981002
 20
-129.4701499676326
 30
0.0
 10
83.36650203981002
 20
-129.4701499676326
 30
0.0
 10
83.36650203981002
 20
-129.4701499676326
 30
0.0
 10
83.30790565241604
 20
-123.2966799691759
 30
0.0
 10
83.30790565241604
 20
-123.2966799691759
 30
0.0
 10
83.30790565241604
 20
-123.2966799691759
 30
0.0
 10
83.21971121022162
 20
-122.414735524952
 30
0.0
 10
82.24957234608304
 20
-122.5029299693744
 30
0.0
  0
HATCH
  5
42
330
1F
100
AcDbEntity
  8
_U+30EC_U+30A4_U+30E4_U+30FC 1
 62
   253
420
 11711154
100
AcDbHatch
 10
0.0
 20
0.0
 30
0.0
210
0.0
220
0.0
230
1.0
  2
SOLID
 70
     1
 71
     0
 91
        1
 92
        1
 93
        1
 72
     4
 94
        3
 73
     0
 74
     1
 95
       44
 96
       40
 40
0.0
 40
0.0
 40
0.0
 40
0.0
 40
1.0
 40
1.0
 40
1.0
 40
2.0
 40
2.0
 40
2.0
 40
3.0
 40
3.0
 40
3.0
 40
4.0
 40
4.0
 40
4.0
 40
5.0
 40
5.0
 40
5.0
 40
6.0
 40
6.0
 40
6.0
 40
7.0
 40
7.0
 40
7.0
 40
8.0
 40
8.0
 40
8.0
 40
9.0
 40
9.0
 40
9.0
 40
10.0
 40
10.0
 40
10.0
 40
11.0
 40
11.0
 40
11.0
 40
12.0
 40
12.0
 40
12.0
 40
13.0
 40
13.0
 40
13.0
 40
13.0
 10
82.24957234608304
 20
-122.5029299693744
 10
82.24957234608304
 20
-122.5029299693744
 10
82.24957234608304
 20
-133.4388999666404
 10
82.24957234608304
 20
-133.4388999666404
 10
82.24957234608304
 20
-133.4388999666404
 10
82.0731834616942
 20
-134.908572188495
 10
83.39610009461046
 20
-134.9382055218211
 10
83.39610009461046
 20
-134.9382055218211
 10
98.30096082546689
 20
-134.9382055218211
 10
98.30096082546689
 20
-134.9382055218211
 10
98.30096082546689
 20
-134.9382055218211
 10
98.21276638327248
 20
-134.1154924664714
 10
97.1840664095168
 20
-134.1154924664714
 10
97.1840664095168
 20
-134.1154924664714
 10
93.59705733436236
 20
-134.1154924664714
 10
93.59705733436236
 20
-134.1154924664714
 10
93.59705733436236
 20
-134.1154924664714
 10
93.36207206257956
 20
-133.8805424665298
 10
93.36207206257956
 20
-133.8805424665298
 10
93.36207206257956
 20
-133.8805424665298
 10
83.36650203981002
 20
-133.9680666331748
 10
83.36650203981002
 20
-133.9680666331748
 10
83.36650203981002
 20
-133.9680666331748
 10
83.36650203981002
 20
-130.4995202451532
 10
83.36650203981002
 20
-130.4995202451532
 10
83.36650203981002
 20
-130.4995202451532
 10
90.24566853097451
 20
-130.4995202451532
 10
90.24566853097451
 20
-130.4995202451532
 10
90.24566853097451
 20
-130.4995202451532
 10
90.30454714058351
 20
-129.558344412055
 10
89.36372410903034
 20
-129.4701499676326
 10
89.36372410903034
 20
-129.4701499676326
 10
83.36650203981002
 20
-129.4701499676326
 10
83.36650203981002
 20
-129.4701499676326
 10
83.36650203981002
 20
-129.4701499676326
 10
83.30790565241604
 20
-123.2966799691759
 10
83.30790565241604
 20
-123.2966799691759
 10
83.30790565241604
 20
-123.2966799691759
 10
83.21971121022162
 20
-122.414735524952
 10
82.24957234608304
 20
-122.5029299693744
 97
        0
 97
        0
 75
     2
 76
     1
 98
        0
  0
POLYLINE
  5
43
330
1F
100
AcDbEntity
  8
_U+30EC_U+30A4_U+30E4_U+30FC 1
  6
AI-Linetype-1
 62
   251
420
  5855577
370
    25
100
AcDb2dPolyline
 66
     1
 10
0.0
 20
0.0
 30
0.0
  0
VERTEX
  5
44
330
43
100
AcDbEntity
  8
_U+30EC_U+30A4_U+30E4_U+30FC 1
  6
AI-Linetype-1
 62
   251
420
  5855577
370
    25
100
AcDbVertex
100
AcDb2dVertex
 10
81.87682735559255
 20
-121.8408013584287
 30
0.0
  0
VERTEX
  5
45
330
43
100
AcDbEntity
  8
_U+30EC_U+30A4_U+30E4_U+30FC 1
  6
AI-Linetype-1
 62
   251
420
  5855577
370
    25
100
AcDbVertex
100
AcDb2dVertex
 10
83.78817730682995
 20
-121.8408013584287
 30
0.0
  0
VERTEX
  5
46
330
43
100
AcDbEntity
  8
_U+30EC_U+30A4_U+30E4_U+30FC 1
  6
AI-Linetype-1
 62
   251
420
  5855577
370
    25
100
AcDbVertex
100
AcDb2dVertex
 10
83.78817730682995
 20
-128.8665471900053
 30
0.0
  0
VERTEX
  5
47
330
43
100
AcDbEntity
  8
_U+30EC_U+30A4_U+30E4_U+30FC 1
  6
AI-Linetype-1
 62
   251
420
  5855577
370
    25
100
AcDbVertex
100
AcDb2dVertex
 10
90.96085490161748
 20
-128.8665471900053
 30
0.0
  0
VERTEX
  5
48
330
43
100
AcDbEntity
  8
_U+30EC_U+30A4_U+30E4_U+30FC 1
  6
AI-Linetype-1
 62
   251
420
  5855577
370
    25
100
AcDbVertex
100
AcDb2dVertex
 10
90.96085490161748
 20
-130.6897027451056
 30
0.0
  0
SEQEND
  5
4A
330
43
100
AcDbEntity
  8
_U+30EC_U+30A4_U+30E4_U+30FC 1
  6
AI-Linetype-1
 62
   251
420
  5855577
370
    25
  0
POLYLINE
  5
4B
330
1F
100
AcDbEntity
  8
_U+30EC_U+30A4_U+30E4_U+30FC 1
 62
     7
420
 16777215
370
    25
100
AcDb2dPolyline
 66
     1
 10
0.0
 20
0.0
 30
0.0
  0
VERTEX
  5
4C
330
4B
100
AcDbEntity
  8
_U+30EC_U+30A4_U+30E4_U+30FC 1
 62
     7
420
 16777215
370
    25
100
AcDbVertex
100
AcDb2dVertex
 10
83.3003583125084
 20
-133.9439366331808
 30
0.0
  0
VERTEX
  5
4D
330
4B
100
AcDbEntity
  8
_U+30EC_U+30A4_U+30E4_U+30FC 1
 62
     7
420
 16777215
370
    25
100
AcDbVertex
100
AcDb2dVertex
 10
93.30008900860531
 20
-133.9439366331808
 30
0.0
  0
SEQEND
  5
4E
330
4B
100
AcDbEntity
  8
_U+30EC_U+30A4_U+30E4_U+30FC 1
 62
     7
420
 16777215
370
    25
  0
POLYLINE
  5
4F
330
1F
100
AcDbEntity
  8
_U+30EC_U+30A4_U+30E4_U+30FC 1
 62
     7
420
 16777215
370
    25
100
AcDb2dPolyline
 66
     1
 10
0.0
 20
0.0
 30
0.0
  0
VERTEX
  5
50
330
4F
100
AcDbEntity
  8
_U+30EC_U+30A4_U+30E4_U+30FC 1
 62
     7
420
 16777215
370
    25
100
AcDbVertex
100
AcDb2dVertex
 10
83.3003583125084
 20
-130.4437108007221
 30
0.0
  0
VERTEX
  5
51
330
4F
100
AcDbEntity
  8
_U+30EC_U+30A4_U+30E4_U+30FC 1
 62
     7
420
 16777215
370
    25
100
AcDbVertex
100
AcDb2dVertex
 10
90.30010214069691
 20
-130.4437108007221
 30
0.0
  0
SEQEND
  5
52
330
4F
100
AcDbEntity
  8
_U+30EC_U+30A4_U+30E4_U+30FC 1
 62
     7
420
 16777215
370
    25
  0
POLYLINE
  5
53
330
1F
100
AcDbEntity
  8
_U+30EC_U+30A4_U+30E4_U+30FC 1
 62
     7
420
 16777215
370
    25
100
AcDb2dPolyline
 66
     1
 10
0.0
 20
0.0
 30
0.0
  0
VERTEX
  5
54
330
53
100
AcDbEntity
  8
_U+30EC_U+30A4_U+30E4_U+30FC 1
 62
     7
420
 16777215
370
    25
100
AcDbVertex
100
AcDb2dVertex
 10
83.3003583125084
 20
-134.9437088551527
 30
0.0
  0
VERTEX
  5
55
330
53
100
AcDbEntity
  8
_U+30EC_U+30A4_U+30E4_U+30FC 1
 62
     7
420
 16777215
370
    25
100
AcDbVertex
100
AcDb2dVertex
 10
98.30029054770621
 20
-134.9437088551527
 30
0.0
  0
SEQEND
  5
56
330
53
100
AcDbEntity
  8
_U+30EC_U+30A4_U+30E4_U+30FC 1
 62
     7
420
 16777215
370
    25
  0
POLYLINE
  5
57
330
1F
100
AcDbEntity
  8
_U+30EC_U+30A4_U+30E4_U+30FC 1
 62
     7
420
 16777215
370
    25
100
AcDb2dPolyline
 66
     1
 10
0.0
 20
0.0
 30
0.0
  0
VERTEX
  5
58
330
57
100
AcDbEntity
  8
_U+30EC_U+30A4_U+30E4_U+30FC 1
 62
     7
420
 16777215
370
    25
100
AcDbVertex
100
AcDb2dVertex
 10
82.29988053498064
 20
-122.4440160805001
 30
0.0
  0
VERTEX
  5
59
330
57
100
AcDbEntity
  8
_U+30EC_U+30A4_U+30E4_U+30FC 1
 62
     7
420
 16777215
370
    25
100
AcDbVertex
100
AcDb2dVertex
 10
82.29988053498064
 20
-133.9439366331808
 30
0.0
  0
SEQEND
  5
5A
330
57
100
AcDbEntity
  8
_U+30EC_U+30A4_U+30E4_U+30FC 1
 62
     7
420
 16777215
370
    25
  0
POLYLINE
  5
5B
330
1F
100
AcDbEntity
  8
_U+30EC_U+30A4_U+30E4_U+30FC 1
 62
     7
420
 16777215
370
    25
100
AcDb2dPolyline
 66
     1
 10
0.0
 20
0.0
 30
0.0
  0
VERTEX
  5
5C
330
5B
100
AcDbEntity
  8
_U+30EC_U+30A4_U+30E4_U+30FC 1
 62
     7
420
 16777215
370
    25
100
AcDbVertex
100
AcDb2dVertex
 10
83.3003583125084
 20
-123.4437883024723
 30
0.0
  0
VERTEX
  5
5D
330
5B
100
AcDbEntity
  8
_U+30EC_U+30A4_U+30E4_U+30FC 1
 62
     7
420
 16777215
370
    25
100
AcDbVertex
100
AcDb2dVertex
 10
83.3003583125084
 20
-129.4439385787502
 30
0.0
  0
SEQEND
  5
5E
330
5B
100
AcDbEntity
  8
_U+30EC_U+30A4_U+30E4_U+30FC 1
 62
     7
420
 16777215
370
    25
  0
POLYLINE
  5
5F
330
1F
100
AcDbEntity
  8
_U+30EC_U+30A4_U+30E4_U+30FC 1
 62
     7
420
 16777215
370
    25
100
AcDb2dPolyline
 66
     1
 10
0.0
 20
0.0
 30
0.0
  0
VERTEX
  5
60
330
5F
100
AcDbEntity
  8
_U+30EC_U+30A4_U+30E4_U+30FC 1
 62
     7
420
 16777215
370
    25
100
AcDbVertex
100
AcDb2dVertex
 10
83.3003583125084
 20
-129.4439385787502
 30
0.0
  0
VERTEX
  5
61
330
5F
100
AcDbEntity
  8
_U+30EC_U+30A4_U+30E4_U+30FC 1
 62
     7
420
 16777215
370
    25
100
AcDbVertex
100
AcDb2dVertex
 10
89.300329943981
 20
-129.4439385787502
 30
0.0
  0
SEQEND
  5
62
330
5F
100
AcDbEntity
  8
_U+30EC_U+30A4_U+30E4_U+30FC 1
 62
     7
420
 16777215
370
    25
  0
POLYLINE
  5
63
330
1F
100
AcDbEntity
  8
_U+30EC_U+30A4_U+30E4_U+30FC 1
 62
     7
420
 16777215
370
    25
100
AcDb2dPolyline
 66
     1
 10
0.0
 20
0.0
 30
0.0
  0
VERTEX
  5
64
330
63
100
AcDbEntity
  8
_U+30EC_U+30A4_U+30E4_U+30FC 1
 62
     7
420
 16777215
370
    25
100
AcDbVertex
100
AcDb2dVertex
 10
83.3003583125084
 20
-130.4437108007221
 30
0.0
  0
VERTEX
  5
65
330
63
100
AcDbEntity
  8
_U+30EC_U+30A4_U+30E4_U+30FC 1
 62
     7
420
 16777215
370
    25
100
AcDbVertex
100
AcDb2dVertex
 10
83.3003583125084
 20
-133.9439366331808
 30
0.0
  0
SEQEND
  5
66
330
63
100
AcDbEntity
  8
_U+30EC_U+30A4_U+30E4_U+30FC 1
 62
     7
420
 16777215
370
    25
  0
POLYLINE
  5
67
330
1F
100
AcDbEntity
  8
_U+30EC_U+30A4_U+30E4_U+30FC 1
 62
     7
420
 16777215
370
    25
100
AcDb2dPolyline
 66
     1
 10
0.0
 20
0.0
 30
0.0
  0
VERTEX
  5
68
330
67
100
AcDbEntity
  8
_U+30EC_U+30A4_U+30E4_U+30FC 1
 62
     7
420
 16777215
370
    25
100
AcDbVertex
100
AcDb2dVertex
 10
93.6466578886525
 20
-134.1437499664641
 30
0.0
  0
VERTEX
  5
69
330
67
100
AcDbEntity
  8
_U+30EC_U+30A4_U+30E4_U+30FC 1
 62
     7
420
 16777215
370
    25
100
AcDbVertex
100
AcDb2dVertex
 10
97.50033167922598
 20
-134.1437499664641
 30
0.0
  0
SEQEND
  5
6A
330
67
100
AcDbEntity
  8
_U+30EC_U+30A4_U+30E4_U+30FC 1
 62
     7
420
 16777215
370
    25
  0
POLYLINE
  5
6B
330
1F
100
AcDbEntity
  8
_U+30EC_U+30A4_U+30E4_U+30FC 1
 62
     7
420
 16777215
370
    25
100
AcDb2dPolyline
 66
     1
 10
0.0
 20
0.0
 30
0.0
  0
VERTEX
  5
6C
330
6B
100
AcDbEntity
  8
_U+30EC_U+30A4_U+30E4_U+30FC 1
 62
     7
420
 16777215
370
    25
100
AcDbVertex
100
AcDb2dVertex
 10
93.30008900860531
 20
-133.9439366331808
 30
0.0
  0
VERTEX
  5
6D
330
6B
100
AcDbEntity
  8
_U+30EC_U+30A4_U+30E4_U+30FC 1
 62
     7
420
 16777215
370
    25
100
AcDbVertex
100
AcDb2dVertex
 10
93.6466578886525
 20
-134.1437499664641
 30
0.0
  0
SEQEND
  5
6E
330
6B
100
AcDbEntity
  8
_U+30EC_U+30A4_U+30E4_U+30FC 1
 62
     7
420
 16777215
370
    25
  0
SPLINE
  5
6F
330
1F
100
AcDbEntity
  8
_U+30EC_U+30A4_U+30E4_U+30FC 1
 62
     7
420
 16777215
370
    25
100
AcDbSpline
210
0.0
220
0.0
230
1.0
 70
     8
 71
     3
 72
     8
 73
     4
 74
     0
 42
0.0000000001
 43
0.0000000001
 12
1.0
 22
0.0
 32
0.0
 13
1.0
 23
0.0
 33
0.0
 40
0.0
 40
0.0
 40
0.0
 40
0.0
 40
1.0
 40
1.0
 40
1.0
 40
1.0
 10
82.29988053498064
 20
-133.9439366331808
 30
0.0
 10
82.29988053498064
 20
-134.4965277441536
 30
0.0
 10
82.74772983337398
 20
-134.9437088551527
 30
0.0
 10
83.3003583125084
 20
-134.9437088551527
 30
0.0
  0
SPLINE
  5
70
330
1F
100
AcDbEntity
  8
_U+30EC_U+30A4_U+30E4_U+30FC 1
 62
     7
420
 16777215
370
     9
100
AcDbSpline
210
0.0
220
0.0
230
1.0
 70
    11
 71
     3
 72
    17
 73
    13
 74
     0
 42
0.0000000001
 43
0.0000000001
 12
1.0
 22
0.0
 32
0.0
 13
1.0
 23
0.0
 33
0.0
 40
0.0
 40
0.0
 40
0.0
 40
0.0
 40
1.0
 40
1.0
 40
1.0
 40
2.0
 40
2.0
 40
2.0
 40
3.0
 40
3.0
 40
3.0
 40
4.0
 40
4.0
 40
4.0
 40
4.0
 10
82.40013789779735
 20
-125.4440383019723
 30
0.0
 10
82.40013789779735
 20
-125.3885463575418
 30
0.0
 10
82.35533512116258
 20
-125.3437788575529
 30
0.0
 10
82.29988053498064
 20
-125.3437788575529
 30
0.0
 10
82.24477456842766
 20
-125.3437788575529
 30
0.0
 10
82.1999717917929
 20
-125.3885463575418
 30
0.0
 10
82.1999717917929
 20
-125.4440383019723
 30
0.0
 10
82.1999717917929
 20
-125.4991421908475
 30
0.0
 10
82.24477456842766
 20
-125.5439449686139
 30
0.0
 10
82.29988053498064
 20
-125.5439449686139
 30
0.0
 10
82.35533512116258
 20
-125.5439449686139
 30
0.0
 10
82.40013789779735
 20
-125.4991421908475
 30
0.0
 10
82.40013789779735
 20
-125.4440383019723
 30
0.0
  0
SPLINE
  5
71
330
1F
100
AcDbEntity
  8
_U+30EC_U+30A4_U+30E4_U+30FC 1
 62
     7
420
 16777215
370
     9
100
AcDbSpline
210
0.0
220
0.0
230
1.0
 70
    11
 71
     3
 72
    17
 73
    13
 74
     0
 42
0.0000000001
 43
0.0000000001
 12
1.0
 22
0.0
 32
0.0
 13
1.0
 23
0.0
 33
0.0
 40
0.0
 40
0.0
 40
0.0
 40
0.0
 40
1.0
 40
1.0
 40
1.0
 40
2.0
 40
2.0
 40
2.0
 40
3.0
 40
3.0
 40
3.0
 40
4.0
 40
4.0
 40
4.0
 40
4.0
 10
83.40026287228203
 20
-125.4440383019723
 30
0.0
 10
83.40026287228203
 20
-125.3885463575418
 30
0.0
 10
83.35546009564727
 20
-125.3437788575529
 30
0.0
 10
83.3003583125084
 20
-125.3437788575529
 30
0.0
 10
83.24486426513548
 20
-125.3437788575529
 30
0.0
 10
83.20009676627758
 20
-125.3885463575418
 30
0.0
 10
83.20009676627758
 20
-125.4440383019723
 30
0.0
 10
83.20009676627758
 20
-125.4991421908475
 30
0.0
 10
83.24486426513548
 20
-125.5439449686139
 30
0.0
 10
83.3003583125084
 20
-125.5439449686139
 30
0.0
 10
83.35546009564727
 20
-125.5439449686139
 30
0.0
 10
83.40026287228203
 20
-125.4991421908475
 30
0.0
 10
83.40026287228203
 20
-125.4440383019723
 30
0.0
  0
SPLINE
  5
72
330
1F
100
AcDbEntity
  8
_U+30EC_U+30A4_U+30E4_U+30FC 1
 62
     7
420
 16777215
370
     9
100
AcDbSpline
210
0.0
220
0.0
230
1.0
 70
    11
 71
     3
 72
    17
 73
    13
 74
     0
 42
0.0000000001
 43
0.0000000001
 12
1.0
 22
0.0
 32
0.0
 13
1.0
 23
0.0
 33
0.0
 40
0.0
 40
0.0
 40
0.0
 40
0.0
 40
1.0
 40
1.0
 40
1.0
 40
2.0
 40
2.0
 40
2.0
 40
3.0
 40
3.0
 40
3.0
 40
4.0
 40
4.0
 40
4.0
 40
4.0
 10
98.40019721182405
 20
-138.9441382985976
 30
0.0
 10
98.40019721182405
 20
-138.889034409722
 30
0.0
 10
98.35539443518928
 20
-138.8442316319553
 30
0.0
 10
98.30029054770621
 20
-138.8442316319553
 30
0.0
 10
98.24515138244627
 20
-138.8442316319553
 30
0.0
 10
98.20038388358837
 20
-138.889034409722
 30
0.0
 10
98.20038388358837
 20
-138.9441382985976
 30
0.0
 10
98.20038388358837
 20
-138.99927746525
 30
0.0
 10
98.24515138244627
 20
-139.0440449652392
 30
0.0
 10
98.30029054770621
 20
-139.0440449652392
 30
0.0
 10
98.35539443518928
 20
-139.0440449652392
 30
0.0
 10
98.40019721182405
 20
-138.99927746525
 30
0.0
 10
98.40019721182405
 20
-138.9441382985976
 30
0.0
  0
SPLINE
  5
73
330
1F
100
AcDbEntity
  8
_U+30EC_U+30A4_U+30E4_U+30FC 1
 62
     7
420
 16777215
370
     9
100
AcDbSpline
210
0.0
220
0.0
230
1.0
 70
    11
 71
     3
 72
    17
 73
    13
 74
     0
 42
0.0000000001
 43
0.0000000001
 12
1.0
 22
0.0
 32
0.0
 13
1.0
 23
0.0
 33
0.0
 40
0.0
 40
0.0
 40
0.0
 40
0.0
 40
1.0
 40
1.0
 40
1.0
 40
2.0
 40
2.0
 40
2.0
 40
3.0
 40
3.0
 40
3.0
 40
4.0
 40
4.0
 40
4.0
 40
4.0
 10
82.40013789779735
 20
-138.9441382985976
 30
0.0
 10
82.40013789779735
 20
-138.889034409722
 30
0.0
 10
82.35533512116258
 20
-138.8442316319553
 30
0.0
 10
82.29988053498064
 20
-138.8442316319553
 30
0.0
 10
82.24477456842766
 20
-138.8442316319553
 30
0.0
 10
82.1999717917929
 20
-138.889034409722
 30
0.0
 10
82.1999717917929
 20
-138.9441382985976
 30
0.0
 10
82.1999717917929
 20
-138.99927746525
 30
0.0
 10
82.24477456842766
 20
-139.0440449652392
 30
0.0
 10
82.29988053498064
 20
-139.0440449652392
 30
0.0
 10
82.35533512116258
 20
-139.0440449652392
 30
0.0
 10
82.40013789779735
 20
-138.99927746525
 30
0.0
 10
82.40013789779735
 20
-138.9441382985976
 30
0.0
  0
SPLINE
  5
74
330
1F
100
AcDbEntity
  8
_U+30EC_U+30A4_U+30E4_U+30FC 1
 62
     7
420
 16777215
370
    25
100
AcDbSpline
210
0.0
220
0.0
230
1.0
 70
     8
 71
     3
 72
     8
 73
     4
 74
     0
 42
0.0000000001
 43
0.0000000001
 12
1.0
 22
0.0
 32
0.0
 13
1.0
 23
0.0
 33
0.0
 40
0.0
 40
0.0
 40
0.0
 40
0.0
 40
1.0
 40
1.0
 40
1.0
 40
1.0
 10
83.3003583125084
 20
-123.4437883024723
 30
0.0
 10
83.3003583125084
 20
-122.8915499692772
 30
0.0
 10
82.85246955292408
 20
-122.4440160805001
 30
0.0
 10
82.29988053498064
 20
-122.4440160805001
 30
0.0
  0
SPLINE
  5
75
330
1F
100
AcDbEntity
  8
_U+30EC_U+30A4_U+30E4_U+30FC 1
 62
     7
420
 16777215
370
    25
100
AcDbSpline
210
0.0
220
0.0
230
1.0
 70
     8
 71
     3
 72
     8
 73
     4
 74
     0
 42
0.0000000001
 43
0.0000000001
 12
1.0
 22
0.0
 32
0.0
 13
1.0
 23
0.0
 33
0.0
 40
0.0
 40
0.0
 40
0.0
 40
0.0
 40
1.0
 40
1.0
 40
1.0
 40
1.0
 10
90.30010214069691
 20
-130.4437108007221
 30
0.0
 10
90.30010214069691
 20
-129.8918252453048
 30
0.0
 10
89.85221548545678
 20
-129.4439385787502
 30
0.0
 10
89.300329943981
 20
-129.4439385787502
 30
0.0
  0
SPLINE
  5
76
330
1F
100
AcDbEntity
  8
_U+30EC_U+30A4_U+30E4_U+30FC 1
 62
     7
420
 16777215
370
    25
100
AcDbSpline
210
0.0
220
0.0
230
1.0
 70
     8
 71
     3
 72
     8
 73
     4
 74
     0
 42
0.0000000001
 43
0.0000000001
 12
1.0
 22
0.0
 32
0.0
 13
1.0
 23
0.0
 33
0.0
 40
0.0
 40
0.0
 40
0.0
 40
0.0
 40
1.0
 40
1.0
 40
1.0
 40
1.0
 10
98.30029054770621
 20
-134.9437088551527
 30
0.0
 10
98.30029054770621
 20
-134.5020310774858
 30
0.0
 10
97.94200944573561
 20
-134.1437499664641
 30
0.0
 10
97.50033167922598
 20
-134.1437499664641
 30
0.0
  0
SPLINE
  5
77
330
1F
100
AcDbEntity
  8
_U+30EC_U+30A4_U+30E4_U+30FC 1
 62
     7
420
 16777215
370
     9
100
AcDbSpline
210
0.0
220
0.0
230
1.0
 70
    11
 71
     3
 72
    17
 73
    13
 74
     0
 42
0.0000000001
 43
0.0000000001
 12
1.0
 22
0.0
 32
0.0
 13
1.0
 23
0.0
 33
0.0
 40
0.0
 40
0.0
 40
0.0
 40
0.0
 40
1.0
 40
1.0
 40
1.0
 40
2.0
 40
2.0
 40
2.0
 40
3.0
 40
3.0
 40
3.0
 40
4.0
 40
4.0
 40
4.0
 40
4.0
 10
78.40002605540425
 20
-122.4440160805001
 30
0.0
 10
78.40002605540425
 20
-122.3885594138474
 30
0.0
 10
78.35525855654637
 20
-122.3437919138585
 30
0.0
 10
78.30011939128642
 20
-122.3437919138585
 30
0.0
 10
78.24501550380334
 20
-122.3437919138585
 30
0.0
 10
78.20021272716859
 20
-122.3885594138474
 30
0.0
 10
78.20021272716859
 20
-122.4440160805001
 30
0.0
 10
78.20021272716859
 20
-122.4991552471532
 30
0.0
 10
78.24501550380334
 20
-122.5439580249196
 30
0.0
 10
78.30011939128642
 20
-122.5439580249196
 30
0.0
 10
78.35525855654637
 20
-122.5439580249196
 30
0.0
 10
78.40002605540425
 20
-122.4991552471532
 30
0.0
 10
78.40002605540425
 20
-122.4440160805001
 30
0.0
  0
SPLINE
  5
78
330
1F
100
AcDbEntity
  8
_U+30EC_U+30A4_U+30E4_U+30FC 1
 62
     7
420
 16777215
370
     9
100
AcDbSpline
210
0.0
220
0.0
230
1.0
 70
    11
 71
     3
 72
    17
 73
    13
 74
     0
 42
0.0000000001
 43
0.0000000001
 12
1.0
 22
0.0
 32
0.0
 13
1.0
 23
0.0
 33
0.0
 40
0.0
 40
0.0
 40
0.0
 40
0.0
 40
1.0
 40
1.0
 40
1.0
 40
2.0
 40
2.0
 40
2.0
 40
3.0
 40
3.0
 40
3.0
 40
4.0
 40
4.0
 40
4.0
 40
4.0
 10
78.40002605540425
 20
-134.9437088551527
 30
0.0
 10
78.40002605540425
 20
-134.8885696885003
 30
0.0
 10
78.35525855654637
 20
-134.8438021885111
 30
0.0
 10
78.30011939128642
 20
-134.8438021885111
 30
0.0
 10
78.24501550380334
 20
-134.8438021885111
 30
0.0
 10
78.20021272716859
 20
-134.8885696885003
 30
0.0
 10
78.20021272716859
 20
-134.9437088551527
 30
0.0
 10
78.20021272716859
 20
-134.9995182995838
 30
0.0
 10
78.24501550380334
 20
-135.0442857995723
 30
0.0
 10
78.30011939128642
 20
-135.0442857995723
 30
0.0
 10
78.35525855654637
 20
-135.0442857995723
 30
0.0
 10
78.40002605540425
 20
-134.9995182995838
 30
0.0
 10
78.40002605540425
 20
-134.9437088551527
 30
0.0
  0
SPLINE
  5
79
330
1F
100
AcDbEntity
  8
_U+30EC_U+30A4_U+30E4_U+30FC 1
 62
     7
420
 16777215
370
     9
100
AcDbSpline
210
0.0
220
0.0
230
1.0
 70
    11
 71
     3
 72
    17
 73
    13
 74
     0
 42
0.0000000001
 43
0.0000000001
 12
1.0
 22
0.0
 32
0.0
 13
1.0
 23
0.0
 33
0.0
 40
0.0
 40
0.0
 40
0.0
 40
0.0
 40
1.0
 40
1.0
 40
1.0
 40
2.0
 40
2.0
 40
2.0
 40
3.0
 40
3.0
 40
3.0
 40
4.0
 40
4.0
 40
4.0
 40
4.0
 10
102.3999562764484
 20
-122.4440160805001
 30
0.0
 10
102.3999562764484
 20
-122.3885594138474
 30
0.0
 10
102.3551534998136
 20
-122.3437919138585
 30
0.0
 10
102.3000496123305
 20
-122.3437919138585
 30
0.0
 10
102.2449104470706
 20
-122.3437919138585
 30
0.0
 10
102.2001429482127
 20
-122.3885594138474
 30
0.0
 10
102.2001429482127
 20
-122.4440160805001
 30
0.0
 10
102.2001429482127
 20
-122.4991552471532
 30
0.0
 10
102.2449104470706
 20
-122.5439580249196
 30
0.0
 10
102.3000496123305
 20
-122.5439580249196
 30
0.0
 10
102.3551534998136
 20
-122.5439580249196
 30
0.0
 10
102.3999562764484
 20
-122.4991552471532
 30
0.0
 10
102.3999562764484
 20
-122.4440160805001
 30
0.0
  0
SPLINE
  5
7A
330
1F
100
AcDbEntity
  8
_U+30EC_U+30A4_U+30E4_U+30FC 1
 62
     7
420
 16777215
370
     9
100
AcDbSpline
210
0.0
220
0.0
230
1.0
 70
    11
 71
     3
 72
    17
 73
    13
 74
     0
 42
0.0000000001
 43
0.0000000001
 12
1.0
 22
0.0
 32
0.0
 13
1.0
 23
0.0
 33
0.0
 40
0.0
 40
0.0
 40
0.0
 40
0.0
 40
1.0
 40
1.0
 40
1.0
 40
2.0
 40
2.0
 40
2.0
 40
3.0
 40
3.0
 40
3.0
 40
4.0
 40
4.0
 40
4.0
 40
4.0
 10
102.3999562764484
 20
-130.4437108007221
 30
0.0
 10
102.3999562764484
 20
-130.3886069118472
 30
0.0
 10
102.3551534998136
 20
-130.3438041340805
 30
0.0
 10
102.3000496123305
 20
-130.3438041340805
 30
0.0
 10
102.2449104470706
 20
-130.3438041340805
 30
0.0
 10
102.2001429482127
 20
-130.3886069118472
 30
0.0
 10
102.2001429482127
 20
-130.4437108007221
 30
0.0
 10
102.2001429482127
 20
-130.4988499673752
 30
0.0
 10
102.2449104470706
 20
-130.5436174673644
 30
0.0
 10
102.3000496123305
 20
-130.5436174673644
 30
0.0
 10
102.3551534998136
 20
-130.5436174673644
 30
0.0
 10
102.3999562764484
 20
-130.4988499673752
 30
0.0
 10
102.3999562764484
 20
-130.4437108007221
 30
0.0
  0
SPLINE
  5
7B
330
1F
100
AcDbEntity
  8
_U+30EC_U+30A4_U+30E4_U+30FC 1
 62
     7
420
 16777215
370
     9
100
AcDbSpline
210
0.0
220
0.0
230
1.0
 70
    11
 71
     3
 72
    17
 73
    13
 74
     0
 42
0.0000000001
 43
0.0000000001
 12
1.0
 22
0.0
 32
0.0
 13
1.0
 23
0.0
 33
0.0
 40
0.0
 40
0.0
 40
0.0
 40
0.0
 40
1.0
 40
1.0
 40
1.0
 40
2.0
 40
2.0
 40
2.0
 40
3.0
 40
3.0
 40
3.0
 40
4.0
 40
4.0
 40
4.0
 40
4.0
 10
102.3999562764484
 20
-133.9439366331808
 30
0.0
 10
102.3999562764484
 20
-133.8887974665277
 30
0.0
 10
102.3551534998136
 20
-133.8440299665392
 30
0.0
 10
102.3000496123305
 20
-133.8440299665392
 30
0.0
 10
102.2449104470706
 20
-133.8440299665392
 30
0.0
 10
102.2001429482127
 20
-133.8887974665277
 30
0.0
 10
102.2001429482127
 20
-133.9439366331808
 30
0.0
 10
102.2001429482127
 20
-133.9990405220557
 30
0.0
 10
102.2449104470706
 20
-134.0438432998224
 30
0.0
 10
102.3000496123305
 20
-134.0438432998224
 30
0.0
 10
102.3551534998136
 20
-134.0438432998224
 30
0.0
 10
102.3999562764484
 20
-133.9990405220557
 30
0.0
 10
102.3999562764484
 20
-133.9439366331808
 30
0.0
  0
POLYLINE
  5
7C
330
1F
100
AcDbEntity
  8
_U+30EC_U+30A4_U+30E4_U+30FC 1
 62
     7
420
 16777215
370
     9
100
AcDb2dPolyline
 66
     1
 10
0.0
 20
0.0
 30
0.0
  0
VERTEX
  5
7D
330
7C
100
AcDbEntity
  8
_U+30EC_U+30A4_U+30E4_U+30FC 1
 62
     7
420
 16777215
370
     9
100
AcDbVertex
100
AcDb2dVertex
 10
83.3003583125084
 20
-125.4440383019723
 30
0.0
  0
VERTEX
  5
7E
330
7C
100
AcDbEntity
  8
_U+30EC_U+30A4_U+30E4_U+30FC 1
 62
     7
420
 16777215
370
     9
100
AcDbVertex
100
AcDb2dVertex
 10
87.07066861197552
 20
-125.4440383019723
 30
0.0
  0
SEQEND
  5
7F
330
7C
100
AcDbEntity
  8
_U+30EC_U+30A4_U+30E4_U+30FC 1
 62
     7
420
 16777215
370
     9
  0
POLYLINE
  5
80
330
1F
100
AcDbEntity
  8
_U+30EC_U+30A4_U+30E4_U+30FC 1
 62
     7
420
 16777215
370
     9
100
AcDb2dPolyline
 66
     1
 10
0.0
 20
0.0
 30
0.0
  0
VERTEX
  5
81
330
80
100
AcDbEntity
  8
_U+30EC_U+30A4_U+30E4_U+30FC 1
 62
     7
420
 16777215
370
     9
100
AcDbVertex
100
AcDb2dVertex
 10
81.30010831300842
 20
-125.4440383019723
 30
0.0
  0
VERTEX
  5
82
330
80
100
AcDbEntity
  8
_U+30EC_U+30A4_U+30E4_U+30FC 1
 62
     7
420
 16777215
370
     9
100
AcDbVertex
100
AcDb2dVertex
 10
83.3003583125084
 20
-125.4440383019723
 30
0.0
  0
SEQEND
  5
83
330
80
100
AcDbEntity
  8
_U+30EC_U+30A4_U+30E4_U+30FC 1
 62
     7
420
 16777215
370
     9
  0
INSERT
  5
85
330
1F
100
AcDbEntity
  8
_U+30EC_U+30A4_U+30E4_U+30FC 1
100
AcDbBlockReference
  2
block 2
 10
0.0
 20
0.0
 30
0.0
  0
POLYLINE
  5
8A
330
1F
100
AcDbEntity
  8
_U+30EC_U+30A4_U+30E4_U+30FC 1
 62
     7
420
 16777215
370
     9
100
AcDb2dPolyline
 66
     1
 10
0.0
 20
0.0
 30
0.0
  0
VERTEX
  5
8B
330
8A
100
AcDbEntity
  8
_U+30EC_U+30A4_U+30E4_U+30FC 1
 62
     7
420
 16777215
370
     9
100
AcDbVertex
100
AcDb2dVertex
 10
102.3000496123305
 20
-133.9439366331808
 30
0.0
  0
VERTEX
  5
8C
330
8A
100
AcDbEntity
  8
_U+30EC_U+30A4_U+30E4_U+30FC 1
 62
     7
420
 16777215
370
     9
100
AcDbVertex
100
AcDb2dVertex
 10
102.3000496123305
 20
-130.4437108007221
 30
0.0
  0
SEQEND
  5
8D
330
8A
100
AcDbEntity
  8
_U+30EC_U+30A4_U+30E4_U+30FC 1
 62
     7
420
 16777215
370
     9
  0
POLYLINE
  5
8E
330
1F
100
AcDbEntity
  8
_U+30EC_U+30A4_U+30E4_U+30FC 1
 62
     7
420
 16777215
370
     9
100
AcDb2dPolyline
 66
     1
 10
0.0
 20
0.0
 30
0.0
  0
VERTEX
  5
8F
330
8E
100
AcDbEntity
  8
_U+30EC_U+30A4_U+30E4_U+30FC 1
 62
     7
420
 16777215
370
     9
100
AcDbVertex
100
AcDb2dVertex
 10
95.8398067215895
 20
-133.9439366331808
 30
0.0
  0
VERTEX
  5
90
330
8E
100
AcDbEntity
  8
_U+30EC_U+30A4_U+30E4_U+30FC 1
 62
     7
420
 16777215
370
     9
100
AcDbVertex
100
AcDb2dVertex
 10
103.2998218090464
 20
-133.9439366331808
 30
0.0
  0
SEQEND
  5
91
330
8E
100
AcDbEntity
  8
_U+30EC_U+30A4_U+30E4_U+30FC 1
 62
     7
420
 16777215
370
     9
  0
POLYLINE
  5
92
330
1F
100
AcDbEntity
  8
_U+30EC_U+30A4_U+30E4_U+30FC 1
 62
     7
420
 16777215
370
     9
100
AcDb2dPolyline
 66
     1
 10
0.0
 20
0.0
 30
0.0
  0
VERTEX
  5
93
330
92
100
AcDbEntity
  8
_U+30EC_U+30A4_U+30E4_U+30FC 1
 62
     7
420
 16777215
370
     9
100
AcDbVertex
100
AcDb2dVertex
 10
95.8398067215895
 20
-130.4437108007221
 30
0.0
  0
VERTEX
  5
94
330
92
100
AcDbEntity
  8
_U+30EC_U+30A4_U+30E4_U+30FC 1
 62
     7
420
 16777215
370
     9
100
AcDbVertex
100
AcDb2dVertex
 10
103.2998218090464
 20
-130.4437108007221
 30
0.0
  0
SEQEND
  5
95
330
92
100
AcDbEntity
  8
_U+30EC_U+30A4_U+30E4_U+30FC 1
 62
     7
420
 16777215
370
     9
  0
SPLINE
  5
96
330
1F
100
AcDbEntity
  8
_U+30EC_U+30A4_U+30E4_U+30FC 1
 62
     7
420
 16777215
370
     9
100
AcDbSpline
210
0.0
220
0.0
230
1.0
 70
    11
 71
     3
 72
    17
 73
    13
 74
     0
 42
0.0000000001
 43
0.0000000001
 12
1.0
 22
0.0
 32
0.0
 13
1.0
 23
0.0
 33
0.0
 40
0.0
 40
0.0
 40
0.0
 40
0.0
 40
1.0
 40
1.0
 40
1.0
 40
2.0
 40
2.0
 40
2.0
 40
3.0
 40
3.0
 40
3.0
 40
4.0
 40
4.0
 40
4.0
 40
4.0
 10
102.3999562764484
 20
-129.4439385787502
 30
0.0
 10
102.3999562764484
 20
-129.3888346898753
 30
0.0
 10
102.3551534998136
 20
-129.3440319121086
 30
0.0
 10
102.3000496123305
 20
-129.3440319121086
 30
0.0
 10
102.2449104470706
 20
-129.3440319121086
 30
0.0
 10
102.2001429482127
 20
-129.3888346898753
 30
0.0
 10
102.2001429482127
 20
-129.4439385787502
 30
0.0
 10
102.2001429482127
 20
-129.4990777454033
 30
0.0
 10
102.2449104470706
 20
-129.5438452453918
 30
0.0
 10
102.3000496123305
 20
-129.5438452453918
 30
0.0
 10
102.3551534998136
 20
-129.5438452453918
 30
0.0
 10
102.3999562764484
 20
-129.4990777454033
 30
0.0
 10
102.3999562764484
 20
-129.4439385787502
 30
0.0
  0
POLYLINE
  5
97
330
1F
100
AcDbEntity
  8
_U+30EC_U+30A4_U+30E4_U+30FC 1
 62
     7
420
 16777215
370
     9
100
AcDb2dPolyline
 66
     1
 10
0.0
 20
0.0
 30
0.0
  0
VERTEX
  5
98
330
97
100
AcDbEntity
  8
_U+30EC_U+30A4_U+30E4_U+30FC 1
 62
     7
420
 16777215
370
     9
100
AcDbVertex
100
AcDb2dVertex
 10
95.8398067215895
 20
-129.4439385787502
 30
0.0
  0
VERTEX
  5
99
330
97
100
AcDbEntity
  8
_U+30EC_U+30A4_U+30E4_U+30FC 1
 62
     7
420
 16777215
370
     9
100
AcDbVertex
100
AcDb2dVertex
 10
103.2998218090464
 20
-129.4439385787502
 30
0.0
  0
SEQEND
  5
9A
330
97
100
AcDbEntity
  8
_U+30EC_U+30A4_U+30E4_U+30FC 1
 62
     7
420
 16777215
370
     9
  0
INSERT
  5
9C
330
1F
100
AcDbEntity
  8
_U+30EC_U+30A4_U+30E4_U+30FC 1
100
AcDbBlockReference
  2
block 3
 10
0.0
 20
0.0
 30
0.0
  0
POLYLINE
  5
AB
330
1F
100
AcDbEntity
  8
_U+30EC_U+30A4_U+30E4_U+30FC 1
 62
     7
420
 16777215
370
     9
100
AcDb2dPolyline
 66
     1
 10
0.0
 20
0.0
 30
0.0
  0
VERTEX
  5
AC
330
AB
100
AcDbEntity
  8
_U+30EC_U+30A4_U+30E4_U+30FC 1
 62
     7
420
 16777215
370
     9
100
AcDbVertex
100
AcDb2dVertex
 10
102.3000496123305
 20
-130.4437108007221
 30
0.0
  0
VERTEX
  5
AD
330
AB
100
AcDbEntity
  8
_U+30EC_U+30A4_U+30E4_U+30FC 1
 62
     7
420
 16777215
370
     9
100
AcDbVertex
100
AcDb2dVertex
 10
102.3000496123305
 20
-122.4440160805001
 30
0.0
  0
SEQEND
  5
AE
330
AB
100
AcDbEntity
  8
_U+30EC_U+30A4_U+30E4_U+30FC 1
 62
     7
420
 16777215
370
     9
  0
POLYLINE
  5
AF
330
1F
100
AcDbEntity
  8
_U+30EC_U+30A4_U+30E4_U+30FC 1
 62
     7
420
 16777215
370
     9
100
AcDb2dPolyline
 66
     1
 10
0.0
 20
0.0
 30
0.0
  0
VERTEX
  5
B0
330
AF
100
AcDbEntity
  8
_U+30EC_U+30A4_U+30E4_U+30FC 1
 62
     7
420
 16777215
370
     9
100
AcDbVertex
100
AcDb2dVertex
 10
84.84030172443246
 20
-122.4440160805001
 30
0.0
  0
VERTEX
  5
B1
330
AF
100
AcDbEntity
  8
_U+30EC_U+30A4_U+30E4_U+30FC 1
 62
     7
420
 16777215
370
     9
100
AcDbVertex
100
AcDb2dVertex
 10
103.2998218090464
 20
-122.4440160805001
 30
0.0
  0
SEQEND
  5
B2
330
AF
100
AcDbEntity
  8
_U+30EC_U+30A4_U+30E4_U+30FC 1
 62
     7
420
 16777215
370
     9
  0
INSERT
  5
B4
330
1F
100
AcDbEntity
  8
_U+30EC_U+30A4_U+30E4_U+30FC 1
100
AcDbBlockReference
  2
block 4
 10
0.0
 20
0.0
 30
0.0
  0
POLYLINE
  5
B9
330
1F
100
AcDbEntity
  8
_U+30EC_U+30A4_U+30E4_U+30FC 1
 62
     7
420
 16777215
370
     9
100
AcDb2dPolyline
 66
     1
 10
0.0
 20
0.0
 30
0.0
  0
VERTEX
  5
BA
330
B9
100
AcDbEntity
  8
_U+30EC_U+30A4_U+30E4_U+30FC 1
 62
     7
420
 16777215
370
     9
100
AcDbVertex
100
AcDb2dVertex
 10
78.30011939128642
 20
-134.9437088551527
 30
0.0
  0
VERTEX
  5
BB
330
B9
100
AcDbEntity
  8
_U+30EC_U+30A4_U+30E4_U+30FC 1
 62
     7
420
 16777215
370
     9
100
AcDbVertex
100
AcDb2dVertex
 10
78.30011939128642
 20
-122.4440160805001
 30
0.0
  0
SEQEND
  5
BC
330
B9
100
AcDbEntity
  8
_U+30EC_U+30A4_U+30E4_U+30FC 1
 62
     7
420
 16777215
370
     9
  0
POLYLINE
  5
BD
330
1F
100
AcDbEntity
  8
_U+30EC_U+30A4_U+30E4_U+30FC 1
 62
     7
420
 16777215
370
     9
100
AcDb2dPolyline
 66
     1
 10
0.0
 20
0.0
 30
0.0
  0
VERTEX
  5
BE
330
BD
100
AcDbEntity
  8
_U+30EC_U+30A4_U+30E4_U+30FC 1
 62
     7
420
 16777215
370
     9
100
AcDbVertex
100
AcDb2dVertex
 10
80.75993293964245
 20
-134.9437088551527
 30
0.0
  0
VERTEX
  5
BF
330
BD
100
AcDbEntity
  8
_U+30EC_U+30A4_U+30E4_U+30FC 1
 62
     7
420
 16777215
370
     9
100
AcDbVertex
100
AcDb2dVertex
 10
77.3003471945705
 20
-134.9437088551527
 30
0.0
  0
SEQEND
  5
C0
330
BD
100
AcDbEntity
  8
_U+30EC_U+30A4_U+30E4_U+30FC 1
 62
     7
420
 16777215
370
     9
  0
POLYLINE
  5
C1
330
1F
100
AcDbEntity
  8
_U+30EC_U+30A4_U+30E4_U+30FC 1
 62
     7
420
 16777215
370
     9
100
AcDb2dPolyline
 66
     1
 10
0.0
 20
0.0
 30
0.0
  0
VERTEX
  5
C2
330
C1
100
AcDbEntity
  8
_U+30EC_U+30A4_U+30E4_U+30FC 1
 62
     7
420
 16777215
370
     9
100
AcDbVertex
100
AcDb2dVertex
 10
79.76016074292656
 20
-122.4440160805001
 30
0.0
  0
VERTEX
  5
C3
330
C1
100
AcDbEntity
  8
_U+30EC_U+30A4_U+30E4_U+30FC 1
 62
     7
420
 16777215
370
     9
100
AcDbVertex
100
AcDb2dVertex
 10
77.3003471945705
 20
-122.4440160805001
 30
0.0
  0
SEQEND
  5
C4
330
C1
100
AcDbEntity
  8
_U+30EC_U+30A4_U+30E4_U+30FC 1
 62
     7
420
 16777215
370
     9
  0
INSERT
  5
C6
330
1F
100
AcDbEntity
  8
_U+30EC_U+30A4_U+30E4_U+30FC 1
100
AcDbBlockReference
  2
block 5
 10
0.0
 20
0.0
 30
0.0
  0
POLYLINE
  5
D7
330
1F
100
AcDbEntity
  8
_U+30EC_U+30A4_U+30E4_U+30FC 1
 62
     7
420
 16777215
370
     9
100
AcDb2dPolyline
 66
     1
 10
0.0
 20
0.0
 30
0.0
  0
VERTEX
  5
D8
330
D7
100
AcDbEntity
  8
_U+30EC_U+30A4_U+30E4_U+30FC 1
 62
     7
420
 16777215
370
     9
100
AcDbVertex
100
AcDb2dVertex
 10
82.29988053498064
 20
-138.9441382985976
 30
0.0
  0
VERTEX
  5
D9
330
D7
100
AcDbEntity
  8
_U+30EC_U+30A4_U+30E4_U+30FC 1
 62
     7
420
 16777215
370
     9
100
AcDbVertex
100
AcDb2dVertex
 10
98.30029054770621
 20
-138.9441382985976
 30
0.0
  0
SEQEND
  5
DA
330
D7
100
AcDbEntity
  8
_U+30EC_U+30A4_U+30E4_U+30FC 1
 62
     7
420
 16777215
370
     9
  0
POLYLINE
  5
DB
330
1F
100
AcDbEntity
  8
_U+30EC_U+30A4_U+30E4_U+30FC 1
 62
     7
420
 16777215
370
     9
100
AcDb2dPolyline
 66
     1
 10
0.0
 20
0.0
 30
0.0
  0
VERTEX
  5
DC
330
DB
100
AcDbEntity
  8
_U+30EC_U+30A4_U+30E4_U+30FC 1
 62
     7
420
 16777215
370
     9
100
AcDbVertex
100
AcDb2dVertex
 10
82.29988053498064
 20
-136.4836544103233
 30
0.0
  0
VERTEX
  5
DD
330
DB
100
AcDbEntity
  8
_U+30EC_U+30A4_U+30E4_U+30FC 1
 62
     7
420
 16777215
370
     9
100
AcDbVertex
100
AcDb2dVertex
 10
82.29988053498064
 20
-139.9439105205695
 30
0.0
  0
SEQEND
  5
DE
330
DB
100
AcDbEntity
  8
_U+30EC_U+30A4_U+30E4_U+30FC 1
 62
     7
420
 16777215
370
     9
  0
POLYLINE
  5
DF
330
1F
100
AcDbEntity
  8
_U+30EC_U+30A4_U+30E4_U+30FC 1
 62
     7
420
 16777215
370
     9
100
AcDb2dPolyline
 66
     1
 10
0.0
 20
0.0
 30
0.0
  0
VERTEX
  5
E0
330
DF
100
AcDbEntity
  8
_U+30EC_U+30A4_U+30E4_U+30FC 1
 62
     7
420
 16777215
370
     9
100
AcDbVertex
100
AcDb2dVertex
 10
98.30029054770621
 20
-137.4841321878514
 30
0.0
  0
VERTEX
  5
E1
330
DF
100
AcDbEntity
  8
_U+30EC_U+30A4_U+30E4_U+30FC 1
 62
     7
420
 16777215
370
     9
100
AcDbVertex
100
AcDb2dVertex
 10
98.30029054770621
 20
-139.9439105205695
 30
0.0
  0
SEQEND
  5
E2
330
DF
100
AcDbEntity
  8
_U+30EC_U+30A4_U+30E4_U+30FC 1
 62
     7
420
 16777215
370
     9
  0
INSERT
  5
E4
330
1F
100
AcDbEntity
  8
_U+30EC_U+30A4_U+30E4_U+30FC 1
100
AcDbBlockReference
  2
block 6
 10
0.0
 20
0.0
 30
0.0
  0
SPLINE
  5
EC
330
1F
100
AcDbEntity
  8
_U+30EC_U+30A4_U+30E4_U+30FC 1
 62
     7
420
 16777215
370
     9
100
AcDbSpline
210
0.0
220
0.0
230
1.0
 70
    11
 71
     3
 72
    17
 73
    13
 74
     0
 42
0.0000000001
 43
0.0000000001
 12
1.0
 22
0.0
 32
0.0
 13
1.0
 23
0.0
 33
0.0
 40
0.0
 40
0.0
 40
0.0
 40
0.0
 40
1.0
 40
1.0
 40
1.0
 40
2.0
 40
2.0
 40
2.0
 40
3.0
 40
3.0
 40
3.0
 40
4.0
 40
4.0
 40
4.0
 40
4.0
 10
90.50058574669326
 20
-119.5191355256757
 30
0.0
 10
90.50058574669326
 20
-119.4640316368008
 30
0.0
 10
90.45581824783537
 20
-119.4192288590341
 30
0.0
 10
90.40067908257542
 20
-119.4192288590341
 30
0.0
 10
90.3448696395548
 20
-119.4192288590341
 30
0.0
 10
90.30010214069691
 20
-119.4640316368008
 30
0.0
 10
90.30010214069691
 20
-119.5191355256757
 30
0.0
 10
90.30010214069691
 20
-119.5742746923288
 30
0.0
 10
90.3448696395548
 20
-119.6190421923173
 30
0.0
 10
90.40067908257542
 20
-119.6190421923173
 30
0.0
 10
90.45581824783537
 20
-119.6190421923173
 30
0.0
 10
90.50058574669326
 20
-119.5742746923288
 30
0.0
 10
90.50058574669326
 20
-119.5191355256757
 30
0.0
  0
SPLINE
  5
ED
330
1F
100
AcDbEntity
  8
_U+30EC_U+30A4_U+30E4_U+30FC 1
 62
     7
420
 16777215
370
     9
100
AcDbSpline
210
0.0
220
0.0
230
1.0
 70
    11
 71
     3
 72
    17
 73
    13
 74
     0
 42
0.0000000001
 43
0.0000000001
 12
1.0
 22
0.0
 32
0.0
 13
1.0
 23
0.0
 33
0.0
 40
0.0
 40
0.0
 40
0.0
 40
0.0
 40
1.0
 40
1.0
 40
1.0
 40
2.0
 40
2.0
 40
2.0
 40
3.0
 40
3.0
 40
3.0
 40
4.0
 40
4.0
 40
4.0
 40
4.0
 10
83.50016953639987
 20
-119.5191355256757
 30
0.0
 10
83.50016953639987
 20
-119.4640316368008
 30
0.0
 10
83.4553667597651
 20
-119.4192288590341
 30
0.0
 10
83.40026287228203
 20
-119.4192288590341
 30
0.0
 10
83.34512370702208
 20
-119.4192288590341
 30
0.0
 10
83.3003583125084
 20
-119.4640316368008
 30
0.0
 10
83.3003583125084
 20
-119.5191355256757
 30
0.0
 10
83.3003583125084
 20
-119.5742746923288
 30
0.0
 10
83.34512370702208
 20
-119.6190421923173
 30
0.0
 10
83.40026287228203
 20
-119.6190421923173
 30
0.0
 10
83.4553667597651
 20
-119.6190421923173
 30
0.0
 10
83.50016953639987
 20
-119.5742746923288
 30
0.0
 10
83.50016953639987
 20
-119.5191355256757
 30
0.0
  0
POLYLINE
  5
EE
330
1F
100
AcDbEntity
  8
_U+30EC_U+30A4_U+30E4_U+30FC 1
 62
     7
420
 16777215
370
     9
100
AcDb2dPolyline
 66
     1
 10
0.0
 20
0.0
 30
0.0
  0
VERTEX
  5
EF
330
EE
100
AcDbEntity
  8
_U+30EC_U+30A4_U+30E4_U+30FC 1
 62
     7
420
 16777215
370
     9
100
AcDbVertex
100
AcDb2dVertex
 10
83.40026287228203
 20
-120.9791769141997
 30
0.0
  0
VERTEX
  5
F0
330
EE
100
AcDbEntity
  8
_U+30EC_U+30A4_U+30E4_U+30FC 1
 62
     7
420
 16777215
370
     9
100
AcDbVertex
100
AcDb2dVertex
 10
83.40026287228203
 20
-118.5193633037035
 30
0.0
  0
SEQEND
  5
F1
330
EE
100
AcDbEntity
  8
_U+30EC_U+30A4_U+30E4_U+30FC 1
 62
     7
420
 16777215
370
     9
  0
POLYLINE
  5
F2
330
1F
100
AcDbEntity
  8
_U+30EC_U+30A4_U+30E4_U+30FC 1
 62
     7
420
 16777215
370
     9
100
AcDb2dPolyline
 66
     1
 10
0.0
 20
0.0
 30
0.0
  0
VERTEX
  5
F3
330
F2
100
AcDbEntity
  8
_U+30EC_U+30A4_U+30E4_U+30FC 1
 62
     7
420
 16777215
370
     9
100
AcDbVertex
100
AcDb2dVertex
 10
83.4009331500427
 20
-119.5191355256757
 30
0.0
  0
VERTEX
  5
F4
330
F2
100
AcDbEntity
  8
_U+30EC_U+30A4_U+30E4_U+30FC 1
 62
     7
420
 16777215
370
     9
100
AcDbVertex
100
AcDb2dVertex
 10
90.40067908257542
 20
-119.5191355256757
 30
0.0
  0
SEQEND
  5
F5
330
F2
100
AcDbEntity
  8
_U+30EC_U+30A4_U+30E4_U+30FC 1
 62
     7
420
 16777215
370
     9
  0
POLYLINE
  5
F6
330
1F
100
AcDbEntity
  8
_U+30EC_U+30A4_U+30E4_U+30FC 1
 62
     7
420
 16777215
370
     9
100
AcDb2dPolyline
 66
     1
 10
0.0
 20
0.0
 30
0.0
  0
VERTEX
  5
F7
330
F6
100
AcDbEntity
  8
_U+30EC_U+30A4_U+30E4_U+30FC 1
 62
     7
420
 16777215
370
     9
100
AcDbVertex
100
AcDb2dVertex
 10
90.40067908257542
 20
-126.3611194128543
 30
0.0
  0
VERTEX
  5
F8
330
F6
100
AcDbEntity
  8
_U+30EC_U+30A4_U+30E4_U+30FC 1
 62
     7
420
 16777215
370
     9
100
AcDbVertex
100
AcDb2dVertex
 10
90.40067908257542
 20
-118.5193633037035
 30
0.0
  0
SEQEND
  5
F9
330
F6
100
AcDbEntity
  8
_U+30EC_U+30A4_U+30E4_U+30FC 1
 62
     7
420
 16777215
370
     9
  0
INSERT
  5
FB
330
1F
100
AcDbEntity
  8
_U+30EC_U+30A4_U+30E4_U+30FC 1
100
AcDbBlockReference
  2
block 7
 10
0.0
 20
0.0
 30
0.0
  0
ENDSEC
  0
SECTION
  2
OBJECTS
  0
DICTIONARY
  5
C
330
0
100
AcDbDictionary
281
     1
  3
ACAD_GROUP
350
D
  3
ACAD_LAYOUT
350
1A
  3
ACAD_MATERIAL
350
3B
  3
ACAD_MLEADERSTYLE
350
101
  3
ACAD_MLINESTYLE
350
17
  3
ACAD_PLOTSETTINGS
350
19
  3
ACAD_PLOTSTYLENAME
350
E
  3
ACAD_TABLESTYLE
350
100
  3
ACAD_VISUALSTYLE
350
2A
  0
SUN
  5
3F
330
29
100
AcDbSun
 90
        1
290
     0
 63
     7
421
 16777215
 40
1.0
291
     1
 91
  2455826
 92
 54000000
292
     0
 70
     2
 71
   256
280
     1
  0
DICTIONARY
  5
D
102
{ACAD_REACTORS
330
C
102
}
330
C
100
AcDbDictionary
281
     1
  0
DICTIONARY
  5
1A
102
{ACAD_REACTORS
330
C
102
}
330
C
100
AcDbDictionary
281
     1
  3
Layout1
350
1E
  3
Layout2
350
26
  3
Model
350
22
  0
DICTIONARY
  5
3B
102
{ACAD_REACTORS
330
C
102
}
330
C
100
AcDbDictionary
281
     1
  3
ByBlock
350
3D
  3
ByLayer
350
3C
  3
Global
350
3E
  0
DICTIONARY
  5
101
102
{ACAD_REACTORS
330
C
102
}
330
C
100
AcDbDictionary
281
     1
  0
DICTIONARY
  5
17
102
{ACAD_REACTORS
330
C
102
}
330
C
100
AcDbDictionary
281
     1
  3
Standard
350
18
  0
DICTIONARY
  5
19
102
{ACAD_REACTORS
330
C
102
}
330
C
100
AcDbDictionary
281
     1
  0
ACDBDICTIONARYWDFLT
  5
E
102
{ACAD_REACTORS
330
C
102
}
330
C
100
AcDbDictionary
281
     1
  3
Normal
350
F
100
AcDbDictionaryWithDefault
340
F
  0
DICTIONARY
  5
100
102
{ACAD_REACTORS
330
C
102
}
330
C
100
AcDbDictionary
281
     1
  0
DICTIONARY
  5
2A
102
{ACAD_REACTORS
330
C
102
}
330
C
100
AcDbDictionary
281
     1
  3
2dWireframe
350
2F
  3
3D Hidden
350
31
  3
3dWireframe
350
30
  3
Basic
350
32
  3
Brighten
350
36
  3
ColorChange
350
3A
  3
Conceptual
350
34
  3
Dim
350
35
  3
Facepattern
350
39
  3
Flat
350
2B
  3
FlatWithEdges
350
2C
  3
Gouraud
350
2D
  3
GouraudWithEdges
350
2E
  3
Linepattern
350
38
  3
Realistic
350
33
  3
Thicken
350
37
  0
LAYOUT
  5
1E
102
{ACAD_REACTORS
330
1A
102
}
330
1A
100
AcDbPlotSettings
  1

  2
none_device
  4

  6

 40
0.0
 41
0.0
 42
0.0
 43
0.0
 44
0.0
 45
0.0
 46
0.0
 47
0.0
 48
0.0
 49
0.0
140
0.0
141
0.0
142
1.0
143
1.0
 70
   688
 72
     0
 73
     0
 74
     5
  7

 75
    16
 76
     0
 77
     2
 78
   300
147
1.0
148
0.0
149
0.0
100
AcDbLayout
  1
Layout1
 70
     1
 71
     1
 10
0.0
 20
0.0
 11
12.0
 21
9.0
 12
0.0
 22
0.0
 32
0.0
 14
1.000000000000000E+20
 24
1.000000000000000E+20
 34
1.000000000000000E+20
 15
-1.000000000000000E+20
 25
-1.000000000000000E+20
 35
-1.000000000000000E+20
146
0.0
 13
0.0
 23
0.0
 33
0.0
 16
1.0
 26
0.0
 36
0.0
 17
0.0
 27
1.0
 37
0.0
 76
     0
330
1B
  0
LAYOUT
  5
26
102
{ACAD_REACTORS
330
1A
102
}
330
1A
100
AcDbPlotSettings
  1

  2
none_device
  4

  6

 40
0.0
 41
0.0
 42
0.0
 43
0.0
 44
0.0
 45
0.0
 46
0.0
 47
0.0
 48
0.0
 49
0.0
140
0.0
141
0.0
142
1.0
143
1.0
 70
   688
 72
     0
 73
     0
 74
     5
  7

 75
    16
 76
     0
 77
     2
 78
   300
147
1.0
148
0.0
149
0.0
100
AcDbLayout
  1
Layout2
 70
     1
 71
     2
 10
0.0
 20
0.0
 11
0.0
 21
0.0
 12
0.0
 22
0.0
 32
0.0
 14
0.0
 24
0.0
 34
0.0
 15
0.0
 25
0.0
 35
0.0
146
0.0
 13
0.0
 23
0.0
 33
0.0
 16
1.0
 26
0.0
 36
0.0
 17
0.0
 27
1.0
 37
0.0
 76
     0
330
23
  0
LAYOUT
  5
22
102
{ACAD_REACTORS
330
1A
102
}
330
1A
100
AcDbPlotSettings
  1

  2
none_device
  4

  6

 40
0.0
 41
0.0
 42
0.0
 43
0.0
 44
0.0
 45
0.0
 46
0.0
 47
0.0
 48
0.0
 49
0.0
140
0.0
141
0.0
142
1.0
143
1.0
 70
  1712
 72
     0
 73
     0
 74
     0
  7

 75
     0
 76
     0
 77
     2
 78
   300
147
1.0
148
0.0
149
0.0
100
AcDbLayout
  1
Model
 70
     1
 71
     0
 10
0.0
 20
0.0
 11
12.0
 21
9.0
 12
0.0
 22
0.0
 32
0.0
 14
1.000000000000000E+20
 24
1.000000000000000E+20
 34
1.000000000000000E+20
 15
-1.000000000000000E+20
 25
-1.000000000000000E+20
 35
-1.000000000000000E+20
146
0.0
 13
0.0
 23
0.0
 33
0.0
 16
1.0
 26
0.0
 36
0.0
 17
0.0
 27
1.0
 37
0.0
 76
     0
330
1F
331
29
  0
MATERIAL
  5
3D
102
{ACAD_REACTORS
330
3B
102
}
330
3B
100
AcDbMaterial
  1
ByBlock
 72
     1
 94
      127
  0
MATERIAL
  5
3C
102
{ACAD_REACTORS
330
3B
102
}
330
3B
100
AcDbMaterial
  1
ByLayer
 72
     1
 94
      127
  0
MATERIAL
  5
3E
102
{ACAD_REACTORS
330
3B
102
}
330
3B
100
AcDbMaterial
  1
Global
 72
     1
 94
      127
  0
MLINESTYLE
  5
18
102
{ACAD_REACTORS
330
17
102
}
330
17
100
AcDbMlineStyle
  2
Standard
 70
     0
  3

 62
   256
 51
90.0
 52
90.0
 71
     2
 49
0.5
 62
   256
  6
BYLAYER
 49
-0.5
 62
   256
  6
BYLAYER
  0
ACDBPLACEHOLDER
  5
F
102
{ACAD_REACTORS
330
E
102
}
330
E
  0
VISUALSTYLE
  5
2F
102
{ACAD_REACTORS
330
2A
102
}
330
2A
100
AcDbVisualStyle
  2
2dWireframe
 70
     4
177
     2
291
     0
 71
     0
176
     1
 72
     2
176
     1
 73
     0
176
     1
 90
        0
176
     1
 40
-0.6
176
     1
 41
-30.0
176
     1
 62
     5
 63
     7
421
 16777215
176
     1
 74
     1
176
     1
 91
        4
176
     1
 64
     7
176
     1
 65
   257
176
     1
 75
     1
176
     1
175
     1
176
     1
 42
1.0
176
     1
 92
        0
176
     1
 66
   257
176
     1
 43
1.0
176
     1
 76
     1
176
     1
 77
     6
176
     1
 78
     2
176
     1
 67
     7
176
     1
 79
     5
176
     1
170
     0
176
     1
171
     0
176
     1
290
     0
176
     1
 93
        1
176
     1
 44
0.0
176
     1
173
     0
176
     1
  0
VISUALSTYLE
  5
31
102
{ACAD_REACTORS
330
2A
102
}
330
2A
100
AcDbVisualStyle
  2
3D Hidden
 70
     6
177
     2
291
     0
 71
     1
176
     1
 72
     2
176
     1
 73
     2
176
     1
 90
        0
176
     1
 40
-0.6
176
     1
 41
-30.0
176
     1
 62
     5
 63
     7
421
 16777215
176
     1
 74
     2
176
     1
 91
        2
176
     1
 64
     7
176
     1
 65
   257
176
     1
 75
     2
176
     1
175
     1
176
     1
 42
40.0
176
     1
 92
        0
176
     1
 66
   257
176
     1
 43
1.0
176
     1
 76
     1
176
     1
 77
     6
176
     1
 78
     2
176
     1
 67
     7
176
     1
 79
     3
176
     1
170
     0
176
     1
171
     0
176
     1
290
     0
176
     1
 93
        1
176
     1
 44
0.0
176
     1
173
     0
176
     1
  0
VISUALSTYLE
  5
30
102
{ACAD_REACTORS
330
2A
102
}
330
2A
100
AcDbVisualStyle
  2
3dWireframe
 70
     5
177
     2
291
     0
 71
     0
176
     1
 72
     2
176
     1
 73
     0
176
     1
 90
        0
176
     1
 40
-0.6
176
     1
 41
-30.0
176
     1
 62
     5
 63
     7
421
 16777215
176
     1
 74
     1
176
     1
 91
        4
176
     1
 64
     7
176
     1
 65
   257
176
     1
 75
     1
176
     1
175
     1
176
     1
 42
1.0
176
     1
 92
        0
176
     1
 66
   257
176
     1
 43
1.0
176
     1
 76
     1
176
     1
 77
     6
176
     1
 78
     2
176
     1
 67
     7
176
     1
 79
     5
176
     1
170
     0
176
     1
171
     0
176
     1
290
     0
176
     1
 93
        1
176
     1
 44
0.0
176
     1
173
     0
176
     1
  0
VISUALSTYLE
  5
32
102
{ACAD_REACTORS
330
2A
102
}
330
2A
100
AcDbVisualStyle
  2
Basic
 70
     7
177
     2
291
     1
 71
     1
176
     1
 72
     0
176
     1
 73
     1
176
     1
 90
        0
176
     1
 40
-0.6
176
     1
 41
-30.0
176
     1
 62
     5
 63
     7
421
 16777215
176
     1
 74
     0
176
     1
 91
        4
176
     1
 64
     7
176
     1
 65
   257
176
     1
 75
     1
176
     1
175
     1
176
     1
 42
1.0
176
     1
 92
        8
176
     1
 66
     7
176
     1
 43
1.0
176
     1
 76
     1
176
     1
 77
     6
176
     1
 78
     2
176
     1
 67
     7
176
     1
 79
     5
176
     1
170
     0
176
     1
171
     0
176
     1
290
     0
176
     1
 93
        1
176
     1
 44
0.0
176
     1
173
     0
176
     1
  0
VISUALSTYLE
  5
36
102
{ACAD_REACTORS
330
2A
102
}
330
2A
100
AcDbVisualStyle
  2
Brighten
 70
    12
177
     2
291
     1
 71
     2
176
     1
 72
     2
176
     1
 73
     0
176
     1
 90
        0
176
     1
 40
-0.6
176
     1
 41
-30.0
176
     1
 62
     5
 63
     7
421
 16777215
176
     1
 74
     1
176
     1
 91
        4
176
     1
 64
     7
176
     1
 65
   257
176
     1
 75
     1
176
     1
175
     1
176
     1
 42
1.0
176
     1
 92
        8
176
     1
 66
     7
176
     1
 43
1.0
176
     1
 76
     1
176
     1
 77
     6
176
     1
 78
     2
176
     1
 67
     7
176
     1
 79
     5
176
     1
170
     0
176
     1
171
     0
176
     1
290
     0
176
     1
 93
        1
176
     1
 44
50.0
176
     1
173
     0
176
     1
  0
VISUALSTYLE
  5
3A
102
{ACAD_REACTORS
330
2A
102
}
330
2A
100
AcDbVisualStyle
  2
ColorChange
 70
    16
177
     2
291
     1
 71
     2
176
     1
 72
     2
176
     1
 73
     3
176
     1
 90
        0
176
     1
 40
-0.6
176
     1
 41
-30.0
176
     1
 62
     5
 63
     8
421
  8421504
176
     1
 74
     1
176
     1
 91
        4
176
     1
 64
     7
176
     1
 65
   257
176
     1
 75
     1
176
     1
175
     1
176
     1
 42
1.0
176
     1
 92
        8
176
     1
 66
     8
424
  8421504
176
     1
 43
1.0
176
     1
 76
     1
176
     1
 77
     6
176
     1
 78
     2
176
     1
 67
     7
176
     1
 79
     5
176
     1
170
     0
176
     1
171
     0
176
     1
290
     0
176
     1
 93
        1
176
     1
 44
0.0
176
     1
173
     0
176
     1
  0
VISUALSTYLE
  5
34
102
{ACAD_REACTORS
330
2A
102
}
330
2A
100
AcDbVisualStyle
  2
Conceptual
 70
     9
177
     2
291
     0
 71
     3
176
     1
 72
     2
176
     1
 73
     0
176
     1
 90
        0
176
     1
 40
-0.6
176
     1
 41
-30.0
176
     1
 62
     5
 63
     7
421
 16777215
176
     1
 74
     2
176
     1
 91
        2
176
     1
 64
     7
176
     1
 65
   257
176
     1
 75
     1
176
     1
175
     1
176
     1
 42
40.0
176
     1
 92
        8
176
     1
 66
     7
176
     1
 43
1.0
176
     1
 76
     1
176
     1
 77
     6
176
     1
 78
     2
176
     1
 67
     7
176
     1
 79
     3
176
     1
170
     0
176
     1
171
     0
176
     1
290
     0
176
     1
 93
        1
176
     1
 44
0.0
176
     1
173
     0
176
     1
  0
VISUALSTYLE
  5
35
102
{ACAD_REACTORS
330
2A
102
}
330
2A
100
AcDbVisualStyle
  2
Dim
 70
    11
177
     2
291
     1
 71
     2
176
     1
 72
     2
176
     1
 73
     0
176
     1
 90
        0
176
     1
 40
-0.6
176
     1
 41
-30.0
176
     1
 62
     5
 63
     7
421
 16777215
176
     1
 74
     1
176
     1
 91
        4
176
     1
 64
     7
176
     1
 65
   257
176
     1
 75
     1
176
     1
175
     1
176
     1
 42
1.0
176
     1
 92
        8
176
     1
 66
     7
176
     1
 43
1.0
176
     1
 76
     1
176
     1
 77
     6
176
     1
 78
     2
176
     1
 67
     7
176
     1
 79
     5
176
     1
170
     0
176
     1
171
     0
176
     1
290
     0
176
     1
 93
        1
176
     1
 44
-50.0
176
     1
173
     0
176
     1
  0
VISUALSTYLE
  5
39
102
{ACAD_REACTORS
330
2A
102
}
330
2A
100
AcDbVisualStyle
  2
Facepattern
 70
    15
177
     2
291
     1
 71
     2
176
     1
 72
     2
176
     1
 73
     0
176
     1
 90
        0
176
     1
 40
-0.6
176
     1
 41
-30.0
176
     1
 62
     5
 63
     7
421
 16777215
176
     1
 74
     1
176
     1
 91
        4
176
     1
 64
     7
176
     1
 65
   257
176
     1
 75
     1
176
     1
175
     1
176
     1
 42
1.0
176
     1
 92
        8
176
     1
 66
     7
176
     1
 43
1.0
176
     1
 76
     1
176
     1
 77
     6
176
     1
 78
     2
176
     1
 67
     7
176
     1
 79
     5
176
     1
170
     0
176
     1
171
     0
176
     1
290
     0
176
     1
 93
        1
176
     1
 44
0.0
176
     1
173
     0
176
     1
  0
VISUALSTYLE
  5
2B
102
{ACAD_REACTORS
330
2A
102
}
330
2A
100
AcDbVisualStyle
  2
Flat
 70
     0
177
     2
291
     1
 71
     2
176
     1
 72
     1
176
     1
 73
     1
176
     1
 90
        2
176
     1
 40
-0.6
176
     1
 41
30.0
176
     1
 62
     5
 63
     7
421
 16777215
176
     1
 74
     0
176
     1
 91
        4
176
     1
 64
     7
176
     1
 65
   257
176
     1
 75
     1
176
     1
175
     1
176
     1
 42
1.0
176
     1
 92
        8
176
     1
 66
     7
176
     1
 43
1.0
176
     1
 76
     1
176
     1
 77
     6
176
     1
 78
     2
176
     1
 67
     7
176
     1
 79
     5
176
     1
170
     0
176
     1
171
     0
176
     1
290
     0
176
     1
 93
       13
176
     1
 44
0.0
176
     1
173
     0
176
     1
  0
VISUALSTYLE
  5
2C
102
{ACAD_REACTORS
330
2A
102
}
330
2A
100
AcDbVisualStyle
  2
FlatWithEdges
 70
     1
177
     2
291
     1
 71
     2
176
     1
 72
     1
176
     1
 73
     1
176
     1
 90
        2
176
     1
 40
-0.6
176
     1
 41
30.0
176
     1
 62
     5
 63
     7
421
 16777215
176
     1
 74
     1
176
     1
 91
        4
176
     1
 64
     7
176
     1
 65
   257
176
     1
 75
     1
176
     1
175
     1
176
     1
 42
1.0
176
     1
 92
        0
176
     1
 66
   257
176
     1
 43
1.0
176
     1
 76
     1
176
     1
 77
     6
176
     1
 78
     2
176
     1
 67
     7
176
     1
 79
     5
176
     1
170
     0
176
     1
171
     0
176
     1
290
     0
176
     1
 93
       13
176
     1
 44
0.0
176
     1
173
     0
176
     1
  0
VISUALSTYLE
  5
2D
102
{ACAD_REACTORS
330
2A
102
}
330
2A
100
AcDbVisualStyle
  2
Gouraud
 70
     2
177
     2
291
     1
 71
     2
176
     1
 72
     2
176
     1
 73
     1
176
     1
 90
        2
176
     1
 40
-0.6
176
     1
 41
30.0
176
     1
 62
     5
 63
     7
421
 16777215
176
     1
 74
     0
176
     1
 91
        4
176
     1
 64
     7
176
     1
 65
   257
176
     1
 75
     1
176
     1
175
     1
176
     1
 42
1.0
176
     1
 92
        0
176
     1
 66
     7
176
     1
 43
1.0
176
     1
 76
     1
176
     1
 77
     6
176
     1
 78
     2
176
     1
 67
     7
176
     1
 79
     5
176
     1
170
     0
176
     1
171
     0
176
     1
290
     0
176
     1
 93
       13
176
     1
 44
0.0
176
     1
173
     0
176
     1
  0
VISUALSTYLE
  5
2E
102
{ACAD_REACTORS
330
2A
102
}
330
2A
100
AcDbVisualStyle
  2
GouraudWithEdges
 70
     3
177
     2
291
     1
 71
     2
176
     1
 72
     2
176
     1
 73
     1
176
     1
 90
        2
176
     1
 40
-0.6
176
     1
 41
30.0
176
     1
 62
     5
 63
     7
421
 16777215
176
     1
 74
     1
176
     1
 91
        4
176
     1
 64
     7
176
     1
 65
   257
176
     1
 75
     1
176
     1
175
     1
176
     1
 42
1.0
176
     1
 92
        0
176
     1
 66
   257
176
     1
 43
1.0
176
     1
 76
     1
176
     1
 77
     6
176
     1
 78
     2
176
     1
 67
     7
176
     1
 79
     5
176
     1
170
     0
176
     1
171
     0
176
     1
290
     0
176
     1
 93
       13
176
     1
 44
0.0
176
     1
173
     0
176
     1
  0
VISUALSTYLE
  5
38
102
{ACAD_REACTORS
330
2A
102
}
330
2A
100
AcDbVisualStyle
  2
Linepattern
 70
    14
177
     2
291
     1
 71
     2
176
     1
 72
     2
176
     1
 73
     0
176
     1
 90
        0
176
     1
 40
-0.6
176
     1
 41
-30.0
176
     1
 62
     5
 63
     7
421
 16777215
176
     1
 74
     1
176
     1
 91
        4
176
     1
 64
     7
176
     1
 65
   257
176
     1
 75
     7
176
     1
175
     7
176
     1
 42
1.0
176
     1
 92
        8
176
     1
 66
     7
176
     1
 43
1.0
176
     1
 76
     1
176
     1
 77
     6
176
     1
 78
     2
176
     1
 67
     7
176
     1
 79
     5
176
     1
170
     0
176
     1
171
     0
176
     1
290
     0
176
     1
 93
        1
176
     1
 44
0.0
176
     1
173
     0
176
     1
  0
VISUALSTYLE
  5
33
102
{ACAD_REACTORS
330
2A
102
}
330
2A
100
AcDbVisualStyle
  2
Realistic
 70
     8
177
     2
291
     0
 71
     2
176
     1
 72
     2
176
     1
 73
     0
176
     1
 90
        0
176
     1
 40
-0.6
176
     1
 41
-30.0
176
     1
 62
     5
 63
     7
421
 16777215
176
     1
 74
     1
176
     1
 91
        0
176
     1
 64
     7
176
     1
 65
   257
176
     1
 75
     1
176
     1
175
     1
176
     1
 42
1.0
176
     1
 92
        8
176
     1
 66
     8
424
  7895160
176
     1
 43
1.0
176
     1
 76
     1
176
     1
 77
     6
176
     1
 78
     2
176
     1
 67
     7
176
     1
 79
     5
176
     1
170
     0
176
     1
171
     0
176
     1
290
     0
176
     1
 93
       13
176
     1
 44
0.0
176
     1
173
     0
176
     1
  0
VISUALSTYLE
  5
37
102
{ACAD_REACTORS
330
2A
102
}
330
2A
100
AcDbVisualStyle
  2
Thicken
 70
    13
177
     2
291
     1
 71
     2
176
     1
 72
     2
176
     1
 73
     0
176
     1
 90
        0
176
     1
 40
-0.6
176
     1
 41
-30.0
176
     1
 62
     5
 63
     7
421
 16777215
176
     1
 74
     1
176
     1
 91
        4
176
     1
 64
     7
176
     1
 65
   257
176
     1
 75
     1
176
     1
175
     1
176
     1
 42
1.0
176
     1
 92
       12
176
     1
 66
     7
176
     1
 43
1.0
176
     1
 76
     1
176
     1
 77
     6
176
     1
 78
     2
176
     1
 67
     7
176
     1
 79
     5
176
     1
170
     0
176
     1
171
     0
176
     1
290
     0
176
     1
 93
        1
176
     1
 44
0.0
176
     1
173
     0
176
     1
  0
ENDSEC
  0
EOF
