  0
SECTION
  2
HEADER
  9
$ACADVER
  1
AC1024
  9
$ACADMAINTVER
 70
     6
  9
$DWGCODEPAGE
  3
UNDEFINED
  9
$INSBASE
 10
0.0
 20
0.0
 30
0.0
  9
$EXTMIN
 10
1.000000000000000E+20
 20
1.000000000000000E+20
 30
1.000000000000000E+20
  9
$EXTMAX
 10
-1.000000000000000E+20
 20
-1.000000000000000E+20
 30
-1.000000000000000E+20
  9
$LIMMIN
 10
0.0
 20
0.0
  9
$LIMMAX
 10
12.0
 20
9.0
  9
$ORTHOMODE
 70
     0
  9
$REGENMODE
 70
     1
  9
$FILLMODE
 70
     1
  9
$QTEXTMODE
 70
     0
  9
$MIRRTEXT
 70
     1
  9
$LTSCALE
 40
1.0
  9
$ATTMODE
 70
     1
  9
$TEXTSIZE
 40
0.2
  9
$TRACEWID
 40
0.05
  9
$TEXTSTYLE
  7
Standard
  9
$CLAYER
  8
0
  9
$CELTYPE
  6
ByLayer
  9
$CECOLOR
 62
   256
  9
$CELTSCALE
 40
1.0
  9
$DISPSILH
 70
     0
  9
$DIMSCALE
 40
1.0
  9
$DIMASZ
 40
0.18
  9
$DIMEXO
 40
0.0625
  9
$DIMDLI
 40
0.38
  9
$DIMRND
 40
0.0
  9
$DIMDLE
 40
0.0
  9
$DIMEXE
 40
0.18
  9
$DIMTP
 40
0.0
  9
$DIMTM
 40
0.0
  9
$DIMTXT
 40
0.18
  9
$DIMCEN
 40
0.09
  9
$DIMTSZ
 40
0.0
  9
$DIMTOL
 70
     0
  9
$DIMLIM
 70
     0
  9
$DIMTIH
 70
     1
  9
$DIMTOH
 70
     1
  9
$DIMSE1
 70
     0
  9
$DIMSE2
 70
     0
  9
$DIMTAD
 70
     0
  9
$DIMZIN
 70
     0
  9
$DIMBLK
  1

  9
$DIMASO
 70
     1
  9
$DIMSHO
 70
     1
  9
$DIMPOST
  1

  9
$DIMAPOST
  1

  9
$DIMALT
 70
     0
  9
$DIMALTD
 70
     2
  9
$DIMALTF
 40
25.4
  9
$DIMLFAC
 40
1.0
  9
$DIMTOFL
 70
     0
  9
$DIMTVP
 40
0.0
  9
$DIMTIX
 70
     0
  9
$DIMSOXD
 70
     0
  9
$DIMSAH
 70
     0
  9
$DIMBLK1
  1

  9
$DIMBLK2
  1

  9
$DIMSTYLE
  2
Standard
  9
$DIMCLRD
 70
     0
  9
$DIMCLRE
 70
     0
  9
$DIMCLRT
 70
     0
  9
$DIMTFAC
 40
1.0
  9
$DIMGAP
 40
0.09
  9
$DIMJUST
 70
     0
  9
$DIMSD1
 70
     0
  9
$DIMSD2
 70
     0
  9
$DIMTOLJ
 70
     1
  9
$DIMTZIN
 70
     0
  9
$DIMALTZ
 70
     0
  9
$DIMALTTZ
 70
     0
  9
$DIMUPT
 70
     0
  9
$DIMDEC
 70
     4
  9
$DIMTDEC
 70
     4
  9
$DIMALTU
 70
     2
  9
$DIMALTTD
 70
     2
  9
$DIMTXSTY
  7
Standard
  9
$DIMAUNIT
 70
     0
  9
$DIMADEC
 70
     0
  9
$DIMALTRND
 40
0.0
  9
$DIMAZIN
 70
     0
  9
$DIMDSEP
 70
    46
  9
$DIMATFIT
 70
     3
  9
$DIMFRAC
 70
     0
  9
$DIMLDRBLK
  1

  9
$DIMLUNIT
 70
     2
  9
$DIMLWD
 70
    -2
  9
$DIMLWE
 70
    -2
  9
$DIMTMOVE
 70
     0
  9
$DIMFXL
 40
1.0
  9
$DIMFXLON
 70
     0
  9
$DIMJOGANG
 40
0.7853981633974483
  9
$DIMTFILL
 70
     0
  9
$DIMTFILLCLR
 70
     0
  9
$DIMARCSYM
 70
     0
  9
$DIMLTYPE
  6

  9
$DIMLTEX1
  6

  9
$DIMLTEX2
  6

  9
$DIMTXTDIRECTION
 70
     0
  9
$LUNITS
 70
     2
  9
$LUPREC
 70
     4
  9
$SKETCHINC
 40
0.1
  9
$FILLETRAD
 40
0.5
  9
$AUNITS
 70
     0
  9
$AUPREC
 70
     0
  9
$MENU
  1
.
  9
$ELEVATION
 40
0.0
  9
$PELEVATION
 40
0.0
  9
$THICKNESS
 40
0.0
  9
$LIMCHECK
 70
     0
  9
$CHAMFERA
 40
0.5
  9
$CHAMFERB
 40
0.5
  9
$CHAMFERC
 40
1.0
  9
$CHAMFERD
 40
0.0
  9
$SKPOLY
 70
     0
  9
$TDCREATE
 40
2457917.618981482
  9
$TDUCREATE
 40
2457917.243981482
  9
$TDUPDATE
 40
2457917.618981482
  9
$TDUUPDATE
 40
2457917.243981482
  9
$TDINDWG
 40
0.0000000116
  9
$TDUSRTIMER
 40
0.0000000116
  9
$USRTIMER
 70
     1
  9
$ANGBASE
 50
0.0
  9
$ANGDIR
 70
     0
  9
$PDMODE
 70
     0
  9
$PDSIZE
 40
0.0
  9
$PLINEWID
 40
0.0
  9
$SPLFRAME
 70
     0
  9
$SPLINETYPE
 70
     6
  9
$SPLINESEGS
 70
     8
  9
$HANDSEED
  5
FA
  9
$SURFTAB1
 70
     6
  9
$SURFTAB2
 70
     6
  9
$SURFTYPE
 70
     6
  9
$SURFU
 70
     6
  9
$SURFV
 70
     6
  9
$UCSBASE
  2

  9
$UCSNAME
  2

  9
$UCSORG
 10
0.0
 20
0.0
 30
0.0
  9
$UCSXDIR
 10
1.0
 20
0.0
 30
0.0
  9
$UCSYDIR
 10
0.0
 20
1.0
 30
0.0
  9
$UCSORTHOREF
  2

  9
$UCSORTHOVIEW
 70
     0
  9
$UCSORGTOP
 10
0.0
 20
0.0
 30
0.0
  9
$UCSORGBOTTOM
 10
0.0
 20
0.0
 30
0.0
  9
$UCSORGLEFT
 10
0.0
 20
0.0
 30
0.0
  9
$UCSORGRIGHT
 10
0.0
 20
0.0
 30
0.0
  9
$UCSORGFRONT
 10
0.0
 20
0.0
 30
0.0
  9
$UCSORGBACK
 10
0.0
 20
0.0
 30
0.0
  9
$PUCSBASE
  2

  9
$PUCSNAME
  2

  9
$PUCSORG
 10
0.0
 20
0.0
 30
0.0
  9
$PUCSXDIR
 10
1.0
 20
0.0
 30
0.0
  9
$PUCSYDIR
 10
0.0
 20
1.0
 30
0.0
  9
$PUCSORTHOREF
  2

  9
$PUCSORTHOVIEW
 70
     0
  9
$PUCSORGTOP
 10
0.0
 20
0.0
 30
0.0
  9
$PUCSORGBOTTOM
 10
0.0
 20
0.0
 30
0.0
  9
$PUCSORGLEFT
 10
0.0
 20
0.0
 30
0.0
  9
$PUCSORGRIGHT
 10
0.0
 20
0.0
 30
0.0
  9
$PUCSORGFRONT
 10
0.0
 20
0.0
 30
0.0
  9
$PUCSORGBACK
 10
0.0
 20
0.0
 30
0.0
  9
$USERI1
 70
     0
  9
$USERI2
 70
     0
  9
$USERI3
 70
     0
  9
$USERI4
 70
     0
  9
$USERI5
 70
     0
  9
$USERR1
 40
0.0
  9
$USERR2
 40
0.0
  9
$USERR3
 40
0.0
  9
$USERR4
 40
0.0
  9
$USERR5
 40
0.0
  9
$WORLDVIEW
 70
     1
  9
$SHADEDGE
 70
     3
  9
$SHADEDIF
 70
    70
  9
$TILEMODE
 70
     1
  9
$MAXACTVP
 70
    64
  9
$PINSBASE
 10
0.0
 20
0.0
 30
0.0
  9
$PLIMCHECK
 70
     0
  9
$PEXTMIN
 10
1.000000000000000E+20
 20
1.000000000000000E+20
 30
1.000000000000000E+20
  9
$PEXTMAX
 10
-1.000000000000000E+20
 20
-1.000000000000000E+20
 30
-1.000000000000000E+20
  9
$PLIMMIN
 10
0.0
 20
0.0
  9
$PLIMMAX
 10
12.0
 20
9.0
  9
$UNITMODE
 70
     0
  9
$VISRETAIN
 70
     1
  9
$PLINEGEN
 70
     0
  9
$PSLTSCALE
 70
     1
  9
$TREEDEPTH
 70
  3020
  9
$CMLSTYLE
  2
Standard
  9
$CMLJUST
 70
     0
  9
$CMLSCALE
 40
1.0
  9
$PROXYGRAPHICS
 70
     1
  9
$MEASUREMENT
 70
     0
  9
$CELWEIGHT
370
    -1
  9
$ENDCAPS
280
     0
  9
$JOINSTYLE
280
     0
  9
$LWDISPLAY
290
     1
  9
$INSUNITS
 70
     1
  9
$HYPERLINKBASE
  1

  9
$STYLESHEET
  1

  9
$XEDIT
290
     1
  9
$CEPSNTYPE
380
     0
  9
$PSTYLEMODE
290
     1
  9
$FINGERPRINTGUID
  2
{DC634B0B-0D49-BC9C-684D-E0C3512EAD56}
  9
$VERSIONGUID
  2
{FAEB1C32-E019-11D5-929B-00C0DF256EC4}
  9
$EXTNAMES
290
     1
  9
$PSVPSCALE
 40
0.0
  9
$OLESTARTUP
290
     0
  9
$SORTENTS
280
   127
  9
$INDEXCTL
280
     0
  9
$HIDETEXT
280
     1
  9
$XCLIPFRAME
280
     2
  9
$HALOGAP
280
     0
  9
$OBSCOLOR
 70
   257
  9
$OBSLTYPE
280
     0
  9
$INTERSECTIONDISPLAY
280
     0
  9
$INTERSECTIONCOLOR
 70
   257
  9
$DIMASSOC
280
     2
  9
$PROJECTNAME
  1

  9
$CAMERADISPLAY
290
     0
  9
$LENSLENGTH
 40
50.0
  9
$CAMERAHEIGHT
 40
0.0
  9
$STEPSPERSEC
 40
2.0
  9
$STEPSIZE
 40
6.0
  9
$3DDWFPREC
 40
2.0
  9
$PSOLWIDTH
 40
0.25
  9
$PSOLHEIGHT
 40
4.0
  9
$LOFTANG1
 40
1.570796326794897
  9
$LOFTANG2
 40
1.570796326794897
  9
$LOFTMAG1
 40
0.0
  9
$LOFTMAG2
 40
0.0
  9
$LOFTPARAM
 70
     7
  9
$LOFTNORMALS
280
     1
  9
$LATITUDE
 40
37.795
  9
$LONGITUDE
 40
-122.394
  9
$NORTHDIRECTION
 40
0.0
  9
$TIMEZONE
 70
 -8000
  9
$LIGHTGLYPHDISPLAY
280
     1
  9
$TILEMODELIGHTSYNCH
280
     1
  9
$CMATERIAL
347
3C
  9
$SOLIDHIST
280
     1
  9
$SHOWHIST
280
     1
  9
$DWFFRAME
280
     2
  9
$DGNFRAME
280
     2
  9
$REALWORLDSCALE
290
     1
  9
$INTERFERECOLOR
 62
   256
  9
$CSHADOW
280
     0
  9
$SHADOWPLANELOCATION
 40
0.0
  0
ENDSEC
  0
SECTION
  2
CLASSES
  0
CLASS
  1
ACDBDICTIONARYWDFLT
  2
AcDbDictionaryWithDefault
  3
ObjectDBX Classes
 90
        0
 91
        4
280
     0
281
     0
  0
CLASS
  1
VISUALSTYLE
  2
AcDbVisualStyle
  3
ObjectDBX Classes
 90
     4095
 91
        4
280
     0
281
     0
  0
CLASS
  1
MATERIAL
  2
AcDbMaterial
  3
ObjectDBX Classes
 90
     1153
 91
        4
280
     0
281
     0
  0
CLASS
  1
SUN
  2
AcDbSun
  3
SCENEOE
 90
     1024
 91
        4
280
     0
281
     0
  0
ENDSEC
  0
SECTION
  2
TABLES
  0
TABLE
  2
VPORT
  5
8
330
0
100
AcDbSymbolTable
 70
     1
  0
VPORT
  5
29
330
8
100
AcDbSymbolTableRecord
100
AcDbViewportTableRecord
  2
*Active
 70
     0
 10
0.0
 20
0.0
 11
1.0
 21
1.0
 12
0.0
 22
0.0
 13
0.0
 23
0.0
 14
0.5
 24
0.5
 15
0.5
 25
0.5
 16
0.0
 26
0.0
 36
1.0
 17
91.00082462281999
 27
-128.4993055234307
 37
0.0
 40
256.9986110468615
 41
0.7081814508812795
 42
50.0
 43
0.0
 44
0.0
 50
0.0
 51
0.0
 71
     0
 72
   100
 73
     1
 74
     3
 75
     0
 76
     0
 77
     0
 78
     0
281
     0
 65
     1
110
0.0
120
0.0
130
0.0
111
1.0
121
0.0
131
0.0
112
0.0
122
1.0
132
0.0
 79
     0
146
0.0
 60
     3
 61
     5
292
     1
282
     1
141
0.0
142
0.0
 63
   250
361
3F
  0
ENDTAB
  0
TABLE
  2
LTYPE
  5
5
330
0
100
AcDbSymbolTable
 70
     1
  0
LTYPE
  5
14
330
5
100
AcDbSymbolTableRecord
100
AcDbLinetypeTableRecord
  2
ByBlock
 70
     0
  3

 72
    65
 73
     0
 40
0.0
  0
LTYPE
  5
15
330
5
100
AcDbSymbolTableRecord
100
AcDbLinetypeTableRecord
  2
ByLayer
 70
     0
  3

 72
    65
 73
     0
 40
0.0
  0
LTYPE
  5
16
330
5
100
AcDbSymbolTableRecord
100
AcDbLinetypeTableRecord
  2
Continuous
 70
     0
  3
Solid line
 72
    65
 73
     0
 40
0.0
  0
ENDTAB
  0
TABLE
  2
LAYER
  5
2
330
0
100
AcDbSymbolTable
 70
     2
  0
LAYER
  5
10
330
2
100
AcDbSymbolTableRecord
100
AcDbLayerTableRecord
  2
0
 70
     0
 62
     7
  6
Continuous
370
    -3
390
F
347
3E
  0
LAYER
  5
40
330
2
100
AcDbSymbolTableRecord
100
AcDbLayerTableRecord
  2
_U+30EC_U+30A4_U+30E4_U+30FC 1
 70
     0
 62
     7
  6
Continuous
370
    -3
390
F
347
3E
  0
ENDTAB
  0
TABLE
  2
STYLE
  5
3
330
0
100
AcDbSymbolTable
 70
     1
  0
STYLE
  5
11
330
3
100
AcDbSymbolTableRecord
100
AcDbTextStyleTableRecord
  2
Standard
 70
     0
 40
0.0
 41
1.0
 50
0.0
 71
     0
 42
0.2
  3
txt
  4

  0
ENDTAB
  0
TABLE
  2
VIEW
  5
6
330
0
100
AcDbSymbolTable
 70
     0
  0
ENDTAB
  0
TABLE
  2
UCS
  5
7
330
0
100
AcDbSymbolTable
 70
     0
  0
ENDTAB
  0
TABLE
  2
APPID
  5
9
330
0
100
AcDbSymbolTable
 70
     1
  0
APPID
  5
12
330
9
100
AcDbSymbolTableRecord
100
AcDbRegAppTableRecord
  2
ACAD
 70
     0
  0
ENDTAB
  0
TABLE
  2
DIMSTYLE
  5
A
330
0
100
AcDbSymbolTable
 70
     1
100
AcDbDimStyleTable
  0
DIMSTYLE
105
27
330
A
100
AcDbSymbolTableRecord
100
AcDbDimStyleTableRecord
  2
Standard
 70
     0
178
     0
340
11
  0
ENDTAB
  0
TABLE
  2
BLOCK_RECORD
  5
1
330
0
100
AcDbSymbolTable
 70
     7
  0
BLOCK_RECORD
  5
1F
330
1
100
AcDbSymbolTableRecord
100
AcDbBlockTableRecord
  2
*Model_Space
340
22
 70
     0
280
     1
281
     0
  0
BLOCK_RECORD
  5
1B
330
1
100
AcDbSymbolTableRecord
100
AcDbBlockTableRecord
  2
*Paper_Space
340
1E
 70
     0
280
     1
281
     0
  0
BLOCK_RECORD
  5
23
330
1
100
AcDbSymbolTableRecord
100
AcDbBlockTableRecord
  2
*Paper_Space0
340
26
 70
     0
280
     1
281
     0
  0
BLOCK_RECORD
  5
51
330
1
100
AcDbSymbolTableRecord
100
AcDbBlockTableRecord
  2
block 2
340
0
102
{BLKREFS
331
52
102
}
 70
     0
280
     1
281
     0
  0
BLOCK_RECORD
  5
90
330
1
100
AcDbSymbolTableRecord
100
AcDbBlockTableRecord
  2
block 3
340
0
102
{BLKREFS
331
91
102
}
 70
     0
280
     1
281
     0
  0
BLOCK_RECORD
  5
A7
330
1
100
AcDbSymbolTableRecord
100
AcDbBlockTableRecord
  2
block 4
340
0
102
{BLKREFS
331
A8
102
}
 70
     0
280
     1
281
     0
  0
BLOCK_RECORD
  5
BF
330
1
100
AcDbSymbolTableRecord
100
AcDbBlockTableRecord
  2
block 5
340
0
102
{BLKREFS
331
C0
102
}
 70
     0
280
     1
281
     0
  0
BLOCK_RECORD
  5
D1
330
1
100
AcDbSymbolTableRecord
100
AcDbBlockTableRecord
  2
block 6
340
0
102
{BLKREFS
331
D2
102
}
 70
     0
280
     1
281
     0
  0
BLOCK_RECORD
  5
EF
330
1
100
AcDbSymbolTableRecord
100
AcDbBlockTableRecord
  2
block 7
340
0
102
{BLKREFS
331
F0
102
}
 70
     0
280
     1
281
     0
  0
ENDTAB
  0
ENDSEC
  0
SECTION
  2
BLOCKS
  0
BLOCK
  5
20
330
1F
100
AcDbEntity
  8
0
100
AcDbBlockBegin
  2
*Model_Space
 70
     0
 10
0.0
 20
0.0
 30
0.0
  3
*Model_Space
  1

  0
ENDBLK
  5
21
330
1F
100
AcDbEntity
  8
0
100
AcDbBlockEnd
  0
BLOCK
  5
1C
330
1B
100
AcDbEntity
 67
     1
  8
0
100
AcDbBlockBegin
  2
*Paper_Space
 70
     0
 10
0.0
 20
0.0
 30
0.0
  3
*Paper_Space
  1

  0
ENDBLK
  5
1D
330
1B
100
AcDbEntity
 67
     1
  8
0
100
AcDbBlockEnd
  0
BLOCK
  5
24
330
23
100
AcDbEntity
  8
0
100
AcDbBlockBegin
  2
*Paper_Space0
 70
     0
 10
0.0
 20
0.0
 30
0.0
  3
*Paper_Space0
  1

  0
ENDBLK
  5
25
330
23
100
AcDbEntity
  8
0
100
AcDbBlockEnd
  0
BLOCK
  5
53
330
51
100
AcDbEntity
  8
0
100
AcDbBlockBegin
  2
block 2
 70
     0
 10
0.0
 20
0.0
 30
0.0
  3
block 2
  1

  0
SPLINE
  5
55
330
51
100
AcDbEntity
  8
_U+30EC_U+30A4_U+30E4_U+30FC 1
370
     0
100
AcDbSpline
210
0.0
220
0.0
230
1.0
 70
    11
 71
     3
 72
    26
 73
    22
 74
     0
 42
0.0000000001
 43
0.0000000001
 12
1.0
 22
0.0
 32
0.0
 13
1.0
 23
0.0
 33
0.0
 40
0.0
 40
0.0
 40
0.0
 40
0.0
 40
1.0
 40
1.0
 40
1.0
 40
2.0
 40
2.0
 40
2.0
 40
3.0
 40
3.0
 40
3.0
 40
4.0
 40
4.0
 40
4.0
 40
5.0
 40
5.0
 40
5.0
 40
6.0
 40
6.0
 40
6.0
 40
7.0
 40
7.0
 40
7.0
 40
7.0
 10
86.74922686633353
 20
-118.9949760987235
 30
0.0
 10
86.74922686633353
 20
-118.9949760987235
 30
0.0
 10
86.49601234816767
 20
-118.9949760987235
 30
0.0
 10
86.49601234816767
 20
-118.9949760987235
 30
0.0
 10
86.52322860250113
 20
-118.6861232884708
 30
0.0
 10
86.72890080297056
 20
-118.167808672715
 30
0.0
 10
87.16298283411204
 20
-117.6622409102546
 30
0.0
 10
87.16298283411204
 20
-117.6622409102546
 30
0.0
 10
86.26777477226986
 20
-117.6622409102546
 30
0.0
 10
86.26777477226986
 20
-117.6622409102546
 30
0.0
 10
86.26777477226986
 20
-117.6622409102546
 30
0.0
 10
86.26777477226986
 20
-117.4507120474602
 30
0.0
 10
86.26777477226986
 20
-117.4507120474602
 30
0.0
 10
86.26777477226986
 20
-117.4507120474602
 30
0.0
 10
87.4161973522779
 20
-117.4507120474602
 30
0.0
 10
87.4161973522779
 20
-117.4507120474602
 30
0.0
 10
87.4161973522779
 20
-117.4507120474602
 30
0.0
 10
87.4161973522779
 20
-117.6622409102546
 30
0.0
 10
87.4161973522779
 20
-117.6622409102546
 30
0.0
 10
87.07030976555882
 20
-117.9519734405641
 30
0.0
 10
86.78540036892865
 20
-118.5443576092528
 30
0.0
 10
86.74922686633353
 20
-118.9949760987235
 30
0.0
  0
HATCH
  5
56
330
51
100
AcDbEntity
  8
_U+30EC_U+30A4_U+30E4_U+30FC 1
 62
     7
420
 16777215
100
AcDbHatch
 10
0.0
 20
0.0
 30
0.0
210
0.0
220
0.0
230
1.0
  2
SOLID
 70
     1
 71
     0
 91
        1
 92
        1
 93
        1
 72
     4
 94
        3
 73
     0
 74
     1
 95
       26
 96
       22
 40
0.0
 40
0.0
 40
0.0
 40
0.0
 40
1.0
 40
1.0
 40
1.0
 40
2.0
 40
2.0
 40
2.0
 40
3.0
 40
3.0
 40
3.0
 40
4.0
 40
4.0
 40
4.0
 40
5.0
 40
5.0
 40
5.0
 40
6.0
 40
6.0
 40
6.0
 40
7.0
 40
7.0
 40
7.0
 40
7.0
 10
86.74922686633353
 20
-118.9949760987235
 10
86.74922686633353
 20
-118.9949760987235
 10
86.49601234816767
 20
-118.9949760987235
 10
86.49601234816767
 20
-118.9949760987235
 10
86.52322860250113
 20
-118.6861232884708
 10
86.72890080297056
 20
-118.167808672715
 10
87.16298283411204
 20
-117.6622409102546
 10
87.16298283411204
 20
-117.6622409102546
 10
86.26777477226986
 20
-117.6622409102546
 10
86.26777477226986
 20
-117.6622409102546
 10
86.26777477226986
 20
-117.6622409102546
 10
86.26777477226986
 20
-117.4507120474602
 10
86.26777477226986
 20
-117.4507120474602
 10
86.26777477226986
 20
-117.4507120474602
 10
87.4161973522779
 20
-117.4507120474602
 10
87.4161973522779
 20
-117.4507120474602
 10
87.4161973522779
 20
-117.4507120474602
 10
87.4161973522779
 20
-117.6622409102546
 10
87.4161973522779
 20
-117.6622409102546
 10
87.07030976555882
 20
-117.9519734405641
 10
86.78540036892865
 20
-118.5443576092528
 10
86.74922686633353
 20
-118.9949760987235
 97
        0
 97
        0
 75
     2
 76
     1
 98
        0
  0
ENDBLK
  5
54
330
51
100
AcDbEntity
  8
0
100
AcDbBlockEnd
  0
BLOCK
  5
92
330
90
100
AcDbEntity
  8
0
100
AcDbBlockBegin
  2
block 3
 70
     0
 10
0.0
 20
0.0
 30
0.0
  3
block 3
  1

  0
SPLINE
  5
94
330
90
100
AcDbEntity
  8
_U+30EC_U+30A4_U+30E4_U+30FC 1
370
     0
100
AcDbSpline
210
0.0
220
0.0
230
1.0
 70
    11
 71
     3
 72
    26
 73
    22
 74
     0
 42
0.0000000001
 43
0.0000000001
 12
1.0
 22
0.0
 32
0.0
 13
1.0
 23
0.0
 33
0.0
 40
0.0
 40
0.0
 40
0.0
 40
0.0
 40
1.0
 40
1.0
 40
1.0
 40
2.0
 40
2.0
 40
2.0
 40
3.0
 40
3.0
 40
3.0
 40
4.0
 40
4.0
 40
4.0
 40
5.0
 40
5.0
 40
5.0
 40
6.0
 40
6.0
 40
6.0
 40
7.0
 40
7.0
 40
7.0
 40
7.0
 10
86.3103217015127
 20
-125.317415333254
 30
0.0
 10
86.3103217015127
 20
-125.317415333254
 30
0.0
 10
86.3103217015127
 20
-124.2130899754572
 30
0.0
 10
86.3103217015127
 20
-124.2130899754572
 30
0.0
 10
86.3103217015127
 20
-124.2130899754572
 30
0.0
 10
85.95754392382312
 20
-124.2130899754572
 30
0.0
 10
85.95754392382312
 20
-124.2130899754572
 30
0.0
 10
85.95754392382312
 20
-124.2130899754572
 30
0.0
 10
85.95754392382312
 20
-124.0651231243657
 30
0.0
 10
85.95754392382312
 20
-124.0651231243657
 30
0.0
 10
86.31256101357812
 20
-124.0503092137791
 30
0.0
 10
86.36234264333997
 20
-123.8873561973268
 30
0.0
 10
86.39403752180428
 20
-123.7731512819907
 30
0.0
 10
86.39403752180428
 20
-123.7731512819907
 30
0.0
 10
86.54992809251183
 20
-123.7731512819907
 30
0.0
 10
86.54992809251183
 20
-123.7731512819907
 30
0.0
 10
86.54992809251183
 20
-123.7731512819907
 30
0.0
 10
86.54992809251183
 20
-125.317415333254
 30
0.0
 10
86.54992809251183
 20
-125.317415333254
 30
0.0
 10
86.54992809251183
 20
-125.317415333254
 30
0.0
 10
86.3103217015127
 20
-125.317415333254
 30
0.0
 10
86.3103217015127
 20
-125.317415333254
 30
0.0
  0
HATCH
  5
95
330
90
100
AcDbEntity
  8
_U+30EC_U+30A4_U+30E4_U+30FC 1
 62
     7
420
 16777215
100
AcDbHatch
 10
0.0
 20
0.0
 30
0.0
210
0.0
220
0.0
230
1.0
  2
SOLID
 70
     1
 71
     0
 91
        1
 92
        1
 93
        1
 72
     4
 94
        3
 73
     0
 74
     1
 95
       26
 96
       22
 40
0.0
 40
0.0
 40
0.0
 40
0.0
 40
1.0
 40
1.0
 40
1.0
 40
2.0
 40
2.0
 40
2.0
 40
3.0
 40
3.0
 40
3.0
 40
4.0
 40
4.0
 40
4.0
 40
5.0
 40
5.0
 40
5.0
 40
6.0
 40
6.0
 40
6.0
 40
7.0
 40
7.0
 40
7.0
 40
7.0
 10
86.3103217015127
 20
-125.317415333254
 10
86.3103217015127
 20
-125.317415333254
 10
86.3103217015127
 20
-124.2130899754572
 10
86.3103217015127
 20
-124.2130899754572
 10
86.3103217015127
 20
-124.2130899754572
 10
85.95754392382312
 20
-124.2130899754572
 10
85.95754392382312
 20
-124.2130899754572
 10
85.95754392382312
 20
-124.2130899754572
 10
85.95754392382312
 20
-124.0651231243657
 10
85.95754392382312
 20
-124.0651231243657
 10
86.31256101357812
 20
-124.0503092137791
 10
86.36234264333997
 20
-123.8873561973268
 10
86.39403752180428
 20
-123.7731512819907
 10
86.39403752180428
 20
-123.7731512819907
 10
86.54992809251183
 20
-123.7731512819907
 10
86.54992809251183
 20
-123.7731512819907
 10
86.54992809251183
 20
-123.7731512819907
 10
86.54992809251183
 20
-125.317415333254
 10
86.54992809251183
 20
-125.317415333254
 10
86.54992809251183
 20
-125.317415333254
 10
86.3103217015127
 20
-125.317415333254
 10
86.3103217015127
 20
-125.317415333254
 97
        0
 97
        0
 75
     2
 76
     1
 98
        0
  0
ENDBLK
  5
93
330
90
100
AcDbEntity
  8
0
100
AcDbBlockEnd
  0
BLOCK
  5
A9
330
A7
100
AcDbEntity
  8
0
100
AcDbBlockBegin
  2
block 4
 70
     0
 10
0.0
 20
0.0
 30
0.0
  3
block 4
  1

  0
SPLINE
  5
AB
330
A7
100
AcDbEntity
  8
_U+30EC_U+30A4_U+30E4_U+30FC 1
370
     0
100
AcDbSpline
210
0.0
220
0.0
230
1.0
 70
    11
 71
     3
 72
    62
 73
    58
 74
     0
 42
0.0000000001
 43
0.0000000001
 12
1.0
 22
0.0
 32
0.0
 13
1.0
 23
0.0
 33
0.0
 40
0.0
 40
0.0
 40
0.0
 40
0.0
 40
1.0
 40
1.0
 40
1.0
 40
2.0
 40
2.0
 40
2.0
 40
3.0
 40
3.0
 40
3.0
 40
4.0
 40
4.0
 40
4.0
 40
5.0
 40
5.0
 40
5.0
 40
6.0
 40
6.0
 40
6.0
 40
7.0
 40
7.0
 40
7.0
 40
8.0
 40
8.0
 40
8.0
 40
9.0
 40
9.0
 40
9.0
 40
10.0
 40
10.0
 40
10.0
 40
11.0
 40
11.0
 40
11.0
 40
12.0
 40
12.0
 40
12.0
 40
13.0
 40
13.0
 40
13.0
 40
14.0
 40
14.0
 40
14.0
 40
15.0
 40
15.0
 40
15.0
 40
16.0
 40
16.0
 40
16.0
 40
17.0
 40
17.0
 40
17.0
 40
18.0
 40
18.0
 40
18.0
 40
19.0
 40
19.0
 40
19.0
 40
19.0
 10
105.4784884718943
 20
-133.5821994023683
 30
0.0
 10
105.4784884718943
 20
-133.6838297191832
 30
0.0
 10
105.4574733894342
 20
-133.9167181739861
 30
0.0
 10
105.2714382332308
 20
-134.0500433692653
 30
0.0
 10
105.1591281204116
 20
-134.129280565426
 30
0.0
 10
105.0599093704364
 20
-134.1337591895569
 30
0.0
 10
104.9751600214993
 20
-134.1382378136877
 30
0.0
 10
104.9751600214993
 20
-134.1382378136877
 30
0.0
 10
104.9751600214993
 20
-133.9032823015936
 30
0.0
 10
104.9751600214993
 20
-133.9032823015936
 30
0.0
 10
105.0492295744321
 20
-133.900870734754
 30
0.0
 10
105.2838405769777
 20
-133.8895019196526
 30
0.0
 10
105.2838405769777
 20
-133.5866780264992
 30
0.0
 10
105.2838405769777
 20
-133.439572449279
 30
0.0
 10
105.2142496481756
 20
-133.2769639423752
 30
0.0
 10
104.9858398175035
 20
-133.2769639423752
 30
0.0
 10
104.8693955901021
 20
-133.2769639423752
 30
0.0
 10
104.8208197437601
 20
-133.3176160691011
 30
0.0
 10
104.7891248652958
 20
-133.3513780048566
 30
0.0
 10
104.7150553123629
 20
-133.4306152010174
 30
0.0
 10
104.7023084590675
 20
-133.5549831480349
 30
0.0
 10
104.7023084590675
 20
-133.6138942808327
 30
0.0
 10
104.7023084590675
 20
-133.6342203441956
 30
0.0
 10
104.7043755163586
 20
-133.6724609040819
 30
0.0
 10
104.7085096309409
 20
-133.702088725255
 30
0.0
 10
104.7085096309409
 20
-133.702088725255
 30
0.0
 10
104.5138617360243
 20
-133.702088725255
 30
0.0
 10
104.5138617360243
 20
-133.702088725255
 30
0.0
 10
104.5204074174463
 20
-133.6614365985291
 30
0.0
 10
104.5224744747374
 20
-133.6159613381238
 30
0.0
 10
104.5224744747374
 20
-133.6094156567018
 30
0.0
 10
104.5224744747374
 20
-133.5391357088027
 30
0.0
 10
104.5011148827289
 20
-133.3265733173628
 30
0.0
 10
104.2644368228922
 20
-133.3265733173628
 30
0.0
 10
104.0866698958533
 20
-133.3265733173628
 30
0.0
 10
104.0315483680893
 20
-133.4667887036125
 30
0.0
 10
104.0315483680893
 20
-133.5842664596595
 30
0.0
 10
104.0315483680893
 20
-133.8671087989985
 30
0.0
 10
104.2644368228922
 20
-133.8760660472602
 30
0.0
 10
104.3360948089854
 20
-133.880544671391
 30
0.0
 10
104.3360948089854
 20
-133.880544671391
 30
0.0
 10
104.3360948089854
 20
-134.0975856869617
 30
0.0
 10
104.3360948089854
 20
-134.0975856869617
 30
0.0
 10
104.2113823524194
 20
-134.0886284387001
 30
0.0
 10
103.8348334158816
 20
-134.0593451270755
 30
0.0
 10
103.8348334158816
 20
-133.570830587267
 30
0.0
 10
103.8348334158816
 20
-133.3310519414936
 30
0.0
 10
103.9619574392873
 20
-133.0733587991969
 30
0.0
 10
104.2578911414703
 20
-133.0733587991969
 30
0.0
 10
104.4442708072223
 20
-133.0733587991969
 30
0.0
 10
104.5266085893197
 20
-133.1753336255603
 30
0.0
 10
104.5879312889572
 20
-133.281442566506
 30
0.0
 10
104.6154920528392
 20
-133.2159857522863
 30
0.0
 10
104.6957627776455
 20
-133.0213378573697
 30
0.0
 10
104.9730929642081
 20
-133.0213378573697
 30
0.0
 10
105.3114013408597
 20
-133.0213378573697
 30
0.0
 10
105.4784884718943
 20
-133.2859211906369
 30
0.0
 10
105.4784884718943
 20
-133.5821994023683
 30
0.0
  0
HATCH
  5
AC
330
A7
100
AcDbEntity
  8
_U+30EC_U+30A4_U+30E4_U+30FC 1
 62
     7
420
 16777215
100
AcDbHatch
 10
0.0
 20
0.0
 30
0.0
210
0.0
220
0.0
230
1.0
  2
SOLID
 70
     1
 71
     0
 91
        1
 92
        1
 93
        1
 72
     4
 94
        3
 73
     0
 74
     1
 95
       62
 96
       58
 40
0.0
 40
0.0
 40
0.0
 40
0.0
 40
1.0
 40
1.0
 40
1.0
 40
2.0
 40
2.0
 40
2.0
 40
3.0
 40
3.0
 40
3.0
 40
4.0
 40
4.0
 40
4.0
 40
5.0
 40
5.0
 40
5.0
 40
6.0
 40
6.0
 40
6.0
 40
7.0
 40
7.0
 40
7.0
 40
8.0
 40
8.0
 40
8.0
 40
9.0
 40
9.0
 40
9.0
 40
10.0
 40
10.0
 40
10.0
 40
11.0
 40
11.0
 40
11.0
 40
12.0
 40
12.0
 40
12.0
 40
13.0
 40
13.0
 40
13.0
 40
14.0
 40
14.0
 40
14.0
 40
15.0
 40
15.0
 40
15.0
 40
16.0
 40
16.0
 40
16.0
 40
17.0
 40
17.0
 40
17.0
 40
18.0
 40
18.0
 40
18.0
 40
19.0
 40
19.0
 40
19.0
 40
19.0
 10
105.4784884718943
 20
-133.5821994023683
 10
105.4784884718943
 20
-133.6838297191832
 10
105.4574733894342
 20
-133.9167181739861
 10
105.2714382332308
 20
-134.0500433692653
 10
105.1591281204116
 20
-134.129280565426
 10
105.0599093704364
 20
-134.1337591895569
 10
104.9751600214993
 20
-134.1382378136877
 10
104.9751600214993
 20
-134.1382378136877
 10
104.9751600214993
 20
-133.9032823015936
 10
104.9751600214993
 20
-133.9032823015936
 10
105.0492295744321
 20
-133.900870734754
 10
105.2838405769777
 20
-133.8895019196526
 10
105.2838405769777
 20
-133.5866780264992
 10
105.2838405769777
 20
-133.439572449279
 10
105.2142496481756
 20
-133.2769639423752
 10
104.9858398175035
 20
-133.2769639423752
 10
104.8693955901021
 20
-133.2769639423752
 10
104.8208197437601
 20
-133.3176160691011
 10
104.7891248652958
 20
-133.3513780048566
 10
104.7150553123629
 20
-133.4306152010174
 10
104.7023084590675
 20
-133.5549831480349
 10
104.7023084590675
 20
-133.6138942808327
 10
104.7023084590675
 20
-133.6342203441956
 10
104.7043755163586
 20
-133.6724609040819
 10
104.7085096309409
 20
-133.702088725255
 10
104.7085096309409
 20
-133.702088725255
 10
104.5138617360243
 20
-133.702088725255
 10
104.5138617360243
 20
-133.702088725255
 10
104.5204074174463
 20
-133.6614365985291
 10
104.5224744747374
 20
-133.6159613381238
 10
104.5224744747374
 20
-133.6094156567018
 10
104.5224744747374
 20
-133.5391357088027
 10
104.5011148827289
 20
-133.3265733173628
 10
104.2644368228922
 20
-133.3265733173628
 10
104.0866698958533
 20
-133.3265733173628
 10
104.0315483680893
 20
-133.4667887036125
 10
104.0315483680893
 20
-133.5842664596595
 10
104.0315483680893
 20
-133.8671087989985
 10
104.2644368228922
 20
-133.8760660472602
 10
104.3360948089854
 20
-133.880544671391
 10
104.3360948089854
 20
-133.880544671391
 10
104.3360948089854
 20
-134.0975856869617
 10
104.3360948089854
 20
-134.0975856869617
 10
104.2113823524194
 20
-134.0886284387001
 10
103.8348334158816
 20
-134.0593451270755
 10
103.8348334158816
 20
-133.570830587267
 10
103.8348334158816
 20
-133.3310519414936
 10
103.9619574392873
 20
-133.0733587991969
 10
104.2578911414703
 20
-133.0733587991969
 10
104.4442708072223
 20
-133.0733587991969
 10
104.5266085893197
 20
-133.1753336255603
 10
104.5879312889572
 20
-133.281442566506
 10
104.6154920528392
 20
-133.2159857522863
 10
104.6957627776455
 20
-133.0213378573697
 10
104.9730929642081
 20
-133.0213378573697
 10
105.3114013408597
 20
-133.0213378573697
 10
105.4784884718943
 20
-133.2859211906369
 10
105.4784884718943
 20
-133.5821994023683
 97
        0
 97
        0
 75
     2
 76
     1
 98
        0
  0
POLYLINE
  5
AD
330
A7
100
AcDbEntity
  8
_U+30EC_U+30A4_U+30E4_U+30FC 1
370
     0
100
AcDb2dPolyline
 66
     1
 10
0.0
 20
0.0
 30
0.0
  0
VERTEX
  5
AE
330
AD
100
AcDbEntity
  8
_U+30EC_U+30A4_U+30E4_U+30FC 1
370
     0
100
AcDbVertex
100
AcDb2dVertex
 10
105.4278455682611
 20
-132.7856933261786
 30
0.0
  0
VERTEX
  5
AF
330
AD
100
AcDbEntity
  8
_U+30EC_U+30A4_U+30E4_U+30FC 1
370
     0
100
AcDbVertex
100
AcDb2dVertex
 10
105.1760090882893
 20
-132.7856933261786
 30
0.0
  0
VERTEX
  5
B0
330
AD
100
AcDbEntity
  8
_U+30EC_U+30A4_U+30E4_U+30FC 1
370
     0
100
AcDbVertex
100
AcDb2dVertex
 10
105.1760090882893
 20
-132.5166313687806
 30
0.0
  0
VERTEX
  5
B1
330
AD
100
AcDbEntity
  8
_U+30EC_U+30A4_U+30E4_U+30FC 1
370
     0
100
AcDbVertex
100
AcDb2dVertex
 10
105.4278455682611
 20
-132.5166313687806
 30
0.0
  0
VERTEX
  5
B2
330
AD
100
AcDbEntity
  8
_U+30EC_U+30A4_U+30E4_U+30FC 1
370
     0
100
AcDbVertex
100
AcDb2dVertex
 10
105.4278455682611
 20
-132.7856933261786
 30
0.0
  0
SEQEND
  5
B3
330
AD
100
AcDbEntity
  8
_U+30EC_U+30A4_U+30E4_U+30FC 1
370
     0
  0
HATCH
  5
B4
330
A7
100
AcDbEntity
  8
_U+30EC_U+30A4_U+30E4_U+30FC 1
 62
     7
420
 16777215
100
AcDbHatch
 10
0.0
 20
0.0
 30
0.0
210
0.0
220
0.0
230
1.0
  2
SOLID
 70
     1
 71
     0
 91
        1
 92
        1
 93
        4
 72
     1
 10
105.4278455682611
 20
-132.7856933261786
 11
105.1760090882893
 21
-132.7856933261786
 72
     1
 10
105.1760090882893
 20
-132.7856933261786
 11
105.1760090882893
 21
-132.5166313687806
 72
     1
 10
105.1760090882893
 20
-132.5166313687806
 11
105.4278455682611
 21
-132.5166313687806
 72
     1
 10
105.4278455682611
 20
-132.5166313687806
 11
105.4278455682611
 21
-132.7856933261786
 97
        0
 75
     2
 76
     1
 98
        0
  0
SPLINE
  5
B5
330
A7
100
AcDbEntity
  8
_U+30EC_U+30A4_U+30E4_U+30FC 1
370
     0
100
AcDbSpline
210
0.0
220
0.0
230
1.0
 70
    11
 71
     3
 72
    53
 73
    49
 74
     0
 42
0.0000000001
 43
0.0000000001
 12
1.0
 22
0.0
 32
0.0
 13
1.0
 23
0.0
 33
0.0
 40
0.0
 40
0.0
 40
0.0
 40
0.0
 40
1.0
 40
1.0
 40
1.0
 40
2.0
 40
2.0
 40
2.0
 40
3.0
 40
3.0
 40
3.0
 40
4.0
 40
4.0
 40
4.0
 40
5.0
 40
5.0
 40
5.0
 40
6.0
 40
6.0
 40
6.0
 40
7.0
 40
7.0
 40
7.0
 40
8.0
 40
8.0
 40
8.0
 40
9.0
 40
9.0
 40
9.0
 40
10.0
 40
10.0
 40
10.0
 40
11.0
 40
11.0
 40
11.0
 40
12.0
 40
12.0
 40
12.0
 40
13.0
 40
13.0
 40
13.0
 40
14.0
 40
14.0
 40
14.0
 40
15.0
 40
15.0
 40
15.0
 40
16.0
 40
16.0
 40
16.0
 40
16.0
 10
105.4784884718943
 20
-131.7497531137639
 30
0.0
 10
105.4784884718943
 20
-131.8334689340555
 30
0.0
 10
105.4616075040165
 20
-131.9416449322924
 30
0.0
 10
105.398217747088
 20
-132.0505099496263
 30
0.0
 10
105.2883192011085
 20
-132.2358560867327
 30
0.0
 10
105.1570610631205
 20
-132.2582492073868
 30
0.0
 10
105.0492295744321
 20
-132.2785752707498
 30
0.0
 10
105.0492295744321
 20
-132.2785752707498
 30
0.0
 10
105.0492295744321
 20
-132.0412081918161
 30
0.0
 10
105.0492295744321
 20
-132.0412081918161
 30
0.0
 10
105.2480115839311
 20
-131.9826415685668
 30
0.0
 10
105.2776394051042
 20
-131.846904806448
 30
0.0
 10
105.2776394051042
 20
-131.7473415469243
 30
0.0
 10
105.2776394051042
 20
-131.598168912413
 30
0.0
 10
105.1780761455805
 20
-131.4352158959607
 30
0.0
 10
104.9455322003261
 20
-131.4352158959607
 30
0.0
 10
104.6895616057721
 20
-131.4352158959607
 30
0.0
 10
104.6196261674215
 20
-131.6274522240376
 30
0.0
 10
104.6196261674215
 20
-131.7562987951859
 30
0.0
 10
104.6196261674215
 20
-131.7904052404899
 30
0.0
 10
104.6196261674215
 20
-131.9416449322924
 30
0.0
 10
104.7488172481184
 20
-132.0367295676853
 30
0.0
 10
104.7488172481184
 20
-132.0367295676853
 30
0.0
 10
104.7298692229495
 20
-132.2244872716314
 30
0.0
 10
104.7298692229495
 20
-132.2244872716314
 30
0.0
 10
104.7298692229495
 20
-132.2244872716314
 30
0.0
 10
103.8834092622236
 20
-132.095640700483
 30
0.0
 10
103.8834092622236
 20
-132.095640700483
 30
0.0
 10
103.8834092622236
 20
-132.095640700483
 30
0.0
 10
103.8834092622236
 20
-131.2636501407952
 30
0.0
 10
103.8834092622236
 20
-131.2636501407952
 30
0.0
 10
103.8834092622236
 20
-131.2636501407952
 30
0.0
 10
104.0780571571402
 20
-131.2636501407952
 30
0.0
 10
104.0780571571402
 20
-131.2636501407952
 30
0.0
 10
104.0780571571402
 20
-131.2636501407952
 30
0.0
 10
104.0780571571402
 20
-131.9213188689294
 30
0.0
 10
104.0780571571402
 20
-131.9213188689294
 30
0.0
 10
104.0780571571402
 20
-131.9213188689294
 30
0.0
 10
104.5011148827289
 20
-131.9915988168285
 30
0.0
 10
104.5011148827289
 20
-131.9915988168285
 30
0.0
 10
104.4673529469734
 20
-131.9261420026087
 30
0.0
 10
104.427045329796
 20
-131.8379475581864
 30
0.0
 10
104.427045329796
 20
-131.7111680443292
 30
0.0
 10
104.427045329796
 20
-131.44003902964
 30
0.0
 10
104.613424995548
 20
-131.1868245114741
 30
0.0
 10
104.9265841751572
 20
-131.1868245114741
 30
0.0
 10
105.2438774693488
 20
-131.1868245114741
 30
0.0
 10
105.4784884718943
 20
-131.426258647699
 30
0.0
 10
105.4784884718943
 20
-131.7497531137639
 30
0.0
  0
HATCH
  5
B6
330
A7
100
AcDbEntity
  8
_U+30EC_U+30A4_U+30E4_U+30FC 1
 62
     7
420
 16777215
100
AcDbHatch
 10
0.0
 20
0.0
 30
0.0
210
0.0
220
0.0
230
1.0
  2
SOLID
 70
     1
 71
     0
 91
        1
 92
        1
 93
        1
 72
     4
 94
        3
 73
     0
 74
     1
 95
       53
 96
       49
 40
0.0
 40
0.0
 40
0.0
 40
0.0
 40
1.0
 40
1.0
 40
1.0
 40
2.0
 40
2.0
 40
2.0
 40
3.0
 40
3.0
 40
3.0
 40
4.0
 40
4.0
 40
4.0
 40
5.0
 40
5.0
 40
5.0
 40
6.0
 40
6.0
 40
6.0
 40
7.0
 40
7.0
 40
7.0
 40
8.0
 40
8.0
 40
8.0
 40
9.0
 40
9.0
 40
9.0
 40
10.0
 40
10.0
 40
10.0
 40
11.0
 40
11.0
 40
11.0
 40
12.0
 40
12.0
 40
12.0
 40
13.0
 40
13.0
 40
13.0
 40
14.0
 40
14.0
 40
14.0
 40
15.0
 40
15.0
 40
15.0
 40
16.0
 40
16.0
 40
16.0
 40
16.0
 10
105.4784884718943
 20
-131.7497531137639
 10
105.4784884718943
 20
-131.8334689340555
 10
105.4616075040165
 20
-131.9416449322924
 10
105.398217747088
 20
-132.0505099496263
 10
105.2883192011085
 20
-132.2358560867327
 10
105.1570610631205
 20
-132.2582492073868
 10
105.0492295744321
 20
-132.2785752707498
 10
105.0492295744321
 20
-132.2785752707498
 10
105.0492295744321
 20
-132.0412081918161
 10
105.0492295744321
 20
-132.0412081918161
 10
105.2480115839311
 20
-131.9826415685668
 10
105.2776394051042
 20
-131.846904806448
 10
105.2776394051042
 20
-131.7473415469243
 10
105.2776394051042
 20
-131.598168912413
 10
105.1780761455805
 20
-131.4352158959607
 10
104.9455322003261
 20
-131.4352158959607
 10
104.6895616057721
 20
-131.4352158959607
 10
104.6196261674215
 20
-131.6274522240376
 10
104.6196261674215
 20
-131.7562987951859
 10
104.6196261674215
 20
-131.7904052404899
 10
104.6196261674215
 20
-131.9416449322924
 10
104.7488172481184
 20
-132.0367295676853
 10
104.7488172481184
 20
-132.0367295676853
 10
104.7298692229495
 20
-132.2244872716314
 10
104.7298692229495
 20
-132.2244872716314
 10
104.7298692229495
 20
-132.2244872716314
 10
103.8834092622236
 20
-132.095640700483
 10
103.8834092622236
 20
-132.095640700483
 10
103.8834092622236
 20
-132.095640700483
 10
103.8834092622236
 20
-131.2636501407952
 10
103.8834092622236
 20
-131.2636501407952
 10
103.8834092622236
 20
-131.2636501407952
 10
104.0780571571402
 20
-131.2636501407952
 10
104.0780571571402
 20
-131.2636501407952
 10
104.0780571571402
 20
-131.2636501407952
 10
104.0780571571402
 20
-131.9213188689294
 10
104.0780571571402
 20
-131.9213188689294
 10
104.0780571571402
 20
-131.9213188689294
 10
104.5011148827289
 20
-131.9915988168285
 10
104.5011148827289
 20
-131.9915988168285
 10
104.4673529469734
 20
-131.9261420026087
 10
104.427045329796
 20
-131.8379475581864
 10
104.427045329796
 20
-131.7111680443292
 10
104.427045329796
 20
-131.44003902964
 10
104.613424995548
 20
-131.1868245114741
 10
104.9265841751572
 20
-131.1868245114741
 10
105.2438774693488
 20
-131.1868245114741
 10
105.4784884718943
 20
-131.426258647699
 10
105.4784884718943
 20
-131.7497531137639
 97
        0
 97
        0
 75
     2
 76
     1
 98
        0
  0
ENDBLK
  5
AA
330
A7
100
AcDbEntity
  8
0
100
AcDbBlockEnd
  0
BLOCK
  5
C1
330
BF
100
AcDbEntity
  8
0
100
AcDbBlockBegin
  2
block 5
 70
     0
 10
0.0
 20
0.0
 30
0.0
  3
block 5
  1

  0
SPLINE
  5
C3
330
BF
100
AcDbEntity
  8
_U+30EC_U+30A4_U+30E4_U+30FC 1
370
     0
100
AcDbSpline
210
0.0
220
0.0
230
1.0
 70
    11
 71
     3
 72
    26
 73
    22
 74
     0
 42
0.0000000001
 43
0.0000000001
 12
1.0
 22
0.0
 32
0.0
 13
1.0
 23
0.0
 33
0.0
 40
0.0
 40
0.0
 40
0.0
 40
0.0
 40
1.0
 40
1.0
 40
1.0
 40
2.0
 40
2.0
 40
2.0
 40
3.0
 40
3.0
 40
3.0
 40
4.0
 40
4.0
 40
4.0
 40
5.0
 40
5.0
 40
5.0
 40
6.0
 40
6.0
 40
6.0
 40
7.0
 40
7.0
 40
7.0
 40
7.0
 10
101.724023412069
 20
-126.8191324552744
 30
0.0
 10
101.724023412069
 20
-126.8191324552744
 30
0.0
 10
101.724023412069
 20
-127.0723469734402
 30
0.0
 10
101.724023412069
 20
-127.0723469734402
 30
0.0
 10
101.4149983470421
 20
-127.045302973881
 30
0.0
 10
100.8968559860605
 20
-126.8396307734116
 30
0.0
 10
100.3911159688258
 20
-126.4055487422701
 30
0.0
 10
100.3911159688258
 20
-126.4055487422701
 30
0.0
 10
100.3911159688258
 20
-127.3007568041123
 30
0.0
 10
100.3911159688258
 20
-127.3007568041123
 30
0.0
 10
100.3911159688258
 20
-127.3007568041123
 30
0.0
 10
100.1795871060315
 20
-127.3007568041123
 30
0.0
 10
100.1795871060315
 20
-127.3007568041123
 30
0.0
 10
100.1795871060315
 20
-127.3007568041123
 30
0.0
 10
100.1795871060315
 20
-126.1523342241043
 30
0.0
 10
100.1795871060315
 20
-126.1523342241043
 30
0.0
 10
100.1795871060315
 20
-126.1523342241043
 30
0.0
 10
100.3911159688258
 20
-126.1523342241043
 30
0.0
 10
100.3911159688258
 20
-126.1523342241043
 30
0.0
 10
100.6811930086839
 20
-126.4982218108234
 30
0.0
 10
101.2734049225983
 20
-126.7829589526793
 30
0.0
 10
101.724023412069
 20
-126.8191324552744
 30
0.0
  0
HATCH
  5
C4
330
BF
100
AcDbEntity
  8
_U+30EC_U+30A4_U+30E4_U+30FC 1
 62
     7
420
 16777215
100
AcDbHatch
 10
0.0
 20
0.0
 30
0.0
210
0.0
220
0.0
230
1.0
  2
SOLID
 70
     1
 71
     0
 91
        1
 92
        1
 93
        1
 72
     4
 94
        3
 73
     0
 74
     1
 95
       26
 96
       22
 40
0.0
 40
0.0
 40
0.0
 40
0.0
 40
1.0
 40
1.0
 40
1.0
 40
2.0
 40
2.0
 40
2.0
 40
3.0
 40
3.0
 40
3.0
 40
4.0
 40
4.0
 40
4.0
 40
5.0
 40
5.0
 40
5.0
 40
6.0
 40
6.0
 40
6.0
 40
7.0
 40
7.0
 40
7.0
 40
7.0
 10
101.724023412069
 20
-126.8191324552744
 10
101.724023412069
 20
-126.8191324552744
 10
101.724023412069
 20
-127.0723469734402
 10
101.724023412069
 20
-127.0723469734402
 10
101.4149983470421
 20
-127.045302973881
 10
100.8968559860605
 20
-126.8396307734116
 10
100.3911159688258
 20
-126.4055487422701
 10
100.3911159688258
 20
-126.4055487422701
 10
100.3911159688258
 20
-127.3007568041123
 10
100.3911159688258
 20
-127.3007568041123
 10
100.3911159688258
 20
-127.3007568041123
 10
100.1795871060315
 20
-127.3007568041123
 10
100.1795871060315
 20
-127.3007568041123
 10
100.1795871060315
 20
-127.3007568041123
 10
100.1795871060315
 20
-126.1523342241043
 10
100.1795871060315
 20
-126.1523342241043
 10
100.1795871060315
 20
-126.1523342241043
 10
100.3911159688258
 20
-126.1523342241043
 10
100.3911159688258
 20
-126.1523342241043
 10
100.6811930086839
 20
-126.4982218108234
 10
101.2734049225983
 20
-126.7829589526793
 10
101.724023412069
 20
-126.8191324552744
 97
        0
 97
        0
 75
     2
 76
     1
 98
        0
  0
ENDBLK
  5
C2
330
BF
100
AcDbEntity
  8
0
100
AcDbBlockEnd
  0
BLOCK
  5
D3
330
D1
100
AcDbEntity
  8
0
100
AcDbBlockBegin
  2
block 6
 70
     0
 10
0.0
 20
0.0
 30
0.0
  3
block 6
  1

  0
SPLINE
  5
D5
330
D1
100
AcDbEntity
  8
_U+30EC_U+30A4_U+30E4_U+30FC 1
370
     0
100
AcDbSpline
210
0.0
220
0.0
230
1.0
 70
    11
 71
     3
 72
    26
 73
    22
 74
     0
 42
0.0000000001
 43
0.0000000001
 12
1.0
 22
0.0
 32
0.0
 13
1.0
 23
0.0
 33
0.0
 40
0.0
 40
0.0
 40
0.0
 40
0.0
 40
1.0
 40
1.0
 40
1.0
 40
2.0
 40
2.0
 40
2.0
 40
3.0
 40
3.0
 40
3.0
 40
4.0
 40
4.0
 40
4.0
 40
5.0
 40
5.0
 40
5.0
 40
6.0
 40
6.0
 40
6.0
 40
7.0
 40
7.0
 40
7.0
 40
7.0
 10
77.72342120452748
 20
-130.3610351236597
 30
0.0
 10
77.72342120452748
 20
-130.3610351236597
 30
0.0
 10
76.61909584673064
 20
-130.3610351236597
 30
0.0
 10
76.61909584673064
 20
-130.3610351236597
 30
0.0
 10
76.61909584673064
 20
-130.3610351236597
 30
0.0
 10
76.61909584673064
 20
-130.7138129013493
 30
0.0
 10
76.61909584673064
 20
-130.7138129013493
 30
0.0
 10
76.61909584673064
 20
-130.7138129013493
 30
0.0
 10
76.4709567408649
 20
-130.7138129013493
 30
0.0
 10
76.4709567408649
 20
-130.7138129013493
 30
0.0
 10
76.4563150850526
 20
-130.3586235568201
 30
0.0
 10
76.29336206860027
 20
-130.3090141818325
 30
0.0
 10
76.17915715326424
 20
-130.2773193033682
 30
0.0
 10
76.17915715326424
 20
-130.2773193033682
 30
0.0
 10
76.17915715326424
 20
-130.1212564778864
 30
0.0
 10
76.17915715326424
 20
-130.1212564778864
 30
0.0
 10
76.17915715326424
 20
-130.1212564778864
 30
0.0
 10
77.72342120452748
 20
-130.1212564778864
 30
0.0
 10
77.72342120452748
 20
-130.1212564778864
 30
0.0
 10
77.72342120452748
 20
-130.1212564778864
 30
0.0
 10
77.72342120452748
 20
-130.3610351236597
 30
0.0
 10
77.72342120452748
 20
-130.3610351236597
 30
0.0
  0
HATCH
  5
D6
330
D1
100
AcDbEntity
  8
_U+30EC_U+30A4_U+30E4_U+30FC 1
 62
     7
420
 16777215
100
AcDbHatch
 10
0.0
 20
0.0
 30
0.0
210
0.0
220
0.0
230
1.0
  2
SOLID
 70
     1
 71
     0
 91
        1
 92
        1
 93
        1
 72
     4
 94
        3
 73
     0
 74
     1
 95
       26
 96
       22
 40
0.0
 40
0.0
 40
0.0
 40
0.0
 40
1.0
 40
1.0
 40
1.0
 40
2.0
 40
2.0
 40
2.0
 40
3.0
 40
3.0
 40
3.0
 40
4.0
 40
4.0
 40
4.0
 40
5.0
 40
5.0
 40
5.0
 40
6.0
 40
6.0
 40
6.0
 40
7.0
 40
7.0
 40
7.0
 40
7.0
 10
77.72342120452748
 20
-130.3610351236597
 10
77.72342120452748
 20
-130.3610351236597
 10
76.61909584673064
 20
-130.3610351236597
 10
76.61909584673064
 20
-130.3610351236597
 10
76.61909584673064
 20
-130.3610351236597
 10
76.61909584673064
 20
-130.7138129013493
 10
76.61909584673064
 20
-130.7138129013493
 10
76.61909584673064
 20
-130.7138129013493
 10
76.4709567408649
 20
-130.7138129013493
 10
76.4709567408649
 20
-130.7138129013493
 10
76.4563150850526
 20
-130.3586235568201
 10
76.29336206860027
 20
-130.3090141818325
 10
76.17915715326424
 20
-130.2773193033682
 10
76.17915715326424
 20
-130.2773193033682
 10
76.17915715326424
 20
-130.1212564778864
 10
76.17915715326424
 20
-130.1212564778864
 10
76.17915715326424
 20
-130.1212564778864
 10
77.72342120452748
 20
-130.1212564778864
 10
77.72342120452748
 20
-130.1212564778864
 10
77.72342120452748
 20
-130.1212564778864
 10
77.72342120452748
 20
-130.3610351236597
 10
77.72342120452748
 20
-130.3610351236597
 97
        0
 97
        0
 75
     2
 76
     1
 98
        0
  0
SPLINE
  5
D7
330
D1
100
AcDbEntity
  8
_U+30EC_U+30A4_U+30E4_U+30FC 1
370
     0
100
AcDbSpline
210
0.0
220
0.0
230
1.0
 70
    11
 71
     3
 72
    44
 73
    40
 74
     0
 42
0.0000000001
 43
0.0000000001
 12
1.0
 22
0.0
 32
0.0
 13
1.0
 23
0.0
 33
0.0
 40
0.0
 40
0.0
 40
0.0
 40
0.0
 40
1.0
 40
1.0
 40
1.0
 40
2.0
 40
2.0
 40
2.0
 40
3.0
 40
3.0
 40
3.0
 40
4.0
 40
4.0
 40
4.0
 40
5.0
 40
5.0
 40
5.0
 40
6.0
 40
6.0
 40
6.0
 40
7.0
 40
7.0
 40
7.0
 40
8.0
 40
8.0
 40
8.0
 40
9.0
 40
9.0
 40
9.0
 40
10.0
 40
10.0
 40
10.0
 40
11.0
 40
11.0
 40
11.0
 40
12.0
 40
12.0
 40
12.0
 40
13.0
 40
13.0
 40
13.0
 40
13.0
 10
77.14171683184304
 20
-128.951646560644
 30
0.0
 10
77.3003634789388
 20
-129.1845350154469
 30
0.0
 10
77.37443303187167
 20
-129.2840982749707
 30
0.0
 10
77.51826576838086
 20
-129.3361192167979
 30
0.0
 10
77.51826576838086
 20
-129.3361192167979
 30
0.0
 10
77.51826576838086
 20
-128.5039564023358
 30
0.0
 10
77.51826576838086
 20
-128.5039564023358
 30
0.0
 10
77.51826576838086
 20
-128.5039564023358
 30
0.0
 10
77.72342120452748
 20
-128.5039564023358
 30
0.0
 10
77.72342120452748
 20
-128.5039564023358
 30
0.0
 10
77.72342120452748
 20
-128.5039564023358
 30
0.0
 10
77.72342120452748
 20
-129.6027696073563
 30
0.0
 10
77.72342120452748
 20
-129.6027696073563
 30
0.0
 10
77.36582029315855
 20
-129.5690076716008
 30
0.0
 10
77.28761662564338
 20
-129.4987277237017
 30
0.0
 10
76.98927135662075
 20
-129.0873833227629
 30
0.0
 10
76.79048934712182
 20
-128.8138427412341
 30
0.0
 10
76.72279322083666
 20
-128.7435627933349
 30
0.0
 10
76.5853339109752
 20
-128.7435627933349
 30
0.0
 10
76.4668226262826
 20
-128.7435627933349
 30
0.0
 10
76.33556448829458
 20
-128.820388422656
 30
0.0
 10
76.33556448829458
 20
-129.0308837568048
 30
0.0
 10
76.33556448829458
 20
-129.3089029624645
 30
0.0
 10
76.56621363103206
 20
-129.3178602107261
 30
0.0
 10
76.6826578584335
 20
-129.3223388348569
 30
0.0
 10
76.6826578584335
 20
-129.3223388348569
 30
0.0
 10
76.6826578584335
 20
-129.5621174806303
 30
0.0
 10
76.6826578584335
 20
-129.5621174806303
 30
0.0
 10
76.55570608980204
 20
-129.5531602323687
 30
0.0
 10
76.44356823175717
 20
-129.5417914172673
 30
0.0
 10
76.32505694706457
 20
-129.4560085396846
 30
0.0
 10
76.16434324267767
 20
-129.3381862740891
 30
0.0
 10
76.13040905214795
 20
-129.1394042645902
 30
0.0
 10
76.13040905214795
 20
-129.0150363175726
 30
0.0
 10
76.13040905214795
 20
-128.7187581058411
 30
0.0
 10
76.31454940583455
 20
-128.4972384661396
 30
0.0
 10
76.58740096826635
 20
-128.4972384661396
 30
0.0
 10
76.81581079893841
 20
-128.4972384661396
 30
0.0
 10
76.91537405846213
 20
-128.6216064131571
 30
0.0
 10
77.14171683184304
 20
-128.951646560644
 30
0.0
  0
HATCH
  5
D8
330
D1
100
AcDbEntity
  8
_U+30EC_U+30A4_U+30E4_U+30FC 1
 62
     7
420
 16777215
100
AcDbHatch
 10
0.0
 20
0.0
 30
0.0
210
0.0
220
0.0
230
1.0
  2
SOLID
 70
     1
 71
     0
 91
        1
 92
        1
 93
        1
 72
     4
 94
        3
 73
     0
 74
     1
 95
       44
 96
       40
 40
0.0
 40
0.0
 40
0.0
 40
0.0
 40
1.0
 40
1.0
 40
1.0
 40
2.0
 40
2.0
 40
2.0
 40
3.0
 40
3.0
 40
3.0
 40
4.0
 40
4.0
 40
4.0
 40
5.0
 40
5.0
 40
5.0
 40
6.0
 40
6.0
 40
6.0
 40
7.0
 40
7.0
 40
7.0
 40
8.0
 40
8.0
 40
8.0
 40
9.0
 40
9.0
 40
9.0
 40
10.0
 40
10.0
 40
10.0
 40
11.0
 40
11.0
 40
11.0
 40
12.0
 40
12.0
 40
12.0
 40
13.0
 40
13.0
 40
13.0
 40
13.0
 10
77.14171683184304
 20
-128.951646560644
 10
77.3003634789388
 20
-129.1845350154469
 10
77.37443303187167
 20
-129.2840982749707
 10
77.51826576838086
 20
-129.3361192167979
 10
77.51826576838086
 20
-129.3361192167979
 10
77.51826576838086
 20
-128.5039564023358
 10
77.51826576838086
 20
-128.5039564023358
 10
77.51826576838086
 20
-128.5039564023358
 10
77.72342120452748
 20
-128.5039564023358
 10
77.72342120452748
 20
-128.5039564023358
 10
77.72342120452748
 20
-128.5039564023358
 10
77.72342120452748
 20
-129.6027696073563
 10
77.72342120452748
 20
-129.6027696073563
 10
77.36582029315855
 20
-129.5690076716008
 10
77.28761662564338
 20
-129.4987277237017
 10
76.98927135662075
 20
-129.0873833227629
 10
76.79048934712182
 20
-128.8138427412341
 10
76.72279322083666
 20
-128.7435627933349
 10
76.5853339109752
 20
-128.7435627933349
 10
76.4668226262826
 20
-128.7435627933349
 10
76.33556448829458
 20
-128.820388422656
 10
76.33556448829458
 20
-129.0308837568048
 10
76.33556448829458
 20
-129.3089029624645
 10
76.56621363103206
 20
-129.3178602107261
 10
76.6826578584335
 20
-129.3223388348569
 10
76.6826578584335
 20
-129.3223388348569
 10
76.6826578584335
 20
-129.5621174806303
 10
76.6826578584335
 20
-129.5621174806303
 10
76.55570608980204
 20
-129.5531602323687
 10
76.44356823175717
 20
-129.5417914172673
 10
76.32505694706457
 20
-129.4560085396846
 10
76.16434324267767
 20
-129.3381862740891
 10
76.13040905214795
 20
-129.1394042645902
 10
76.13040905214795
 20
-129.0150363175726
 10
76.13040905214795
 20
-128.7187581058411
 10
76.31454940583455
 20
-128.4972384661396
 10
76.58740096826635
 20
-128.4972384661396
 10
76.81581079893841
 20
-128.4972384661396
 10
76.91537405846213
 20
-128.6216064131571
 10
77.14171683184304
 20
-128.951646560644
 97
        0
 97
        0
 75
     2
 76
     1
 98
        0
  0
POLYLINE
  5
D9
330
D1
100
AcDbEntity
  8
_U+30EC_U+30A4_U+30E4_U+30FC 1
370
     0
100
AcDb2dPolyline
 66
     1
 10
0.0
 20
0.0
 30
0.0
  0
VERTEX
  5
DA
330
D9
100
AcDbEntity
  8
_U+30EC_U+30A4_U+30E4_U+30FC 1
370
     0
100
AcDbVertex
100
AcDb2dVertex
 10
77.72342120452748
 20
-128.2634887374654
 30
0.0
  0
VERTEX
  5
DB
330
D9
100
AcDbEntity
  8
_U+30EC_U+30A4_U+30E4_U+30FC 1
370
     0
100
AcDbVertex
100
AcDb2dVertex
 10
77.47175697932998
 20
-128.2634887374654
 30
0.0
  0
VERTEX
  5
DC
330
D9
100
AcDbEntity
  8
_U+30EC_U+30A4_U+30E4_U+30FC 1
370
     0
100
AcDbVertex
100
AcDb2dVertex
 10
77.47175697932998
 20
-127.9944267800674
 30
0.0
  0
VERTEX
  5
DD
330
D9
100
AcDbEntity
  8
_U+30EC_U+30A4_U+30E4_U+30FC 1
370
     0
100
AcDbVertex
100
AcDb2dVertex
 10
77.72342120452748
 20
-127.9944267800674
 30
0.0
  0
VERTEX
  5
DE
330
D9
100
AcDbEntity
  8
_U+30EC_U+30A4_U+30E4_U+30FC 1
370
     0
100
AcDbVertex
100
AcDb2dVertex
 10
77.72342120452748
 20
-128.2634887374654
 30
0.0
  0
SEQEND
  5
DF
330
D9
100
AcDbEntity
  8
_U+30EC_U+30A4_U+30E4_U+30FC 1
370
     0
  0
HATCH
  5
E0
330
D1
100
AcDbEntity
  8
_U+30EC_U+30A4_U+30E4_U+30FC 1
 62
     7
420
 16777215
100
AcDbHatch
 10
0.0
 20
0.0
 30
0.0
210
0.0
220
0.0
230
1.0
  2
SOLID
 70
     1
 71
     0
 91
        1
 92
        1
 93
        4
 72
     1
 10
77.72342120452748
 20
-128.2634887374654
 11
77.47175697932998
 21
-128.2634887374654
 72
     1
 10
77.47175697932998
 20
-128.2634887374654
 11
77.47175697932998
 21
-127.9944267800674
 72
     1
 10
77.47175697932998
 20
-127.9944267800674
 11
77.72342120452748
 21
-127.9944267800674
 72
     1
 10
77.72342120452748
 20
-127.9944267800674
 11
77.72342120452748
 21
-128.2634887374654
 97
        0
 75
     2
 76
     1
 98
        0
  0
SPLINE
  5
E1
330
D1
100
AcDbEntity
  8
_U+30EC_U+30A4_U+30E4_U+30FC 1
370
     0
100
AcDbSpline
210
0.0
220
0.0
230
1.0
 70
    11
 71
     3
 72
    53
 73
    49
 74
     0
 42
0.0000000001
 43
0.0000000001
 12
1.0
 22
0.0
 32
0.0
 13
1.0
 23
0.0
 33
0.0
 40
0.0
 40
0.0
 40
0.0
 40
0.0
 40
1.0
 40
1.0
 40
1.0
 40
2.0
 40
2.0
 40
2.0
 40
3.0
 40
3.0
 40
3.0
 40
4.0
 40
4.0
 40
4.0
 40
5.0
 40
5.0
 40
5.0
 40
6.0
 40
6.0
 40
6.0
 40
7.0
 40
7.0
 40
7.0
 40
8.0
 40
8.0
 40
8.0
 40
9.0
 40
9.0
 40
9.0
 40
10.0
 40
10.0
 40
10.0
 40
11.0
 40
11.0
 40
11.0
 40
12.0
 40
12.0
 40
12.0
 40
13.0
 40
13.0
 40
13.0
 40
14.0
 40
14.0
 40
14.0
 40
15.0
 40
15.0
 40
15.0
 40
16.0
 40
16.0
 40
16.0
 40
16.0
 10
77.77423636293491
 20
-127.227720779825
 30
0.0
 10
77.77423636293491
 20
-127.3114366001166
 30
0.0
 10
77.75735539505719
 20
-127.419957107902
 30
0.0
 10
77.69379338335433
 20
-127.5284776156873
 30
0.0
 10
77.5837225826006
 20
-127.7138237527938
 30
0.0
 10
77.45263669938684
 20
-127.7365613829964
 30
0.0
 10
77.34480521069852
 20
-127.7568874463594
 30
0.0
 10
77.34480521069852
 20
-127.7568874463594
 30
0.0
 10
77.34480521069852
 20
-127.5195203674257
 30
0.0
 10
77.34480521069852
 20
-127.5195203674257
 30
0.0
 10
77.54358722019744
 20
-127.4606092346279
 30
0.0
 10
77.57321504137059
 20
-127.3250447272833
 30
0.0
 10
77.57321504137059
 20
-127.2254814677596
 30
0.0
 10
77.57321504137059
 20
-127.0763088332483
 30
0.0
 10
77.47382403662112
 20
-126.9135280715702
 30
0.0
 10
77.2411078365925
 20
-126.9135280715702
 30
0.0
 10
76.98513724203845
 20
-126.9135280715702
 30
0.0
 10
76.91537405846213
 20
-127.1057643996472
 30
0.0
 10
76.91537405846213
 20
-127.2346109707955
 30
0.0
 10
76.91537405846213
 20
-127.2685451613252
 30
0.0
 10
76.91537405846213
 20
-127.419957107902
 30
0.0
 10
77.04439288438473
 20
-127.5148694885206
 30
0.0
 10
77.04439288438473
 20
-127.5148694885206
 30
0.0
 10
77.0252726044416
 20
-127.7026271924667
 30
0.0
 10
77.0252726044416
 20
-127.7026271924667
 30
0.0
 10
77.0252726044416
 20
-127.7026271924667
 30
0.0
 10
76.17915715326424
 20
-127.5736083665441
 30
0.0
 10
76.17915715326424
 20
-127.5736083665441
 30
0.0
 10
76.17915715326424
 20
-127.5736083665441
 30
0.0
 10
76.17915715326424
 20
-126.7416178068563
 30
0.0
 10
76.17915715326424
 20
-126.7416178068563
 30
0.0
 10
76.17915715326424
 20
-126.7416178068563
 30
0.0
 10
76.37380504818086
 20
-126.7416178068563
 30
0.0
 10
76.37380504818086
 20
-126.7416178068563
 30
0.0
 10
76.37380504818086
 20
-126.7416178068563
 30
0.0
 10
76.37380504818086
 20
-127.399631044539
 30
0.0
 10
76.37380504818086
 20
-127.399631044539
 30
0.0
 10
76.37380504818086
 20
-127.399631044539
 30
0.0
 10
76.79686277376953
 20
-127.4697387376638
 30
0.0
 10
76.79686277376953
 20
-127.4697387376638
 30
0.0
 10
76.76292858323983
 20
-127.4041096686698
 30
0.0
 10
76.72279322083666
 20
-127.3159152242474
 30
0.0
 10
76.72279322083666
 20
-127.1893079651645
 30
0.0
 10
76.72279322083666
 20
-126.9180066957011
 30
0.0
 10
76.90900063181442
 20
-126.6647921775352
 30
0.0
 10
77.22198755664937
 20
-126.6647921775352
 30
0.0
 10
77.53945310561514
 20
-126.6647921775352
 30
0.0
 10
77.77423636293491
 20
-126.9045708233086
 30
0.0
 10
77.77423636293491
 20
-127.227720779825
 30
0.0
  0
HATCH
  5
E2
330
D1
100
AcDbEntity
  8
_U+30EC_U+30A4_U+30E4_U+30FC 1
 62
     7
420
 16777215
100
AcDbHatch
 10
0.0
 20
0.0
 30
0.0
210
0.0
220
0.0
230
1.0
  2
SOLID
 70
     1
 71
     0
 91
        1
 92
        1
 93
        1
 72
     4
 94
        3
 73
     0
 74
     1
 95
       53
 96
       49
 40
0.0
 40
0.0
 40
0.0
 40
0.0
 40
1.0
 40
1.0
 40
1.0
 40
2.0
 40
2.0
 40
2.0
 40
3.0
 40
3.0
 40
3.0
 40
4.0
 40
4.0
 40
4.0
 40
5.0
 40
5.0
 40
5.0
 40
6.0
 40
6.0
 40
6.0
 40
7.0
 40
7.0
 40
7.0
 40
8.0
 40
8.0
 40
8.0
 40
9.0
 40
9.0
 40
9.0
 40
10.0
 40
10.0
 40
10.0
 40
11.0
 40
11.0
 40
11.0
 40
12.0
 40
12.0
 40
12.0
 40
13.0
 40
13.0
 40
13.0
 40
14.0
 40
14.0
 40
14.0
 40
15.0
 40
15.0
 40
15.0
 40
16.0
 40
16.0
 40
16.0
 40
16.0
 10
77.77423636293491
 20
-127.227720779825
 10
77.77423636293491
 20
-127.3114366001166
 10
77.75735539505719
 20
-127.419957107902
 10
77.69379338335433
 20
-127.5284776156873
 10
77.5837225826006
 20
-127.7138237527938
 10
77.45263669938684
 20
-127.7365613829964
 10
77.34480521069852
 20
-127.7568874463594
 10
77.34480521069852
 20
-127.7568874463594
 10
77.34480521069852
 20
-127.5195203674257
 10
77.34480521069852
 20
-127.5195203674257
 10
77.54358722019744
 20
-127.4606092346279
 10
77.57321504137059
 20
-127.3250447272833
 10
77.57321504137059
 20
-127.2254814677596
 10
77.57321504137059
 20
-127.0763088332483
 10
77.47382403662112
 20
-126.9135280715702
 10
77.2411078365925
 20
-126.9135280715702
 10
76.98513724203845
 20
-126.9135280715702
 10
76.91537405846213
 20
-127.1057643996472
 10
76.91537405846213
 20
-127.2346109707955
 10
76.91537405846213
 20
-127.2685451613252
 10
76.91537405846213
 20
-127.419957107902
 10
77.04439288438473
 20
-127.5148694885206
 10
77.04439288438473
 20
-127.5148694885206
 10
77.0252726044416
 20
-127.7026271924667
 10
77.0252726044416
 20
-127.7026271924667
 10
77.0252726044416
 20
-127.7026271924667
 10
76.17915715326424
 20
-127.5736083665441
 10
76.17915715326424
 20
-127.5736083665441
 10
76.17915715326424
 20
-127.5736083665441
 10
76.17915715326424
 20
-126.7416178068563
 10
76.17915715326424
 20
-126.7416178068563
 10
76.17915715326424
 20
-126.7416178068563
 10
76.37380504818086
 20
-126.7416178068563
 10
76.37380504818086
 20
-126.7416178068563
 10
76.37380504818086
 20
-126.7416178068563
 10
76.37380504818086
 20
-127.399631044539
 10
76.37380504818086
 20
-127.399631044539
 10
76.37380504818086
 20
-127.399631044539
 10
76.79686277376953
 20
-127.4697387376638
 10
76.79686277376953
 20
-127.4697387376638
 10
76.76292858323983
 20
-127.4041096686698
 10
76.72279322083666
 20
-127.3159152242474
 10
76.72279322083666
 20
-127.1893079651645
 10
76.72279322083666
 20
-126.9180066957011
 10
76.90900063181442
 20
-126.6647921775352
 10
77.22198755664937
 20
-126.6647921775352
 10
77.53945310561514
 20
-126.6647921775352
 10
77.77423636293491
 20
-126.9045708233086
 10
77.77423636293491
 20
-127.227720779825
 97
        0
 97
        0
 75
     2
 76
     1
 98
        0
  0
ENDBLK
  5
D4
330
D1
100
AcDbEntity
  8
0
100
AcDbBlockEnd
  0
BLOCK
  5
F1
330
EF
100
AcDbEntity
  8
0
100
AcDbBlockBegin
  2
block 7
 70
     0
 10
0.0
 20
0.0
 30
0.0
  3
block 7
  1

  0
SPLINE
  5
F3
330
EF
100
AcDbEntity
  8
_U+30EC_U+30A4_U+30E4_U+30FC 1
370
     0
100
AcDbSpline
210
0.0
220
0.0
230
1.0
 70
    11
 71
     3
 72
    26
 73
    22
 74
     0
 42
0.0000000001
 43
0.0000000001
 12
1.0
 22
0.0
 32
0.0
 13
1.0
 23
0.0
 33
0.0
 40
0.0
 40
0.0
 40
0.0
 40
0.0
 40
1.0
 40
1.0
 40
1.0
 40
2.0
 40
2.0
 40
2.0
 40
3.0
 40
3.0
 40
3.0
 40
4.0
 40
4.0
 40
4.0
 40
5.0
 40
5.0
 40
5.0
 40
6.0
 40
6.0
 40
6.0
 40
7.0
 40
7.0
 40
7.0
 40
7.0
 10
89.64362383826618
 20
-138.6702609245338
 30
0.0
 10
89.64362383826618
 20
-138.6702609245338
 30
0.0
 10
89.64362383826618
 20
-137.5661078215113
 30
0.0
 10
89.64362383826618
 20
-137.5661078215113
 30
0.0
 10
89.64362383826618
 20
-137.5661078215113
 30
0.0
 10
89.29119057012512
 20
-137.5661078215113
 30
0.0
 10
89.29119057012512
 20
-137.5661078215113
 30
0.0
 10
89.29119057012512
 20
-137.5661078215113
 30
0.0
 10
89.29119057012512
 20
-137.4179687156455
 30
0.0
 10
89.29119057012512
 20
-137.4179687156455
 30
0.0
 10
89.64603540510586
 20
-137.4031548050589
 30
0.0
 10
89.69564478009346
 20
-137.2402017886066
 30
0.0
 10
89.72733965855775
 20
-137.1258246184963
 30
0.0
 10
89.72733965855775
 20
-137.1258246184963
 30
0.0
 10
89.88340248403956
 20
-137.1258246184963
 30
0.0
 10
89.88340248403956
 20
-137.1258246184963
 30
0.0
 10
89.88340248403956
 20
-137.1258246184963
 30
0.0
 10
89.88340248403956
 20
-138.6702609245338
 30
0.0
 10
89.88340248403956
 20
-138.6702609245338
 30
0.0
 10
89.88340248403956
 20
-138.6702609245338
 30
0.0
 10
89.64362383826618
 20
-138.6702609245338
 30
0.0
 10
89.64362383826618
 20
-138.6702609245338
 30
0.0
  0
HATCH
  5
F4
330
EF
100
AcDbEntity
  8
_U+30EC_U+30A4_U+30E4_U+30FC 1
 62
     7
420
 16777215
100
AcDbHatch
 10
0.0
 20
0.0
 30
0.0
210
0.0
220
0.0
230
1.0
  2
SOLID
 70
     1
 71
     0
 91
        1
 92
        1
 93
        1
 72
     4
 94
        3
 73
     0
 74
     1
 95
       26
 96
       22
 40
0.0
 40
0.0
 40
0.0
 40
0.0
 40
1.0
 40
1.0
 40
1.0
 40
2.0
 40
2.0
 40
2.0
 40
3.0
 40
3.0
 40
3.0
 40
4.0
 40
4.0
 40
4.0
 40
5.0
 40
5.0
 40
5.0
 40
6.0
 40
6.0
 40
6.0
 40
7.0
 40
7.0
 40
7.0
 40
7.0
 10
89.64362383826618
 20
-138.6702609245338
 10
89.64362383826618
 20
-138.6702609245338
 10
89.64362383826618
 20
-137.5661078215113
 10
89.64362383826618
 20
-137.5661078215113
 10
89.64362383826618
 20
-137.5661078215113
 10
89.29119057012512
 20
-137.5661078215113
 10
89.29119057012512
 20
-137.5661078215113
 10
89.29119057012512
 20
-137.5661078215113
 10
89.29119057012512
 20
-137.4179687156455
 10
89.29119057012512
 20
-137.4179687156455
 10
89.64603540510586
 20
-137.4031548050589
 10
89.69564478009346
 20
-137.2402017886066
 10
89.72733965855775
 20
-137.1258246184963
 10
89.72733965855775
 20
-137.1258246184963
 10
89.88340248403956
 20
-137.1258246184963
 10
89.88340248403956
 20
-137.1258246184963
 10
89.88340248403956
 20
-137.1258246184963
 10
89.88340248403956
 20
-138.6702609245338
 10
89.88340248403956
 20
-138.6702609245338
 10
89.88340248403956
 20
-138.6702609245338
 10
89.64362383826618
 20
-138.6702609245338
 10
89.64362383826618
 20
-138.6702609245338
 97
        0
 97
        0
 75
     2
 76
     1
 98
        0
  0
SPLINE
  5
F5
330
EF
100
AcDbEntity
  8
_U+30EC_U+30A4_U+30E4_U+30FC 1
370
     0
100
AcDbSpline
210
0.0
220
0.0
230
1.0
 70
    11
 71
     3
 72
    32
 73
    28
 74
     0
 42
0.0000000001
 43
0.0000000001
 12
1.0
 22
0.0
 32
0.0
 13
1.0
 23
0.0
 33
0.0
 40
0.0
 40
0.0
 40
0.0
 40
0.0
 40
1.0
 40
1.0
 40
1.0
 40
2.0
 40
2.0
 40
2.0
 40
3.0
 40
3.0
 40
3.0
 40
4.0
 40
4.0
 40
4.0
 40
5.0
 40
5.0
 40
5.0
 40
6.0
 40
6.0
 40
6.0
 40
7.0
 40
7.0
 40
7.0
 40
8.0
 40
8.0
 40
8.0
 40
9.0
 40
9.0
 40
9.0
 40
9.0
 10
90.95827227543752
 20
-138.720903828167
 30
0.0
 10
90.4063679787005
 20
-138.720903828167
 30
0.0
 10
90.39741073043885
 20
-138.1669324741388
 30
0.0
 10
90.39741073043885
 20
-137.9529920445048
 30
0.0
 10
90.39741073043885
 20
-137.7225151565416
 30
0.0
 10
90.41773679380182
 20
-137.0751817148632
 30
0.0
 10
90.99892440216347
 20
-137.0751817148632
 30
0.0
 10
91.1842705392699
 20
-137.0751817148632
 30
0.0
 10
91.44627005092316
 20
-137.1451171532137
 30
0.0
 10
91.4869221776491
 20
-137.4772243579918
 30
0.0
 10
91.4869221776491
 20
-137.4772243579918
 30
0.0
 10
91.2586846017513
 20
-137.4772243579918
 30
0.0
 10
91.2586846017513
 20
-137.4772243579918
 30
0.0
 10
91.2476602961985
 20
-137.4200357729367
 30
0.0
 10
91.21355385089453
 20
-137.2718966670709
 30
0.0
 10
90.9965128353238
 20
-137.2718966670709
 30
0.0
 10
90.68438718436016
 20
-137.2718966670709
 30
0.0
 10
90.64166800034306
 20
-137.5998697572667
 30
0.0
 10
90.62788761840206
 20
-137.8048529386391
 30
0.0
 10
90.72745087792578
 20
-137.7266492711239
 30
0.0
 10
90.79979788311603
 20
-137.6673936287776
 30
0.0
 10
90.99410126848412
 20
-137.6673936287776
 30
0.0
 10
91.18633759656106
 20
-137.6673936287776
 30
0.0
 10
91.50965980785176
 20
-137.7755696270144
 30
0.0
 10
91.50965980785176
 20
-138.1817463847254
 30
0.0
 10
91.50965980785176
 20
-138.5011067362081
 30
0.0
 10
91.2972696711861
 20
-138.720903828167
 30
0.0
 10
90.95827227543752
 20
-138.720903828167
 30
0.0
  0
SPLINE
  5
F6
330
EF
100
AcDbEntity
  8
_U+30EC_U+30A4_U+30E4_U+30FC 1
370
     0
100
AcDbSpline
210
0.0
220
0.0
230
1.0
 70
    11
 71
     3
 72
    17
 73
    13
 74
     0
 42
0.0000000001
 43
0.0000000001
 12
1.0
 22
0.0
 32
0.0
 13
1.0
 23
0.0
 33
0.0
 40
0.0
 40
0.0
 40
0.0
 40
0.0
 40
1.0
 40
1.0
 40
1.0
 40
2.0
 40
2.0
 40
2.0
 40
3.0
 40
3.0
 40
3.0
 40
4.0
 40
4.0
 40
4.0
 40
4.0
 10
90.97618677196081
 20
-137.8620415236942
 30
0.0
 10
90.69575599946148
 20
-137.8620415236942
 30
0.0
 10
90.65510387273554
 20
-138.0735703864886
 30
0.0
 10
90.65510387273554
 20
-138.19001461389
 30
0.0
 10
90.65510387273554
 20
-138.3657144836377
 30
0.0
 10
90.7567341895504
 20
-138.5286675000901
 30
0.0
 10
90.95344914175817
 20
-138.5286675000901
 30
0.0
 10
91.08229571290651
 20
-138.5286675000901
 30
0.0
 10
91.27005341685263
 20
-138.4694118577438
 30
0.0
 10
91.27005341685263
 20
-138.1838134420165
 30
0.0
 10
91.27005341685263
 20
-137.9595377259268
 30
0.0
 10
91.12088078234132
 20
-137.8620415236942
 30
0.0
 10
90.97618677196081
 20
-137.8620415236942
 30
0.0
  0
HATCH
  5
F7
330
EF
100
AcDbEntity
  8
_U+30EC_U+30A4_U+30E4_U+30FC 1
 62
     7
420
 16777215
100
AcDbHatch
 10
0.0
 20
0.0
 30
0.0
210
0.0
220
0.0
230
1.0
  2
SOLID
 70
     1
 71
     0
 91
        2
 92
        1
 93
        1
 72
     4
 94
        3
 73
     0
 74
     1
 95
       32
 96
       28
 40
0.0
 40
0.0
 40
0.0
 40
0.0
 40
1.0
 40
1.0
 40
1.0
 40
2.0
 40
2.0
 40
2.0
 40
3.0
 40
3.0
 40
3.0
 40
4.0
 40
4.0
 40
4.0
 40
5.0
 40
5.0
 40
5.0
 40
6.0
 40
6.0
 40
6.0
 40
7.0
 40
7.0
 40
7.0
 40
8.0
 40
8.0
 40
8.0
 40
9.0
 40
9.0
 40
9.0
 40
9.0
 10
90.95827227543752
 20
-138.720903828167
 10
90.4063679787005
 20
-138.720903828167
 10
90.39741073043885
 20
-138.1669324741388
 10
90.39741073043885
 20
-137.9529920445048
 10
90.39741073043885
 20
-137.7225151565416
 10
90.41773679380182
 20
-137.0751817148632
 10
90.99892440216347
 20
-137.0751817148632
 10
91.1842705392699
 20
-137.0751817148632
 10
91.44627005092316
 20
-137.1451171532137
 10
91.4869221776491
 20
-137.4772243579918
 10
91.4869221776491
 20
-137.4772243579918
 10
91.2586846017513
 20
-137.4772243579918
 10
91.2586846017513
 20
-137.4772243579918
 10
91.2476602961985
 20
-137.4200357729367
 10
91.21355385089453
 20
-137.2718966670709
 10
90.9965128353238
 20
-137.2718966670709
 10
90.68438718436016
 20
-137.2718966670709
 10
90.64166800034306
 20
-137.5998697572667
 10
90.62788761840206
 20
-137.8048529386391
 10
90.72745087792578
 20
-137.7266492711239
 10
90.79979788311603
 20
-137.6673936287776
 10
90.99410126848412
 20
-137.6673936287776
 10
91.18633759656106
 20
-137.6673936287776
 10
91.50965980785176
 20
-137.7755696270144
 10
91.50965980785176
 20
-138.1817463847254
 10
91.50965980785176
 20
-138.5011067362081
 10
91.2972696711861
 20
-138.720903828167
 10
90.95827227543752
 20
-138.720903828167
 97
        0
 97
        0
 92
        1
 93
        1
 72
     4
 94
        3
 73
     0
 74
     1
 95
       17
 96
       13
 40
0.0
 40
0.0
 40
0.0
 40
0.0
 40
1.0
 40
1.0
 40
1.0
 40
2.0
 40
2.0
 40
2.0
 40
3.0
 40
3.0
 40
3.0
 40
4.0
 40
4.0
 40
4.0
 40
4.0
 10
90.97618677196081
 20
-137.8620415236942
 10
90.69575599946148
 20
-137.8620415236942
 10
90.65510387273554
 20
-138.0735703864886
 10
90.65510387273554
 20
-138.19001461389
 10
90.65510387273554
 20
-138.3657144836377
 10
90.7567341895504
 20
-138.5286675000901
 10
90.95344914175817
 20
-138.5286675000901
 10
91.08229571290651
 20
-138.5286675000901
 10
91.27005341685263
 20
-138.4694118577438
 10
91.27005341685263
 20
-138.1838134420165
 10
91.27005341685263
 20
-137.9595377259268
 10
91.12088078234132
 20
-137.8620415236942
 10
90.97618677196081
 20
-137.8620415236942
 97
        0
 97
        0
 75
     2
 76
     1
 98
        0
  0
ENDBLK
  5
F2
330
EF
100
AcDbEntity
  8
0
100
AcDbBlockEnd
  0
ENDSEC
  0
SECTION
  2
ENTITIES
  0
SPLINE
  5
41
330
1F
100
AcDbEntity
  8
_U+30EC_U+30A4_U+30E4_U+30FC 1
 62
   253
420
 11711154
370
     9
100
AcDbSpline
210
0.0
220
0.0
230
1.0
 70
    11
 71
     3
 72
    44
 73
    40
 74
     0
 42
0.0000000001
 43
0.0000000001
 12
1.0
 22
0.0
 32
0.0
 13
1.0
 23
0.0
 33
0.0
 40
0.0
 40
0.0
 40
0.0
 40
0.0
 40
1.0
 40
1.0
 40
1.0
 40
2.0
 40
2.0
 40
2.0
 40
3.0
 40
3.0
 40
3.0
 40
4.0
 40
4.0
 40
4.0
 40
5.0
 40
5.0
 40
5.0
 40
6.0
 40
6.0
 40
6.0
 40
7.0
 40
7.0
 40
7.0
 40
8.0
 40
8.0
 40
8.0
 40
9.0
 40
9.0
 40
9.0
 40
10.0
 40
10.0
 40
10.0
 40
11.0
 40
11.0
 40
11.0
 40
12.0
 40
12.0
 40
12.0
 40
13.0
 40
13.0
 40
13.0
 40
13.0
 10
82.28178095637244
 20
-122.8066363581872
 30
0.0
 10
82.28178095637244
 20
-122.8066363581872
 30
0.0
 10
83.20782259941382
 20
-122.6743446915536
 30
0.0
 10
83.34011426270544
 20
-123.8208724690448
 30
0.0
 10
83.34011426270544
 20
-123.8208724690448
 30
0.0
 10
83.29601704160824
 20
-129.7299002453456
 30
0.0
 10
83.29601704160824
 20
-129.7299002453456
 30
0.0
 10
83.29601704160824
 20
-129.7299002453456
 30
0.0
 10
89.46962799521741
 20
-129.818094689768
 30
0.0
 10
89.46962799521741
 20
-129.818094689768
 30
0.0
 10
89.46962799521741
 20
-129.818094689768
 30
0.0
 10
90.30747519606436
 20
-130.038580800824
 30
0.0
 10
90.30747519606436
 20
-130.7441363562032
 30
0.0
 10
90.30747519606436
 20
-130.7441363562032
 30
0.0
 10
83.29601704160824
 20
-130.7882335784144
 30
0.0
 10
83.29601704160824
 20
-130.7882335784144
 30
0.0
 10
83.29601704160824
 20
-130.7882335784144
 30
0.0
 10
83.29601704160824
 20
-134.2278169108878
 30
0.0
 10
83.29601704160824
 20
-134.2278169108878
 30
0.0
 10
83.29601704160824
 20
-134.2278169108878
 30
0.0
 10
90.26337797496716
 20
-134.271914133099
 30
0.0
 10
90.26337797496716
 20
-134.271914133099
 30
0.0
 10
90.26337797496716
 20
-134.271914133099
 30
0.0
 10
90.57205852264761
 20
-134.4483030219438
 30
0.0
 10
90.57205852264761
 20
-134.4483030219438
 30
0.0
 10
90.57205852264761
 20
-134.4483030219438
 30
0.0
 10
97.62779028708535
 20
-134.4483030219438
 30
0.0
 10
97.62779028708535
 20
-134.4483030219438
 30
0.0
 10
97.62779028708535
 20
-134.4483030219438
 30
0.0
 10
98.28924860354347
 20
-134.6246919107886
 30
0.0
 10
98.33334582464067
 20
-135.2861502439566
 30
0.0
 10
98.33334582464067
 20
-135.2861502439566
 30
0.0
 10
83.6487948103859
 20
-135.2420530217454
 30
0.0
 10
83.6487948103859
 20
-135.2420530217454
 30
0.0
 10
83.6487948103859
 20
-135.2420530217454
 30
0.0
 10
82.36997539856685
 20
-135.7271224660686
 30
0.0
 10
82.32587817746965
 20
-133.8750391331982
 30
0.0
 10
82.32587817746965
 20
-133.8750391331982
 30
0.0
 10
82.28178095637244
 20
-122.8066363581872
 30
0.0
 10
82.28178095637244
 20
-122.8066363581872
 30
0.0
  0
HATCH
  5
42
330
1F
100
AcDbEntity
  8
_U+30EC_U+30A4_U+30E4_U+30FC 1
 62
   253
420
 11711154
100
AcDbHatch
 10
0.0
 20
0.0
 30
0.0
210
0.0
220
0.0
230
1.0
  2
SOLID
 70
     1
 71
     0
 91
        1
 92
        1
 93
        1
 72
     4
 94
        3
 73
     0
 74
     1
 95
       44
 96
       40
 40
0.0
 40
0.0
 40
0.0
 40
0.0
 40
1.0
 40
1.0
 40
1.0
 40
2.0
 40
2.0
 40
2.0
 40
3.0
 40
3.0
 40
3.0
 40
4.0
 40
4.0
 40
4.0
 40
5.0
 40
5.0
 40
5.0
 40
6.0
 40
6.0
 40
6.0
 40
7.0
 40
7.0
 40
7.0
 40
8.0
 40
8.0
 40
8.0
 40
9.0
 40
9.0
 40
9.0
 40
10.0
 40
10.0
 40
10.0
 40
11.0
 40
11.0
 40
11.0
 40
12.0
 40
12.0
 40
12.0
 40
13.0
 40
13.0
 40
13.0
 40
13.0
 10
82.28178095637244
 20
-122.8066363581872
 10
82.28178095637244
 20
-122.8066363581872
 10
83.20782259941382
 20
-122.6743446915536
 10
83.34011426270544
 20
-123.8208724690448
 10
83.34011426270544
 20
-123.8208724690448
 10
83.29601704160824
 20
-129.7299002453456
 10
83.29601704160824
 20
-129.7299002453456
 10
83.29601704160824
 20
-129.7299002453456
 10
89.46962799521741
 20
-129.818094689768
 10
89.46962799521741
 20
-129.818094689768
 10
89.46962799521741
 20
-129.818094689768
 10
90.30747519606436
 20
-130.038580800824
 10
90.30747519606436
 20
-130.7441363562032
 10
90.30747519606436
 20
-130.7441363562032
 10
83.29601704160824
 20
-130.7882335784144
 10
83.29601704160824
 20
-130.7882335784144
 10
83.29601704160824
 20
-130.7882335784144
 10
83.29601704160824
 20
-134.2278169108878
 10
83.29601704160824
 20
-134.2278169108878
 10
83.29601704160824
 20
-134.2278169108878
 10
90.26337797496716
 20
-134.271914133099
 10
90.26337797496716
 20
-134.271914133099
 10
90.26337797496716
 20
-134.271914133099
 10
90.57205852264761
 20
-134.4483030219438
 10
90.57205852264761
 20
-134.4483030219438
 10
90.57205852264761
 20
-134.4483030219438
 10
97.62779028708535
 20
-134.4483030219438
 10
97.62779028708535
 20
-134.4483030219438
 10
97.62779028708535
 20
-134.4483030219438
 10
98.28924860354347
 20
-134.6246919107886
 10
98.33334582464067
 20
-135.2861502439566
 10
98.33334582464067
 20
-135.2861502439566
 10
83.6487948103859
 20
-135.2420530217454
 10
83.6487948103859
 20
-135.2420530217454
 10
83.6487948103859
 20
-135.2420530217454
 10
82.36997539856685
 20
-135.7271224660686
 10
82.32587817746965
 20
-133.8750391331982
 10
82.32587817746965
 20
-133.8750391331982
 10
82.28178095637244
 20
-122.8066363581872
 10
82.28178095637244
 20
-122.8066363581872
 97
        0
 97
        0
 75
     2
 76
     1
 98
        0
  0
SPLINE
  5
43
330
1F
100
AcDbEntity
  8
_U+30EC_U+30A4_U+30E4_U+30FC 1
 62
     7
420
 16777215
370
     9
100
AcDbSpline
210
0.0
220
0.0
230
1.0
 70
    11
 71
     3
 72
    17
 73
    13
 74
     0
 42
0.0000000001
 43
0.0000000001
 12
1.0
 22
0.0
 32
0.0
 13
1.0
 23
0.0
 33
0.0
 40
0.0
 40
0.0
 40
0.0
 40
0.0
 40
1.0
 40
1.0
 40
1.0
 40
2.0
 40
2.0
 40
2.0
 40
3.0
 40
3.0
 40
3.0
 40
4.0
 40
4.0
 40
4.0
 40
4.0
 10
90.52041185729857
 20
-119.5909610812132
 30
0.0
 10
90.52041185729857
 20
-119.5358571923383
 30
0.0
 10
90.4756090806638
 20
-119.4910544145716
 30
0.0
 10
90.42050519318073
 20
-119.4910544145716
 30
0.0
 10
90.36469575016011
 20
-119.4910544145716
 30
0.0
 10
90.31989297352534
 20
-119.5358571923383
 30
0.0
 10
90.31989297352534
 20
-119.5909610812132
 30
0.0
 10
90.31989297352534
 20
-119.6461002478663
 30
0.0
 10
90.36469575016011
 20
-119.6909030256327
 30
0.0
 10
90.42050519318073
 20
-119.6909030256327
 30
0.0
 10
90.4756090806638
 20
-119.6909030256327
 30
0.0
 10
90.52041185729857
 20
-119.6461002478663
 30
0.0
 10
90.52041185729857
 20
-119.5909610812132
 30
0.0
  0
SPLINE
  5
44
330
1F
100
AcDbEntity
  8
_U+30EC_U+30A4_U+30E4_U+30FC 1
 62
     7
420
 16777215
370
     9
100
AcDbSpline
210
0.0
220
0.0
230
1.0
 70
    11
 71
     3
 72
    17
 73
    13
 74
     0
 42
0.0000000001
 43
0.0000000001
 12
1.0
 22
0.0
 32
0.0
 13
1.0
 23
0.0
 33
0.0
 40
0.0
 40
0.0
 40
0.0
 40
0.0
 40
1.0
 40
1.0
 40
1.0
 40
2.0
 40
2.0
 40
2.0
 40
3.0
 40
3.0
 40
3.0
 40
4.0
 40
4.0
 40
4.0
 40
4.0
 10
83.5199603692283
 20
-119.5909610812132
 30
0.0
 10
83.5199603692283
 20
-119.5358571923383
 30
0.0
 10
83.4751928703704
 20
-119.4910544145716
 30
0.0
 10
83.42005370511046
 20
-119.4910544145716
 30
0.0
 10
83.36494981762739
 20
-119.4910544145716
 30
0.0
 10
83.32014704099262
 20
-119.5358571923383
 30
0.0
 10
83.32014704099262
 20
-119.5909610812132
 30
0.0
 10
83.32014704099262
 20
-119.6461002478663
 30
0.0
 10
83.36494981762739
 20
-119.6909030256327
 30
0.0
 10
83.42005370511046
 20
-119.6909030256327
 30
0.0
 10
83.4751928703704
 20
-119.6909030256327
 30
0.0
 10
83.5199603692283
 20
-119.6461002478663
 30
0.0
 10
83.5199603692283
 20
-119.5909610812132
 30
0.0
  0
POLYLINE
  5
45
330
1F
100
AcDbEntity
  8
_U+30EC_U+30A4_U+30E4_U+30FC 1
 62
     7
420
 16777215
370
     9
100
AcDb2dPolyline
 66
     1
 10
0.0
 20
0.0
 30
0.0
  0
VERTEX
  5
46
330
45
100
AcDbEntity
  8
_U+30EC_U+30A4_U+30E4_U+30FC 1
 62
     7
420
 16777215
370
     9
100
AcDbVertex
100
AcDb2dVertex
 10
83.42005370511046
 20
-121.0510024697373
 30
0.0
  0
VERTEX
  5
47
330
45
100
AcDbEntity
  8
_U+30EC_U+30A4_U+30E4_U+30FC 1
 62
     7
420
 16777215
370
     9
100
AcDbVertex
100
AcDb2dVertex
 10
83.42005370511046
 20
-118.5912241370189
 30
0.0
  0
SEQEND
  5
48
330
45
100
AcDbEntity
  8
_U+30EC_U+30A4_U+30E4_U+30FC 1
 62
     7
420
 16777215
370
     9
  0
POLYLINE
  5
49
330
1F
100
AcDbEntity
  8
_U+30EC_U+30A4_U+30E4_U+30FC 1
 62
     7
420
 16777215
370
     9
100
AcDb2dPolyline
 66
     1
 10
0.0
 20
0.0
 30
0.0
  0
VERTEX
  5
4A
330
49
100
AcDbEntity
  8
_U+30EC_U+30A4_U+30E4_U+30FC 1
 62
     7
420
 16777215
370
     9
100
AcDbVertex
100
AcDb2dVertex
 10
83.42075926064801
 20
-119.5909610812132
 30
0.0
  0
VERTEX
  5
4B
330
49
100
AcDbEntity
  8
_U+30EC_U+30A4_U+30E4_U+30FC 1
 62
     7
420
 16777215
370
     9
100
AcDbVertex
100
AcDb2dVertex
 10
90.42050519318073
 20
-119.5909610812132
 30
0.0
  0
SEQEND
  5
4C
330
49
100
AcDbEntity
  8
_U+30EC_U+30A4_U+30E4_U+30FC 1
 62
     7
420
 16777215
370
     9
  0
POLYLINE
  5
4D
330
1F
100
AcDbEntity
  8
_U+30EC_U+30A4_U+30E4_U+30FC 1
 62
     7
420
 16777215
370
     9
100
AcDb2dPolyline
 66
     1
 10
0.0
 20
0.0
 30
0.0
  0
VERTEX
  5
4E
330
4D
100
AcDbEntity
  8
_U+30EC_U+30A4_U+30E4_U+30FC 1
 62
     7
420
 16777215
370
     9
100
AcDbVertex
100
AcDb2dVertex
 10
90.42050519318073
 20
-126.4329449683918
 30
0.0
  0
VERTEX
  5
4F
330
4D
100
AcDbEntity
  8
_U+30EC_U+30A4_U+30E4_U+30FC 1
 62
     7
420
 16777215
370
     9
100
AcDbVertex
100
AcDb2dVertex
 10
90.42050519318073
 20
-118.5912241370189
 30
0.0
  0
SEQEND
  5
50
330
4D
100
AcDbEntity
  8
_U+30EC_U+30A4_U+30E4_U+30FC 1
 62
     7
420
 16777215
370
     9
  0
INSERT
  5
52
330
1F
100
AcDbEntity
  8
_U+30EC_U+30A4_U+30E4_U+30FC 1
100
AcDbBlockReference
  2
block 2
 10
0.0
 20
0.0
 30
0.0
  0
POLYLINE
  5
57
330
1F
100
AcDbEntity
  8
_U+30EC_U+30A4_U+30E4_U+30FC 1
 62
     7
420
 16777215
370
    25
100
AcDb2dPolyline
 66
     1
 10
0.0
 20
0.0
 30
0.0
  0
VERTEX
  5
58
330
57
100
AcDbEntity
  8
_U+30EC_U+30A4_U+30E4_U+30FC 1
 62
     7
420
 16777215
370
    25
100
AcDbVertex
100
AcDb2dVertex
 10
83.32014704099262
 20
-134.2664107997668
 30
0.0
  0
VERTEX
  5
59
330
57
100
AcDbEntity
  8
_U+30EC_U+30A4_U+30E4_U+30FC 1
 62
     7
420
 16777215
370
    25
100
AcDbVertex
100
AcDb2dVertex
 10
90.32024575129412
 20
-134.2664107997668
 30
0.0
  0
SEQEND
  5
5A
330
57
100
AcDbEntity
  8
_U+30EC_U+30A4_U+30E4_U+30FC 1
 62
     7
420
 16777215
370
    25
  0
POLYLINE
  5
5B
330
1F
100
AcDbEntity
  8
_U+30EC_U+30A4_U+30E4_U+30FC 1
 62
     7
420
 16777215
370
    25
100
AcDb2dPolyline
 66
     1
 10
0.0
 20
0.0
 30
0.0
  0
VERTEX
  5
5C
330
5B
100
AcDbEntity
  8
_U+30EC_U+30A4_U+30E4_U+30FC 1
 62
     7
420
 16777215
370
    25
100
AcDbVertex
100
AcDb2dVertex
 10
83.32014704099262
 20
-130.7668552450861
 30
0.0
  0
VERTEX
  5
5D
330
5B
100
AcDbEntity
  8
_U+30EC_U+30A4_U+30E4_U+30FC 1
 62
     7
420
 16777215
370
    25
100
AcDbVertex
100
AcDb2dVertex
 10
90.32024575129412
 20
-130.7668552450861
 30
0.0
  0
SEQEND
  5
5E
330
5B
100
AcDbEntity
  8
_U+30EC_U+30A4_U+30E4_U+30FC 1
 62
     7
420
 16777215
370
    25
  0
POLYLINE
  5
5F
330
1F
100
AcDbEntity
  8
_U+30EC_U+30A4_U+30E4_U+30FC 1
 62
     7
420
 16777215
370
    25
100
AcDb2dPolyline
 66
     1
 10
0.0
 20
0.0
 30
0.0
  0
VERTEX
  5
60
330
5F
100
AcDbEntity
  8
_U+30EC_U+30A4_U+30E4_U+30FC 1
 62
     7
420
 16777215
370
    25
100
AcDbVertex
100
AcDb2dVertex
 10
83.32014704099262
 20
-135.2661477439612
 30
0.0
  0
VERTEX
  5
61
330
5F
100
AcDbEntity
  8
_U+30EC_U+30A4_U+30E4_U+30FC 1
 62
     7
420
 16777215
370
    25
100
AcDbVertex
100
AcDb2dVertex
 10
98.32025776941903
 20
-135.2661477439612
 30
0.0
  0
SEQEND
  5
62
330
5F
100
AcDbEntity
  8
_U+30EC_U+30A4_U+30E4_U+30FC 1
 62
     7
420
 16777215
370
    25
  0
POLYLINE
  5
63
330
1F
100
AcDbEntity
  8
_U+30EC_U+30A4_U+30E4_U+30FC 1
 62
     7
420
 16777215
370
    25
100
AcDb2dPolyline
 66
     1
 10
0.0
 20
0.0
 30
0.0
  0
VERTEX
  5
64
330
63
100
AcDbEntity
  8
_U+30EC_U+30A4_U+30E4_U+30FC 1
 62
     7
420
 16777215
370
    25
100
AcDbVertex
100
AcDb2dVertex
 10
82.31970456651604
 20
-122.766666635975
 30
0.0
  0
VERTEX
  5
65
330
63
100
AcDbEntity
  8
_U+30EC_U+30A4_U+30E4_U+30FC 1
 62
     7
420
 16777215
370
    25
100
AcDbVertex
100
AcDb2dVertex
 10
82.31970456651604
 20
-134.2664107997668
 30
0.0
  0
SEQEND
  5
66
330
63
100
AcDbEntity
  8
_U+30EC_U+30A4_U+30E4_U+30FC 1
 62
     7
420
 16777215
370
    25
  0
POLYLINE
  5
67
330
1F
100
AcDbEntity
  8
_U+30EC_U+30A4_U+30E4_U+30FC 1
 62
     7
420
 16777215
370
    25
100
AcDb2dPolyline
 66
     1
 10
0.0
 20
0.0
 30
0.0
  0
VERTEX
  5
68
330
67
100
AcDbEntity
  8
_U+30EC_U+30A4_U+30E4_U+30FC 1
 62
     7
420
 16777215
370
    25
100
AcDbVertex
100
AcDb2dVertex
 10
83.32014704099262
 20
-123.7664388579472
 30
0.0
  0
VERTEX
  5
69
330
67
100
AcDbEntity
  8
_U+30EC_U+30A4_U+30E4_U+30FC 1
 62
     7
420
 16777215
370
    25
100
AcDbVertex
100
AcDb2dVertex
 10
83.32014704099262
 20
-129.7664127453362
 30
0.0
  0
SEQEND
  5
6A
330
67
100
AcDbEntity
  8
_U+30EC_U+30A4_U+30E4_U+30FC 1
 62
     7
420
 16777215
370
    25
  0
POLYLINE
  5
6B
330
1F
100
AcDbEntity
  8
_U+30EC_U+30A4_U+30E4_U+30FC 1
 62
     7
420
 16777215
370
    25
100
AcDb2dPolyline
 66
     1
 10
0.0
 20
0.0
 30
0.0
  0
VERTEX
  5
6C
330
6B
100
AcDbEntity
  8
_U+30EC_U+30A4_U+30E4_U+30FC 1
 62
     7
420
 16777215
370
    25
100
AcDbVertex
100
AcDb2dVertex
 10
83.32014704099262
 20
-129.7664127453362
 30
0.0
  0
VERTEX
  5
6D
330
6B
100
AcDbEntity
  8
_U+30EC_U+30A4_U+30E4_U+30FC 1
 62
     7
420
 16777215
370
    25
100
AcDbVertex
100
AcDb2dVertex
 10
89.32012077680943
 20
-129.7664127453362
 30
0.0
  0
SEQEND
  5
6E
330
6B
100
AcDbEntity
  8
_U+30EC_U+30A4_U+30E4_U+30FC 1
 62
     7
420
 16777215
370
    25
  0
POLYLINE
  5
6F
330
1F
100
AcDbEntity
  8
_U+30EC_U+30A4_U+30E4_U+30FC 1
 62
     7
420
 16777215
370
    25
100
AcDb2dPolyline
 66
     1
 10
0.0
 20
0.0
 30
0.0
  0
VERTEX
  5
70
330
6F
100
AcDbEntity
  8
_U+30EC_U+30A4_U+30E4_U+30FC 1
 62
     7
420
 16777215
370
    25
100
AcDbVertex
100
AcDb2dVertex
 10
83.32014704099262
 20
-130.7668552450861
 30
0.0
  0
VERTEX
  5
71
330
6F
100
AcDbEntity
  8
_U+30EC_U+30A4_U+30E4_U+30FC 1
 62
     7
420
 16777215
370
    25
100
AcDbVertex
100
AcDb2dVertex
 10
83.32014704099262
 20
-134.2664107997668
 30
0.0
  0
SEQEND
  5
72
330
6F
100
AcDbEntity
  8
_U+30EC_U+30A4_U+30E4_U+30FC 1
 62
     7
420
 16777215
370
    25
  0
POLYLINE
  5
73
330
1F
100
AcDbEntity
  8
_U+30EC_U+30A4_U+30E4_U+30FC 1
 62
     7
420
 16777215
370
    25
100
AcDb2dPolyline
 66
     1
 10
0.0
 20
0.0
 30
0.0
  0
VERTEX
  5
74
330
73
100
AcDbEntity
  8
_U+30EC_U+30A4_U+30E4_U+30FC 1
 62
     7
420
 16777215
370
    25
100
AcDbVertex
100
AcDb2dVertex
 10
90.66646185357251
 20
-134.4662241330501
 30
0.0
  0
VERTEX
  5
75
330
73
100
AcDbEntity
  8
_U+30EC_U+30A4_U+30E4_U+30FC 1
 62
     7
420
 16777215
370
    25
100
AcDbVertex
100
AcDb2dVertex
 10
97.5202989009388
 20
-134.4662241330501
 30
0.0
  0
SEQEND
  5
76
330
73
100
AcDbEntity
  8
_U+30EC_U+30A4_U+30E4_U+30FC 1
 62
     7
420
 16777215
370
    25
  0
POLYLINE
  5
77
330
1F
100
AcDbEntity
  8
_U+30EC_U+30A4_U+30E4_U+30FC 1
 62
     7
420
 16777215
370
    25
100
AcDb2dPolyline
 66
     1
 10
0.0
 20
0.0
 30
0.0
  0
VERTEX
  5
78
330
77
100
AcDbEntity
  8
_U+30EC_U+30A4_U+30E4_U+30FC 1
 62
     7
420
 16777215
370
    25
100
AcDbVertex
100
AcDb2dVertex
 10
90.32024575129412
 20
-134.2664107997668
 30
0.0
  0
VERTEX
  5
79
330
77
100
AcDbEntity
  8
_U+30EC_U+30A4_U+30E4_U+30FC 1
 62
     7
420
 16777215
370
    25
100
AcDbVertex
100
AcDb2dVertex
 10
90.6668146313413
 20
-134.4662241330501
 30
0.0
  0
SEQEND
  5
7A
330
77
100
AcDbEntity
  8
_U+30EC_U+30A4_U+30E4_U+30FC 1
 62
     7
420
 16777215
370
    25
  0
SPLINE
  5
7B
330
1F
100
AcDbEntity
  8
_U+30EC_U+30A4_U+30E4_U+30FC 1
 62
     7
420
 16777215
370
    25
100
AcDbSpline
210
0.0
220
0.0
230
1.0
 70
     8
 71
     3
 72
     8
 73
     4
 74
     0
 42
0.0000000001
 43
0.0000000001
 12
1.0
 22
0.0
 32
0.0
 13
1.0
 23
0.0
 33
0.0
 40
0.0
 40
0.0
 40
0.0
 40
0.0
 40
1.0
 40
1.0
 40
1.0
 40
1.0
 10
82.31970456651604
 20
-134.2664107997668
 30
0.0
 10
82.31970456651604
 20
-134.8190019107397
 30
0.0
 10
82.76755594397929
 20
-135.2661477439612
 30
0.0
 10
83.32014704099262
 20
-135.2661477439612
 30
0.0
  0
SPLINE
  5
7C
330
1F
100
AcDbEntity
  8
_U+30EC_U+30A4_U+30E4_U+30FC 1
 62
     7
420
 16777215
370
     9
100
AcDbSpline
210
0.0
220
0.0
230
1.0
 70
    11
 71
     3
 72
    17
 73
    13
 74
     0
 42
0.0000000001
 43
0.0000000001
 12
1.0
 22
0.0
 32
0.0
 13
1.0
 23
0.0
 33
0.0
 40
0.0
 40
0.0
 40
0.0
 40
0.0
 40
1.0
 40
1.0
 40
1.0
 40
2.0
 40
2.0
 40
2.0
 40
3.0
 40
3.0
 40
3.0
 40
4.0
 40
4.0
 40
4.0
 40
4.0
 10
82.42028150839455
 20
-125.7666535796694
 30
0.0
 10
82.42028150839455
 20
-125.7115496907944
 30
0.0
 10
82.37551400953666
 20
-125.6667469130277
 30
0.0
 10
82.31970456651604
 20
-125.6667469130277
 30
0.0
 10
82.26456540125609
 20
-125.6667469130277
 30
0.0
 10
82.21979997944516
 20
-125.7115496907944
 30
0.0
 10
82.21979997944516
 20
-125.7666535796694
 30
0.0
 10
82.21979997944516
 20
-125.8217927463224
 30
0.0
 10
82.26456540125609
 20
-125.866560246311
 30
0.0
 10
82.31970456651604
 20
-125.866560246311
 30
0.0
 10
82.37551400953666
 20
-125.866560246311
 30
0.0
 10
82.42028150839455
 20
-125.8217927463224
 30
0.0
 10
82.42028150839455
 20
-125.7666535796694
 30
0.0
  0
SPLINE
  5
7D
330
1F
100
AcDbEntity
  8
_U+30EC_U+30A4_U+30E4_U+30FC 1
 62
     7
420
 16777215
370
     9
100
AcDbSpline
210
0.0
220
0.0
230
1.0
 70
    11
 71
     3
 72
    17
 73
    13
 74
     0
 42
0.0000000001
 43
0.0000000001
 12
1.0
 22
0.0
 32
0.0
 13
1.0
 23
0.0
 33
0.0
 40
0.0
 40
0.0
 40
0.0
 40
0.0
 40
1.0
 40
1.0
 40
1.0
 40
2.0
 40
2.0
 40
2.0
 40
3.0
 40
3.0
 40
3.0
 40
4.0
 40
4.0
 40
4.0
 40
4.0
 10
83.42005370511046
 20
-125.7666535796694
 30
0.0
 10
83.42005370511046
 20
-125.7115496907944
 30
0.0
 10
83.37528620625257
 20
-125.6667469130277
 30
0.0
 10
83.32014704099262
 20
-125.6667469130277
 30
0.0
 10
83.26504315350955
 20
-125.6667469130277
 30
0.0
 10
83.22024037687478
 20
-125.7115496907944
 30
0.0
 10
83.22024037687478
 20
-125.7666535796694
 30
0.0
 10
83.22024037687478
 20
-125.8217927463224
 30
0.0
 10
83.26504315350955
 20
-125.866560246311
 30
0.0
 10
83.32014704099262
 20
-125.866560246311
 30
0.0
 10
83.37528620625257
 20
-125.866560246311
 30
0.0
 10
83.42005370511046
 20
-125.8217927463224
 30
0.0
 10
83.42005370511046
 20
-125.7666535796694
 30
0.0
  0
SPLINE
  5
7E
330
1F
100
AcDbEntity
  8
_U+30EC_U+30A4_U+30E4_U+30FC 1
 62
     7
420
 16777215
370
     9
100
AcDbSpline
210
0.0
220
0.0
230
1.0
 70
    11
 71
     3
 72
    17
 73
    13
 74
     0
 42
0.0000000001
 43
0.0000000001
 12
1.0
 22
0.0
 32
0.0
 13
1.0
 23
0.0
 33
0.0
 40
0.0
 40
0.0
 40
0.0
 40
0.0
 40
1.0
 40
1.0
 40
1.0
 40
2.0
 40
2.0
 40
2.0
 40
3.0
 40
3.0
 40
3.0
 40
4.0
 40
4.0
 40
4.0
 40
4.0
 10
98.42016443353687
 20
-139.2666124651836
 30
0.0
 10
98.42016443353687
 20
-139.2114732985305
 30
0.0
 10
98.37539693467897
 20
-139.166705798542
 30
0.0
 10
98.32025776941903
 20
-139.166705798542
 30
0.0
 10
98.26515388193596
 20
-139.166705798542
 30
0.0
 10
98.22035110530119
 20
-139.2114732985305
 30
0.0
 10
98.22035110530119
 20
-139.2666124651836
 30
0.0
 10
98.22035110530119
 20
-139.3217163540585
 30
0.0
 10
98.26515388193596
 20
-139.3665191318252
 30
0.0
 10
98.32025776941903
 20
-139.3665191318252
 30
0.0
 10
98.37539693467897
 20
-139.3665191318252
 30
0.0
 10
98.42016443353687
 20
-139.3217163540585
 30
0.0
 10
98.42016443353687
 20
-139.2666124651836
 30
0.0
  0
SPLINE
  5
7F
330
1F
100
AcDbEntity
  8
_U+30EC_U+30A4_U+30E4_U+30FC 1
 62
     7
420
 16777215
370
     9
100
AcDbSpline
210
0.0
220
0.0
230
1.0
 70
    11
 71
     3
 72
    17
 73
    13
 74
     0
 42
0.0000000001
 43
0.0000000001
 12
1.0
 22
0.0
 32
0.0
 13
1.0
 23
0.0
 33
0.0
 40
0.0
 40
0.0
 40
0.0
 40
0.0
 40
1.0
 40
1.0
 40
1.0
 40
2.0
 40
2.0
 40
2.0
 40
3.0
 40
3.0
 40
3.0
 40
4.0
 40
4.0
 40
4.0
 40
4.0
 10
82.42028150839455
 20
-139.2666124651836
 30
0.0
 10
82.42028150839455
 20
-139.2114732985305
 30
0.0
 10
82.37551400953666
 20
-139.166705798542
 30
0.0
 10
82.31970456651604
 20
-139.166705798542
 30
0.0
 10
82.26456540125609
 20
-139.166705798542
 30
0.0
 10
82.21979997944516
 20
-139.2114732985305
 30
0.0
 10
82.21979997944516
 20
-139.2666124651836
 30
0.0
 10
82.21979997944516
 20
-139.3217163540585
 30
0.0
 10
82.26456540125609
 20
-139.3665191318252
 30
0.0
 10
82.31970456651604
 20
-139.3665191318252
 30
0.0
 10
82.37551400953666
 20
-139.3665191318252
 30
0.0
 10
82.42028150839455
 20
-139.3217163540585
 30
0.0
 10
82.42028150839455
 20
-139.2666124651836
 30
0.0
  0
SPLINE
  5
80
330
1F
100
AcDbEntity
  8
_U+30EC_U+30A4_U+30E4_U+30FC 1
 62
     7
420
 16777215
370
    25
100
AcDbSpline
210
0.0
220
0.0
230
1.0
 70
     8
 71
     3
 72
     8
 73
     4
 74
     0
 42
0.0000000001
 43
0.0000000001
 12
1.0
 22
0.0
 32
0.0
 13
1.0
 23
0.0
 33
0.0
 40
0.0
 40
0.0
 40
0.0
 40
0.0
 40
1.0
 40
1.0
 40
1.0
 40
1.0
 10
83.32014704099262
 20
-123.7664388579472
 30
0.0
 10
83.32014704099262
 20
-123.2145180247521
 30
0.0
 10
82.87229566352937
 20
-122.766666635975
 30
0.0
 10
82.31970456651604
 20
-122.766666635975
 30
0.0
  0
SPLINE
  5
81
330
1F
100
AcDbEntity
  8
_U+30EC_U+30A4_U+30E4_U+30FC 1
 62
     7
420
 16777215
370
    25
100
AcDbSpline
210
0.0
220
0.0
230
1.0
 70
     8
 71
     3
 72
     8
 73
     4
 74
     0
 42
0.0000000001
 43
0.0000000001
 12
1.0
 22
0.0
 32
0.0
 13
1.0
 23
0.0
 33
0.0
 40
0.0
 40
0.0
 40
0.0
 40
0.0
 40
1.0
 40
1.0
 40
1.0
 40
1.0
 10
90.31989297352534
 20
-130.7668552450861
 30
0.0
 10
90.31989297352534
 20
-130.2142641341133
 30
0.0
 10
89.87204159606209
 20
-129.7664127453362
 30
0.0
 10
89.32012077680943
 20
-129.7664127453362
 30
0.0
  0
SPLINE
  5
82
330
1F
100
AcDbEntity
  8
_U+30EC_U+30A4_U+30E4_U+30FC 1
 62
     7
420
 16777215
370
    25
100
AcDbSpline
210
0.0
220
0.0
230
1.0
 70
     8
 71
     3
 72
     8
 73
     4
 74
     0
 42
0.0000000001
 43
0.0000000001
 12
1.0
 22
0.0
 32
0.0
 13
1.0
 23
0.0
 33
0.0
 40
0.0
 40
0.0
 40
0.0
 40
0.0
 40
1.0
 40
1.0
 40
1.0
 40
1.0
 10
98.32025776941903
 20
-135.2661477439612
 30
0.0
 10
98.32025776941903
 20
-134.8245052440719
 30
0.0
 10
97.96197666744843
 20
-134.4662241330501
 30
0.0
 10
97.5202989009388
 20
-134.4662241330501
 30
0.0
  0
SPLINE
  5
83
330
1F
100
AcDbEntity
  8
_U+30EC_U+30A4_U+30E4_U+30FC 1
 62
     7
420
 16777215
370
     9
100
AcDbSpline
210
0.0
220
0.0
230
1.0
 70
    11
 71
     3
 72
    17
 73
    13
 74
     0
 42
0.0000000001
 43
0.0000000001
 12
1.0
 22
0.0
 32
0.0
 13
1.0
 23
0.0
 33
0.0
 40
0.0
 40
0.0
 40
0.0
 40
0.0
 40
1.0
 40
1.0
 40
1.0
 40
2.0
 40
2.0
 40
2.0
 40
3.0
 40
3.0
 40
3.0
 40
4.0
 40
4.0
 40
4.0
 40
4.0
 10
78.41985216600956
 20
-122.766666635975
 30
0.0
 10
78.41985216600956
 20
-122.7115627470998
 30
0.0
 10
78.3750493893748
 20
-122.6667599693334
 30
0.0
 10
78.31994550189172
 20
-122.6667599693334
 30
0.0
 10
78.26480831376716
 20
-122.6667599693334
 30
0.0
 10
78.22003883777388
 20
-122.7115627470998
 30
0.0
 10
78.22003883777388
 20
-122.766666635975
 30
0.0
 10
78.22003883777388
 20
-122.8218058026278
 30
0.0
 10
78.26480831376716
 20
-122.8665733026166
 30
0.0
 10
78.31994550189172
 20
-122.8665733026166
 30
0.0
 10
78.3750493893748
 20
-122.8665733026166
 30
0.0
 10
78.41985216600956
 20
-122.8218058026278
 30
0.0
 10
78.41985216600956
 20
-122.766666635975
 30
0.0
  0
SPLINE
  5
84
330
1F
100
AcDbEntity
  8
_U+30EC_U+30A4_U+30E4_U+30FC 1
 62
     7
420
 16777215
370
     9
100
AcDbSpline
210
0.0
220
0.0
230
1.0
 70
    11
 71
     3
 72
    17
 73
    13
 74
     0
 42
0.0000000001
 43
0.0000000001
 12
1.0
 22
0.0
 32
0.0
 13
1.0
 23
0.0
 33
0.0
 40
0.0
 40
0.0
 40
0.0
 40
0.0
 40
1.0
 40
1.0
 40
1.0
 40
2.0
 40
2.0
 40
2.0
 40
3.0
 40
3.0
 40
3.0
 40
4.0
 40
4.0
 40
4.0
 40
4.0
 10
78.41985216600956
 20
-135.2661477439612
 30
0.0
 10
78.41985216600956
 20
-135.2110438550863
 30
0.0
 10
78.3750493893748
 20
-135.1662410773196
 30
0.0
 10
78.31994550189172
 20
-135.1662410773196
 30
0.0
 10
78.26480831376716
 20
-135.1662410773196
 30
0.0
 10
78.22003883777388
 20
-135.2110438550863
 30
0.0
 10
78.22003883777388
 20
-135.2661477439612
 30
0.0
 10
78.22003883777388
 20
-135.3219571883917
 30
0.0
 10
78.26480831376716
 20
-135.3667599661584
 30
0.0
 10
78.31994550189172
 20
-135.3667599661584
 30
0.0
 10
78.3750493893748
 20
-135.3667599661584
 30
0.0
 10
78.41985216600956
 20
-135.3219571883917
 30
0.0
 10
78.41985216600956
 20
-135.2661477439612
 30
0.0
  0
SPLINE
  5
85
330
1F
100
AcDbEntity
  8
_U+30EC_U+30A4_U+30E4_U+30FC 1
 62
     7
420
 16777215
370
     9
100
AcDbSpline
210
0.0
220
0.0
230
1.0
 70
    11
 71
     3
 72
    17
 73
    13
 74
     0
 42
0.0000000001
 43
0.0000000001
 12
1.0
 22
0.0
 32
0.0
 13
1.0
 23
0.0
 33
0.0
 40
0.0
 40
0.0
 40
0.0
 40
0.0
 40
1.0
 40
1.0
 40
1.0
 40
2.0
 40
2.0
 40
2.0
 40
3.0
 40
3.0
 40
3.0
 40
4.0
 40
4.0
 40
4.0
 40
4.0
 10
102.4199234981612
 20
-122.766666635975
 30
0.0
 10
102.4199234981612
 20
-122.7115627470998
 30
0.0
 10
102.3751559993033
 20
-122.6667599693334
 30
0.0
 10
102.3200194188642
 20
-122.6667599693334
 30
0.0
 10
102.2649129465603
 20
-122.6667599693334
 30
0.0
 10
102.2201101699255
 20
-122.7115627470998
 30
0.0
 10
102.2201101699255
 20
-122.766666635975
 30
0.0
 10
102.2201101699255
 20
-122.8218058026278
 30
0.0
 10
102.2649129465603
 20
-122.8665733026166
 30
0.0
 10
102.3200194188642
 20
-122.8665733026166
 30
0.0
 10
102.3751559993033
 20
-122.8665733026166
 30
0.0
 10
102.4199234981612
 20
-122.8218058026278
 30
0.0
 10
102.4199234981612
 20
-122.766666635975
 30
0.0
  0
SPLINE
  5
86
330
1F
100
AcDbEntity
  8
_U+30EC_U+30A4_U+30E4_U+30FC 1
 62
     7
420
 16777215
370
     9
100
AcDbSpline
210
0.0
220
0.0
230
1.0
 70
    11
 71
     3
 72
    17
 73
    13
 74
     0
 42
0.0000000001
 43
0.0000000001
 12
1.0
 22
0.0
 32
0.0
 13
1.0
 23
0.0
 33
0.0
 40
0.0
 40
0.0
 40
0.0
 40
0.0
 40
1.0
 40
1.0
 40
1.0
 40
2.0
 40
2.0
 40
2.0
 40
3.0
 40
3.0
 40
3.0
 40
4.0
 40
4.0
 40
4.0
 40
4.0
 10
102.4199234981612
 20
-130.7668552450861
 30
0.0
 10
102.4199234981612
 20
-130.7110458006557
 30
0.0
 10
102.3751559993033
 20
-130.6662783006665
 30
0.0
 10
102.3200194188642
 20
-130.6662783006665
 30
0.0
 10
102.2649129465603
 20
-130.6662783006665
 30
0.0
 10
102.2201101699255
 20
-130.7110458006557
 30
0.0
 10
102.2201101699255
 20
-130.7668552450861
 30
0.0
 10
102.2201101699255
 20
-130.8219944117392
 30
0.0
 10
102.2649129465603
 20
-130.8667619117278
 30
0.0
 10
102.3200194188642
 20
-130.8667619117278
 30
0.0
 10
102.3751559993033
 20
-130.8667619117278
 30
0.0
 10
102.4199234981612
 20
-130.8219944117392
 30
0.0
 10
102.4199234981612
 20
-130.7668552450861
 30
0.0
  0
SPLINE
  5
87
330
1F
100
AcDbEntity
  8
_U+30EC_U+30A4_U+30E4_U+30FC 1
 62
     7
420
 16777215
370
     9
100
AcDbSpline
210
0.0
220
0.0
230
1.0
 70
    11
 71
     3
 72
    17
 73
    13
 74
     0
 42
0.0000000001
 43
0.0000000001
 12
1.0
 22
0.0
 32
0.0
 13
1.0
 23
0.0
 33
0.0
 40
0.0
 40
0.0
 40
0.0
 40
0.0
 40
1.0
 40
1.0
 40
1.0
 40
2.0
 40
2.0
 40
2.0
 40
3.0
 40
3.0
 40
3.0
 40
4.0
 40
4.0
 40
4.0
 40
4.0
 10
102.4199234981612
 20
-134.2664107997668
 30
0.0
 10
102.4199234981612
 20
-134.2112716331137
 30
0.0
 10
102.3751559993033
 20
-134.1665041331252
 30
0.0
 10
102.3200194188642
 20
-134.1665041331252
 30
0.0
 10
102.2649129465603
 20
-134.1665041331252
 30
0.0
 10
102.2201101699255
 20
-134.2112716331137
 30
0.0
 10
102.2201101699255
 20
-134.2664107997668
 30
0.0
 10
102.2201101699255
 20
-134.3215146886417
 30
0.0
 10
102.2649129465603
 20
-134.3663174664085
 30
0.0
 10
102.3200194188642
 20
-134.3663174664085
 30
0.0
 10
102.3751559993033
 20
-134.3663174664085
 30
0.0
 10
102.4199234981612
 20
-134.3215146886417
 30
0.0
 10
102.4199234981612
 20
-134.2664107997668
 30
0.0
  0
POLYLINE
  5
88
330
1F
100
AcDbEntity
  8
_U+30EC_U+30A4_U+30E4_U+30FC 1
 62
     7
420
 16777215
370
     9
100
AcDb2dPolyline
 66
     1
 10
0.0
 20
0.0
 30
0.0
  0
VERTEX
  5
89
330
88
100
AcDbEntity
  8
_U+30EC_U+30A4_U+30E4_U+30FC 1
 62
     7
420
 16777215
370
     9
100
AcDbVertex
100
AcDb2dVertex
 10
83.32014704099262
 20
-125.7666535796694
 30
0.0
  0
VERTEX
  5
8A
330
88
100
AcDbEntity
  8
_U+30EC_U+30A4_U+30E4_U+30FC 1
 62
     7
420
 16777215
370
     9
100
AcDbVertex
100
AcDb2dVertex
 10
87.09045944480394
 20
-125.7666535796694
 30
0.0
  0
SEQEND
  5
8B
330
88
100
AcDbEntity
  8
_U+30EC_U+30A4_U+30E4_U+30FC 1
 62
     7
420
 16777215
370
     9
  0
POLYLINE
  5
8C
330
1F
100
AcDbEntity
  8
_U+30EC_U+30A4_U+30E4_U+30FC 1
 62
     7
420
 16777215
370
     9
100
AcDb2dPolyline
 66
     1
 10
0.0
 20
0.0
 30
0.0
  0
VERTEX
  5
8D
330
8C
100
AcDbEntity
  8
_U+30EC_U+30A4_U+30E4_U+30FC 1
 62
     7
420
 16777215
370
     9
100
AcDbVertex
100
AcDb2dVertex
 10
81.31993236980013
 20
-125.7666535796694
 30
0.0
  0
VERTEX
  5
8E
330
8C
100
AcDbEntity
  8
_U+30EC_U+30A4_U+30E4_U+30FC 1
 62
     7
420
 16777215
370
     9
100
AcDbVertex
100
AcDb2dVertex
 10
83.32014704099262
 20
-125.7666535796694
 30
0.0
  0
SEQEND
  5
8F
330
8C
100
AcDbEntity
  8
_U+30EC_U+30A4_U+30E4_U+30FC 1
 62
     7
420
 16777215
370
     9
  0
INSERT
  5
91
330
1F
100
AcDbEntity
  8
_U+30EC_U+30A4_U+30E4_U+30FC 1
100
AcDbBlockReference
  2
block 3
 10
0.0
 20
0.0
 30
0.0
  0
POLYLINE
  5
96
330
1F
100
AcDbEntity
  8
_U+30EC_U+30A4_U+30E4_U+30FC 1
 62
     7
420
 16777215
370
     9
100
AcDb2dPolyline
 66
     1
 10
0.0
 20
0.0
 30
0.0
  0
VERTEX
  5
97
330
96
100
AcDbEntity
  8
_U+30EC_U+30A4_U+30E4_U+30FC 1
 62
     7
420
 16777215
370
     9
100
AcDbVertex
100
AcDb2dVertex
 10
102.3200194188642
 20
-134.2664107997668
 30
0.0
  0
VERTEX
  5
98
330
96
100
AcDbEntity
  8
_U+30EC_U+30A4_U+30E4_U+30FC 1
 62
     7
420
 16777215
370
     9
100
AcDbVertex
100
AcDb2dVertex
 10
102.3200194188642
 20
-130.7668552450861
 30
0.0
  0
SEQEND
  5
99
330
96
100
AcDbEntity
  8
_U+30EC_U+30A4_U+30E4_U+30FC 1
 62
     7
420
 16777215
370
     9
  0
POLYLINE
  5
9A
330
1F
100
AcDbEntity
  8
_U+30EC_U+30A4_U+30E4_U+30FC 1
 62
     7
420
 16777215
370
     9
100
AcDb2dPolyline
 66
     1
 10
0.0
 20
0.0
 30
0.0
  0
VERTEX
  5
9B
330
9A
100
AcDbEntity
  8
_U+30EC_U+30A4_U+30E4_U+30FC 1
 62
     7
420
 16777215
370
     9
100
AcDbVertex
100
AcDb2dVertex
 10
95.85977394330232
 20
-134.2664107997668
 30
0.0
  0
VERTEX
  5
9C
330
9A
100
AcDbEntity
  8
_U+30EC_U+30A4_U+30E4_U+30FC 1
 62
     7
420
 16777215
370
     9
100
AcDbVertex
100
AcDb2dVertex
 10
103.3197916408367
 20
-134.2664107997668
 30
0.0
  0
SEQEND
  5
9D
330
9A
100
AcDbEntity
  8
_U+30EC_U+30A4_U+30E4_U+30FC 1
 62
     7
420
 16777215
370
     9
  0
POLYLINE
  5
9E
330
1F
100
AcDbEntity
  8
_U+30EC_U+30A4_U+30E4_U+30FC 1
 62
     7
420
 16777215
370
     9
100
AcDb2dPolyline
 66
     1
 10
0.0
 20
0.0
 30
0.0
  0
VERTEX
  5
9F
330
9E
100
AcDbEntity
  8
_U+30EC_U+30A4_U+30E4_U+30FC 1
 62
     7
420
 16777215
370
     9
100
AcDbVertex
100
AcDb2dVertex
 10
95.85977394330232
 20
-130.7668552450861
 30
0.0
  0
VERTEX
  5
A0
330
9E
100
AcDbEntity
  8
_U+30EC_U+30A4_U+30E4_U+30FC 1
 62
     7
420
 16777215
370
     9
100
AcDbVertex
100
AcDb2dVertex
 10
103.3197916408367
 20
-130.7668552450861
 30
0.0
  0
SEQEND
  5
A1
330
9E
100
AcDbEntity
  8
_U+30EC_U+30A4_U+30E4_U+30FC 1
 62
     7
420
 16777215
370
     9
  0
SPLINE
  5
A2
330
1F
100
AcDbEntity
  8
_U+30EC_U+30A4_U+30E4_U+30FC 1
 62
     7
420
 16777215
370
     9
100
AcDbSpline
210
0.0
220
0.0
230
1.0
 70
    11
 71
     3
 72
    17
 73
    13
 74
     0
 42
0.0000000001
 43
0.0000000001
 12
1.0
 22
0.0
 32
0.0
 13
1.0
 23
0.0
 33
0.0
 40
0.0
 40
0.0
 40
0.0
 40
0.0
 40
1.0
 40
1.0
 40
1.0
 40
2.0
 40
2.0
 40
2.0
 40
3.0
 40
3.0
 40
3.0
 40
4.0
 40
4.0
 40
4.0
 40
4.0
 10
102.4199234981612
 20
-129.7664127453362
 30
0.0
 10
102.4199234981612
 20
-129.7112735786831
 30
0.0
 10
102.3751559993033
 20
-129.6665060786946
 30
0.0
 10
102.3200194188642
 20
-129.6665060786946
 30
0.0
 10
102.2649129465603
 20
-129.6665060786946
 30
0.0
 10
102.2201101699255
 20
-129.7112735786831
 30
0.0
 10
102.2201101699255
 20
-129.7664127453362
 30
0.0
 10
102.2201101699255
 20
-129.8215166342112
 30
0.0
 10
102.2649129465603
 20
-129.8663194119779
 30
0.0
 10
102.3200194188642
 20
-129.8663194119779
 30
0.0
 10
102.3751559993033
 20
-129.8663194119779
 30
0.0
 10
102.4199234981612
 20
-129.8215166342112
 30
0.0
 10
102.4199234981612
 20
-129.7664127453362
 30
0.0
  0
POLYLINE
  5
A3
330
1F
100
AcDbEntity
  8
_U+30EC_U+30A4_U+30E4_U+30FC 1
 62
     7
420
 16777215
370
     9
100
AcDb2dPolyline
 66
     1
 10
0.0
 20
0.0
 30
0.0
  0
VERTEX
  5
A4
330
A3
100
AcDbEntity
  8
_U+30EC_U+30A4_U+30E4_U+30FC 1
 62
     7
420
 16777215
370
     9
100
AcDbVertex
100
AcDb2dVertex
 10
95.85977394330232
 20
-129.7664127453362
 30
0.0
  0
VERTEX
  5
A5
330
A3
100
AcDbEntity
  8
_U+30EC_U+30A4_U+30E4_U+30FC 1
 62
     7
420
 16777215
370
     9
100
AcDbVertex
100
AcDb2dVertex
 10
103.3197916408367
 20
-129.7664127453362
 30
0.0
  0
SEQEND
  5
A6
330
A3
100
AcDbEntity
  8
_U+30EC_U+30A4_U+30E4_U+30FC 1
 62
     7
420
 16777215
370
     9
  0
INSERT
  5
A8
330
1F
100
AcDbEntity
  8
_U+30EC_U+30A4_U+30E4_U+30FC 1
100
AcDbBlockReference
  2
block 4
 10
0.0
 20
0.0
 30
0.0
  0
POLYLINE
  5
B7
330
1F
100
AcDbEntity
  8
_U+30EC_U+30A4_U+30E4_U+30FC 1
 62
     7
420
 16777215
370
     9
100
AcDb2dPolyline
 66
     1
 10
0.0
 20
0.0
 30
0.0
  0
VERTEX
  5
B8
330
B7
100
AcDbEntity
  8
_U+30EC_U+30A4_U+30E4_U+30FC 1
 62
     7
420
 16777215
370
     9
100
AcDbVertex
100
AcDb2dVertex
 10
102.3200194188642
 20
-130.7668552450861
 30
0.0
  0
VERTEX
  5
B9
330
B7
100
AcDbEntity
  8
_U+30EC_U+30A4_U+30E4_U+30FC 1
 62
     7
420
 16777215
370
     9
100
AcDbVertex
100
AcDb2dVertex
 10
102.3200194188642
 20
-122.766666635975
 30
0.0
  0
SEQEND
  5
BA
330
B7
100
AcDbEntity
  8
_U+30EC_U+30A4_U+30E4_U+30FC 1
 62
     7
420
 16777215
370
     9
  0
POLYLINE
  5
BB
330
1F
100
AcDbEntity
  8
_U+30EC_U+30A4_U+30E4_U+30FC 1
 62
     7
420
 16777215
370
     9
100
AcDb2dPolyline
 66
     1
 10
0.0
 20
0.0
 30
0.0
  0
VERTEX
  5
BC
330
BB
100
AcDbEntity
  8
_U+30EC_U+30A4_U+30E4_U+30FC 1
 62
     7
420
 16777215
370
     9
100
AcDbVertex
100
AcDb2dVertex
 10
84.8600925572609
 20
-122.766666635975
 30
0.0
  0
VERTEX
  5
BD
330
BB
100
AcDbEntity
  8
_U+30EC_U+30A4_U+30E4_U+30FC 1
 62
     7
420
 16777215
370
     9
100
AcDbVertex
100
AcDb2dVertex
 10
103.3197916408367
 20
-122.766666635975
 30
0.0
  0
SEQEND
  5
BE
330
BB
100
AcDbEntity
  8
_U+30EC_U+30A4_U+30E4_U+30FC 1
 62
     7
420
 16777215
370
     9
  0
INSERT
  5
C0
330
1F
100
AcDbEntity
  8
_U+30EC_U+30A4_U+30E4_U+30FC 1
100
AcDbBlockReference
  2
block 5
 10
0.0
 20
0.0
 30
0.0
  0
POLYLINE
  5
C5
330
1F
100
AcDbEntity
  8
_U+30EC_U+30A4_U+30E4_U+30FC 1
 62
     7
420
 16777215
370
     9
100
AcDb2dPolyline
 66
     1
 10
0.0
 20
0.0
 30
0.0
  0
VERTEX
  5
C6
330
C5
100
AcDbEntity
  8
_U+30EC_U+30A4_U+30E4_U+30FC 1
 62
     7
420
 16777215
370
     9
100
AcDbVertex
100
AcDb2dVertex
 10
78.31994550189172
 20
-135.2661477439612
 30
0.0
  0
VERTEX
  5
C7
330
C5
100
AcDbEntity
  8
_U+30EC_U+30A4_U+30E4_U+30FC 1
 62
     7
420
 16777215
370
     9
100
AcDbVertex
100
AcDb2dVertex
 10
78.31994550189172
 20
-122.766666635975
 30
0.0
  0
SEQEND
  5
C8
330
C5
100
AcDbEntity
  8
_U+30EC_U+30A4_U+30E4_U+30FC 1
 62
     7
420
 16777215
370
     9
  0
POLYLINE
  5
C9
330
1F
100
AcDbEntity
  8
_U+30EC_U+30A4_U+30E4_U+30FC 1
 62
     7
420
 16777215
370
     9
100
AcDb2dPolyline
 66
     1
 10
0.0
 20
0.0
 30
0.0
  0
VERTEX
  5
CA
330
C9
100
AcDbEntity
  8
_U+30EC_U+30A4_U+30E4_U+30FC 1
 62
     7
420
 16777215
370
     9
100
AcDbVertex
100
AcDb2dVertex
 10
80.77972377247089
 20
-135.2661477439612
 30
0.0
  0
VERTEX
  5
CB
330
C9
100
AcDbEntity
  8
_U+30EC_U+30A4_U+30E4_U+30FC 1
 62
     7
420
 16777215
370
     9
100
AcDbVertex
100
AcDb2dVertex
 10
77.32017330517581
 20
-135.2661477439612
 30
0.0
  0
SEQEND
  5
CC
330
C9
100
AcDbEntity
  8
_U+30EC_U+30A4_U+30E4_U+30FC 1
 62
     7
420
 16777215
370
     9
  0
POLYLINE
  5
CD
330
1F
100
AcDbEntity
  8
_U+30EC_U+30A4_U+30E4_U+30FC 1
 62
     7
420
 16777215
370
     9
100
AcDb2dPolyline
 66
     1
 10
0.0
 20
0.0
 30
0.0
  0
VERTEX
  5
CE
330
CD
100
AcDbEntity
  8
_U+30EC_U+30A4_U+30E4_U+30FC 1
 62
     7
420
 16777215
370
     9
100
AcDbVertex
100
AcDb2dVertex
 10
79.77995157575498
 20
-122.766666635975
 30
0.0
  0
VERTEX
  5
CF
330
CD
100
AcDbEntity
  8
_U+30EC_U+30A4_U+30E4_U+30FC 1
 62
     7
420
 16777215
370
     9
100
AcDbVertex
100
AcDb2dVertex
 10
77.32017330517581
 20
-122.766666635975
 30
0.0
  0
SEQEND
  5
D0
330
CD
100
AcDbEntity
  8
_U+30EC_U+30A4_U+30E4_U+30FC 1
 62
     7
420
 16777215
370
     9
  0
INSERT
  5
D2
330
1F
100
AcDbEntity
  8
_U+30EC_U+30A4_U+30E4_U+30FC 1
100
AcDbBlockReference
  2
block 6
 10
0.0
 20
0.0
 30
0.0
  0
POLYLINE
  5
E3
330
1F
100
AcDbEntity
  8
_U+30EC_U+30A4_U+30E4_U+30FC 1
 62
     7
420
 16777215
370
     9
100
AcDb2dPolyline
 66
     1
 10
0.0
 20
0.0
 30
0.0
  0
VERTEX
  5
E4
330
E3
100
AcDbEntity
  8
_U+30EC_U+30A4_U+30E4_U+30FC 1
 62
     7
420
 16777215
370
     9
100
AcDbVertex
100
AcDb2dVertex
 10
82.31970456651604
 20
-139.2666124651836
 30
0.0
  0
VERTEX
  5
E5
330
E3
100
AcDbEntity
  8
_U+30EC_U+30A4_U+30E4_U+30FC 1
 62
     7
420
 16777215
370
     9
100
AcDbVertex
100
AcDb2dVertex
 10
98.32025776941903
 20
-139.2666124651836
 30
0.0
  0
SEQEND
  5
E6
330
E3
100
AcDbEntity
  8
_U+30EC_U+30A4_U+30E4_U+30FC 1
 62
     7
420
 16777215
370
     9
  0
POLYLINE
  5
E7
330
1F
100
AcDbEntity
  8
_U+30EC_U+30A4_U+30E4_U+30FC 1
 62
     7
420
 16777215
370
     9
100
AcDb2dPolyline
 66
     1
 10
0.0
 20
0.0
 30
0.0
  0
VERTEX
  5
E8
330
E7
100
AcDbEntity
  8
_U+30EC_U+30A4_U+30E4_U+30FC 1
 62
     7
420
 16777215
370
     9
100
AcDbVertex
100
AcDb2dVertex
 10
82.31970456651604
 20
-136.8061285769094
 30
0.0
  0
VERTEX
  5
E9
330
E7
100
AcDbEntity
  8
_U+30EC_U+30A4_U+30E4_U+30FC 1
 62
     7
420
 16777215
370
     9
100
AcDbVertex
100
AcDb2dVertex
 10
82.31970456651604
 20
-140.2663846871555
 30
0.0
  0
SEQEND
  5
EA
330
E7
100
AcDbEntity
  8
_U+30EC_U+30A4_U+30E4_U+30FC 1
 62
     7
420
 16777215
370
     9
  0
POLYLINE
  5
EB
330
1F
100
AcDbEntity
  8
_U+30EC_U+30A4_U+30E4_U+30FC 1
 62
     7
420
 16777215
370
     9
100
AcDb2dPolyline
 66
     1
 10
0.0
 20
0.0
 30
0.0
  0
VERTEX
  5
EC
330
EB
100
AcDbEntity
  8
_U+30EC_U+30A4_U+30E4_U+30FC 1
 62
     7
420
 16777215
370
     9
100
AcDbVertex
100
AcDb2dVertex
 10
98.32025776941903
 20
-137.8065710766593
 30
0.0
  0
VERTEX
  5
ED
330
EB
100
AcDbEntity
  8
_U+30EC_U+30A4_U+30E4_U+30FC 1
 62
     7
420
 16777215
370
     9
100
AcDbVertex
100
AcDb2dVertex
 10
98.32025776941903
 20
-140.2663846871555
 30
0.0
  0
SEQEND
  5
EE
330
EB
100
AcDbEntity
  8
_U+30EC_U+30A4_U+30E4_U+30FC 1
 62
     7
420
 16777215
370
     9
  0
INSERT
  5
F0
330
1F
100
AcDbEntity
  8
_U+30EC_U+30A4_U+30E4_U+30FC 1
100
AcDbBlockReference
  2
block 7
 10
0.0
 20
0.0
 30
0.0
  0
ENDSEC
  0
SECTION
  2
OBJECTS
  0
DICTIONARY
  5
C
330
0
100
AcDbDictionary
281
     1
  3
ACAD_GROUP
350
D
  3
ACAD_LAYOUT
350
1A
  3
ACAD_MATERIAL
350
3B
  3
ACAD_MLEADERSTYLE
350
F9
  3
ACAD_MLINESTYLE
350
17
  3
ACAD_PLOTSETTINGS
350
19
  3
ACAD_PLOTSTYLENAME
350
E
  3
ACAD_TABLESTYLE
350
F8
  3
ACAD_VISUALSTYLE
350
2A
  0
SUN
  5
3F
330
29
100
AcDbSun
 90
        1
290
     0
 63
     7
421
 16777215
 40
1.0
291
     1
 91
  2455826
 92
 54000000
292
     0
 70
     2
 71
   256
280
     1
  0
DICTIONARY
  5
D
102
{ACAD_REACTORS
330
C
102
}
330
C
100
AcDbDictionary
281
     1
  0
DICTIONARY
  5
1A
102
{ACAD_REACTORS
330
C
102
}
330
C
100
AcDbDictionary
281
     1
  3
Layout1
350
1E
  3
Layout2
350
26
  3
Model
350
22
  0
DICTIONARY
  5
3B
102
{ACAD_REACTORS
330
C
102
}
330
C
100
AcDbDictionary
281
     1
  3
ByBlock
350
3D
  3
ByLayer
350
3C
  3
Global
350
3E
  0
DICTIONARY
  5
F9
102
{ACAD_REACTORS
330
C
102
}
330
C
100
AcDbDictionary
281
     1
  0
DICTIONARY
  5
17
102
{ACAD_REACTORS
330
C
102
}
330
C
100
AcDbDictionary
281
     1
  3
Standard
350
18
  0
DICTIONARY
  5
19
102
{ACAD_REACTORS
330
C
102
}
330
C
100
AcDbDictionary
281
     1
  0
ACDBDICTIONARYWDFLT
  5
E
102
{ACAD_REACTORS
330
C
102
}
330
C
100
AcDbDictionary
281
     1
  3
Normal
350
F
100
AcDbDictionaryWithDefault
340
F
  0
DICTIONARY
  5
F8
102
{ACAD_REACTORS
330
C
102
}
330
C
100
AcDbDictionary
281
     1
  0
DICTIONARY
  5
2A
102
{ACAD_REACTORS
330
C
102
}
330
C
100
AcDbDictionary
281
     1
  3
2dWireframe
350
2F
  3
3D Hidden
350
31
  3
3dWireframe
350
30
  3
Basic
350
32
  3
Brighten
350
36
  3
ColorChange
350
3A
  3
Conceptual
350
34
  3
Dim
350
35
  3
Facepattern
350
39
  3
Flat
350
2B
  3
FlatWithEdges
350
2C
  3
Gouraud
350
2D
  3
GouraudWithEdges
350
2E
  3
Linepattern
350
38
  3
Realistic
350
33
  3
Thicken
350
37
  0
LAYOUT
  5
1E
102
{ACAD_REACTORS
330
1A
102
}
330
1A
100
AcDbPlotSettings
  1

  2
none_device
  4

  6

 40
0.0
 41
0.0
 42
0.0
 43
0.0
 44
0.0
 45
0.0
 46
0.0
 47
0.0
 48
0.0
 49
0.0
140
0.0
141
0.0
142
1.0
143
1.0
 70
   688
 72
     0
 73
     0
 74
     5
  7

 75
    16
 76
     0
 77
     2
 78
   300
147
1.0
148
0.0
149
0.0
100
AcDbLayout
  1
Layout1
 70
     1
 71
     1
 10
0.0
 20
0.0
 11
12.0
 21
9.0
 12
0.0
 22
0.0
 32
0.0
 14
1.000000000000000E+20
 24
1.000000000000000E+20
 34
1.000000000000000E+20
 15
-1.000000000000000E+20
 25
-1.000000000000000E+20
 35
-1.000000000000000E+20
146
0.0
 13
0.0
 23
0.0
 33
0.0
 16
1.0
 26
0.0
 36
0.0
 17
0.0
 27
1.0
 37
0.0
 76
     0
330
1B
  0
LAYOUT
  5
26
102
{ACAD_REACTORS
330
1A
102
}
330
1A
100
AcDbPlotSettings
  1

  2
none_device
  4

  6

 40
0.0
 41
0.0
 42
0.0
 43
0.0
 44
0.0
 45
0.0
 46
0.0
 47
0.0
 48
0.0
 49
0.0
140
0.0
141
0.0
142
1.0
143
1.0
 70
   688
 72
     0
 73
     0
 74
     5
  7

 75
    16
 76
     0
 77
     2
 78
   300
147
1.0
148
0.0
149
0.0
100
AcDbLayout
  1
Layout2
 70
     1
 71
     2
 10
0.0
 20
0.0
 11
0.0
 21
0.0
 12
0.0
 22
0.0
 32
0.0
 14
0.0
 24
0.0
 34
0.0
 15
0.0
 25
0.0
 35
0.0
146
0.0
 13
0.0
 23
0.0
 33
0.0
 16
1.0
 26
0.0
 36
0.0
 17
0.0
 27
1.0
 37
0.0
 76
     0
330
23
  0
LAYOUT
  5
22
102
{ACAD_REACTORS
330
1A
102
}
330
1A
100
AcDbPlotSettings
  1

  2
none_device
  4

  6

 40
0.0
 41
0.0
 42
0.0
 43
0.0
 44
0.0
 45
0.0
 46
0.0
 47
0.0
 48
0.0
 49
0.0
140
0.0
141
0.0
142
1.0
143
1.0
 70
  1712
 72
     0
 73
     0
 74
     0
  7

 75
     0
 76
     0
 77
     2
 78
   300
147
1.0
148
0.0
149
0.0
100
AcDbLayout
  1
Model
 70
     1
 71
     0
 10
0.0
 20
0.0
 11
12.0
 21
9.0
 12
0.0
 22
0.0
 32
0.0
 14
1.000000000000000E+20
 24
1.000000000000000E+20
 34
1.000000000000000E+20
 15
-1.000000000000000E+20
 25
-1.000000000000000E+20
 35
-1.000000000000000E+20
146
0.0
 13
0.0
 23
0.0
 33
0.0
 16
1.0
 26
0.0
 36
0.0
 17
0.0
 27
1.0
 37
0.0
 76
     0
330
1F
331
29
  0
MATERIAL
  5
3D
102
{ACAD_REACTORS
330
3B
102
}
330
3B
100
AcDbMaterial
  1
ByBlock
 72
     1
 94
      127
  0
MATERIAL
  5
3C
102
{ACAD_REACTORS
330
3B
102
}
330
3B
100
AcDbMaterial
  1
ByLayer
 72
     1
 94
      127
  0
MATERIAL
  5
3E
102
{ACAD_REACTORS
330
3B
102
}
330
3B
100
AcDbMaterial
  1
Global
 72
     1
 94
      127
  0
MLINESTYLE
  5
18
102
{ACAD_REACTORS
330
17
102
}
330
17
100
AcDbMlineStyle
  2
Standard
 70
     0
  3

 62
   256
 51
90.0
 52
90.0
 71
     2
 49
0.5
 62
   256
  6
BYLAYER
 49
-0.5
 62
   256
  6
BYLAYER
  0
ACDBPLACEHOLDER
  5
F
102
{ACAD_REACTORS
330
E
102
}
330
E
  0
VISUALSTYLE
  5
2F
102
{ACAD_REACTORS
330
2A
102
}
330
2A
100
AcDbVisualStyle
  2
2dWireframe
 70
     4
177
     2
291
     0
 71
     0
176
     1
 72
     2
176
     1
 73
     0
176
     1
 90
        0
176
     1
 40
-0.6
176
     1
 41
-30.0
176
     1
 62
     5
 63
     7
421
 16777215
176
     1
 74
     1
176
     1
 91
        4
176
     1
 64
     7
176
     1
 65
   257
176
     1
 75
     1
176
     1
175
     1
176
     1
 42
1.0
176
     1
 92
        0
176
     1
 66
   257
176
     1
 43
1.0
176
     1
 76
     1
176
     1
 77
     6
176
     1
 78
     2
176
     1
 67
     7
176
     1
 79
     5
176
     1
170
     0
176
     1
171
     0
176
     1
290
     0
176
     1
 93
        1
176
     1
 44
0.0
176
     1
173
     0
176
     1
  0
VISUALSTYLE
  5
31
102
{ACAD_REACTORS
330
2A
102
}
330
2A
100
AcDbVisualStyle
  2
3D Hidden
 70
     6
177
     2
291
     0
 71
     1
176
     1
 72
     2
176
     1
 73
     2
176
     1
 90
        0
176
     1
 40
-0.6
176
     1
 41
-30.0
176
     1
 62
     5
 63
     7
421
 16777215
176
     1
 74
     2
176
     1
 91
        2
176
     1
 64
     7
176
     1
 65
   257
176
     1
 75
     2
176
     1
175
     1
176
     1
 42
40.0
176
     1
 92
        0
176
     1
 66
   257
176
     1
 43
1.0
176
     1
 76
     1
176
     1
 77
     6
176
     1
 78
     2
176
     1
 67
     7
176
     1
 79
     3
176
     1
170
     0
176
     1
171
     0
176
     1
290
     0
176
     1
 93
        1
176
     1
 44
0.0
176
     1
173
     0
176
     1
  0
VISUALSTYLE
  5
30
102
{ACAD_REACTORS
330
2A
102
}
330
2A
100
AcDbVisualStyle
  2
3dWireframe
 70
     5
177
     2
291
     0
 71
     0
176
     1
 72
     2
176
     1
 73
     0
176
     1
 90
        0
176
     1
 40
-0.6
176
     1
 41
-30.0
176
     1
 62
     5
 63
     7
421
 16777215
176
     1
 74
     1
176
     1
 91
        4
176
     1
 64
     7
176
     1
 65
   257
176
     1
 75
     1
176
     1
175
     1
176
     1
 42
1.0
176
     1
 92
        0
176
     1
 66
   257
176
     1
 43
1.0
176
     1
 76
     1
176
     1
 77
     6
176
     1
 78
     2
176
     1
 67
     7
176
     1
 79
     5
176
     1
170
     0
176
     1
171
     0
176
     1
290
     0
176
     1
 93
        1
176
     1
 44
0.0
176
     1
173
     0
176
     1
  0
VISUALSTYLE
  5
32
102
{ACAD_REACTORS
330
2A
102
}
330
2A
100
AcDbVisualStyle
  2
Basic
 70
     7
177
     2
291
     1
 71
     1
176
     1
 72
     0
176
     1
 73
     1
176
     1
 90
        0
176
     1
 40
-0.6
176
     1
 41
-30.0
176
     1
 62
     5
 63
     7
421
 16777215
176
     1
 74
     0
176
     1
 91
        4
176
     1
 64
     7
176
     1
 65
   257
176
     1
 75
     1
176
     1
175
     1
176
     1
 42
1.0
176
     1
 92
        8
176
     1
 66
     7
176
     1
 43
1.0
176
     1
 76
     1
176
     1
 77
     6
176
     1
 78
     2
176
     1
 67
     7
176
     1
 79
     5
176
     1
170
     0
176
     1
171
     0
176
     1
290
     0
176
     1
 93
        1
176
     1
 44
0.0
176
     1
173
     0
176
     1
  0
VISUALSTYLE
  5
36
102
{ACAD_REACTORS
330
2A
102
}
330
2A
100
AcDbVisualStyle
  2
Brighten
 70
    12
177
     2
291
     1
 71
     2
176
     1
 72
     2
176
     1
 73
     0
176
     1
 90
        0
176
     1
 40
-0.6
176
     1
 41
-30.0
176
     1
 62
     5
 63
     7
421
 16777215
176
     1
 74
     1
176
     1
 91
        4
176
     1
 64
     7
176
     1
 65
   257
176
     1
 75
     1
176
     1
175
     1
176
     1
 42
1.0
176
     1
 92
        8
176
     1
 66
     7
176
     1
 43
1.0
176
     1
 76
     1
176
     1
 77
     6
176
     1
 78
     2
176
     1
 67
     7
176
     1
 79
     5
176
     1
170
     0
176
     1
171
     0
176
     1
290
     0
176
     1
 93
        1
176
     1
 44
50.0
176
     1
173
     0
176
     1
  0
VISUALSTYLE
  5
3A
102
{ACAD_REACTORS
330
2A
102
}
330
2A
100
AcDbVisualStyle
  2
ColorChange
 70
    16
177
     2
291
     1
 71
     2
176
     1
 72
     2
176
     1
 73
     3
176
     1
 90
        0
176
     1
 40
-0.6
176
     1
 41
-30.0
176
     1
 62
     5
 63
     8
421
  8421504
176
     1
 74
     1
176
     1
 91
        4
176
     1
 64
     7
176
     1
 65
   257
176
     1
 75
     1
176
     1
175
     1
176
     1
 42
1.0
176
     1
 92
        8
176
     1
 66
     8
424
  8421504
176
     1
 43
1.0
176
     1
 76
     1
176
     1
 77
     6
176
     1
 78
     2
176
     1
 67
     7
176
     1
 79
     5
176
     1
170
     0
176
     1
171
     0
176
     1
290
     0
176
     1
 93
        1
176
     1
 44
0.0
176
     1
173
     0
176
     1
  0
VISUALSTYLE
  5
34
102
{ACAD_REACTORS
330
2A
102
}
330
2A
100
AcDbVisualStyle
  2
Conceptual
 70
     9
177
     2
291
     0
 71
     3
176
     1
 72
     2
176
     1
 73
     0
176
     1
 90
        0
176
     1
 40
-0.6
176
     1
 41
-30.0
176
     1
 62
     5
 63
     7
421
 16777215
176
     1
 74
     2
176
     1
 91
        2
176
     1
 64
     7
176
     1
 65
   257
176
     1
 75
     1
176
     1
175
     1
176
     1
 42
40.0
176
     1
 92
        8
176
     1
 66
     7
176
     1
 43
1.0
176
     1
 76
     1
176
     1
 77
     6
176
     1
 78
     2
176
     1
 67
     7
176
     1
 79
     3
176
     1
170
     0
176
     1
171
     0
176
     1
290
     0
176
     1
 93
        1
176
     1
 44
0.0
176
     1
173
     0
176
     1
  0
VISUALSTYLE
  5
35
102
{ACAD_REACTORS
330
2A
102
}
330
2A
100
AcDbVisualStyle
  2
Dim
 70
    11
177
     2
291
     1
 71
     2
176
     1
 72
     2
176
     1
 73
     0
176
     1
 90
        0
176
     1
 40
-0.6
176
     1
 41
-30.0
176
     1
 62
     5
 63
     7
421
 16777215
176
     1
 74
     1
176
     1
 91
        4
176
     1
 64
     7
176
     1
 65
   257
176
     1
 75
     1
176
     1
175
     1
176
     1
 42
1.0
176
     1
 92
        8
176
     1
 66
     7
176
     1
 43
1.0
176
     1
 76
     1
176
     1
 77
     6
176
     1
 78
     2
176
     1
 67
     7
176
     1
 79
     5
176
     1
170
     0
176
     1
171
     0
176
     1
290
     0
176
     1
 93
        1
176
     1
 44
-50.0
176
     1
173
     0
176
     1
  0
VISUALSTYLE
  5
39
102
{ACAD_REACTORS
330
2A
102
}
330
2A
100
AcDbVisualStyle
  2
Facepattern
 70
    15
177
     2
291
     1
 71
     2
176
     1
 72
     2
176
     1
 73
     0
176
     1
 90
        0
176
     1
 40
-0.6
176
     1
 41
-30.0
176
     1
 62
     5
 63
     7
421
 16777215
176
     1
 74
     1
176
     1
 91
        4
176
     1
 64
     7
176
     1
 65
   257
176
     1
 75
     1
176
     1
175
     1
176
     1
 42
1.0
176
     1
 92
        8
176
     1
 66
     7
176
     1
 43
1.0
176
     1
 76
     1
176
     1
 77
     6
176
     1
 78
     2
176
     1
 67
     7
176
     1
 79
     5
176
     1
170
     0
176
     1
171
     0
176
     1
290
     0
176
     1
 93
        1
176
     1
 44
0.0
176
     1
173
     0
176
     1
  0
VISUALSTYLE
  5
2B
102
{ACAD_REACTORS
330
2A
102
}
330
2A
100
AcDbVisualStyle
  2
Flat
 70
     0
177
     2
291
     1
 71
     2
176
     1
 72
     1
176
     1
 73
     1
176
     1
 90
        2
176
     1
 40
-0.6
176
     1
 41
30.0
176
     1
 62
     5
 63
     7
421
 16777215
176
     1
 74
     0
176
     1
 91
        4
176
     1
 64
     7
176
     1
 65
   257
176
     1
 75
     1
176
     1
175
     1
176
     1
 42
1.0
176
     1
 92
        8
176
     1
 66
     7
176
     1
 43
1.0
176
     1
 76
     1
176
     1
 77
     6
176
     1
 78
     2
176
     1
 67
     7
176
     1
 79
     5
176
     1
170
     0
176
     1
171
     0
176
     1
290
     0
176
     1
 93
       13
176
     1
 44
0.0
176
     1
173
     0
176
     1
  0
VISUALSTYLE
  5
2C
102
{ACAD_REACTORS
330
2A
102
}
330
2A
100
AcDbVisualStyle
  2
FlatWithEdges
 70
     1
177
     2
291
     1
 71
     2
176
     1
 72
     1
176
     1
 73
     1
176
     1
 90
        2
176
     1
 40
-0.6
176
     1
 41
30.0
176
     1
 62
     5
 63
     7
421
 16777215
176
     1
 74
     1
176
     1
 91
        4
176
     1
 64
     7
176
     1
 65
   257
176
     1
 75
     1
176
     1
175
     1
176
     1
 42
1.0
176
     1
 92
        0
176
     1
 66
   257
176
     1
 43
1.0
176
     1
 76
     1
176
     1
 77
     6
176
     1
 78
     2
176
     1
 67
     7
176
     1
 79
     5
176
     1
170
     0
176
     1
171
     0
176
     1
290
     0
176
     1
 93
       13
176
     1
 44
0.0
176
     1
173
     0
176
     1
  0
VISUALSTYLE
  5
2D
102
{ACAD_REACTORS
330
2A
102
}
330
2A
100
AcDbVisualStyle
  2
Gouraud
 70
     2
177
     2
291
     1
 71
     2
176
     1
 72
     2
176
     1
 73
     1
176
     1
 90
        2
176
     1
 40
-0.6
176
     1
 41
30.0
176
     1
 62
     5
 63
     7
421
 16777215
176
     1
 74
     0
176
     1
 91
        4
176
     1
 64
     7
176
     1
 65
   257
176
     1
 75
     1
176
     1
175
     1
176
     1
 42
1.0
176
     1
 92
        0
176
     1
 66
     7
176
     1
 43
1.0
176
     1
 76
     1
176
     1
 77
     6
176
     1
 78
     2
176
     1
 67
     7
176
     1
 79
     5
176
     1
170
     0
176
     1
171
     0
176
     1
290
     0
176
     1
 93
       13
176
     1
 44
0.0
176
     1
173
     0
176
     1
  0
VISUALSTYLE
  5
2E
102
{ACAD_REACTORS
330
2A
102
}
330
2A
100
AcDbVisualStyle
  2
GouraudWithEdges
 70
     3
177
     2
291
     1
 71
     2
176
     1
 72
     2
176
     1
 73
     1
176
     1
 90
        2
176
     1
 40
-0.6
176
     1
 41
30.0
176
     1
 62
     5
 63
     7
421
 16777215
176
     1
 74
     1
176
     1
 91
        4
176
     1
 64
     7
176
     1
 65
   257
176
     1
 75
     1
176
     1
175
     1
176
     1
 42
1.0
176
     1
 92
        0
176
     1
 66
   257
176
     1
 43
1.0
176
     1
 76
     1
176
     1
 77
     6
176
     1
 78
     2
176
     1
 67
     7
176
     1
 79
     5
176
     1
170
     0
176
     1
171
     0
176
     1
290
     0
176
     1
 93
       13
176
     1
 44
0.0
176
     1
173
     0
176
     1
  0
VISUALSTYLE
  5
38
102
{ACAD_REACTORS
330
2A
102
}
330
2A
100
AcDbVisualStyle
  2
Linepattern
 70
    14
177
     2
291
     1
 71
     2
176
     1
 72
     2
176
     1
 73
     0
176
     1
 90
        0
176
     1
 40
-0.6
176
     1
 41
-30.0
176
     1
 62
     5
 63
     7
421
 16777215
176
     1
 74
     1
176
     1
 91
        4
176
     1
 64
     7
176
     1
 65
   257
176
     1
 75
     7
176
     1
175
     7
176
     1
 42
1.0
176
     1
 92
        8
176
     1
 66
     7
176
     1
 43
1.0
176
     1
 76
     1
176
     1
 77
     6
176
     1
 78
     2
176
     1
 67
     7
176
     1
 79
     5
176
     1
170
     0
176
     1
171
     0
176
     1
290
     0
176
     1
 93
        1
176
     1
 44
0.0
176
     1
173
     0
176
     1
  0
VISUALSTYLE
  5
33
102
{ACAD_REACTORS
330
2A
102
}
330
2A
100
AcDbVisualStyle
  2
Realistic
 70
     8
177
     2
291
     0
 71
     2
176
     1
 72
     2
176
     1
 73
     0
176
     1
 90
        0
176
     1
 40
-0.6
176
     1
 41
-30.0
176
     1
 62
     5
 63
     7
421
 16777215
176
     1
 74
     1
176
     1
 91
        0
176
     1
 64
     7
176
     1
 65
   257
176
     1
 75
     1
176
     1
175
     1
176
     1
 42
1.0
176
     1
 92
        8
176
     1
 66
     8
424
  7895160
176
     1
 43
1.0
176
     1
 76
     1
176
     1
 77
     6
176
     1
 78
     2
176
     1
 67
     7
176
     1
 79
     5
176
     1
170
     0
176
     1
171
     0
176
     1
290
     0
176
     1
 93
       13
176
     1
 44
0.0
176
     1
173
     0
176
     1
  0
VISUALSTYLE
  5
37
102
{ACAD_REACTORS
330
2A
102
}
330
2A
100
AcDbVisualStyle
  2
Thicken
 70
    13
177
     2
291
     1
 71
     2
176
     1
 72
     2
176
     1
 73
     0
176
     1
 90
        0
176
     1
 40
-0.6
176
     1
 41
-30.0
176
     1
 62
     5
 63
     7
421
 16777215
176
     1
 74
     1
176
     1
 91
        4
176
     1
 64
     7
176
     1
 65
   257
176
     1
 75
     1
176
     1
175
     1
176
     1
 42
1.0
176
     1
 92
       12
176
     1
 66
     7
176
     1
 43
1.0
176
     1
 76
     1
176
     1
 77
     6
176
     1
 78
     2
176
     1
 67
     7
176
     1
 79
     5
176
     1
170
     0
176
     1
171
     0
176
     1
290
     0
176
     1
 93
        1
176
     1
 44
0.0
176
     1
173
     0
176
     1
  0
ENDSEC
  0
EOF
