  0
SECTION
  2
HEADER
  9
$ACADVER
  1
AC1024
  9
$ACADMAINTVER
 70
     6
  9
$DWGCODEPAGE
  3
UNDEFINED
  9
$INSBASE
 10
0.0
 20
0.0
 30
0.0
  9
$EXTMIN
 10
1.000000000000000E+20
 20
1.000000000000000E+20
 30
1.000000000000000E+20
  9
$EXTMAX
 10
-1.000000000000000E+20
 20
-1.000000000000000E+20
 30
-1.000000000000000E+20
  9
$LIMMIN
 10
0.0
 20
0.0
  9
$LIMMAX
 10
12.0
 20
9.0
  9
$ORTHOMODE
 70
     0
  9
$REGENMODE
 70
     1
  9
$FILLMODE
 70
     1
  9
$QTEXTMODE
 70
     0
  9
$MIRRTEXT
 70
     1
  9
$LTSCALE
 40
1.0
  9
$ATTMODE
 70
     1
  9
$TEXTSIZE
 40
0.2
  9
$TRACEWID
 40
0.05
  9
$TEXTSTYLE
  7
Standard
  9
$CLAYER
  8
0
  9
$CELTYPE
  6
ByLayer
  9
$CECOLOR
 62
   256
  9
$CELTSCALE
 40
1.0
  9
$DISPSILH
 70
     0
  9
$DIMSCALE
 40
1.0
  9
$DIMASZ
 40
0.18
  9
$DIMEXO
 40
0.0625
  9
$DIMDLI
 40
0.38
  9
$DIMRND
 40
0.0
  9
$DIMDLE
 40
0.0
  9
$DIMEXE
 40
0.18
  9
$DIMTP
 40
0.0
  9
$DIMTM
 40
0.0
  9
$DIMTXT
 40
0.18
  9
$DIMCEN
 40
0.09
  9
$DIMTSZ
 40
0.0
  9
$DIMTOL
 70
     0
  9
$DIMLIM
 70
     0
  9
$DIMTIH
 70
     1
  9
$DIMTOH
 70
     1
  9
$DIMSE1
 70
     0
  9
$DIMSE2
 70
     0
  9
$DIMTAD
 70
     0
  9
$DIMZIN
 70
     0
  9
$DIMBLK
  1

  9
$DIMASO
 70
     1
  9
$DIMSHO
 70
     1
  9
$DIMPOST
  1

  9
$DIMAPOST
  1

  9
$DIMALT
 70
     0
  9
$DIMALTD
 70
     2
  9
$DIMALTF
 40
25.4
  9
$DIMLFAC
 40
1.0
  9
$DIMTOFL
 70
     0
  9
$DIMTVP
 40
0.0
  9
$DIMTIX
 70
     0
  9
$DIMSOXD
 70
     0
  9
$DIMSAH
 70
     0
  9
$DIMBLK1
  1

  9
$DIMBLK2
  1

  9
$DIMSTYLE
  2
Standard
  9
$DIMCLRD
 70
     0
  9
$DIMCLRE
 70
     0
  9
$DIMCLRT
 70
     0
  9
$DIMTFAC
 40
1.0
  9
$DIMGAP
 40
0.09
  9
$DIMJUST
 70
     0
  9
$DIMSD1
 70
     0
  9
$DIMSD2
 70
     0
  9
$DIMTOLJ
 70
     1
  9
$DIMTZIN
 70
     0
  9
$DIMALTZ
 70
     0
  9
$DIMALTTZ
 70
     0
  9
$DIMUPT
 70
     0
  9
$DIMDEC
 70
     4
  9
$DIMTDEC
 70
     4
  9
$DIMALTU
 70
     2
  9
$DIMALTTD
 70
     2
  9
$DIMTXSTY
  7
Standard
  9
$DIMAUNIT
 70
     0
  9
$DIMADEC
 70
     0
  9
$DIMALTRND
 40
0.0
  9
$DIMAZIN
 70
     0
  9
$DIMDSEP
 70
    46
  9
$DIMATFIT
 70
     3
  9
$DIMFRAC
 70
     0
  9
$DIMLDRBLK
  1

  9
$DIMLUNIT
 70
     2
  9
$DIMLWD
 70
    -2
  9
$DIMLWE
 70
    -2
  9
$DIMTMOVE
 70
     0
  9
$DIMFXL
 40
1.0
  9
$DIMFXLON
 70
     0
  9
$DIMJOGANG
 40
0.7853981633974483
  9
$DIMTFILL
 70
     0
  9
$DIMTFILLCLR
 70
     0
  9
$DIMARCSYM
 70
     0
  9
$DIMLTYPE
  6

  9
$DIMLTEX1
  6

  9
$DIMLTEX2
  6

  9
$DIMTXTDIRECTION
 70
     0
  9
$LUNITS
 70
     2
  9
$LUPREC
 70
     4
  9
$SKETCHINC
 40
0.1
  9
$FILLETRAD
 40
0.5
  9
$AUNITS
 70
     0
  9
$AUPREC
 70
     0
  9
$MENU
  1
.
  9
$ELEVATION
 40
0.0
  9
$PELEVATION
 40
0.0
  9
$THICKNESS
 40
0.0
  9
$LIMCHECK
 70
     0
  9
$CHAMFERA
 40
0.5
  9
$CHAMFERB
 40
0.5
  9
$CHAMFERC
 40
1.0
  9
$CHAMFERD
 40
0.0
  9
$SKPOLY
 70
     0
  9
$TDCREATE
 40
2458263.582511562
  9
$TDUCREATE
 40
2458263.207511574
  9
$TDUPDATE
 40
2458263.582511562
  9
$TDUUPDATE
 40
2458263.207511574
  9
$TDINDWG
 40
0.0000000116
  9
$TDUSRTIMER
 40
0.0000000116
  9
$USRTIMER
 70
     1
  9
$ANGBASE
 50
0.0
  9
$ANGDIR
 70
     0
  9
$PDMODE
 70
     0
  9
$PDSIZE
 40
0.0
  9
$PLINEWID
 40
0.0
  9
$SPLFRAME
 70
     0
  9
$SPLINETYPE
 70
     6
  9
$SPLINESEGS
 70
     8
  9
$HANDSEED
  5
102
  9
$SURFTAB1
 70
     6
  9
$SURFTAB2
 70
     6
  9
$SURFTYPE
 70
     6
  9
$SURFU
 70
     6
  9
$SURFV
 70
     6
  9
$UCSBASE
  2

  9
$UCSNAME
  2

  9
$UCSORG
 10
0.0
 20
0.0
 30
0.0
  9
$UCSXDIR
 10
1.0
 20
0.0
 30
0.0
  9
$UCSYDIR
 10
0.0
 20
1.0
 30
0.0
  9
$UCSORTHOREF
  2

  9
$UCSORTHOVIEW
 70
     0
  9
$UCSORGTOP
 10
0.0
 20
0.0
 30
0.0
  9
$UCSORGBOTTOM
 10
0.0
 20
0.0
 30
0.0
  9
$UCSORGLEFT
 10
0.0
 20
0.0
 30
0.0
  9
$UCSORGRIGHT
 10
0.0
 20
0.0
 30
0.0
  9
$UCSORGFRONT
 10
0.0
 20
0.0
 30
0.0
  9
$UCSORGBACK
 10
0.0
 20
0.0
 30
0.0
  9
$PUCSBASE
  2

  9
$PUCSNAME
  2

  9
$PUCSORG
 10
0.0
 20
0.0
 30
0.0
  9
$PUCSXDIR
 10
1.0
 20
0.0
 30
0.0
  9
$PUCSYDIR
 10
0.0
 20
1.0
 30
0.0
  9
$PUCSORTHOREF
  2

  9
$PUCSORTHOVIEW
 70
     0
  9
$PUCSORGTOP
 10
0.0
 20
0.0
 30
0.0
  9
$PUCSORGBOTTOM
 10
0.0
 20
0.0
 30
0.0
  9
$PUCSORGLEFT
 10
0.0
 20
0.0
 30
0.0
  9
$PUCSORGRIGHT
 10
0.0
 20
0.0
 30
0.0
  9
$PUCSORGFRONT
 10
0.0
 20
0.0
 30
0.0
  9
$PUCSORGBACK
 10
0.0
 20
0.0
 30
0.0
  9
$USERI1
 70
     0
  9
$USERI2
 70
     0
  9
$USERI3
 70
     0
  9
$USERI4
 70
     0
  9
$USERI5
 70
     0
  9
$USERR1
 40
0.0
  9
$USERR2
 40
0.0
  9
$USERR3
 40
0.0
  9
$USERR4
 40
0.0
  9
$USERR5
 40
0.0
  9
$WORLDVIEW
 70
     1
  9
$SHADEDGE
 70
     3
  9
$SHADEDIF
 70
    70
  9
$TILEMODE
 70
     1
  9
$MAXACTVP
 70
    64
  9
$PINSBASE
 10
0.0
 20
0.0
 30
0.0
  9
$PLIMCHECK
 70
     0
  9
$PEXTMIN
 10
1.000000000000000E+20
 20
1.000000000000000E+20
 30
1.000000000000000E+20
  9
$PEXTMAX
 10
-1.000000000000000E+20
 20
-1.000000000000000E+20
 30
-1.000000000000000E+20
  9
$PLIMMIN
 10
0.0
 20
0.0
  9
$PLIMMAX
 10
12.0
 20
9.0
  9
$UNITMODE
 70
     0
  9
$VISRETAIN
 70
     1
  9
$PLINEGEN
 70
     0
  9
$PSLTSCALE
 70
     1
  9
$TREEDEPTH
 70
  3020
  9
$CMLSTYLE
  2
Standard
  9
$CMLJUST
 70
     0
  9
$CMLSCALE
 40
1.0
  9
$PROXYGRAPHICS
 70
     1
  9
$MEASUREMENT
 70
     0
  9
$CELWEIGHT
370
    -1
  9
$ENDCAPS
280
     0
  9
$JOINSTYLE
280
     0
  9
$LWDISPLAY
290
     1
  9
$INSUNITS
 70
     1
  9
$HYPERLINKBASE
  1

  9
$STYLESHEET
  1

  9
$XEDIT
290
     1
  9
$CEPSNTYPE
380
     0
  9
$PSTYLEMODE
290
     1
  9
$FINGERPRINTGUID
  2
{87576903-3FD7-66C1-979A-98F68FEE1B97}
  9
$VERSIONGUID
  2
{FAEB1C32-E019-11D5-929B-00C0DF256EC4}
  9
$EXTNAMES
290
     1
  9
$PSVPSCALE
 40
0.0
  9
$OLESTARTUP
290
     0
  9
$SORTENTS
280
   127
  9
$INDEXCTL
280
     0
  9
$HIDETEXT
280
     1
  9
$XCLIPFRAME
280
     2
  9
$HALOGAP
280
     0
  9
$OBSCOLOR
 70
   257
  9
$OBSLTYPE
280
     0
  9
$INTERSECTIONDISPLAY
280
     0
  9
$INTERSECTIONCOLOR
 70
   257
  9
$DIMASSOC
280
     2
  9
$PROJECTNAME
  1

  9
$CAMERADISPLAY
290
     0
  9
$LENSLENGTH
 40
50.0
  9
$CAMERAHEIGHT
 40
0.0
  9
$STEPSPERSEC
 40
2.0
  9
$STEPSIZE
 40
6.0
  9
$3DDWFPREC
 40
2.0
  9
$PSOLWIDTH
 40
0.25
  9
$PSOLHEIGHT
 40
4.0
  9
$LOFTANG1
 40
1.570796326794897
  9
$LOFTANG2
 40
1.570796326794897
  9
$LOFTMAG1
 40
0.0
  9
$LOFTMAG2
 40
0.0
  9
$LOFTPARAM
 70
     7
  9
$LOFTNORMALS
280
     1
  9
$LATITUDE
 40
37.795
  9
$LONGITUDE
 40
-122.394
  9
$NORTHDIRECTION
 40
0.0
  9
$TIMEZONE
 70
 -8000
  9
$LIGHTGLYPHDISPLAY
280
     1
  9
$TILEMODELIGHTSYNCH
280
     1
  9
$CMATERIAL
347
3C
  9
$SOLIDHIST
280
     1
  9
$SHOWHIST
280
     1
  9
$DWFFRAME
280
     2
  9
$DGNFRAME
280
     2
  9
$REALWORLDSCALE
290
     1
  9
$INTERFERECOLOR
 62
   256
  9
$CSHADOW
280
     0
  9
$SHADOWPLANELOCATION
 40
0.0
  0
ENDSEC
  0
SECTION
  2
CLASSES
  0
CLASS
  1
ACDBDICTIONARYWDFLT
  2
AcDbDictionaryWithDefault
  3
ObjectDBX Classes
 90
        0
 91
        4
280
     0
281
     0
  0
CLASS
  1
VISUALSTYLE
  2
AcDbVisualStyle
  3
ObjectDBX Classes
 90
     4095
 91
        4
280
     0
281
     0
  0
CLASS
  1
MATERIAL
  2
AcDbMaterial
  3
ObjectDBX Classes
 90
     1153
 91
        4
280
     0
281
     0
  0
CLASS
  1
SUN
  2
AcDbSun
  3
SCENEOE
 90
     1024
 91
        4
280
     0
281
     0
  0
ENDSEC
  0
SECTION
  2
TABLES
  0
TABLE
  2
VPORT
  5
8
330
0
100
AcDbSymbolTable
 70
     1
  0
VPORT
  5
29
330
8
100
AcDbSymbolTableRecord
100
AcDbViewportTableRecord
  2
*Active
 70
     0
 10
0.0
 20
0.0
 11
1.0
 21
1.0
 12
0.0
 22
0.0
 13
0.0
 23
0.0
 14
0.5
 24
0.5
 15
0.5
 25
0.5
 16
0.0
 26
0.0
 36
1.0
 17
105.0007777515277
 27
-148.5000416295416
 37
0.0
 40
297.0000832590831
 41
0.7070757462376333
 42
50.0
 43
0.0
 44
0.0
 50
0.0
 51
0.0
 71
     0
 72
   100
 73
     1
 74
     3
 75
     0
 76
     0
 77
     0
 78
     0
281
     0
 65
     1
110
0.0
120
0.0
130
0.0
111
1.0
121
0.0
131
0.0
112
0.0
122
1.0
132
0.0
 79
     0
146
0.0
 60
     3
 61
     5
292
     1
282
     1
141
0.0
142
0.0
 63
   250
361
3F
  0
ENDTAB
  0
TABLE
  2
LTYPE
  5
5
330
0
100
AcDbSymbolTable
 70
     2
  0
LTYPE
  5
14
330
5
100
AcDbSymbolTableRecord
100
AcDbLinetypeTableRecord
  2
ByBlock
 70
     0
  3

 72
    65
 73
     0
 40
0.0
  0
LTYPE
  5
15
330
5
100
AcDbSymbolTableRecord
100
AcDbLinetypeTableRecord
  2
ByLayer
 70
     0
  3

 72
    65
 73
     0
 40
0.0
  0
LTYPE
  5
16
330
5
100
AcDbSymbolTableRecord
100
AcDbLinetypeTableRecord
  2
Continuous
 70
     0
  3
Solid line
 72
    65
 73
     0
 40
0.0
  0
LTYPE
  5
47
330
5
100
AcDbSymbolTableRecord
100
AcDbLinetypeTableRecord
  2
AI-Linetype-1
 70
     0
  3
Adobe Illustrator Linetype No. 1
 72
    65
 73
     2
 40
1.411111110758333
 49
0.7055555553791667
 74
     0
 49
-0.7055555553791667
 74
     0
  0
ENDTAB
  0
TABLE
  2
LAYER
  5
2
330
0
100
AcDbSymbolTable
 70
     2
  0
LAYER
  5
10
330
2
100
AcDbSymbolTableRecord
100
AcDbLayerTableRecord
  2
0
 70
     0
 62
     7
  6
Continuous
370
    -3
390
F
347
3E
  0
LAYER
  5
40
330
2
100
AcDbSymbolTableRecord
100
AcDbLayerTableRecord
  2
_U+30EC_U+30A4_U+30E4_U+30FC 1
 70
     0
 62
     7
  6
Continuous
370
    -3
390
F
347
3E
  0
ENDTAB
  0
TABLE
  2
STYLE
  5
3
330
0
100
AcDbSymbolTable
 70
     1
  0
STYLE
  5
11
330
3
100
AcDbSymbolTableRecord
100
AcDbTextStyleTableRecord
  2
Standard
 70
     0
 40
0.0
 41
1.0
 50
0.0
 71
     0
 42
0.2
  3
txt
  4

  0
ENDTAB
  0
TABLE
  2
VIEW
  5
6
330
0
100
AcDbSymbolTable
 70
     0
  0
ENDTAB
  0
TABLE
  2
UCS
  5
7
330
0
100
AcDbSymbolTable
 70
     0
  0
ENDTAB
  0
TABLE
  2
APPID
  5
9
330
0
100
AcDbSymbolTable
 70
     1
  0
APPID
  5
12
330
9
100
AcDbSymbolTableRecord
100
AcDbRegAppTableRecord
  2
ACAD
 70
     0
  0
ENDTAB
  0
TABLE
  2
DIMSTYLE
  5
A
330
0
100
AcDbSymbolTable
 70
     1
100
AcDbDimStyleTable
  0
DIMSTYLE
105
27
330
A
100
AcDbSymbolTableRecord
100
AcDbDimStyleTableRecord
  2
Standard
 70
     0
178
     0
340
11
  0
ENDTAB
  0
TABLE
  2
BLOCK_RECORD
  5
1
330
0
100
AcDbSymbolTable
 70
     7
  0
BLOCK_RECORD
  5
1F
330
1
100
AcDbSymbolTableRecord
100
AcDbBlockTableRecord
  2
*Model_Space
340
22
 70
     0
280
     1
281
     0
  0
BLOCK_RECORD
  5
1B
330
1
100
AcDbSymbolTableRecord
100
AcDbBlockTableRecord
  2
*Paper_Space
340
1E
 70
     0
280
     1
281
     0
  0
BLOCK_RECORD
  5
23
330
1
100
AcDbSymbolTableRecord
100
AcDbBlockTableRecord
  2
*Paper_Space0
340
26
 70
     0
280
     1
281
     0
  0
BLOCK_RECORD
  5
84
330
1
100
AcDbSymbolTableRecord
100
AcDbBlockTableRecord
  2
block 2
340
0
102
{BLKREFS
331
85
102
}
 70
     0
280
     1
281
     0
  0
BLOCK_RECORD
  5
96
330
1
100
AcDbSymbolTableRecord
100
AcDbBlockTableRecord
  2
block 3
340
0
102
{BLKREFS
331
97
102
}
 70
     0
280
     1
281
     0
  0
BLOCK_RECORD
  5
AA
330
1
100
AcDbSymbolTableRecord
100
AcDbBlockTableRecord
  2
block 4
340
0
102
{BLKREFS
331
AB
102
}
 70
     0
280
     1
281
     0
  0
BLOCK_RECORD
  5
CD
330
1
100
AcDbSymbolTableRecord
100
AcDbBlockTableRecord
  2
block 5
340
0
102
{BLKREFS
331
CE
102
}
 70
     0
280
     1
281
     0
  0
BLOCK_RECORD
  5
E6
330
1
100
AcDbSymbolTableRecord
100
AcDbBlockTableRecord
  2
block 6
340
0
102
{BLKREFS
331
E7
102
}
 70
     0
280
     1
281
     0
  0
BLOCK_RECORD
  5
FA
330
1
100
AcDbSymbolTableRecord
100
AcDbBlockTableRecord
  2
block 7
340
0
102
{BLKREFS
331
FB
102
}
 70
     0
280
     1
281
     0
  0
ENDTAB
  0
ENDSEC
  0
SECTION
  2
BLOCKS
  0
BLOCK
  5
20
330
1F
100
AcDbEntity
  8
0
100
AcDbBlockBegin
  2
*Model_Space
 70
     0
 10
0.0
 20
0.0
 30
0.0
  3
*Model_Space
  1

  0
ENDBLK
  5
21
330
1F
100
AcDbEntity
  8
0
100
AcDbBlockEnd
  0
BLOCK
  5
1C
330
1B
100
AcDbEntity
 67
     1
  8
0
100
AcDbBlockBegin
  2
*Paper_Space
 70
     0
 10
0.0
 20
0.0
 30
0.0
  3
*Paper_Space
  1

  0
ENDBLK
  5
1D
330
1B
100
AcDbEntity
 67
     1
  8
0
100
AcDbBlockEnd
  0
BLOCK
  5
24
330
23
100
AcDbEntity
  8
0
100
AcDbBlockBegin
  2
*Paper_Space0
 70
     0
 10
0.0
 20
0.0
 30
0.0
  3
*Paper_Space0
  1

  0
ENDBLK
  5
25
330
23
100
AcDbEntity
  8
0
100
AcDbBlockEnd
  0
BLOCK
  5
86
330
84
100
AcDbEntity
  8
0
100
AcDbBlockBegin
  2
block 2
 70
     0
 10
0.0
 20
0.0
 30
0.0
  3
block 2
  1

  0
SPLINE
  5
88
330
84
100
AcDbEntity
  8
_U+30EC_U+30A4_U+30E4_U+30FC 1
370
     0
100
AcDbSpline
210
0.0
220
0.0
230
1.0
 70
    11
 71
     3
 72
    26
 73
    22
 74
     0
 42
0.0000000001
 43
0.0000000001
 12
1.0
 22
0.0
 32
0.0
 13
1.0
 23
0.0
 33
0.0
 40
0.0
 40
0.0
 40
0.0
 40
0.0
 40
1.0
 40
1.0
 40
1.0
 40
2.0
 40
2.0
 40
2.0
 40
3.0
 40
3.0
 40
3.0
 40
4.0
 40
4.0
 40
4.0
 40
5.0
 40
5.0
 40
5.0
 40
6.0
 40
6.0
 40
6.0
 40
7.0
 40
7.0
 40
7.0
 40
7.0
 10
103.413153728487
 20
-143.6248249966459
 30
0.0
 10
103.413153728487
 20
-143.6248249966459
 30
0.0
 10
103.413153728487
 20
-142.5206718936233
 30
0.0
 10
103.413153728487
 20
-142.5206718936233
 30
0.0
 10
103.413153728487
 20
-142.5206718936233
 30
0.0
 10
103.0603759507974
 20
-142.5206718936233
 30
0.0
 10
103.0603759507974
 20
-142.5206718936233
 30
0.0
 10
103.0603759507974
 20
-142.5206718936233
 30
0.0
 10
103.0603759507974
 20
-142.3725327877576
 30
0.0
 10
103.0603759507974
 20
-142.3725327877576
 30
0.0
 10
103.4153930405524
 20
-142.357718877171
 30
0.0
 10
103.4651746703143
 20
-142.1947658607187
 30
0.0
 10
103.4968695487786
 20
-142.0803886906084
 30
0.0
 10
103.4968695487786
 20
-142.0803886906084
 30
0.0
 10
103.6527601194861
 20
-142.0803886906084
 30
0.0
 10
103.6527601194861
 20
-142.0803886906084
 30
0.0
 10
103.6527601194861
 20
-142.0803886906084
 30
0.0
 10
103.6527601194861
 20
-143.6248249966459
 30
0.0
 10
103.6527601194861
 20
-143.6248249966459
 30
0.0
 10
103.6527601194861
 20
-143.6248249966459
 30
0.0
 10
103.413153728487
 20
-143.6248249966459
 30
0.0
 10
103.413153728487
 20
-143.6248249966459
 30
0.0
  0
HATCH
  5
89
330
84
100
AcDbEntity
  8
_U+30EC_U+30A4_U+30E4_U+30FC 1
 62
   179
420
  2234388
100
AcDbHatch
 10
0.0
 20
0.0
 30
0.0
210
0.0
220
0.0
230
1.0
  2
SOLID
 70
     1
 71
     0
 91
        1
 92
        1
 93
        1
 72
     4
 94
        3
 73
     0
 74
     1
 95
       26
 96
       22
 40
0.0
 40
0.0
 40
0.0
 40
0.0
 40
1.0
 40
1.0
 40
1.0
 40
2.0
 40
2.0
 40
2.0
 40
3.0
 40
3.0
 40
3.0
 40
4.0
 40
4.0
 40
4.0
 40
5.0
 40
5.0
 40
5.0
 40
6.0
 40
6.0
 40
6.0
 40
7.0
 40
7.0
 40
7.0
 40
7.0
 10
103.413153728487
 20
-143.6248249966459
 10
103.413153728487
 20
-143.6248249966459
 10
103.413153728487
 20
-142.5206718936233
 10
103.413153728487
 20
-142.5206718936233
 10
103.413153728487
 20
-142.5206718936233
 10
103.0603759507974
 20
-142.5206718936233
 10
103.0603759507974
 20
-142.5206718936233
 10
103.0603759507974
 20
-142.5206718936233
 10
103.0603759507974
 20
-142.3725327877576
 10
103.0603759507974
 20
-142.3725327877576
 10
103.4153930405524
 20
-142.357718877171
 10
103.4651746703143
 20
-142.1947658607187
 10
103.4968695487786
 20
-142.0803886906084
 10
103.4968695487786
 20
-142.0803886906084
 10
103.6527601194861
 20
-142.0803886906084
 10
103.6527601194861
 20
-142.0803886906084
 10
103.6527601194861
 20
-142.0803886906084
 10
103.6527601194861
 20
-143.6248249966459
 10
103.6527601194861
 20
-143.6248249966459
 10
103.6527601194861
 20
-143.6248249966459
 10
103.413153728487
 20
-143.6248249966459
 10
103.413153728487
 20
-143.6248249966459
 97
        0
 97
        0
 75
     2
 76
     1
 98
        0
  0
ENDBLK
  5
87
330
84
100
AcDbEntity
  8
0
100
AcDbBlockEnd
  0
BLOCK
  5
98
330
96
100
AcDbEntity
  8
0
100
AcDbBlockBegin
  2
block 3
 70
     0
 10
0.0
 20
0.0
 30
0.0
  3
block 3
  1

  0
SPLINE
  5
9A
330
96
100
AcDbEntity
  8
_U+30EC_U+30A4_U+30E4_U+30FC 1
370
     0
100
AcDbSpline
210
0.0
220
0.0
230
1.0
 70
    11
 71
     3
 72
    26
 73
    22
 74
     0
 42
0.0000000001
 43
0.0000000001
 12
1.0
 22
0.0
 32
0.0
 13
1.0
 23
0.0
 33
0.0
 40
0.0
 40
0.0
 40
0.0
 40
0.0
 40
1.0
 40
1.0
 40
1.0
 40
2.0
 40
2.0
 40
2.0
 40
3.0
 40
3.0
 40
3.0
 40
4.0
 40
4.0
 40
4.0
 40
5.0
 40
5.0
 40
5.0
 40
6.0
 40
6.0
 40
6.0
 40
7.0
 40
7.0
 40
7.0
 40
7.0
 10
105.2447387432201
 20
-159.9761094435129
 30
0.0
 10
105.2447387432201
 20
-159.9761094435129
 30
0.0
 10
105.2447387432201
 20
-158.8719563404904
 30
0.0
 10
105.2447387432201
 20
-158.8719563404904
 30
0.0
 10
105.2447387432201
 20
-158.8719563404904
 30
0.0
 10
104.8919609655305
 20
-158.8719563404904
 30
0.0
 10
104.8919609655305
 20
-158.8719563404904
 30
0.0
 10
104.8919609655305
 20
-158.8719563404904
 30
0.0
 10
104.8919609655305
 20
-158.7238172346246
 30
0.0
 10
104.8919609655305
 20
-158.7238172346246
 30
0.0
 10
105.2469780552855
 20
-158.709003324038
 30
0.0
 10
105.2967596850473
 20
-158.5460503075857
 30
0.0
 10
105.3282823087374
 20
-158.4316731374754
 30
0.0
 10
105.3282823087374
 20
-158.4316731374754
 30
0.0
 10
105.4843451342192
 20
-158.4316731374754
 30
0.0
 10
105.4843451342192
 20
-158.4316731374754
 30
0.0
 10
105.4843451342192
 20
-158.4316731374754
 30
0.0
 10
105.4843451342192
 20
-159.9761094435129
 30
0.0
 10
105.4843451342192
 20
-159.9761094435129
 30
0.0
 10
105.4843451342192
 20
-159.9761094435129
 30
0.0
 10
105.2447387432201
 20
-159.9761094435129
 30
0.0
 10
105.2447387432201
 20
-159.9761094435129
 30
0.0
  0
HATCH
  5
9B
330
96
100
AcDbEntity
  8
_U+30EC_U+30A4_U+30E4_U+30FC 1
 62
   179
420
  2234388
100
AcDbHatch
 10
0.0
 20
0.0
 30
0.0
210
0.0
220
0.0
230
1.0
  2
SOLID
 70
     1
 71
     0
 91
        1
 92
        1
 93
        1
 72
     4
 94
        3
 73
     0
 74
     1
 95
       26
 96
       22
 40
0.0
 40
0.0
 40
0.0
 40
0.0
 40
1.0
 40
1.0
 40
1.0
 40
2.0
 40
2.0
 40
2.0
 40
3.0
 40
3.0
 40
3.0
 40
4.0
 40
4.0
 40
4.0
 40
5.0
 40
5.0
 40
5.0
 40
6.0
 40
6.0
 40
6.0
 40
7.0
 40
7.0
 40
7.0
 40
7.0
 10
105.2447387432201
 20
-159.9761094435129
 10
105.2447387432201
 20
-159.9761094435129
 10
105.2447387432201
 20
-158.8719563404904
 10
105.2447387432201
 20
-158.8719563404904
 10
105.2447387432201
 20
-158.8719563404904
 10
104.8919609655305
 20
-158.8719563404904
 10
104.8919609655305
 20
-158.8719563404904
 10
104.8919609655305
 20
-158.8719563404904
 10
104.8919609655305
 20
-158.7238172346246
 10
104.8919609655305
 20
-158.7238172346246
 10
105.2469780552855
 20
-158.709003324038
 10
105.2967596850473
 20
-158.5460503075857
 10
105.3282823087374
 20
-158.4316731374754
 10
105.3282823087374
 20
-158.4316731374754
 10
105.4843451342192
 20
-158.4316731374754
 10
105.4843451342192
 20
-158.4316731374754
 10
105.4843451342192
 20
-158.4316731374754
 10
105.4843451342192
 20
-159.9761094435129
 10
105.4843451342192
 20
-159.9761094435129
 10
105.4843451342192
 20
-159.9761094435129
 10
105.2447387432201
 20
-159.9761094435129
 10
105.2447387432201
 20
-159.9761094435129
 97
        0
 97
        0
 75
     2
 76
     1
 98
        0
  0
SPLINE
  5
9C
330
96
100
AcDbEntity
  8
_U+30EC_U+30A4_U+30E4_U+30FC 1
370
     0
100
AcDbSpline
210
0.0
220
0.0
230
1.0
 70
    11
 71
     3
 72
    62
 73
    58
 74
     0
 42
0.0000000001
 43
0.0000000001
 12
1.0
 22
0.0
 32
0.0
 13
1.0
 23
0.0
 33
0.0
 40
0.0
 40
0.0
 40
0.0
 40
0.0
 40
1.0
 40
1.0
 40
1.0
 40
2.0
 40
2.0
 40
2.0
 40
3.0
 40
3.0
 40
3.0
 40
4.0
 40
4.0
 40
4.0
 40
5.0
 40
5.0
 40
5.0
 40
6.0
 40
6.0
 40
6.0
 40
7.0
 40
7.0
 40
7.0
 40
8.0
 40
8.0
 40
8.0
 40
9.0
 40
9.0
 40
9.0
 40
10.0
 40
10.0
 40
10.0
 40
11.0
 40
11.0
 40
11.0
 40
12.0
 40
12.0
 40
12.0
 40
13.0
 40
13.0
 40
13.0
 40
14.0
 40
14.0
 40
14.0
 40
15.0
 40
15.0
 40
15.0
 40
16.0
 40
16.0
 40
16.0
 40
17.0
 40
17.0
 40
17.0
 40
18.0
 40
18.0
 40
18.0
 40
19.0
 40
19.0
 40
19.0
 40
19.0
 10
106.5454345436762
 20
-160.0267523471461
 30
0.0
 10
106.4438042268613
 20
-160.0267523471461
 30
0.0
 10
106.2109157720584
 20
-160.0057372646861
 30
0.0
 10
106.0772460672307
 20
-159.8197021084826
 30
0.0
 10
105.9983533806185
 20
-159.7073919956634
 30
0.0
 10
105.9938747564876
 20
-159.6081732456882
 30
0.0
 10
105.9893961323568
 20
-159.5234238967511
 30
0.0
 10
105.9893961323568
 20
-159.5234238967511
 30
0.0
 10
106.2243516444509
 20
-159.5234238967511
 30
0.0
 10
106.2243516444509
 20
-159.5234238967511
 30
0.0
 10
106.2267632112905
 20
-159.597493449684
 30
0.0
 10
106.2377875168433
 20
-159.8321044522295
 30
0.0
 10
106.5409559195453
 20
-159.8321044522295
 30
0.0
 10
106.687716987217
 20
-159.8321044522295
 30
0.0
 10
106.8506700036693
 20
-159.7625135234274
 30
0.0
 10
106.8506700036693
 20
-159.5341036927554
 30
0.0
 10
106.8506700036693
 20
-159.4176594653539
 30
0.0
 10
106.8100178769433
 20
-159.3690836190119
 30
0.0
 10
106.7759114316394
 20
-159.3373887405476
 30
0.0
 10
106.6970187450271
 20
-159.2633191876147
 30
0.0
 10
106.5726507980096
 20
-159.2505723343193
 30
0.0
 10
106.5137396652118
 20
-159.2505723343193
 30
0.0
 10
106.4934136018489
 20
-159.2505723343193
 30
0.0
 10
106.4548285324141
 20
-159.2526393916105
 30
0.0
 10
106.425889730338
 20
-159.2567735061928
 30
0.0
 10
106.425889730338
 20
-159.2567735061928
 30
0.0
 10
106.425889730338
 20
-159.0621256112761
 30
0.0
 10
106.425889730338
 20
-159.0621256112761
 30
0.0
 10
106.4665418570639
 20
-159.0686712926981
 30
0.0
 10
106.5113280983722
 20
-159.0707383499893
 30
0.0
 10
106.5182182893427
 20
-159.0707383499893
 30
0.0
 10
106.5884982372418
 20
-159.0707383499893
 30
0.0
 10
106.8007161191332
 20
-159.0493787579807
 30
0.0
 10
106.8007161191332
 20
-158.8127006981441
 30
0.0
 10
106.8007161191332
 20
-158.6349337711052
 30
0.0
 10
106.660845242432
 20
-158.5798122433412
 30
0.0
 10
106.5430229768365
 20
-158.5798122433412
 30
0.0
 10
106.260525147046
 20
-158.5798122433412
 30
0.0
 10
106.2515678987843
 20
-158.8127006981441
 30
0.0
 10
106.2470892746535
 20
-158.8843586842372
 30
0.0
 10
106.2470892746535
 20
-158.8843586842372
 30
0.0
 10
106.0300482590828
 20
-158.8843586842372
 30
0.0
 10
106.0300482590828
 20
-158.8843586842372
 30
0.0
 10
106.0390055073444
 20
-158.7596462276712
 30
0.0
 10
106.068288818969
 20
-158.3830972911334
 30
0.0
 10
106.5568033587775
 20
-158.3830972911334
 30
0.0
 10
106.7965820045509
 20
-158.3830972911334
 30
0.0
 10
107.0542751468475
 20
-158.5102213145391
 30
0.0
 10
107.0542751468475
 20
-158.8061550167221
 30
0.0
 10
107.0542751468475
 20
-158.9925346824741
 30
0.0
 10
106.9523003204842
 20
-159.0748724645716
 30
0.0
 10
106.8461913795385
 20
-159.136195164209
 30
0.0
 10
106.9116481937582
 20
-159.163755928091
 30
0.0
 10
107.1059515791263
 20
-159.2440266528973
 30
0.0
 10
107.1059515791263
 20
-159.5213568394599
 30
0.0
 10
107.1059515791263
 20
-159.8596652161115
 30
0.0
 10
106.8417127554076
 20
-160.0267523471461
 30
0.0
 10
106.5454345436762
 20
-160.0267523471461
 30
0.0
  0
HATCH
  5
9D
330
96
100
AcDbEntity
  8
_U+30EC_U+30A4_U+30E4_U+30FC 1
 62
   179
420
  2234388
100
AcDbHatch
 10
0.0
 20
0.0
 30
0.0
210
0.0
220
0.0
230
1.0
  2
SOLID
 70
     1
 71
     0
 91
        1
 92
        1
 93
        1
 72
     4
 94
        3
 73
     0
 74
     1
 95
       62
 96
       58
 40
0.0
 40
0.0
 40
0.0
 40
0.0
 40
1.0
 40
1.0
 40
1.0
 40
2.0
 40
2.0
 40
2.0
 40
3.0
 40
3.0
 40
3.0
 40
4.0
 40
4.0
 40
4.0
 40
5.0
 40
5.0
 40
5.0
 40
6.0
 40
6.0
 40
6.0
 40
7.0
 40
7.0
 40
7.0
 40
8.0
 40
8.0
 40
8.0
 40
9.0
 40
9.0
 40
9.0
 40
10.0
 40
10.0
 40
10.0
 40
11.0
 40
11.0
 40
11.0
 40
12.0
 40
12.0
 40
12.0
 40
13.0
 40
13.0
 40
13.0
 40
14.0
 40
14.0
 40
14.0
 40
15.0
 40
15.0
 40
15.0
 40
16.0
 40
16.0
 40
16.0
 40
17.0
 40
17.0
 40
17.0
 40
18.0
 40
18.0
 40
18.0
 40
19.0
 40
19.0
 40
19.0
 40
19.0
 10
106.5454345436762
 20
-160.0267523471461
 10
106.4438042268613
 20
-160.0267523471461
 10
106.2109157720584
 20
-160.0057372646861
 10
106.0772460672307
 20
-159.8197021084826
 10
105.9983533806185
 20
-159.7073919956634
 10
105.9938747564876
 20
-159.6081732456882
 10
105.9893961323568
 20
-159.5234238967511
 10
105.9893961323568
 20
-159.5234238967511
 10
106.2243516444509
 20
-159.5234238967511
 10
106.2243516444509
 20
-159.5234238967511
 10
106.2267632112905
 20
-159.597493449684
 10
106.2377875168433
 20
-159.8321044522295
 10
106.5409559195453
 20
-159.8321044522295
 10
106.687716987217
 20
-159.8321044522295
 10
106.8506700036693
 20
-159.7625135234274
 10
106.8506700036693
 20
-159.5341036927554
 10
106.8506700036693
 20
-159.4176594653539
 10
106.8100178769433
 20
-159.3690836190119
 10
106.7759114316394
 20
-159.3373887405476
 10
106.6970187450271
 20
-159.2633191876147
 10
106.5726507980096
 20
-159.2505723343193
 10
106.5137396652118
 20
-159.2505723343193
 10
106.4934136018489
 20
-159.2505723343193
 10
106.4548285324141
 20
-159.2526393916105
 10
106.425889730338
 20
-159.2567735061928
 10
106.425889730338
 20
-159.2567735061928
 10
106.425889730338
 20
-159.0621256112761
 10
106.425889730338
 20
-159.0621256112761
 10
106.4665418570639
 20
-159.0686712926981
 10
106.5113280983722
 20
-159.0707383499893
 10
106.5182182893427
 20
-159.0707383499893
 10
106.5884982372418
 20
-159.0707383499893
 10
106.8007161191332
 20
-159.0493787579807
 10
106.8007161191332
 20
-158.8127006981441
 10
106.8007161191332
 20
-158.6349337711052
 10
106.660845242432
 20
-158.5798122433412
 10
106.5430229768365
 20
-158.5798122433412
 10
106.260525147046
 20
-158.5798122433412
 10
106.2515678987843
 20
-158.8127006981441
 10
106.2470892746535
 20
-158.8843586842372
 10
106.2470892746535
 20
-158.8843586842372
 10
106.0300482590828
 20
-158.8843586842372
 10
106.0300482590828
 20
-158.8843586842372
 10
106.0390055073444
 20
-158.7596462276712
 10
106.068288818969
 20
-158.3830972911334
 10
106.5568033587775
 20
-158.3830972911334
 10
106.7965820045509
 20
-158.3830972911334
 10
107.0542751468475
 20
-158.5102213145391
 10
107.0542751468475
 20
-158.8061550167221
 10
107.0542751468475
 20
-158.9925346824741
 10
106.9523003204842
 20
-159.0748724645716
 10
106.8461913795385
 20
-159.136195164209
 10
106.9116481937582
 20
-159.163755928091
 10
107.1059515791263
 20
-159.2440266528973
 10
107.1059515791263
 20
-159.5213568394599
 10
107.1059515791263
 20
-159.8596652161115
 10
106.8417127554076
 20
-160.0267523471461
 10
106.5454345436762
 20
-160.0267523471461
 97
        0
 97
        0
 75
     2
 76
     1
 98
        0
  0
ENDBLK
  5
99
330
96
100
AcDbEntity
  8
0
100
AcDbBlockEnd
  0
BLOCK
  5
AC
330
AA
100
AcDbEntity
  8
0
100
AcDbBlockBegin
  2
block 4
 70
     0
 10
0.0
 20
0.0
 30
0.0
  3
block 4
  1

  0
SPLINE
  5
AE
330
AA
100
AcDbEntity
  8
_U+30EC_U+30A4_U+30E4_U+30FC 1
370
     0
100
AcDbSpline
210
0.0
220
0.0
230
1.0
 70
    11
 71
     3
 72
    26
 73
    22
 74
     0
 42
0.0000000001
 43
0.0000000001
 12
1.0
 22
0.0
 32
0.0
 13
1.0
 23
0.0
 33
0.0
 40
0.0
 40
0.0
 40
0.0
 40
0.0
 40
1.0
 40
1.0
 40
1.0
 40
2.0
 40
2.0
 40
2.0
 40
3.0
 40
3.0
 40
3.0
 40
4.0
 40
4.0
 40
4.0
 40
5.0
 40
5.0
 40
5.0
 40
6.0
 40
6.0
 40
6.0
 40
7.0
 40
7.0
 40
7.0
 40
7.0
 10
94.82418617421062
 20
-150.1668890683611
 30
0.0
 10
94.82418617421062
 20
-150.1668890683611
 30
0.0
 10
93.72003307118806
 20
-150.1668890683611
 30
0.0
 10
93.72003307118806
 20
-150.1668890683611
 30
0.0
 10
93.72003307118806
 20
-150.1668890683611
 30
0.0
 10
93.72003307118806
 20
-150.5196668460507
 30
0.0
 10
93.72003307118806
 20
-150.5196668460507
 30
0.0
 10
93.72003307118806
 20
-150.5196668460507
 30
0.0
 10
93.5718939653223
 20
-150.5196668460507
 30
0.0
 10
93.5718939653223
 20
-150.5196668460507
 30
0.0
 10
93.55708005473574
 20
-150.1648220110699
 30
0.0
 10
93.39412703828341
 20
-150.1148681265338
 30
0.0
 10
93.27974986817313
 20
-150.0831732480695
 30
0.0
 10
93.27974986817313
 20
-150.0831732480695
 30
0.0
 10
93.27974986817313
 20
-149.9271104225877
 30
0.0
 10
93.27974986817313
 20
-149.9271104225877
 30
0.0
 10
93.27974986817313
 20
-149.9271104225877
 30
0.0
 10
94.82418617421062
 20
-149.9271104225877
 30
0.0
 10
94.82418617421062
 20
-149.9271104225877
 30
0.0
 10
94.82418617421062
 20
-149.9271104225877
 30
0.0
 10
94.82418617421062
 20
-150.1668890683611
 30
0.0
 10
94.82418617421062
 20
-150.1668890683611
 30
0.0
  0
HATCH
  5
AF
330
AA
100
AcDbEntity
  8
_U+30EC_U+30A4_U+30E4_U+30FC 1
 62
   179
420
  2234388
100
AcDbHatch
 10
0.0
 20
0.0
 30
0.0
210
0.0
220
0.0
230
1.0
  2
SOLID
 70
     1
 71
     0
 91
        1
 92
        1
 93
        1
 72
     4
 94
        3
 73
     0
 74
     1
 95
       26
 96
       22
 40
0.0
 40
0.0
 40
0.0
 40
0.0
 40
1.0
 40
1.0
 40
1.0
 40
2.0
 40
2.0
 40
2.0
 40
3.0
 40
3.0
 40
3.0
 40
4.0
 40
4.0
 40
4.0
 40
5.0
 40
5.0
 40
5.0
 40
6.0
 40
6.0
 40
6.0
 40
7.0
 40
7.0
 40
7.0
 40
7.0
 10
94.82418617421062
 20
-150.1668890683611
 10
94.82418617421062
 20
-150.1668890683611
 10
93.72003307118806
 20
-150.1668890683611
 10
93.72003307118806
 20
-150.1668890683611
 10
93.72003307118806
 20
-150.1668890683611
 10
93.72003307118806
 20
-150.5196668460507
 10
93.72003307118806
 20
-150.5196668460507
 10
93.72003307118806
 20
-150.5196668460507
 10
93.5718939653223
 20
-150.5196668460507
 10
93.5718939653223
 20
-150.5196668460507
 10
93.55708005473574
 20
-150.1648220110699
 10
93.39412703828341
 20
-150.1148681265338
 10
93.27974986817313
 20
-150.0831732480695
 10
93.27974986817313
 20
-150.0831732480695
 10
93.27974986817313
 20
-149.9271104225877
 10
93.27974986817313
 20
-149.9271104225877
 10
93.27974986817313
 20
-149.9271104225877
 10
94.82418617421062
 20
-149.9271104225877
 10
94.82418617421062
 20
-149.9271104225877
 10
94.82418617421062
 20
-149.9271104225877
 10
94.82418617421062
 20
-150.1668890683611
 10
94.82418617421062
 20
-150.1668890683611
 97
        0
 97
        0
 75
     2
 76
     1
 98
        0
  0
SPLINE
  5
B0
330
AA
100
AcDbEntity
  8
_U+30EC_U+30A4_U+30E4_U+30FC 1
370
     0
100
AcDbSpline
210
0.0
220
0.0
230
1.0
 70
    11
 71
     3
 72
    53
 73
    49
 74
     0
 42
0.0000000001
 43
0.0000000001
 12
1.0
 22
0.0
 32
0.0
 13
1.0
 23
0.0
 33
0.0
 40
0.0
 40
0.0
 40
0.0
 40
0.0
 40
1.0
 40
1.0
 40
1.0
 40
2.0
 40
2.0
 40
2.0
 40
3.0
 40
3.0
 40
3.0
 40
4.0
 40
4.0
 40
4.0
 40
5.0
 40
5.0
 40
5.0
 40
6.0
 40
6.0
 40
6.0
 40
7.0
 40
7.0
 40
7.0
 40
8.0
 40
8.0
 40
8.0
 40
9.0
 40
9.0
 40
9.0
 40
10.0
 40
10.0
 40
10.0
 40
11.0
 40
11.0
 40
11.0
 40
12.0
 40
12.0
 40
12.0
 40
13.0
 40
13.0
 40
13.0
 40
14.0
 40
14.0
 40
14.0
 40
15.0
 40
15.0
 40
15.0
 40
16.0
 40
16.0
 40
16.0
 40
16.0
 10
94.8748290778438
 20
-148.8773898282321
 30
0.0
 10
94.8748290778438
 20
-148.9611056485236
 30
0.0
 10
94.85794810996607
 20
-149.069626156309
 30
0.0
 10
94.79455835303747
 20
-149.1781466640944
 30
0.0
 10
94.68465980705801
 20
-149.3634928012008
 30
0.0
 10
94.55340166906998
 20
-149.3862304314034
 30
0.0
 10
94.44557018038167
 20
-149.4065564947664
 30
0.0
 10
94.44557018038167
 20
-149.4065564947664
 30
0.0
 10
94.44557018038167
 20
-149.1691894158327
 30
0.0
 10
94.44557018038167
 20
-149.1691894158327
 30
0.0
 10
94.64435218988058
 20
-149.1102782830349
 30
0.0
 10
94.67398001105373
 20
-148.9748860304646
 30
0.0
 10
94.67398001105373
 20
-148.8749782613924
 30
0.0
 10
94.67398001105373
 20
-148.7259778816553
 30
0.0
 10
94.57441675153001
 20
-148.5631971199773
 30
0.0
 10
94.34187280627565
 20
-148.5631971199773
 30
0.0
 10
94.08590221172159
 20
-148.5631971199773
 30
0.0
 10
94.01596677337102
 20
-148.7554334480542
 30
0.0
 10
94.01596677337102
 20
-148.8842800192025
 30
0.0
 10
94.01596677337102
 20
-148.9183864645065
 30
0.0
 10
94.01596677337102
 20
-149.069626156309
 30
0.0
 10
94.14515785406788
 20
-149.1643662821534
 30
0.0
 10
94.14515785406788
 20
-149.1643662821534
 30
0.0
 10
94.12620982889901
 20
-149.352468495648
 30
0.0
 10
94.12620982889901
 20
-149.352468495648
 30
0.0
 10
94.12620982889901
 20
-149.352468495648
 30
0.0
 10
93.27974986817313
 20
-149.2232774149511
 30
0.0
 10
93.27974986817313
 20
-149.2232774149511
 30
0.0
 10
93.27974986817313
 20
-149.2232774149511
 30
0.0
 10
93.27974986817313
 20
-148.3912868552633
 30
0.0
 10
93.27974986817313
 20
-148.3912868552633
 30
0.0
 10
93.27974986817313
 20
-148.3912868552633
 30
0.0
 10
93.47439776308974
 20
-148.3912868552633
 30
0.0
 10
93.47439776308974
 20
-148.3912868552633
 30
0.0
 10
93.47439776308974
 20
-148.3912868552633
 30
0.0
 10
93.47439776308974
 20
-149.049300092946
 30
0.0
 10
93.47439776308974
 20
-149.049300092946
 30
0.0
 10
93.47439776308974
 20
-149.049300092946
 30
0.0
 10
93.89745548867842
 20
-149.1195800408451
 30
0.0
 10
93.89745548867842
 20
-149.1195800408451
 30
0.0
 10
93.86369355292297
 20
-149.0537787170769
 30
0.0
 10
93.82338593574555
 20
-148.9655842726544
 30
0.0
 10
93.82338593574555
 20
-148.8389770135715
 30
0.0
 10
93.82338593574555
 20
-148.5676757441081
 30
0.0
 10
94.00976560149756
 20
-148.3144612259422
 30
0.0
 10
94.32292478110678
 20
-148.3144612259422
 30
0.0
 10
94.64021807529828
 20
-148.3144612259422
 30
0.0
 10
94.8748290778438
 20
-148.5542398717156
 30
0.0
 10
94.8748290778438
 20
-148.8773898282321
 30
0.0
  0
HATCH
  5
B1
330
AA
100
AcDbEntity
  8
_U+30EC_U+30A4_U+30E4_U+30FC 1
 62
   179
420
  2234388
100
AcDbHatch
 10
0.0
 20
0.0
 30
0.0
210
0.0
220
0.0
230
1.0
  2
SOLID
 70
     1
 71
     0
 91
        1
 92
        1
 93
        1
 72
     4
 94
        3
 73
     0
 74
     1
 95
       53
 96
       49
 40
0.0
 40
0.0
 40
0.0
 40
0.0
 40
1.0
 40
1.0
 40
1.0
 40
2.0
 40
2.0
 40
2.0
 40
3.0
 40
3.0
 40
3.0
 40
4.0
 40
4.0
 40
4.0
 40
5.0
 40
5.0
 40
5.0
 40
6.0
 40
6.0
 40
6.0
 40
7.0
 40
7.0
 40
7.0
 40
8.0
 40
8.0
 40
8.0
 40
9.0
 40
9.0
 40
9.0
 40
10.0
 40
10.0
 40
10.0
 40
11.0
 40
11.0
 40
11.0
 40
12.0
 40
12.0
 40
12.0
 40
13.0
 40
13.0
 40
13.0
 40
14.0
 40
14.0
 40
14.0
 40
15.0
 40
15.0
 40
15.0
 40
16.0
 40
16.0
 40
16.0
 40
16.0
 10
94.8748290778438
 20
-148.8773898282321
 10
94.8748290778438
 20
-148.9611056485236
 10
94.85794810996607
 20
-149.069626156309
 10
94.79455835303747
 20
-149.1781466640944
 10
94.68465980705801
 20
-149.3634928012008
 10
94.55340166906998
 20
-149.3862304314034
 10
94.44557018038167
 20
-149.4065564947664
 10
94.44557018038167
 20
-149.4065564947664
 10
94.44557018038167
 20
-149.1691894158327
 10
94.44557018038167
 20
-149.1691894158327
 10
94.64435218988058
 20
-149.1102782830349
 10
94.67398001105373
 20
-148.9748860304646
 10
94.67398001105373
 20
-148.8749782613924
 10
94.67398001105373
 20
-148.7259778816553
 10
94.57441675153001
 20
-148.5631971199773
 10
94.34187280627565
 20
-148.5631971199773
 10
94.08590221172159
 20
-148.5631971199773
 10
94.01596677337102
 20
-148.7554334480542
 10
94.01596677337102
 20
-148.8842800192025
 10
94.01596677337102
 20
-148.9183864645065
 10
94.01596677337102
 20
-149.069626156309
 10
94.14515785406788
 20
-149.1643662821534
 10
94.14515785406788
 20
-149.1643662821534
 10
94.12620982889901
 20
-149.352468495648
 10
94.12620982889901
 20
-149.352468495648
 10
94.12620982889901
 20
-149.352468495648
 10
93.27974986817313
 20
-149.2232774149511
 10
93.27974986817313
 20
-149.2232774149511
 10
93.27974986817313
 20
-149.2232774149511
 10
93.27974986817313
 20
-148.3912868552633
 10
93.27974986817313
 20
-148.3912868552633
 10
93.27974986817313
 20
-148.3912868552633
 10
93.47439776308974
 20
-148.3912868552633
 10
93.47439776308974
 20
-148.3912868552633
 10
93.47439776308974
 20
-148.3912868552633
 10
93.47439776308974
 20
-149.049300092946
 10
93.47439776308974
 20
-149.049300092946
 10
93.47439776308974
 20
-149.049300092946
 10
93.89745548867842
 20
-149.1195800408451
 10
93.89745548867842
 20
-149.1195800408451
 10
93.86369355292297
 20
-149.0537787170769
 10
93.82338593574555
 20
-148.9655842726544
 10
93.82338593574555
 20
-148.8389770135715
 10
93.82338593574555
 20
-148.5676757441081
 10
94.00976560149756
 20
-148.3144612259422
 10
94.32292478110678
 20
-148.3144612259422
 10
94.64021807529828
 20
-148.3144612259422
 10
94.8748290778438
 20
-148.5542398717156
 10
94.8748290778438
 20
-148.8773898282321
 97
        0
 97
        0
 75
     2
 76
     1
 98
        0
  0
POLYLINE
  5
B2
330
AA
100
AcDbEntity
  8
_U+30EC_U+30A4_U+30E4_U+30FC 1
370
     0
100
AcDb2dPolyline
 66
     1
 10
0.0
 20
0.0
 30
0.0
  0
VERTEX
  5
B3
330
B2
100
AcDbEntity
  8
_U+30EC_U+30A4_U+30E4_U+30FC 1
370
     0
100
AcDbVertex
100
AcDb2dVertex
 10
94.82418617421062
 20
-148.0695149369409
 30
0.0
  0
VERTEX
  5
B4
330
B2
100
AcDbEntity
  8
_U+30EC_U+30A4_U+30E4_U+30FC 1
370
     0
100
AcDbVertex
100
AcDb2dVertex
 10
94.57234969423887
 20
-148.0695149369409
 30
0.0
  0
VERTEX
  5
B5
330
B2
100
AcDbEntity
  8
_U+30EC_U+30A4_U+30E4_U+30FC 1
370
     0
100
AcDbVertex
100
AcDb2dVertex
 10
94.57234969423887
 20
-147.8004529795429
 30
0.0
  0
VERTEX
  5
B6
330
B2
100
AcDbEntity
  8
_U+30EC_U+30A4_U+30E4_U+30FC 1
370
     0
100
AcDbVertex
100
AcDb2dVertex
 10
94.82418617421062
 20
-147.8004529795429
 30
0.0
  0
VERTEX
  5
B7
330
B2
100
AcDbEntity
  8
_U+30EC_U+30A4_U+30E4_U+30FC 1
370
     0
100
AcDbVertex
100
AcDb2dVertex
 10
94.82418617421062
 20
-148.0695149369409
 30
0.0
  0
SEQEND
  5
B8
330
B2
100
AcDbEntity
  8
_U+30EC_U+30A4_U+30E4_U+30FC 1
370
     0
  0
HATCH
  5
B9
330
AA
100
AcDbEntity
  8
_U+30EC_U+30A4_U+30E4_U+30FC 1
 62
   179
420
  2234388
100
AcDbHatch
 10
0.0
 20
0.0
 30
0.0
210
0.0
220
0.0
230
1.0
  2
SOLID
 70
     1
 71
     0
 91
        1
 92
        1
 93
        4
 72
     1
 10
94.82418617421062
 20
-148.0695149369409
 11
94.57234969423887
 21
-148.0695149369409
 72
     1
 10
94.57234969423887
 20
-148.0695149369409
 11
94.57234969423887
 21
-147.8004529795429
 72
     1
 10
94.57234969423887
 20
-147.8004529795429
 11
94.82418617421062
 21
-147.8004529795429
 72
     1
 10
94.82418617421062
 20
-147.8004529795429
 11
94.82418617421062
 21
-148.0695149369409
 97
        0
 75
     2
 76
     1
 98
        0
  0
SPLINE
  5
BA
330
AA
100
AcDbEntity
  8
_U+30EC_U+30A4_U+30E4_U+30FC 1
370
     0
100
AcDbSpline
210
0.0
220
0.0
230
1.0
 70
    11
 71
     3
 72
    53
 73
    49
 74
     0
 42
0.0000000001
 43
0.0000000001
 12
1.0
 22
0.0
 32
0.0
 13
1.0
 23
0.0
 33
0.0
 40
0.0
 40
0.0
 40
0.0
 40
0.0
 40
1.0
 40
1.0
 40
1.0
 40
2.0
 40
2.0
 40
2.0
 40
3.0
 40
3.0
 40
3.0
 40
4.0
 40
4.0
 40
4.0
 40
5.0
 40
5.0
 40
5.0
 40
6.0
 40
6.0
 40
6.0
 40
7.0
 40
7.0
 40
7.0
 40
8.0
 40
8.0
 40
8.0
 40
9.0
 40
9.0
 40
9.0
 40
10.0
 40
10.0
 40
10.0
 40
11.0
 40
11.0
 40
11.0
 40
12.0
 40
12.0
 40
12.0
 40
13.0
 40
13.0
 40
13.0
 40
14.0
 40
14.0
 40
14.0
 40
15.0
 40
15.0
 40
15.0
 40
16.0
 40
16.0
 40
16.0
 40
16.0
 10
94.8748290778438
 20
-147.0337469793006
 30
0.0
 10
94.8748290778438
 20
-147.1174627995922
 30
0.0
 10
94.85794810996607
 20
-147.2259833073775
 30
0.0
 10
94.79455835303747
 20
-147.3345038151629
 30
0.0
 10
94.68465980705801
 20
-147.5198499522693
 30
0.0
 10
94.55340166906998
 20
-147.5424153276977
 30
0.0
 10
94.44557018038167
 20
-147.562913645835
 30
0.0
 10
94.44557018038167
 20
-147.562913645835
 30
0.0
 10
94.44557018038167
 20
-147.325374312127
 30
0.0
 10
94.44557018038167
 20
-147.325374312127
 30
0.0
 10
94.64435218988058
 20
-147.2666354341035
 30
0.0
 10
94.67398001105373
 20
-147.1310709267589
 30
0.0
 10
94.67398001105373
 20
-147.0315076672352
 30
0.0
 10
94.67398001105373
 20
-146.8823350327239
 30
0.0
 10
94.57441675153001
 20
-146.7195542710458
 30
0.0
 10
94.34187280627565
 20
-146.7195542710458
 30
0.0
 10
94.08590221172159
 20
-146.7195542710458
 30
0.0
 10
94.01596677337102
 20
-146.9117905991228
 30
0.0
 10
94.01596677337102
 20
-147.0406371702711
 30
0.0
 10
94.01596677337102
 20
-147.0745713608008
 30
0.0
 10
94.01596677337102
 20
-147.2259833073775
 30
0.0
 10
94.14515785406788
 20
-147.3208956879962
 30
0.0
 10
94.14515785406788
 20
-147.3208956879962
 30
0.0
 10
94.12620982889901
 20
-147.5086533919423
 30
0.0
 10
94.12620982889901
 20
-147.5086533919423
 30
0.0
 10
94.12620982889901
 20
-147.5086533919423
 30
0.0
 10
93.27974986817313
 20
-147.3798068207939
 30
0.0
 10
93.27974986817313
 20
-147.3798068207939
 30
0.0
 10
93.27974986817313
 20
-147.3798068207939
 30
0.0
 10
93.27974986817313
 20
-146.5478162611061
 30
0.0
 10
93.27974986817313
 20
-146.5478162611061
 30
0.0
 10
93.27974986817313
 20
-146.5478162611061
 30
0.0
 10
93.47439776308974
 20
-146.5478162611061
 30
0.0
 10
93.47439776308974
 20
-146.5478162611061
 30
0.0
 10
93.47439776308974
 20
-146.5478162611061
 30
0.0
 10
93.47439776308974
 20
-147.2056572440146
 30
0.0
 10
93.47439776308974
 20
-147.2056572440146
 30
0.0
 10
93.47439776308974
 20
-147.2056572440146
 30
0.0
 10
93.89745548867842
 20
-147.2757649371394
 30
0.0
 10
93.89745548867842
 20
-147.2757649371394
 30
0.0
 10
93.86369355292297
 20
-147.2101358681454
 30
0.0
 10
93.82338593574555
 20
-147.121941423723
 30
0.0
 10
93.82338593574555
 20
-146.9953341646401
 30
0.0
 10
93.82338593574555
 20
-146.7240328951766
 30
0.0
 10
94.00976560149756
 20
-146.4708183770108
 30
0.0
 10
94.32292478110678
 20
-146.4708183770108
 30
0.0
 10
94.64021807529828
 20
-146.4708183770108
 30
0.0
 10
94.8748290778438
 20
-146.7104247680099
 30
0.0
 10
94.8748290778438
 20
-147.0337469793006
 30
0.0
  0
HATCH
  5
BB
330
AA
100
AcDbEntity
  8
_U+30EC_U+30A4_U+30E4_U+30FC 1
 62
   179
420
  2234388
100
AcDbHatch
 10
0.0
 20
0.0
 30
0.0
210
0.0
220
0.0
230
1.0
  2
SOLID
 70
     1
 71
     0
 91
        1
 92
        1
 93
        1
 72
     4
 94
        3
 73
     0
 74
     1
 95
       53
 96
       49
 40
0.0
 40
0.0
 40
0.0
 40
0.0
 40
1.0
 40
1.0
 40
1.0
 40
2.0
 40
2.0
 40
2.0
 40
3.0
 40
3.0
 40
3.0
 40
4.0
 40
4.0
 40
4.0
 40
5.0
 40
5.0
 40
5.0
 40
6.0
 40
6.0
 40
6.0
 40
7.0
 40
7.0
 40
7.0
 40
8.0
 40
8.0
 40
8.0
 40
9.0
 40
9.0
 40
9.0
 40
10.0
 40
10.0
 40
10.0
 40
11.0
 40
11.0
 40
11.0
 40
12.0
 40
12.0
 40
12.0
 40
13.0
 40
13.0
 40
13.0
 40
14.0
 40
14.0
 40
14.0
 40
15.0
 40
15.0
 40
15.0
 40
16.0
 40
16.0
 40
16.0
 40
16.0
 10
94.8748290778438
 20
-147.0337469793006
 10
94.8748290778438
 20
-147.1174627995922
 10
94.85794810996607
 20
-147.2259833073775
 10
94.79455835303747
 20
-147.3345038151629
 10
94.68465980705801
 20
-147.5198499522693
 10
94.55340166906998
 20
-147.5424153276977
 10
94.44557018038167
 20
-147.562913645835
 10
94.44557018038167
 20
-147.562913645835
 10
94.44557018038167
 20
-147.325374312127
 10
94.44557018038167
 20
-147.325374312127
 10
94.64435218988058
 20
-147.2666354341035
 10
94.67398001105373
 20
-147.1310709267589
 10
94.67398001105373
 20
-147.0315076672352
 10
94.67398001105373
 20
-146.8823350327239
 10
94.57441675153001
 20
-146.7195542710458
 10
94.34187280627565
 20
-146.7195542710458
 10
94.08590221172159
 20
-146.7195542710458
 10
94.01596677337102
 20
-146.9117905991228
 10
94.01596677337102
 20
-147.0406371702711
 10
94.01596677337102
 20
-147.0745713608008
 10
94.01596677337102
 20
-147.2259833073775
 10
94.14515785406788
 20
-147.3208956879962
 10
94.14515785406788
 20
-147.3208956879962
 10
94.12620982889901
 20
-147.5086533919423
 10
94.12620982889901
 20
-147.5086533919423
 10
94.12620982889901
 20
-147.5086533919423
 10
93.27974986817313
 20
-147.3798068207939
 10
93.27974986817313
 20
-147.3798068207939
 10
93.27974986817313
 20
-147.3798068207939
 10
93.27974986817313
 20
-146.5478162611061
 10
93.27974986817313
 20
-146.5478162611061
 10
93.27974986817313
 20
-146.5478162611061
 10
93.47439776308974
 20
-146.5478162611061
 10
93.47439776308974
 20
-146.5478162611061
 10
93.47439776308974
 20
-146.5478162611061
 10
93.47439776308974
 20
-147.2056572440146
 10
93.47439776308974
 20
-147.2056572440146
 10
93.47439776308974
 20
-147.2056572440146
 10
93.89745548867842
 20
-147.2757649371394
 10
93.89745548867842
 20
-147.2757649371394
 10
93.86369355292297
 20
-147.2101358681454
 10
93.82338593574555
 20
-147.121941423723
 10
93.82338593574555
 20
-146.9953341646401
 10
93.82338593574555
 20
-146.7240328951766
 10
94.00976560149756
 20
-146.4708183770108
 10
94.32292478110678
 20
-146.4708183770108
 10
94.64021807529828
 20
-146.4708183770108
 10
94.8748290778438
 20
-146.7104247680099
 10
94.8748290778438
 20
-147.0337469793006
 97
        0
 97
        0
 75
     2
 76
     1
 98
        0
  0
ENDBLK
  5
AD
330
AA
100
AcDbEntity
  8
0
100
AcDbBlockEnd
  0
BLOCK
  5
CF
330
CD
100
AcDbEntity
  8
0
100
AcDbBlockBegin
  2
block 5
 70
     0
 10
0.0
 20
0.0
 30
0.0
  3
block 5
  1

  0
SPLINE
  5
D1
330
CD
100
AcDbEntity
  8
_U+30EC_U+30A4_U+30E4_U+30FC 1
370
     0
100
AcDbSpline
210
0.0
220
0.0
230
1.0
 70
    11
 71
     3
 72
    32
 73
    28
 74
     0
 42
0.0000000001
 43
0.0000000001
 12
1.0
 22
0.0
 32
0.0
 13
1.0
 23
0.0
 33
0.0
 40
0.0
 40
0.0
 40
0.0
 40
0.0
 40
1.0
 40
1.0
 40
1.0
 40
2.0
 40
2.0
 40
2.0
 40
3.0
 40
3.0
 40
3.0
 40
4.0
 40
4.0
 40
4.0
 40
5.0
 40
5.0
 40
5.0
 40
6.0
 40
6.0
 40
6.0
 40
7.0
 40
7.0
 40
7.0
 40
8.0
 40
8.0
 40
8.0
 40
9.0
 40
9.0
 40
9.0
 40
9.0
 10
115.8754421368298
 20
-153.0924641544352
 30
0.0
 10
115.8754421368298
 20
-153.6443684511723
 30
0.0
 10
115.3214707828016
 20
-153.6533256994339
 30
0.0
 10
115.1075303531676
 20
-153.6533256994339
 30
0.0
 10
114.8770534652044
 20
-153.6533256994339
 30
0.0
 10
114.2297200235259
 20
-153.6329996360709
 30
0.0
 10
114.2297200235259
 20
-153.0518120277093
 30
0.0
 10
114.2297200235259
 20
-152.8664658906028
 30
0.0
 10
114.2996554618765
 20
-152.6042941241753
 30
0.0
 10
114.6317626666546
 20
-152.5636419974494
 30
0.0
 10
114.6317626666546
 20
-152.5636419974494
 30
0.0
 10
114.6317626666546
 20
-152.7920518281214
 30
0.0
 10
114.6317626666546
 20
-152.7920518281214
 30
0.0
 10
114.5745740815994
 20
-152.8030761336742
 30
0.0
 10
114.4264349757337
 20
-152.8371825789782
 30
0.0
 10
114.4264349757337
 20
-153.0542235945489
 30
0.0
 10
114.4264349757337
 20
-153.3660047359641
 30
0.0
 10
114.7544080659295
 20
-153.4090684295297
 30
0.0
 10
114.9593912473018
 20
-153.4225043019221
 30
0.0
 10
114.8811875797867
 20
-153.323285551947
 30
0.0
 10
114.8219319374404
 20
-153.2509385467567
 30
0.0
 10
114.8219319374404
 20
-153.0566351613886
 30
0.0
 10
114.8219319374404
 20
-152.8643988333117
 30
0.0
 10
114.9301079356772
 20
-152.5409043672467
 30
0.0
 10
115.3362846933882
 20
-152.5409043672467
 30
0.0
 10
115.6556450448708
 20
-152.5409043672467
 30
0.0
 10
115.8754421368298
 20
-152.7534667586866
 30
0.0
 10
115.8754421368298
 20
-153.0924641544352
 30
0.0
  0
SPLINE
  5
D2
330
CD
100
AcDbEntity
  8
_U+30EC_U+30A4_U+30E4_U+30FC 1
370
     0
100
AcDbSpline
210
0.0
220
0.0
230
1.0
 70
    11
 71
     3
 72
    17
 73
    13
 74
     0
 42
0.0000000001
 43
0.0000000001
 12
1.0
 22
0.0
 32
0.0
 13
1.0
 23
0.0
 33
0.0
 40
0.0
 40
0.0
 40
0.0
 40
0.0
 40
1.0
 40
1.0
 40
1.0
 40
2.0
 40
2.0
 40
2.0
 40
3.0
 40
3.0
 40
3.0
 40
4.0
 40
4.0
 40
4.0
 40
4.0
 10
115.016579832357
 20
-153.0745496579119
 30
0.0
 10
115.016579832357
 20
-153.3549804304113
 30
0.0
 10
115.2281086951513
 20
-153.3956325571372
 30
0.0
 10
115.3445529225528
 20
-153.3956325571372
 30
0.0
 10
115.5202527923005
 20
-153.3956325571372
 30
0.0
 10
115.6832058087528
 20
-153.2936577307738
 30
0.0
 10
115.6832058087528
 20
-153.0972872881146
 30
0.0
 10
115.6832058087528
 20
-152.9684407169662
 30
0.0
 10
115.6239501664065
 20
-152.7806830130201
 30
0.0
 10
115.3383517506793
 20
-152.7806830130201
 30
0.0
 10
115.1140760345895
 20
-152.7806830130201
 30
0.0
 10
115.016579832357
 20
-152.9298556475314
 30
0.0
 10
115.016579832357
 20
-153.0745496579119
 30
0.0
  0
HATCH
  5
D3
330
CD
100
AcDbEntity
  8
_U+30EC_U+30A4_U+30E4_U+30FC 1
 62
   179
420
  2234388
100
AcDbHatch
 10
0.0
 20
0.0
 30
0.0
210
0.0
220
0.0
230
1.0
  2
SOLID
 70
     1
 71
     0
 91
        2
 92
        1
 93
        1
 72
     4
 94
        3
 73
     0
 74
     1
 95
       32
 96
       28
 40
0.0
 40
0.0
 40
0.0
 40
0.0
 40
1.0
 40
1.0
 40
1.0
 40
2.0
 40
2.0
 40
2.0
 40
3.0
 40
3.0
 40
3.0
 40
4.0
 40
4.0
 40
4.0
 40
5.0
 40
5.0
 40
5.0
 40
6.0
 40
6.0
 40
6.0
 40
7.0
 40
7.0
 40
7.0
 40
8.0
 40
8.0
 40
8.0
 40
9.0
 40
9.0
 40
9.0
 40
9.0
 10
115.8754421368298
 20
-153.0924641544352
 10
115.8754421368298
 20
-153.6443684511723
 10
115.3214707828016
 20
-153.6533256994339
 10
115.1075303531676
 20
-153.6533256994339
 10
114.8770534652044
 20
-153.6533256994339
 10
114.2297200235259
 20
-153.6329996360709
 10
114.2297200235259
 20
-153.0518120277093
 10
114.2297200235259
 20
-152.8664658906028
 10
114.2996554618765
 20
-152.6042941241753
 10
114.6317626666546
 20
-152.5636419974494
 10
114.6317626666546
 20
-152.5636419974494
 10
114.6317626666546
 20
-152.7920518281214
 10
114.6317626666546
 20
-152.7920518281214
 10
114.5745740815994
 20
-152.8030761336742
 10
114.4264349757337
 20
-152.8371825789782
 10
114.4264349757337
 20
-153.0542235945489
 10
114.4264349757337
 20
-153.3660047359641
 10
114.7544080659295
 20
-153.4090684295297
 10
114.9593912473018
 20
-153.4225043019221
 10
114.8811875797867
 20
-153.323285551947
 10
114.8219319374404
 20
-153.2509385467567
 10
114.8219319374404
 20
-153.0566351613886
 10
114.8219319374404
 20
-152.8643988333117
 10
114.9301079356772
 20
-152.5409043672467
 10
115.3362846933882
 20
-152.5409043672467
 10
115.6556450448708
 20
-152.5409043672467
 10
115.8754421368298
 20
-152.7534667586866
 10
115.8754421368298
 20
-153.0924641544352
 97
        0
 97
        0
 92
        1
 93
        1
 72
     4
 94
        3
 73
     0
 74
     1
 95
       17
 96
       13
 40
0.0
 40
0.0
 40
0.0
 40
0.0
 40
1.0
 40
1.0
 40
1.0
 40
2.0
 40
2.0
 40
2.0
 40
3.0
 40
3.0
 40
3.0
 40
4.0
 40
4.0
 40
4.0
 40
4.0
 10
115.016579832357
 20
-153.0745496579119
 10
115.016579832357
 20
-153.3549804304113
 10
115.2281086951513
 20
-153.3956325571372
 10
115.3445529225528
 20
-153.3956325571372
 10
115.5202527923005
 20
-153.3956325571372
 10
115.6832058087528
 20
-153.2936577307738
 10
115.6832058087528
 20
-153.0972872881146
 10
115.6832058087528
 20
-152.9684407169662
 10
115.6239501664065
 20
-152.7806830130201
 10
115.3383517506793
 20
-152.7806830130201
 10
115.1140760345895
 20
-152.7806830130201
 10
115.016579832357
 20
-152.9298556475314
 10
115.016579832357
 20
-153.0745496579119
 97
        0
 97
        0
 75
     2
 76
     1
 98
        0
  0
POLYLINE
  5
D4
330
CD
100
AcDbEntity
  8
_U+30EC_U+30A4_U+30E4_U+30FC 1
370
     0
100
AcDb2dPolyline
 66
     1
 10
0.0
 20
0.0
 30
0.0
  0
VERTEX
  5
D5
330
D4
100
AcDbEntity
  8
_U+30EC_U+30A4_U+30E4_U+30FC 1
370
     0
100
AcDbVertex
100
AcDb2dVertex
 10
115.8247992331966
 20
-152.3097384601865
 30
0.0
  0
VERTEX
  5
D6
330
D4
100
AcDbEntity
  8
_U+30EC_U+30A4_U+30E4_U+30FC 1
370
     0
100
AcDbVertex
100
AcDb2dVertex
 10
115.5729627532248
 20
-152.3097384601865
 30
0.0
  0
VERTEX
  5
D7
330
D4
100
AcDbEntity
  8
_U+30EC_U+30A4_U+30E4_U+30FC 1
370
     0
100
AcDbVertex
100
AcDb2dVertex
 10
115.5729627532248
 20
-152.0403319932399
 30
0.0
  0
VERTEX
  5
D8
330
D4
100
AcDbEntity
  8
_U+30EC_U+30A4_U+30E4_U+30FC 1
370
     0
100
AcDbVertex
100
AcDb2dVertex
 10
115.8247992331966
 20
-152.0403319932399
 30
0.0
  0
VERTEX
  5
D9
330
D4
100
AcDbEntity
  8
_U+30EC_U+30A4_U+30E4_U+30FC 1
370
     0
100
AcDbVertex
100
AcDb2dVertex
 10
115.8247992331966
 20
-152.3097384601865
 30
0.0
  0
SEQEND
  5
DA
330
D4
100
AcDbEntity
  8
_U+30EC_U+30A4_U+30E4_U+30FC 1
370
     0
  0
HATCH
  5
DB
330
CD
100
AcDbEntity
  8
_U+30EC_U+30A4_U+30E4_U+30FC 1
 62
   179
420
  2234388
100
AcDbHatch
 10
0.0
 20
0.0
 30
0.0
210
0.0
220
0.0
230
1.0
  2
SOLID
 70
     1
 71
     0
 91
        1
 92
        1
 93
        4
 72
     1
 10
115.8247992331966
 20
-152.3097384601865
 11
115.5729627532248
 21
-152.3097384601865
 72
     1
 10
115.5729627532248
 20
-152.3097384601865
 11
115.5729627532248
 21
-152.0403319932399
 72
     1
 10
115.5729627532248
 20
-152.0403319932399
 11
115.8247992331966
 21
-152.0403319932399
 72
     1
 10
115.8247992331966
 20
-152.0403319932399
 11
115.8247992331966
 21
-152.3097384601865
 97
        0
 75
     2
 76
     1
 98
        0
  0
SPLINE
  5
DC
330
CD
100
AcDbEntity
  8
_U+30EC_U+30A4_U+30E4_U+30FC 1
370
     0
100
AcDbSpline
210
0.0
220
0.0
230
1.0
 70
    11
 71
     3
 72
    53
 73
    49
 74
     0
 42
0.0000000001
 43
0.0000000001
 12
1.0
 22
0.0
 32
0.0
 13
1.0
 23
0.0
 33
0.0
 40
0.0
 40
0.0
 40
0.0
 40
0.0
 40
1.0
 40
1.0
 40
1.0
 40
2.0
 40
2.0
 40
2.0
 40
3.0
 40
3.0
 40
3.0
 40
4.0
 40
4.0
 40
4.0
 40
5.0
 40
5.0
 40
5.0
 40
6.0
 40
6.0
 40
6.0
 40
7.0
 40
7.0
 40
7.0
 40
8.0
 40
8.0
 40
8.0
 40
9.0
 40
9.0
 40
9.0
 40
10.0
 40
10.0
 40
10.0
 40
11.0
 40
11.0
 40
11.0
 40
12.0
 40
12.0
 40
12.0
 40
13.0
 40
13.0
 40
13.0
 40
14.0
 40
14.0
 40
14.0
 40
15.0
 40
15.0
 40
15.0
 40
16.0
 40
16.0
 40
16.0
 40
16.0
 10
115.8754421368298
 20
-151.2737982477718
 30
0.0
 10
115.8754421368298
 20
-151.3575140680634
 30
0.0
 10
115.858561168952
 20
-151.4660345758488
 30
0.0
 10
115.7951714120234
 20
-151.5745550836342
 30
0.0
 10
115.685272866044
 20
-151.7599012207406
 30
0.0
 10
115.5540147280559
 20
-151.7826388509432
 30
0.0
 10
115.4461832393676
 20
-151.8029649143062
 30
0.0
 10
115.4461832393676
 20
-151.8029649143062
 30
0.0
 10
115.4461832393676
 20
-151.5655978353725
 30
0.0
 10
115.4461832393676
 20
-151.5655978353725
 30
0.0
 10
115.6449652488665
 20
-151.5066867025747
 30
0.0
 10
115.6745930700397
 20
-151.3712944500044
 30
0.0
 10
115.6745930700397
 20
-151.2713866809322
 30
0.0
 10
115.6745930700397
 20
-151.1225585559694
 30
0.0
 10
115.575029810516
 20
-150.959605539517
 30
0.0
 10
115.3424858652616
 20
-150.959605539517
 30
0.0
 10
115.0865152707075
 20
-150.959605539517
 30
0.0
 10
115.016579832357
 20
-151.151841867594
 30
0.0
 10
115.016579832357
 20
-151.2806884387423
 30
0.0
 10
115.016579832357
 20
-151.3147948840463
 30
0.0
 10
115.016579832357
 20
-151.4660345758488
 30
0.0
 10
115.1457709130538
 20
-151.5607747016931
 30
0.0
 10
115.1457709130538
 20
-151.5607747016931
 30
0.0
 10
115.126822887885
 20
-151.7488769151878
 30
0.0
 10
115.126822887885
 20
-151.7488769151878
 30
0.0
 10
115.126822887885
 20
-151.7488769151878
 30
0.0
 10
114.2803629271591
 20
-151.6196858344909
 30
0.0
 10
114.2803629271591
 20
-151.6196858344909
 30
0.0
 10
114.2803629271591
 20
-151.6196858344909
 30
0.0
 10
114.2803629271591
 20
-150.7876952748031
 30
0.0
 10
114.2803629271591
 20
-150.7876952748031
 30
0.0
 10
114.2803629271591
 20
-150.7876952748031
 30
0.0
 10
114.4750108220757
 20
-150.7876952748031
 30
0.0
 10
114.4750108220757
 20
-150.7876952748031
 30
0.0
 10
114.4750108220757
 20
-150.7876952748031
 30
0.0
 10
114.4750108220757
 20
-151.4457085124858
 30
0.0
 10
114.4750108220757
 20
-151.4457085124858
 30
0.0
 10
114.4750108220757
 20
-151.4457085124858
 30
0.0
 10
114.8980685476644
 20
-151.5159884603849
 30
0.0
 10
114.8980685476644
 20
-151.5159884603849
 30
0.0
 10
114.8643066119089
 20
-151.4501871366166
 30
0.0
 10
114.8239989947315
 20
-151.3619926921942
 30
0.0
 10
114.8239989947315
 20
-151.2355576878856
 30
0.0
 10
114.8239989947315
 20
-150.9640841636479
 30
0.0
 10
115.0103786604835
 20
-150.710869645482
 30
0.0
 10
115.3235378400927
 20
-150.710869645482
 30
0.0
 10
115.6408311342842
 20
-150.710869645482
 30
0.0
 10
115.8754421368298
 20
-150.9506482912554
 30
0.0
 10
115.8754421368298
 20
-151.2737982477718
 30
0.0
  0
HATCH
  5
DD
330
CD
100
AcDbEntity
  8
_U+30EC_U+30A4_U+30E4_U+30FC 1
 62
   179
420
  2234388
100
AcDbHatch
 10
0.0
 20
0.0
 30
0.0
210
0.0
220
0.0
230
1.0
  2
SOLID
 70
     1
 71
     0
 91
        1
 92
        1
 93
        1
 72
     4
 94
        3
 73
     0
 74
     1
 95
       53
 96
       49
 40
0.0
 40
0.0
 40
0.0
 40
0.0
 40
1.0
 40
1.0
 40
1.0
 40
2.0
 40
2.0
 40
2.0
 40
3.0
 40
3.0
 40
3.0
 40
4.0
 40
4.0
 40
4.0
 40
5.0
 40
5.0
 40
5.0
 40
6.0
 40
6.0
 40
6.0
 40
7.0
 40
7.0
 40
7.0
 40
8.0
 40
8.0
 40
8.0
 40
9.0
 40
9.0
 40
9.0
 40
10.0
 40
10.0
 40
10.0
 40
11.0
 40
11.0
 40
11.0
 40
12.0
 40
12.0
 40
12.0
 40
13.0
 40
13.0
 40
13.0
 40
14.0
 40
14.0
 40
14.0
 40
15.0
 40
15.0
 40
15.0
 40
16.0
 40
16.0
 40
16.0
 40
16.0
 10
115.8754421368298
 20
-151.2737982477718
 10
115.8754421368298
 20
-151.3575140680634
 10
115.858561168952
 20
-151.4660345758488
 10
115.7951714120234
 20
-151.5745550836342
 10
115.685272866044
 20
-151.7599012207406
 10
115.5540147280559
 20
-151.7826388509432
 10
115.4461832393676
 20
-151.8029649143062
 10
115.4461832393676
 20
-151.8029649143062
 10
115.4461832393676
 20
-151.5655978353725
 10
115.4461832393676
 20
-151.5655978353725
 10
115.6449652488665
 20
-151.5066867025747
 10
115.6745930700397
 20
-151.3712944500044
 10
115.6745930700397
 20
-151.2713866809322
 10
115.6745930700397
 20
-151.1225585559694
 10
115.575029810516
 20
-150.959605539517
 10
115.3424858652616
 20
-150.959605539517
 10
115.0865152707075
 20
-150.959605539517
 10
115.016579832357
 20
-151.151841867594
 10
115.016579832357
 20
-151.2806884387423
 10
115.016579832357
 20
-151.3147948840463
 10
115.016579832357
 20
-151.4660345758488
 10
115.1457709130538
 20
-151.5607747016931
 10
115.1457709130538
 20
-151.5607747016931
 10
115.126822887885
 20
-151.7488769151878
 10
115.126822887885
 20
-151.7488769151878
 10
115.126822887885
 20
-151.7488769151878
 10
114.2803629271591
 20
-151.6196858344909
 10
114.2803629271591
 20
-151.6196858344909
 10
114.2803629271591
 20
-151.6196858344909
 10
114.2803629271591
 20
-150.7876952748031
 10
114.2803629271591
 20
-150.7876952748031
 10
114.2803629271591
 20
-150.7876952748031
 10
114.4750108220757
 20
-150.7876952748031
 10
114.4750108220757
 20
-150.7876952748031
 10
114.4750108220757
 20
-150.7876952748031
 10
114.4750108220757
 20
-151.4457085124858
 10
114.4750108220757
 20
-151.4457085124858
 10
114.4750108220757
 20
-151.4457085124858
 10
114.8980685476644
 20
-151.5159884603849
 10
114.8980685476644
 20
-151.5159884603849
 10
114.8643066119089
 20
-151.4501871366166
 10
114.8239989947315
 20
-151.3619926921942
 10
114.8239989947315
 20
-151.2355576878856
 10
114.8239989947315
 20
-150.9640841636479
 10
115.0103786604835
 20
-150.710869645482
 10
115.3235378400927
 20
-150.710869645482
 10
115.6408311342842
 20
-150.710869645482
 10
115.8754421368298
 20
-150.9506482912554
 10
115.8754421368298
 20
-151.2737982477718
 97
        0
 97
        0
 75
     2
 76
     1
 98
        0
  0
ENDBLK
  5
D0
330
CD
100
AcDbEntity
  8
0
100
AcDbBlockEnd
  0
BLOCK
  5
E8
330
E6
100
AcDbEntity
  8
0
100
AcDbBlockBegin
  2
block 6
 70
     0
 10
0.0
 20
0.0
 30
0.0
  3
block 6
  1

  0
SPLINE
  5
EA
330
E6
100
AcDbEntity
  8
_U+30EC_U+30A4_U+30E4_U+30FC 1
370
     0
100
AcDbSpline
210
0.0
220
0.0
230
1.0
 70
    11
 71
     3
 72
    26
 73
    22
 74
     0
 42
0.0000000001
 43
0.0000000001
 12
1.0
 22
0.0
 32
0.0
 13
1.0
 23
0.0
 33
0.0
 40
0.0
 40
0.0
 40
0.0
 40
0.0
 40
1.0
 40
1.0
 40
1.0
 40
2.0
 40
2.0
 40
2.0
 40
3.0
 40
3.0
 40
3.0
 40
4.0
 40
4.0
 40
4.0
 40
5.0
 40
5.0
 40
5.0
 40
6.0
 40
6.0
 40
6.0
 40
7.0
 40
7.0
 40
7.0
 40
7.0
 10
115.8265217809392
 20
-145.126369863892
 30
0.0
 10
115.8265217809392
 20
-145.126369863892
 30
0.0
 10
115.8265217809392
 20
-145.3795843820579
 30
0.0
 10
115.8265217809392
 20
-145.3795843820579
 30
0.0
 10
115.5174967159123
 20
-145.3523681277244
 30
0.0
 10
114.9993543549307
 20
-145.146695927255
 30
0.0
 10
114.493614337696
 20
-144.7126138961135
 30
0.0
 10
114.493614337696
 20
-144.7126138961135
 30
0.0
 10
114.493614337696
 20
-145.6078219579557
 30
0.0
 10
114.493614337696
 20
-145.6078219579557
 30
0.0
 10
114.493614337696
 20
-145.6078219579557
 30
0.0
 10
114.2820854749017
 20
-145.6078219579557
 30
0.0
 10
114.2820854749017
 20
-145.6078219579557
 30
0.0
 10
114.2820854749017
 20
-145.6078219579557
 30
0.0
 10
114.2820854749017
 20
-144.4593993779476
 30
0.0
 10
114.2820854749017
 20
-144.4593993779476
 30
0.0
 10
114.2820854749017
 20
-144.4593993779476
 30
0.0
 10
114.493614337696
 20
-144.4593993779476
 30
0.0
 10
114.493614337696
 20
-144.4593993779476
 30
0.0
 10
114.7836913775541
 20
-144.8052869646667
 30
0.0
 10
115.3759032914685
 20
-145.0901963612969
 30
0.0
 10
115.8265217809392
 20
-145.126369863892
 30
0.0
  0
HATCH
  5
EB
330
E6
100
AcDbEntity
  8
_U+30EC_U+30A4_U+30E4_U+30FC 1
 62
   179
420
  2234388
100
AcDbHatch
 10
0.0
 20
0.0
 30
0.0
210
0.0
220
0.0
230
1.0
  2
SOLID
 70
     1
 71
     0
 91
        1
 92
        1
 93
        1
 72
     4
 94
        3
 73
     0
 74
     1
 95
       26
 96
       22
 40
0.0
 40
0.0
 40
0.0
 40
0.0
 40
1.0
 40
1.0
 40
1.0
 40
2.0
 40
2.0
 40
2.0
 40
3.0
 40
3.0
 40
3.0
 40
4.0
 40
4.0
 40
4.0
 40
5.0
 40
5.0
 40
5.0
 40
6.0
 40
6.0
 40
6.0
 40
7.0
 40
7.0
 40
7.0
 40
7.0
 10
115.8265217809392
 20
-145.126369863892
 10
115.8265217809392
 20
-145.126369863892
 10
115.8265217809392
 20
-145.3795843820579
 10
115.8265217809392
 20
-145.3795843820579
 10
115.5174967159123
 20
-145.3523681277244
 10
114.9993543549307
 20
-145.146695927255
 10
114.493614337696
 20
-144.7126138961135
 10
114.493614337696
 20
-144.7126138961135
 10
114.493614337696
 20
-145.6078219579557
 10
114.493614337696
 20
-145.6078219579557
 10
114.493614337696
 20
-145.6078219579557
 10
114.2820854749017
 20
-145.6078219579557
 10
114.2820854749017
 20
-145.6078219579557
 10
114.2820854749017
 20
-145.6078219579557
 10
114.2820854749017
 20
-144.4593993779476
 10
114.2820854749017
 20
-144.4593993779476
 10
114.2820854749017
 20
-144.4593993779476
 10
114.493614337696
 20
-144.4593993779476
 10
114.493614337696
 20
-144.4593993779476
 10
114.7836913775541
 20
-144.8052869646667
 10
115.3759032914685
 20
-145.0901963612969
 10
115.8265217809392
 20
-145.126369863892
 97
        0
 97
        0
 75
     2
 76
     1
 98
        0
  0
ENDBLK
  5
E9
330
E6
100
AcDbEntity
  8
0
100
AcDbBlockEnd
  0
BLOCK
  5
FC
330
FA
100
AcDbEntity
  8
0
100
AcDbBlockBegin
  2
block 7
 70
     0
 10
0.0
 20
0.0
 30
0.0
  3
block 7
  1

  0
SPLINE
  5
FE
330
FA
100
AcDbEntity
  8
_U+30EC_U+30A4_U+30E4_U+30FC 1
370
     0
100
AcDbSpline
210
0.0
220
0.0
230
1.0
 70
    11
 71
     3
 72
    26
 73
    22
 74
     0
 42
0.0000000001
 43
0.0000000001
 12
1.0
 22
0.0
 32
0.0
 13
1.0
 23
0.0
 33
0.0
 40
0.0
 40
0.0
 40
0.0
 40
0.0
 40
1.0
 40
1.0
 40
1.0
 40
2.0
 40
2.0
 40
2.0
 40
3.0
 40
3.0
 40
3.0
 40
4.0
 40
4.0
 40
4.0
 40
5.0
 40
5.0
 40
5.0
 40
6.0
 40
6.0
 40
6.0
 40
7.0
 40
7.0
 40
7.0
 40
7.0
 10
103.8517143837593
 20
-137.9535088088276
 30
0.0
 10
103.8517143837593
 20
-137.9535088088276
 30
0.0
 10
103.5984998655934
 20
-137.9535088088276
 30
0.0
 10
103.5984998655934
 20
-137.9535088088276
 30
0.0
 10
103.6257161199269
 20
-137.6444837438007
 30
0.0
 10
103.8313883203963
 20
-137.1263413828191
 30
0.0
 10
104.2654703515378
 20
-136.6206013655844
 30
0.0
 10
104.2654703515378
 20
-136.6206013655844
 30
0.0
 10
103.3702622896956
 20
-136.6206013655844
 30
0.0
 10
103.3702622896956
 20
-136.6206013655844
 30
0.0
 10
103.3702622896956
 20
-136.6206013655844
 30
0.0
 10
103.3702622896956
 20
-136.4090725027901
 30
0.0
 10
103.3702622896956
 20
-136.4090725027901
 30
0.0
 10
103.3702622896956
 20
-136.4090725027901
 30
0.0
 10
104.5186848697037
 20
-136.4090725027901
 30
0.0
 10
104.5186848697037
 20
-136.4090725027901
 30
0.0
 10
104.5186848697037
 20
-136.4090725027901
 30
0.0
 10
104.5186848697037
 20
-136.6206013655844
 30
0.0
 10
104.5186848697037
 20
-136.6206013655844
 30
0.0
 10
104.1727972829846
 20
-136.9106784054425
 30
0.0
 10
103.8878878863544
 20
-137.5028903193569
 30
0.0
 10
103.8517143837593
 20
-137.9535088088276
 30
0.0
  0
HATCH
  5
FF
330
FA
100
AcDbEntity
  8
_U+30EC_U+30A4_U+30E4_U+30FC 1
 62
   179
420
  2234388
100
AcDbHatch
 10
0.0
 20
0.0
 30
0.0
210
0.0
220
0.0
230
1.0
  2
SOLID
 70
     1
 71
     0
 91
        1
 92
        1
 93
        1
 72
     4
 94
        3
 73
     0
 74
     1
 95
       26
 96
       22
 40
0.0
 40
0.0
 40
0.0
 40
0.0
 40
1.0
 40
1.0
 40
1.0
 40
2.0
 40
2.0
 40
2.0
 40
3.0
 40
3.0
 40
3.0
 40
4.0
 40
4.0
 40
4.0
 40
5.0
 40
5.0
 40
5.0
 40
6.0
 40
6.0
 40
6.0
 40
7.0
 40
7.0
 40
7.0
 40
7.0
 10
103.8517143837593
 20
-137.9535088088276
 10
103.8517143837593
 20
-137.9535088088276
 10
103.5984998655934
 20
-137.9535088088276
 10
103.5984998655934
 20
-137.9535088088276
 10
103.6257161199269
 20
-137.6444837438007
 10
103.8313883203963
 20
-137.1263413828191
 10
104.2654703515378
 20
-136.6206013655844
 10
104.2654703515378
 20
-136.6206013655844
 10
103.3702622896956
 20
-136.6206013655844
 10
103.3702622896956
 20
-136.6206013655844
 10
103.3702622896956
 20
-136.6206013655844
 10
103.3702622896956
 20
-136.4090725027901
 10
103.3702622896956
 20
-136.4090725027901
 10
103.3702622896956
 20
-136.4090725027901
 10
104.5186848697037
 20
-136.4090725027901
 10
104.5186848697037
 20
-136.4090725027901
 10
104.5186848697037
 20
-136.4090725027901
 10
104.5186848697037
 20
-136.6206013655844
 10
104.5186848697037
 20
-136.6206013655844
 10
104.1727972829846
 20
-136.9106784054425
 10
103.8878878863544
 20
-137.5028903193569
 10
103.8517143837593
 20
-137.9535088088276
 97
        0
 97
        0
 75
     2
 76
     1
 98
        0
  0
ENDBLK
  5
FD
330
FA
100
AcDbEntity
  8
0
100
AcDbBlockEnd
  0
ENDSEC
  0
SECTION
  2
ENTITIES
  0
POLYLINE
  5
41
330
1F
100
AcDbEntity
  8
_U+30EC_U+30A4_U+30E4_U+30FC 1
  6
AI-Linetype-1
 62
     8
420
  8223869
370
    25
100
AcDb2dPolyline
 66
     1
 10
0.0
 20
0.0
 30
0.0
  0
VERTEX
  5
42
330
41
100
AcDbEntity
  8
_U+30EC_U+30A4_U+30E4_U+30FC 1
  6
AI-Linetype-1
 62
     8
420
  8223869
370
    25
100
AcDbVertex
100
AcDb2dVertex
 10
98.843713650894
 20
-140.3839375462842
 30
0.0
  0
VERTEX
  5
43
330
41
100
AcDbEntity
  8
_U+30EC_U+30A4_U+30E4_U+30FC 1
  6
AI-Linetype-1
 62
     8
420
  8223869
370
    25
100
AcDbVertex
100
AcDb2dVertex
 10
101.1367692058763
 20
-140.3839375462842
 30
0.0
  0
VERTEX
  5
44
330
41
100
AcDbEntity
  8
_U+30EC_U+30A4_U+30E4_U+30FC 1
  6
AI-Linetype-1
 62
     8
420
  8223869
370
    25
100
AcDbVertex
100
AcDb2dVertex
 10
101.1367692058763
 20
-147.2631042112311
 30
0.0
  0
VERTEX
  5
45
330
41
100
AcDbEntity
  8
_U+30EC_U+30A4_U+30E4_U+30FC 1
  6
AI-Linetype-1
 62
     8
420
  8223869
370
    25
100
AcDbVertex
100
AcDb2dVertex
 10
108.0159304878615
 20
-147.2631042112311
 30
0.0
  0
VERTEX
  5
46
330
41
100
AcDbEntity
  8
_U+30EC_U+30A4_U+30E4_U+30FC 1
  6
AI-Linetype-1
 62
     8
420
  8223869
370
    25
100
AcDbVertex
100
AcDb2dVertex
 10
108.0159304878615
 20
-149.1151875441014
 30
0.0
  0
SEQEND
  5
48
330
41
100
AcDbEntity
  8
_U+30EC_U+30A4_U+30E4_U+30FC 1
  6
AI-Linetype-1
 62
     8
420
  8223869
370
    25
  0
SPLINE
  5
49
330
1F
100
AcDbEntity
  8
_U+30EC_U+30A4_U+30E4_U+30FC 1
370
     0
100
AcDbSpline
210
0.0
220
0.0
230
1.0
 70
    11
 71
     3
 72
    44
 73
    40
 74
     0
 42
0.0000000001
 43
0.0000000001
 12
1.0
 22
0.0
 32
0.0
 13
1.0
 23
0.0
 33
0.0
 40
0.0
 40
0.0
 40
0.0
 40
0.0
 40
1.0
 40
1.0
 40
1.0
 40
2.0
 40
2.0
 40
2.0
 40
3.0
 40
3.0
 40
3.0
 40
4.0
 40
4.0
 40
4.0
 40
5.0
 40
5.0
 40
5.0
 40
6.0
 40
6.0
 40
6.0
 40
7.0
 40
7.0
 40
7.0
 40
8.0
 40
8.0
 40
8.0
 40
9.0
 40
9.0
 40
9.0
 40
10.0
 40
10.0
 40
10.0
 40
11.0
 40
11.0
 40
11.0
 40
12.0
 40
12.0
 40
12.0
 40
13.0
 40
13.0
 40
13.0
 40
13.0
 10
111.6222779736678
 20
-155.7738680979923
 30
0.0
 10
111.6222779736678
 20
-155.7738680979923
 30
0.0
 10
107.768529568327
 20
-155.7738680979923
 30
0.0
 10
107.768529568327
 20
-155.7738680979923
 30
0.0
 10
107.768529568327
 20
-155.7738680979923
 30
0.0
 10
107.4228034704588
 20
-155.5738480073034
 30
0.0
 10
107.4228034704588
 20
-155.5738480073034
 30
0.0
 10
107.4228034704588
 20
-155.5738480073034
 30
0.0
 10
100.4222887000057
 20
-155.5738480073034
 30
0.0
 10
100.4222887000057
 20
-155.5738480073034
 30
0.0
 10
100.4222887000057
 20
-155.5738480073034
 30
0.0
 10
100.4222887000057
 20
-149.0739217597421
 30
0.0
 10
100.4222887000057
 20
-149.0739217597421
 30
0.0
 10
100.4222887000057
 20
-149.0739217597421
 30
0.0
 10
107.4228034704588
 20
-149.0739217597421
 30
0.0
 10
107.4228034704588
 20
-149.0739217597421
 30
0.0
 10
107.4228034704588
 20
-148.5214684009125
 30
0.0
 10
106.9747795685254
 20
-148.0737890085273
 30
0.0
 10
106.4223262096954
 20
-148.0737890085273
 30
0.0
 10
106.4223262096954
 20
-148.0737890085273
 30
0.0
 10
100.4222887000057
 20
-148.0737890085273
 30
0.0
 10
100.4222887000057
 20
-148.0737890085273
 30
0.0
 10
100.4222887000057
 20
-148.0737890085273
 30
0.0
 10
100.4222887000057
 20
-142.0737461158759
 30
0.0
 10
100.4222887000057
 20
-142.0737461158759
 30
0.0
 10
100.4222887000057
 20
-141.5220033079897
 30
0.0
 10
99.97496458309274
 20
-141.0739794060564
 30
0.0
 10
99.42251660722445
 20
-141.0739794060564
 30
0.0
 10
99.42251660722445
 20
-141.0739794060564
 30
0.0
 10
99.42251660722445
 20
-155.5738480073034
 30
0.0
 10
99.42251660722445
 20
-155.5738480073034
 30
0.0
 10
99.42251660722445
 20
-156.1263013661334
 30
0.0
 10
99.87019061664758
 20
-156.5739699925948
 30
0.0
 10
100.4222887000057
 20
-156.5739699925948
 30
0.0
 10
100.4222887000057
 20
-156.5739699925948
 30
0.0
 10
112.4223691023469
 20
-156.5739699925948
 30
0.0
 10
112.4223691023469
 20
-156.5739699925948
 30
0.0
 10
112.4223691023469
 20
-156.1322979854624
 30
0.0
 10
112.0639499808002
 20
-155.7738680979923
 30
0.0
 10
111.6222779736678
 20
-155.7738680979923
 30
0.0
  0
HATCH
  5
4A
330
1F
100
AcDbEntity
  8
_U+30EC_U+30A4_U+30E4_U+30FC 1
 62
     9
420
 13224394
100
AcDbHatch
 10
0.0
 20
0.0
 30
0.0
210
0.0
220
0.0
230
1.0
  2
SOLID
 70
     1
 71
     0
 91
        1
 92
        1
 93
        2
 72
     4
 94
        3
 73
     0
 74
     0
 95
       44
 96
       40
 40
0.0
 40
0.0
 40
0.0
 40
0.0
 40
0.3527777776895833
 40
0.3527777776895833
 40
0.3527777776895833
 40
0.7055555553791667
 40
0.7055555553791667
 40
0.7055555553791667
 40
1.05833333306875
 40
1.05833333306875
 40
1.05833333306875
 40
1.411111110758333
 40
1.411111110758333
 40
1.411111110758333
 40
1.763888888447917
 40
1.763888888447917
 40
1.763888888447917
 40
2.1166666661375
 40
2.1166666661375
 40
2.1166666661375
 40
2.469444443827083
 40
2.469444443827083
 40
2.469444443827083
 40
2.822222221516667
 40
2.822222221516667
 40
2.822222221516667
 40
3.17499999920625
 40
3.17499999920625
 40
3.17499999920625
 40
3.527777776895833
 40
3.527777776895833
 40
3.527777776895833
 40
3.880555554585417
 40
3.880555554585417
 40
3.880555554585417
 40
4.233333332275
 40
4.233333332275
 40
4.233333332275
 40
4.586111109964584
 40
4.586111109964584
 40
4.586111109964584
 40
4.586111109964584
 10
111.6222779736678
 20
-155.7738680979923
 10
111.6222779736678
 20
-155.7738680979923
 10
107.768529568327
 20
-155.7738680979923
 10
107.768529568327
 20
-155.7738680979923
 10
107.768529568327
 20
-155.7738680979923
 10
107.4228034704588
 20
-155.5738480073034
 10
107.4228034704588
 20
-155.5738480073034
 10
107.4228034704588
 20
-155.5738480073034
 10
100.4222887000057
 20
-155.5738480073034
 10
100.4222887000057
 20
-155.5738480073034
 10
100.4222887000057
 20
-155.5738480073034
 10
100.4222887000057
 20
-149.0739217597421
 10
100.4222887000057
 20
-149.0739217597421
 10
100.4222887000057
 20
-149.0739217597421
 10
107.4228034704588
 20
-149.0739217597421
 10
107.4228034704588
 20
-149.0739217597421
 10
107.4228034704588
 20
-148.5214684009125
 10
106.9747795685254
 20
-148.0737890085273
 10
106.4223262096954
 20
-148.0737890085273
 10
106.4223262096954
 20
-148.0737890085273
 10
100.4222887000057
 20
-148.0737890085273
 10
100.4222887000057
 20
-148.0737890085273
 10
100.4222887000057
 20
-148.0737890085273
 10
100.4222887000057
 20
-142.0737461158759
 10
100.4222887000057
 20
-142.0737461158759
 10
100.4222887000057
 20
-141.5220033079897
 10
99.97496458309274
 20
-141.0739794060564
 10
99.42251660722445
 20
-141.0739794060564
 10
99.42251660722445
 20
-141.0739794060564
 10
99.42251660722445
 20
-155.5738480073034
 10
99.42251660722445
 20
-155.5738480073034
 10
99.42251660722445
 20
-156.1263013661334
 10
99.87019061664758
 20
-156.5739699925948
 10
100.4222887000057
 20
-156.5739699925948
 10
100.4222887000057
 20
-156.5739699925948
 10
112.4223691023469
 20
-156.5739699925948
 10
112.4223691023469
 20
-156.5739699925948
 10
112.4223691023469
 20
-156.1322979854624
 10
112.0639499808002
 20
-155.7738680979923
 10
111.6222779736678
 20
-155.7738680979923
 97
        0
 72
     1
 10
111.6222779736678
 20
-155.7738680979923
 11
111.6222779736678
 21
-155.7738680979923
 97
        0
 75
     2
 76
     1
 98
        0
  0
POLYLINE
  5
4B
330
1F
100
AcDbEntity
  8
_U+30EC_U+30A4_U+30E4_U+30FC 1
 62
   179
420
  2234388
370
    25
100
AcDb2dPolyline
 66
     1
 10
0.0
 20
0.0
 30
0.0
  0
VERTEX
  5
4C
330
4B
100
AcDbEntity
  8
_U+30EC_U+30A4_U+30E4_U+30FC 1
 62
   179
420
  2234388
370
    25
100
AcDbVertex
100
AcDb2dVertex
 10
100.4222510192741
 20
-155.5737403480695
 30
0.0
  0
VERTEX
  5
4D
330
4B
100
AcDbEntity
  8
_U+30EC_U+30A4_U+30E4_U+30FC 1
 62
   179
420
  2234388
370
    25
100
AcDbVertex
100
AcDb2dVertex
 10
107.4227711726886
 20
-155.5737403480695
 30
0.0
  0
SEQEND
  5
4E
330
4B
100
AcDbEntity
  8
_U+30EC_U+30A4_U+30E4_U+30FC 1
 62
   179
420
  2234388
370
    25
  0
POLYLINE
  5
4F
330
1F
100
AcDbEntity
  8
_U+30EC_U+30A4_U+30E4_U+30FC 1
 62
   179
420
  2234388
370
    25
100
AcDb2dPolyline
 66
     1
 10
0.0
 20
0.0
 30
0.0
  0
VERTEX
  5
50
330
4F
100
AcDbEntity
  8
_U+30EC_U+30A4_U+30E4_U+30FC 1
 62
   179
420
  2234388
370
    25
100
AcDbVertex
100
AcDb2dVertex
 10
100.4222510192741
 20
-149.0738033345849
 30
0.0
  0
VERTEX
  5
51
330
4F
100
AcDbEntity
  8
_U+30EC_U+30A4_U+30E4_U+30FC 1
 62
   179
420
  2234388
370
    25
100
AcDbVertex
100
AcDb2dVertex
 10
107.4227711726886
 20
-149.0738033345849
 30
0.0
  0
SEQEND
  5
52
330
4F
100
AcDbEntity
  8
_U+30EC_U+30A4_U+30E4_U+30FC 1
 62
   179
420
  2234388
370
    25
  0
POLYLINE
  5
53
330
1F
100
AcDbEntity
  8
_U+30EC_U+30A4_U+30E4_U+30FC 1
 62
   179
420
  2234388
370
    25
100
AcDb2dPolyline
 66
     1
 10
0.0
 20
0.0
 30
0.0
  0
VERTEX
  5
54
330
53
100
AcDbEntity
  8
_U+30EC_U+30A4_U+30E4_U+30FC 1
 62
   179
420
  2234388
370
    25
100
AcDbVertex
100
AcDb2dVertex
 10
100.4222510192741
 20
-156.5738300355907
 30
0.0
  0
VERTEX
  5
55
330
53
100
AcDbEntity
  8
_U+30EC_U+30A4_U+30E4_U+30FC 1
 62
   179
420
  2234388
370
    25
100
AcDbVertex
100
AcDb2dVertex
 10
112.4223368045767
 20
-156.5738300355907
 30
0.0
  0
SEQEND
  5
56
330
53
100
AcDbEntity
  8
_U+30EC_U+30A4_U+30E4_U+30FC 1
 62
   179
420
  2234388
370
    25
  0
POLYLINE
  5
57
330
1F
100
AcDbEntity
  8
_U+30EC_U+30A4_U+30E4_U+30FC 1
 62
   179
420
  2234388
370
    25
100
AcDb2dPolyline
 66
     1
 10
0.0
 20
0.0
 30
0.0
  0
VERTEX
  5
58
330
57
100
AcDbEntity
  8
_U+30EC_U+30A4_U+30E4_U+30FC 1
 62
   179
420
  2234388
370
    25
100
AcDbVertex
100
AcDb2dVertex
 10
99.42247892649259
 20
-141.0740117038266
 30
0.0
  0
VERTEX
  5
59
330
57
100
AcDbEntity
  8
_U+30EC_U+30A4_U+30E4_U+30FC 1
 62
   179
420
  2234388
370
    25
100
AcDbVertex
100
AcDb2dVertex
 10
99.42247892649259
 20
-155.573891070997
 30
0.0
  0
SEQEND
  5
5A
330
57
100
AcDbEntity
  8
_U+30EC_U+30A4_U+30E4_U+30FC 1
 62
   179
420
  2234388
370
    25
  0
POLYLINE
  5
5B
330
1F
100
AcDbEntity
  8
_U+30EC_U+30A4_U+30E4_U+30FC 1
 62
   179
420
  2234388
370
    25
100
AcDb2dPolyline
 66
     1
 10
0.0
 20
0.0
 30
0.0
  0
VERTEX
  5
5C
330
5B
100
AcDbEntity
  8
_U+30EC_U+30A4_U+30E4_U+30FC 1
 62
   179
420
  2234388
370
    25
100
AcDbVertex
100
AcDb2dVertex
 10
100.4222510192741
 20
-142.0737784136461
 30
0.0
  0
VERTEX
  5
5D
330
5B
100
AcDbEntity
  8
_U+30EC_U+30A4_U+30E4_U+30FC 1
 62
   179
420
  2234388
370
    25
100
AcDbVertex
100
AcDb2dVertex
 10
100.4222510192741
 20
-148.0738320722209
 30
0.0
  0
SEQEND
  5
5E
330
5B
100
AcDbEntity
  8
_U+30EC_U+30A4_U+30E4_U+30FC 1
 62
   179
420
  2234388
370
    25
  0
POLYLINE
  5
5F
330
1F
100
AcDbEntity
  8
_U+30EC_U+30A4_U+30E4_U+30FC 1
 62
   179
420
  2234388
370
    25
100
AcDb2dPolyline
 66
     1
 10
0.0
 20
0.0
 30
0.0
  0
VERTEX
  5
60
330
5F
100
AcDbEntity
  8
_U+30EC_U+30A4_U+30E4_U+30FC 1
 62
   179
420
  2234388
370
    25
100
AcDbVertex
100
AcDb2dVertex
 10
100.4222510192741
 20
-148.0737136470636
 30
0.0
  0
VERTEX
  5
61
330
5F
100
AcDbEntity
  8
_U+30EC_U+30A4_U+30E4_U+30FC 1
 62
   179
420
  2234388
370
    25
100
AcDbVertex
100
AcDb2dVertex
 10
106.4222939119253
 20
-148.0737136470636
 30
0.0
  0
SEQEND
  5
62
330
5F
100
AcDbEntity
  8
_U+30EC_U+30A4_U+30E4_U+30FC 1
 62
   179
420
  2234388
370
    25
  0
POLYLINE
  5
63
330
1F
100
AcDbEntity
  8
_U+30EC_U+30A4_U+30E4_U+30FC 1
 62
   179
420
  2234388
370
    25
100
AcDb2dPolyline
 66
     1
 10
0.0
 20
0.0
 30
0.0
  0
VERTEX
  5
64
330
63
100
AcDbEntity
  8
_U+30EC_U+30A4_U+30E4_U+30FC 1
 62
   179
420
  2234388
370
    25
100
AcDbVertex
100
AcDb2dVertex
 10
100.4222510192741
 20
-149.0738033345849
 30
0.0
  0
VERTEX
  5
65
330
63
100
AcDbEntity
  8
_U+30EC_U+30A4_U+30E4_U+30FC 1
 62
   179
420
  2234388
370
    25
100
AcDbVertex
100
AcDb2dVertex
 10
100.4222510192741
 20
-155.5737403480695
 30
0.0
  0
SEQEND
  5
66
330
63
100
AcDbEntity
  8
_U+30EC_U+30A4_U+30E4_U+30FC 1
 62
   179
420
  2234388
370
    25
  0
POLYLINE
  5
67
330
1F
100
AcDbEntity
  8
_U+30EC_U+30A4_U+30E4_U+30FC 1
 62
   179
420
  2234388
370
    25
100
AcDb2dPolyline
 66
     1
 10
0.0
 20
0.0
 30
0.0
  0
VERTEX
  5
68
330
67
100
AcDbEntity
  8
_U+30EC_U+30A4_U+30E4_U+30FC 1
 62
   179
420
  2234388
370
    25
100
AcDbVertex
100
AcDb2dVertex
 10
107.7685618660971
 20
-155.7738680979923
 30
0.0
  0
VERTEX
  5
69
330
67
100
AcDbEntity
  8
_U+30EC_U+30A4_U+30E4_U+30FC 1
 62
   179
420
  2234388
370
    25
100
AcDbVertex
100
AcDb2dVertex
 10
111.6222995055146
 20
-155.7738680979923
 30
0.0
  0
SEQEND
  5
6A
330
67
100
AcDbEntity
  8
_U+30EC_U+30A4_U+30E4_U+30FC 1
 62
   179
420
  2234388
370
    25
  0
POLYLINE
  5
6B
330
1F
100
AcDbEntity
  8
_U+30EC_U+30A4_U+30E4_U+30FC 1
 62
   179
420
  2234388
370
    25
100
AcDb2dPolyline
 66
     1
 10
0.0
 20
0.0
 30
0.0
  0
VERTEX
  5
6C
330
6B
100
AcDbEntity
  8
_U+30EC_U+30A4_U+30E4_U+30FC 1
 62
   179
420
  2234388
370
    25
100
AcDbVertex
100
AcDb2dVertex
 10
107.4227065771482
 20
-155.5737403480695
 30
0.0
  0
VERTEX
  5
6D
330
6B
100
AcDbEntity
  8
_U+30EC_U+30A4_U+30E4_U+30FC 1
 62
   179
420
  2234388
370
    25
100
AcDbVertex
100
AcDb2dVertex
 10
107.768421909093
 20
-155.7737712046818
 30
0.0
  0
SEQEND
  5
6E
330
6B
100
AcDbEntity
  8
_U+30EC_U+30A4_U+30E4_U+30FC 1
 62
   179
420
  2234388
370
    25
  0
SPLINE
  5
6F
330
1F
100
AcDbEntity
  8
_U+30EC_U+30A4_U+30E4_U+30FC 1
 62
   179
420
  2234388
370
    25
100
AcDbSpline
210
0.0
220
0.0
230
1.0
 70
     8
 71
     3
 72
     8
 73
     4
 74
     0
 42
0.0000000001
 43
0.0000000001
 12
1.0
 22
0.0
 32
0.0
 13
1.0
 23
0.0
 33
0.0
 40
0.0
 40
0.0
 40
0.0
 40
0.0
 40
1.0
 40
1.0
 40
1.0
 40
1.0
 10
99.42247892649259
 20
-155.5737403480695
 30
0.0
 10
99.42247892649259
 20
-156.1261937068994
 30
0.0
 10
99.87050282842593
 20
-156.5738730992843
 30
0.0
 10
100.4222510192741
 20
-156.5738730992843
 30
0.0
  0
SPLINE
  5
70
330
1F
100
AcDbEntity
  8
_U+30EC_U+30A4_U+30E4_U+30FC 1
 62
   179
420
  2234388
370
     9
100
AcDbSpline
210
0.0
220
0.0
230
1.0
 70
    11
 71
     3
 72
    17
 73
    13
 74
     0
 42
0.0000000001
 43
0.0000000001
 12
1.0
 22
0.0
 32
0.0
 13
1.0
 23
0.0
 33
0.0
 40
0.0
 40
0.0
 40
0.0
 40
0.0
 40
1.0
 40
1.0
 40
1.0
 40
2.0
 40
2.0
 40
2.0
 40
3.0
 40
3.0
 40
3.0
 40
4.0
 40
4.0
 40
4.0
 40
4.0
 10
99.52238669556483
 20
-144.0739900864587
 30
0.0
 10
99.52238669556483
 20
-144.0189654520053
 30
0.0
 10
99.4775789224098
 20
-143.9741576788502
 30
0.0
 10
99.42254890499463
 20
-143.9741576788502
 30
0.0
 10
99.36751350461776
 20
-143.9741576788502
 30
0.0
 10
99.32271111442442
 20
-144.0189654520053
 30
0.0
 10
99.32271111442442
 20
-144.0739900864587
 30
0.0
 10
99.32271111442442
 20
-144.1290254868356
 30
0.0
 10
99.36751350461776
 20
-144.1738332599906
 30
0.0
 10
99.42254890499463
 20
-144.1738332599906
 30
0.0
 10
99.4775789224098
 20
-144.1738332599906
 30
0.0
 10
99.52238669556483
 20
-144.1290254868356
 30
0.0
 10
99.52238669556483
 20
-144.0739900864587
 30
0.0
  0
SPLINE
  5
71
330
1F
100
AcDbEntity
  8
_U+30EC_U+30A4_U+30E4_U+30FC 1
 62
   179
420
  2234388
370
     9
100
AcDbSpline
210
0.0
220
0.0
230
1.0
 70
    11
 71
     3
 72
    17
 73
    13
 74
     0
 42
0.0000000001
 43
0.0000000001
 12
1.0
 22
0.0
 32
0.0
 13
1.0
 23
0.0
 33
0.0
 40
0.0
 40
0.0
 40
0.0
 40
0.0
 40
1.0
 40
1.0
 40
1.0
 40
2.0
 40
2.0
 40
2.0
 40
3.0
 40
3.0
 40
3.0
 40
4.0
 40
4.0
 40
4.0
 40
4.0
 10
100.5221587883463
 20
-144.0739900864587
 30
0.0
 10
100.5221587883463
 20
-144.0189654520053
 30
0.0
 10
100.477351015191
 20
-143.9741576788502
 30
0.0
 10
100.4223209977758
 20
-143.9741576788502
 30
0.0
 10
100.367285597399
 20
-143.9741576788502
 30
0.0
 10
100.3224832072056
 20
-144.0189654520053
 30
0.0
 10
100.3224832072056
 20
-144.0739900864587
 30
0.0
 10
100.3224832072056
 20
-144.1290254868356
 30
0.0
 10
100.367285597399
 20
-144.1738332599906
 30
0.0
 10
100.4223209977758
 20
-144.1738332599906
 30
0.0
 10
100.477351015191
 20
-144.1738332599906
 30
0.0
 10
100.5221587883463
 20
-144.1290254868356
 30
0.0
 10
100.5221587883463
 20
-144.0739900864587
 30
0.0
  0
SPLINE
  5
72
330
1F
100
AcDbEntity
  8
_U+30EC_U+30A4_U+30E4_U+30FC 1
 62
   179
420
  2234388
370
     9
100
AcDbSpline
210
0.0
220
0.0
230
1.0
 70
    11
 71
     3
 72
    17
 73
    13
 74
     0
 42
0.0000000001
 43
0.0000000001
 12
1.0
 22
0.0
 32
0.0
 13
1.0
 23
0.0
 33
0.0
 40
0.0
 40
0.0
 40
0.0
 40
0.0
 40
1.0
 40
1.0
 40
1.0
 40
2.0
 40
2.0
 40
2.0
 40
3.0
 40
3.0
 40
3.0
 40
4.0
 40
4.0
 40
4.0
 40
4.0
 10
112.5221046166449
 20
-160.5739411694377
 30
0.0
 10
112.5221046166449
 20
-160.5189165349842
 30
0.0
 10
112.4772968434898
 20
-160.4741087618292
 30
0.0
 10
112.422261443113
 20
-160.4741087618292
 30
0.0
 10
112.3672260427361
 20
-160.4741087618292
 30
0.0
 10
112.3224290355045
 20
-160.5189165349842
 30
0.0
 10
112.3224290355045
 20
-160.5739411694377
 30
0.0
 10
112.3224290355045
 20
-160.6289765698145
 30
0.0
 10
112.3672260427361
 20
-160.6737843429696
 30
0.0
 10
112.422261443113
 20
-160.6737843429696
 30
0.0
 10
112.4772968434898
 20
-160.6737843429696
 30
0.0
 10
112.5221046166449
 20
-160.6289765698145
 30
0.0
 10
112.5221046166449
 20
-160.5739411694377
 30
0.0
  0
SPLINE
  5
73
330
1F
100
AcDbEntity
  8
_U+30EC_U+30A4_U+30E4_U+30FC 1
 62
   179
420
  2234388
370
     9
100
AcDbSpline
210
0.0
220
0.0
230
1.0
 70
    11
 71
     3
 72
    17
 73
    13
 74
     0
 42
0.0000000001
 43
0.0000000001
 12
1.0
 22
0.0
 32
0.0
 13
1.0
 23
0.0
 33
0.0
 40
0.0
 40
0.0
 40
0.0
 40
0.0
 40
1.0
 40
1.0
 40
1.0
 40
2.0
 40
2.0
 40
2.0
 40
3.0
 40
3.0
 40
3.0
 40
4.0
 40
4.0
 40
4.0
 40
4.0
 10
99.52238669556483
 20
-160.5739411694377
 30
0.0
 10
99.52238669556483
 20
-160.5189165349842
 30
0.0
 10
99.4775789224098
 20
-160.4741087618292
 30
0.0
 10
99.42254890499463
 20
-160.4741087618292
 30
0.0
 10
99.36751350461776
 20
-160.4741087618292
 30
0.0
 10
99.32271111442442
 20
-160.5189165349842
 30
0.0
 10
99.32271111442442
 20
-160.5739411694377
 30
0.0
 10
99.32271111442442
 20
-160.6289765698145
 30
0.0
 10
99.36751350461776
 20
-160.6737843429696
 30
0.0
 10
99.42254890499463
 20
-160.6737843429696
 30
0.0
 10
99.4775789224098
 20
-160.6737843429696
 30
0.0
 10
99.52238669556483
 20
-160.6289765698145
 30
0.0
 10
99.52238669556483
 20
-160.5739411694377
 30
0.0
  0
SPLINE
  5
74
330
1F
100
AcDbEntity
  8
_U+30EC_U+30A4_U+30E4_U+30FC 1
 62
   179
420
  2234388
370
    25
100
AcDbSpline
210
0.0
220
0.0
230
1.0
 70
     8
 71
     3
 72
     8
 73
     4
 74
     0
 42
0.0000000001
 43
0.0000000001
 12
1.0
 22
0.0
 32
0.0
 13
1.0
 23
0.0
 33
0.0
 40
0.0
 40
0.0
 40
0.0
 40
0.0
 40
1.0
 40
1.0
 40
1.0
 40
1.0
 10
100.4222510192741
 20
-142.0737784136461
 30
0.0
 10
100.4222510192741
 20
-141.5220356057599
 30
0.0
 10
99.97492690236088
 20
-141.0740117038266
 30
0.0
 10
99.42247354353088
 20
-141.0740117038266
 30
0.0
  0
SPLINE
  5
75
330
1F
100
AcDbEntity
  8
_U+30EC_U+30A4_U+30E4_U+30FC 1
 62
   179
420
  2234388
370
    25
100
AcDbSpline
210
0.0
220
0.0
230
1.0
 70
     8
 71
     3
 72
     8
 73
     4
 74
     0
 42
0.0000000001
 43
0.0000000001
 12
1.0
 22
0.0
 32
0.0
 13
1.0
 23
0.0
 33
0.0
 40
0.0
 40
0.0
 40
0.0
 40
0.0
 40
1.0
 40
1.0
 40
1.0
 40
1.0
 10
107.4227065771482
 20
-149.0738033345849
 30
0.0
 10
107.4227065771482
 20
-148.5217160171502
 30
0.0
 10
106.9746719092915
 20
-148.0736813492934
 30
0.0
 10
106.4222185504615
 20
-148.0736813492934
 30
0.0
  0
SPLINE
  5
76
330
1F
100
AcDbEntity
  8
_U+30EC_U+30A4_U+30E4_U+30FC 1
 62
   179
420
  2234388
370
    25
100
AcDbSpline
210
0.0
220
0.0
230
1.0
 70
     8
 71
     3
 72
     8
 73
     4
 74
     0
 42
0.0000000001
 43
0.0000000001
 12
1.0
 22
0.0
 32
0.0
 13
1.0
 23
0.0
 33
0.0
 40
0.0
 40
0.0
 40
0.0
 40
0.0
 40
1.0
 40
1.0
 40
1.0
 40
1.0
 10
112.4221968475726
 20
-156.5738300355907
 30
0.0
 10
112.4221968475726
 20
-156.1321580284583
 30
0.0
 10
112.0637669601026
 20
-155.7737389069116
 30
0.0
 10
111.6220949529701
 20
-155.7737389069116
 30
0.0
  0
SPLINE
  5
77
330
1F
100
AcDbEntity
  8
_U+30EC_U+30A4_U+30E4_U+30FC 1
 62
   179
420
  2234388
370
     9
100
AcDbSpline
210
0.0
220
0.0
230
1.0
 70
    11
 71
     3
 72
    17
 73
    13
 74
     0
 42
0.0000000001
 43
0.0000000001
 12
1.0
 22
0.0
 32
0.0
 13
1.0
 23
0.0
 33
0.0
 40
0.0
 40
0.0
 40
0.0
 40
0.0
 40
1.0
 40
1.0
 40
1.0
 40
2.0
 40
2.0
 40
2.0
 40
3.0
 40
3.0
 40
3.0
 40
4.0
 40
4.0
 40
4.0
 40
4.0
 10
95.52262545422808
 20
-141.0740117038266
 30
0.0
 10
95.52262545422808
 20
-141.0189870693731
 30
0.0
 10
95.47781768107303
 20
-140.974179296218
 30
0.0
 10
95.42278766365787
 20
-140.974179296218
 30
0.0
 10
95.36704709529887
 20
-140.974179296218
 30
0.0
 10
95.32224470510553
 20
-141.0189870693731
 30
0.0
 10
95.32224470510553
 20
-141.0740117038266
 30
0.0
 10
95.32224470510553
 20
-141.1290471042034
 30
0.0
 10
95.36704709529887
 20
-141.1738548773588
 30
0.0
 10
95.42278766365787
 20
-141.1738548773588
 30
0.0
 10
95.47781768107303
 20
-141.1738548773588
 30
0.0
 10
95.52262545422808
 20
-141.1290471042034
 30
0.0
 10
95.52262545422808
 20
-141.0740117038266
 30
0.0
  0
SPLINE
  5
78
330
1F
100
AcDbEntity
  8
_U+30EC_U+30A4_U+30E4_U+30FC 1
 62
   179
420
  2234388
370
     9
100
AcDbSpline
210
0.0
220
0.0
230
1.0
 70
    11
 71
     3
 72
    17
 73
    13
 74
     0
 42
0.0000000001
 43
0.0000000001
 12
1.0
 22
0.0
 32
0.0
 13
1.0
 23
0.0
 33
0.0
 40
0.0
 40
0.0
 40
0.0
 40
0.0
 40
1.0
 40
1.0
 40
1.0
 40
2.0
 40
2.0
 40
2.0
 40
3.0
 40
3.0
 40
3.0
 40
4.0
 40
4.0
 40
4.0
 40
4.0
 10
95.52262545422808
 20
-156.5738300355907
 30
0.0
 10
95.52262545422808
 20
-156.5188054011372
 30
0.0
 10
95.47781768107303
 20
-156.4739976279822
 30
0.0
 10
95.42278766365787
 20
-156.4739976279822
 30
0.0
 10
95.36704709529887
 20
-156.4739976279822
 30
0.0
 10
95.32224470510553
 20
-156.5188054011372
 30
0.0
 10
95.32224470510553
 20
-156.5738300355907
 30
0.0
 10
95.32224470510553
 20
-156.6292207114395
 30
0.0
 10
95.36704709529887
 20
-156.6740284845945
 30
0.0
 10
95.42278766365787
 20
-156.6740284845945
 30
0.0
 10
95.47781768107303
 20
-156.6740284845945
 30
0.0
 10
95.52262545422808
 20
-156.6292207114395
 30
0.0
 10
95.52262545422808
 20
-156.5738300355907
 30
0.0
  0
SPLINE
  5
79
330
1F
100
AcDbEntity
  8
_U+30EC_U+30A4_U+30E4_U+30FC 1
 62
   179
420
  2234388
370
     9
100
AcDbSpline
210
0.0
220
0.0
230
1.0
 70
    11
 71
     3
 72
    17
 73
    13
 74
     0
 42
0.0000000001
 43
0.0000000001
 12
1.0
 22
0.0
 32
0.0
 13
1.0
 23
0.0
 33
0.0
 40
0.0
 40
0.0
 40
0.0
 40
0.0
 40
1.0
 40
1.0
 40
1.0
 40
2.0
 40
2.0
 40
2.0
 40
3.0
 40
3.0
 40
3.0
 40
4.0
 40
4.0
 40
4.0
 40
4.0
 10
116.5225710259638
 20
-155.5737403480695
 30
0.0
 10
116.5225710259638
 20
-155.518715713616
 30
0.0
 10
116.4777632528087
 20
-155.4739079404609
 30
0.0
 10
116.4227278524319
 20
-155.4739079404609
 30
0.0
 10
116.3669926670346
 20
-155.4739079404609
 30
0.0
 10
116.3221848938795
 20
-155.518715713616
 30
0.0
 10
116.3221848938795
 20
-155.5737403480695
 30
0.0
 10
116.3221848938795
 20
-155.6291310239182
 30
0.0
 10
116.3669926670346
 20
-155.6739387970733
 30
0.0
 10
116.4227278524319
 20
-155.6739387970733
 30
0.0
 10
116.4777632528087
 20
-155.6739387970733
 30
0.0
 10
116.5225710259638
 20
-155.6291310239182
 30
0.0
 10
116.5225710259638
 20
-155.5737403480695
 30
0.0
  0
SPLINE
  5
7A
330
1F
100
AcDbEntity
  8
_U+30EC_U+30A4_U+30E4_U+30FC 1
 62
   179
420
  2234388
370
     9
100
AcDbSpline
210
0.0
220
0.0
230
1.0
 70
    11
 71
     3
 72
    17
 73
    13
 74
     0
 42
0.0000000001
 43
0.0000000001
 12
1.0
 22
0.0
 32
0.0
 13
1.0
 23
0.0
 33
0.0
 40
0.0
 40
0.0
 40
0.0
 40
0.0
 40
1.0
 40
1.0
 40
1.0
 40
2.0
 40
2.0
 40
2.0
 40
3.0
 40
3.0
 40
3.0
 40
4.0
 40
4.0
 40
4.0
 40
4.0
 10
116.5225710259638
 20
-149.0738033345849
 30
0.0
 10
116.5225710259638
 20
-149.0187787001314
 30
0.0
 10
116.4777632528087
 20
-148.9739709269763
 30
0.0
 10
116.4227278524319
 20
-148.9739709269763
 30
0.0
 10
116.3669926670346
 20
-148.9739709269763
 30
0.0
 10
116.3221848938795
 20
-149.0187787001314
 30
0.0
 10
116.3221848938795
 20
-149.0738033345849
 30
0.0
 10
116.3221848938795
 20
-149.1291940104337
 30
0.0
 10
116.3669926670346
 20
-149.1740017835887
 30
0.0
 10
116.4227278524319
 20
-149.1740017835887
 30
0.0
 10
116.4777632528087
 20
-149.1740017835887
 30
0.0
 10
116.5225710259638
 20
-149.1291940104337
 30
0.0
 10
116.5225710259638
 20
-149.0738033345849
 30
0.0
  0
SPLINE
  5
7B
330
1F
100
AcDbEntity
  8
_U+30EC_U+30A4_U+30E4_U+30FC 1
 62
   179
420
  2234388
370
     9
100
AcDbSpline
210
0.0
220
0.0
230
1.0
 70
    11
 71
     3
 72
    17
 73
    13
 74
     0
 42
0.0000000001
 43
0.0000000001
 12
1.0
 22
0.0
 32
0.0
 13
1.0
 23
0.0
 33
0.0
 40
0.0
 40
0.0
 40
0.0
 40
0.0
 40
1.0
 40
1.0
 40
1.0
 40
2.0
 40
2.0
 40
2.0
 40
3.0
 40
3.0
 40
3.0
 40
4.0
 40
4.0
 40
4.0
 40
4.0
 10
116.5225710259638
 20
-141.0740117038266
 30
0.0
 10
116.5225710259638
 20
-141.0189870693731
 30
0.0
 10
116.4777632528087
 20
-140.974179296218
 30
0.0
 10
116.4227278524319
 20
-140.974179296218
 30
0.0
 10
116.3669926670346
 20
-140.974179296218
 30
0.0
 10
116.3221848938795
 20
-141.0189870693731
 30
0.0
 10
116.3221848938795
 20
-141.0740117038266
 30
0.0
 10
116.3221848938795
 20
-141.1290471042034
 30
0.0
 10
116.3669926670346
 20
-141.1738548773588
 30
0.0
 10
116.4227278524319
 20
-141.1738548773588
 30
0.0
 10
116.4777632528087
 20
-141.1738548773588
 30
0.0
 10
116.5225710259638
 20
-141.1290471042034
 30
0.0
 10
116.5225710259638
 20
-141.0740117038266
 30
0.0
  0
POLYLINE
  5
7C
330
1F
100
AcDbEntity
  8
_U+30EC_U+30A4_U+30E4_U+30FC 1
 62
   179
420
  2234388
370
     9
100
AcDb2dPolyline
 66
     1
 10
0.0
 20
0.0
 30
0.0
  0
VERTEX
  5
7D
330
7C
100
AcDbEntity
  8
_U+30EC_U+30A4_U+30E4_U+30FC 1
 62
   179
420
  2234388
370
     9
100
AcDbVertex
100
AcDb2dVertex
 10
100.4222510192741
 20
-144.0739900864587
 30
0.0
  0
VERTEX
  5
7E
330
7C
100
AcDbEntity
  8
_U+30EC_U+30A4_U+30E4_U+30FC 1
 62
   179
420
  2234388
370
     9
100
AcDbVertex
100
AcDb2dVertex
 10
104.1927357731058
 20
-144.0739900864587
 30
0.0
  0
SEQEND
  5
7F
330
7C
100
AcDbEntity
  8
_U+30EC_U+30A4_U+30E4_U+30FC 1
 62
   179
420
  2234388
370
     9
  0
POLYLINE
  5
80
330
1F
100
AcDbEntity
  8
_U+30EC_U+30A4_U+30E4_U+30FC 1
 62
   179
420
  2234388
370
     9
100
AcDb2dPolyline
 66
     1
 10
0.0
 20
0.0
 30
0.0
  0
VERTEX
  5
81
330
80
100
AcDbEntity
  8
_U+30EC_U+30A4_U+30E4_U+30FC 1
 62
   179
420
  2234388
370
     9
100
AcDbVertex
100
AcDb2dVertex
 10
98.42270683371139
 20
-144.0739900864587
 30
0.0
  0
VERTEX
  5
82
330
80
100
AcDbEntity
  8
_U+30EC_U+30A4_U+30E4_U+30FC 1
 62
   179
420
  2234388
370
     9
100
AcDbVertex
100
AcDb2dVertex
 10
100.4222510192741
 20
-144.0739900864587
 30
0.0
  0
SEQEND
  5
83
330
80
100
AcDbEntity
  8
_U+30EC_U+30A4_U+30E4_U+30FC 1
 62
   179
420
  2234388
370
     9
  0
INSERT
  5
85
330
1F
100
AcDbEntity
  8
_U+30EC_U+30A4_U+30E4_U+30FC 1
100
AcDbBlockReference
  2
block 2
 10
0.0
 20
0.0
 30
0.0
  0
POLYLINE
  5
8A
330
1F
100
AcDbEntity
  8
_U+30EC_U+30A4_U+30E4_U+30FC 1
 62
   179
420
  2234388
370
     9
100
AcDb2dPolyline
 66
     1
 10
0.0
 20
0.0
 30
0.0
  0
VERTEX
  5
8B
330
8A
100
AcDbEntity
  8
_U+30EC_U+30A4_U+30E4_U+30FC 1
 62
   179
420
  2234388
370
     9
100
AcDbVertex
100
AcDb2dVertex
 10
99.42247892649259
 20
-160.5739411694377
 30
0.0
  0
VERTEX
  5
8C
330
8A
100
AcDbEntity
  8
_U+30EC_U+30A4_U+30E4_U+30FC 1
 62
   179
420
  2234388
370
     9
100
AcDbVertex
100
AcDb2dVertex
 10
112.4223368045767
 20
-160.5739411694377
 30
0.0
  0
SEQEND
  5
8D
330
8A
100
AcDbEntity
  8
_U+30EC_U+30A4_U+30E4_U+30FC 1
 62
   179
420
  2234388
370
     9
  0
POLYLINE
  5
8E
330
1F
100
AcDbEntity
  8
_U+30EC_U+30A4_U+30E4_U+30FC 1
 62
   179
420
  2234388
370
     9
100
AcDb2dPolyline
 66
     1
 10
0.0
 20
0.0
 30
0.0
  0
VERTEX
  5
8F
330
8E
100
AcDbEntity
  8
_U+30EC_U+30A4_U+30E4_U+30FC 1
 62
   179
420
  2234388
370
     9
100
AcDbVertex
100
AcDb2dVertex
 10
99.42247892649259
 20
-158.1137338878804
 30
0.0
  0
VERTEX
  5
90
330
8E
100
AcDbEntity
  8
_U+30EC_U+30A4_U+30E4_U+30FC 1
 62
   179
420
  2234388
370
     9
100
AcDbVertex
100
AcDb2dVertex
 10
99.42247892649259
 20
-161.5741385161928
 30
0.0
  0
SEQEND
  5
91
330
8E
100
AcDbEntity
  8
_U+30EC_U+30A4_U+30E4_U+30FC 1
 62
   179
420
  2234388
370
     9
  0
POLYLINE
  5
92
330
1F
100
AcDbEntity
  8
_U+30EC_U+30A4_U+30E4_U+30FC 1
 62
   179
420
  2234388
370
     9
100
AcDb2dPolyline
 66
     1
 10
0.0
 20
0.0
 30
0.0
  0
VERTEX
  5
93
330
92
100
AcDbEntity
  8
_U+30EC_U+30A4_U+30E4_U+30FC 1
 62
   179
420
  2234388
370
     9
100
AcDbVertex
100
AcDb2dVertex
 10
112.4221968475726
 20
-158.1137338878804
 30
0.0
  0
VERTEX
  5
94
330
92
100
AcDbEntity
  8
_U+30EC_U+30A4_U+30E4_U+30FC 1
 62
   179
420
  2234388
370
     9
100
AcDbVertex
100
AcDb2dVertex
 10
112.4221968475726
 20
-161.5741385161928
 30
0.0
  0
SEQEND
  5
95
330
92
100
AcDbEntity
  8
_U+30EC_U+30A4_U+30E4_U+30FC 1
 62
   179
420
  2234388
370
     9
  0
INSERT
  5
97
330
1F
100
AcDbEntity
  8
_U+30EC_U+30A4_U+30E4_U+30FC 1
100
AcDbBlockReference
  2
block 3
 10
0.0
 20
0.0
 30
0.0
  0
POLYLINE
  5
9E
330
1F
100
AcDbEntity
  8
_U+30EC_U+30A4_U+30E4_U+30FC 1
 62
   179
420
  2234388
370
     9
100
AcDb2dPolyline
 66
     1
 10
0.0
 20
0.0
 30
0.0
  0
VERTEX
  5
9F
330
9E
100
AcDbEntity
  8
_U+30EC_U+30A4_U+30E4_U+30FC 1
 62
   179
420
  2234388
370
     9
100
AcDbVertex
100
AcDb2dVertex
 10
95.42271768515583
 20
-156.5738300355907
 30
0.0
  0
VERTEX
  5
A0
330
9E
100
AcDbEntity
  8
_U+30EC_U+30A4_U+30E4_U+30FC 1
 62
   179
420
  2234388
370
     9
100
AcDbVertex
100
AcDb2dVertex
 10
95.42271768515583
 20
-141.0738394490523
 30
0.0
  0
SEQEND
  5
A1
330
9E
100
AcDbEntity
  8
_U+30EC_U+30A4_U+30E4_U+30FC 1
 62
   179
420
  2234388
370
     9
  0
POLYLINE
  5
A2
330
1F
100
AcDbEntity
  8
_U+30EC_U+30A4_U+30E4_U+30FC 1
 62
   179
420
  2234388
370
     9
100
AcDb2dPolyline
 66
     1
 10
0.0
 20
0.0
 30
0.0
  0
VERTEX
  5
A3
330
A2
100
AcDbEntity
  8
_U+30EC_U+30A4_U+30E4_U+30FC 1
 62
   179
420
  2234388
370
     9
100
AcDbVertex
100
AcDb2dVertex
 10
97.8825320105093
 20
-156.5738300355907
 30
0.0
  0
VERTEX
  5
A4
330
A2
100
AcDbEntity
  8
_U+30EC_U+30A4_U+30E4_U+30FC 1
 62
   179
420
  2234388
370
     9
100
AcDbVertex
100
AcDb2dVertex
 10
94.42213276515858
 20
-156.5738300355907
 30
0.0
  0
SEQEND
  5
A5
330
A2
100
AcDbEntity
  8
_U+30EC_U+30A4_U+30E4_U+30FC 1
 62
   179
420
  2234388
370
     9
  0
POLYLINE
  5
A6
330
1F
100
AcDbEntity
  8
_U+30EC_U+30A4_U+30E4_U+30FC 1
 62
   179
420
  2234388
370
     9
100
AcDb2dPolyline
 66
     1
 10
0.0
 20
0.0
 30
0.0
  0
VERTEX
  5
A7
330
A6
100
AcDbEntity
  8
_U+30EC_U+30A4_U+30E4_U+30FC 1
 62
   179
420
  2234388
370
     9
100
AcDbVertex
100
AcDb2dVertex
 10
96.88275991772842
 20
-141.0740117038266
 30
0.0
  0
VERTEX
  5
A8
330
A6
100
AcDbEntity
  8
_U+30EC_U+30A4_U+30E4_U+30FC 1
 62
   179
420
  2234388
370
     9
100
AcDbVertex
100
AcDb2dVertex
 10
94.42213276515858
 20
-141.0740117038266
 30
0.0
  0
SEQEND
  5
A9
330
A6
100
AcDbEntity
  8
_U+30EC_U+30A4_U+30E4_U+30FC 1
 62
   179
420
  2234388
370
     9
  0
INSERT
  5
AB
330
1F
100
AcDbEntity
  8
_U+30EC_U+30A4_U+30E4_U+30FC 1
100
AcDbBlockReference
  2
block 4
 10
0.0
 20
0.0
 30
0.0
  0
POLYLINE
  5
BC
330
1F
100
AcDbEntity
  8
_U+30EC_U+30A4_U+30E4_U+30FC 1
 62
   179
420
  2234388
370
     9
100
AcDb2dPolyline
 66
     1
 10
0.0
 20
0.0
 30
0.0
  0
VERTEX
  5
BD
330
BC
100
AcDbEntity
  8
_U+30EC_U+30A4_U+30E4_U+30FC 1
 62
   179
420
  2234388
370
     9
100
AcDbVertex
100
AcDb2dVertex
 10
116.4226632568915
 20
-155.5737403480695
 30
0.0
  0
VERTEX
  5
BE
330
BC
100
AcDbEntity
  8
_U+30EC_U+30A4_U+30E4_U+30FC 1
 62
   179
420
  2234388
370
     9
100
AcDbVertex
100
AcDb2dVertex
 10
116.4226632568915
 20
-149.0738141005083
 30
0.0
  0
SEQEND
  5
BF
330
BC
100
AcDbEntity
  8
_U+30EC_U+30A4_U+30E4_U+30FC 1
 62
   179
420
  2234388
370
     9
  0
POLYLINE
  5
C0
330
1F
100
AcDbEntity
  8
_U+30EC_U+30A4_U+30E4_U+30FC 1
 62
   179
420
  2234388
370
     9
100
AcDb2dPolyline
 66
     1
 10
0.0
 20
0.0
 30
0.0
  0
VERTEX
  5
C1
330
C0
100
AcDbEntity
  8
_U+30EC_U+30A4_U+30E4_U+30FC 1
 62
   179
420
  2234388
370
     9
100
AcDbVertex
100
AcDb2dVertex
 10
109.962420202951
 20
-155.5737403480695
 30
0.0
  0
VERTEX
  5
C2
330
C0
100
AcDbEntity
  8
_U+30EC_U+30A4_U+30E4_U+30FC 1
 62
   179
420
  2234388
370
     9
100
AcDbVertex
100
AcDb2dVertex
 10
117.4222577119368
 20
-155.5737403480695
 30
0.0
  0
SEQEND
  5
C3
330
C0
100
AcDbEntity
  8
_U+30EC_U+30A4_U+30E4_U+30FC 1
 62
   179
420
  2234388
370
     9
  0
POLYLINE
  5
C4
330
1F
100
AcDbEntity
  8
_U+30EC_U+30A4_U+30E4_U+30FC 1
 62
   179
420
  2234388
370
     9
100
AcDb2dPolyline
 66
     1
 10
0.0
 20
0.0
 30
0.0
  0
VERTEX
  5
C5
330
C4
100
AcDbEntity
  8
_U+30EC_U+30A4_U+30E4_U+30FC 1
 62
   179
420
  2234388
370
     9
100
AcDbVertex
100
AcDb2dVertex
 10
109.962420202951
 20
-149.0738033345849
 30
0.0
  0
VERTEX
  5
C6
330
C4
100
AcDbEntity
  8
_U+30EC_U+30A4_U+30E4_U+30FC 1
 62
   179
420
  2234388
370
     9
100
AcDbVertex
100
AcDb2dVertex
 10
117.4222577119368
 20
-149.0738033345849
 30
0.0
  0
SEQEND
  5
C7
330
C4
100
AcDbEntity
  8
_U+30EC_U+30A4_U+30E4_U+30FC 1
 62
   179
420
  2234388
370
     9
  0
SPLINE
  5
C8
330
1F
100
AcDbEntity
  8
_U+30EC_U+30A4_U+30E4_U+30FC 1
 62
   179
420
  2234388
370
     9
100
AcDbSpline
210
0.0
220
0.0
230
1.0
 70
    11
 71
     3
 72
    17
 73
    13
 74
     0
 42
0.0000000001
 43
0.0000000001
 12
1.0
 22
0.0
 32
0.0
 13
1.0
 23
0.0
 33
0.0
 40
0.0
 40
0.0
 40
0.0
 40
0.0
 40
1.0
 40
1.0
 40
1.0
 40
2.0
 40
2.0
 40
2.0
 40
3.0
 40
3.0
 40
3.0
 40
4.0
 40
4.0
 40
4.0
 40
4.0
 10
116.5225710259638
 20
-148.0737136470636
 30
0.0
 10
116.5225710259638
 20
-148.0186890126101
 30
0.0
 10
116.4777632528087
 20
-147.9738812394551
 30
0.0
 10
116.4227278524319
 20
-147.9738812394551
 30
0.0
 10
116.3669926670346
 20
-147.9738812394551
 30
0.0
 10
116.3221848938795
 20
-148.0186890126101
 30
0.0
 10
116.3221848938795
 20
-148.0737136470636
 30
0.0
 10
116.3221848938795
 20
-148.1291043229124
 30
0.0
 10
116.3669926670346
 20
-148.1739120960674
 30
0.0
 10
116.4227278524319
 20
-148.1739120960674
 30
0.0
 10
116.4777632528087
 20
-148.1739120960674
 30
0.0
 10
116.5225710259638
 20
-148.1291043229124
 30
0.0
 10
116.5225710259638
 20
-148.0737136470636
 30
0.0
  0
POLYLINE
  5
C9
330
1F
100
AcDbEntity
  8
_U+30EC_U+30A4_U+30E4_U+30FC 1
 62
   179
420
  2234388
370
     9
100
AcDb2dPolyline
 66
     1
 10
0.0
 20
0.0
 30
0.0
  0
VERTEX
  5
CA
330
C9
100
AcDbEntity
  8
_U+30EC_U+30A4_U+30E4_U+30FC 1
 62
   179
420
  2234388
370
     9
100
AcDbVertex
100
AcDb2dVertex
 10
109.962420202951
 20
-148.0737136470636
 30
0.0
  0
VERTEX
  5
CB
330
C9
100
AcDbEntity
  8
_U+30EC_U+30A4_U+30E4_U+30FC 1
 62
   179
420
  2234388
370
     9
100
AcDbVertex
100
AcDb2dVertex
 10
117.4222577119368
 20
-148.0737136470636
 30
0.0
  0
SEQEND
  5
CC
330
C9
100
AcDbEntity
  8
_U+30EC_U+30A4_U+30E4_U+30FC 1
 62
   179
420
  2234388
370
     9
  0
INSERT
  5
CE
330
1F
100
AcDbEntity
  8
_U+30EC_U+30A4_U+30E4_U+30FC 1
100
AcDbBlockReference
  2
block 5
 10
0.0
 20
0.0
 30
0.0
  0
POLYLINE
  5
DE
330
1F
100
AcDbEntity
  8
_U+30EC_U+30A4_U+30E4_U+30FC 1
 62
   179
420
  2234388
370
     9
100
AcDb2dPolyline
 66
     1
 10
0.0
 20
0.0
 30
0.0
  0
VERTEX
  5
DF
330
DE
100
AcDbEntity
  8
_U+30EC_U+30A4_U+30E4_U+30FC 1
 62
   179
420
  2234388
370
     9
100
AcDbVertex
100
AcDb2dVertex
 10
116.4226632568915
 20
-149.0738033345849
 30
0.0
  0
VERTEX
  5
E0
330
DE
100
AcDbEntity
  8
_U+30EC_U+30A4_U+30E4_U+30FC 1
 62
   179
420
  2234388
370
     9
100
AcDbVertex
100
AcDb2dVertex
 10
116.4226632568915
 20
-141.0738717468225
 30
0.0
  0
SEQEND
  5
E1
330
DE
100
AcDbEntity
  8
_U+30EC_U+30A4_U+30E4_U+30FC 1
 62
   179
420
  2234388
370
     9
  0
POLYLINE
  5
E2
330
1F
100
AcDbEntity
  8
_U+30EC_U+30A4_U+30E4_U+30FC 1
 62
   179
420
  2234388
370
     9
100
AcDb2dPolyline
 66
     1
 10
0.0
 20
0.0
 30
0.0
  0
VERTEX
  5
E3
330
E2
100
AcDbEntity
  8
_U+30EC_U+30A4_U+30E4_U+30FC 1
 62
   179
420
  2234388
370
     9
100
AcDbVertex
100
AcDb2dVertex
 10
101.9622302330272
 20
-141.0740117038266
 30
0.0
  0
VERTEX
  5
E4
330
E2
100
AcDbEntity
  8
_U+30EC_U+30A4_U+30E4_U+30FC 1
 62
   179
420
  2234388
370
     9
100
AcDbVertex
100
AcDb2dVertex
 10
117.4223546052473
 20
-141.0740117038266
 30
0.0
  0
SEQEND
  5
E5
330
E2
100
AcDbEntity
  8
_U+30EC_U+30A4_U+30E4_U+30FC 1
 62
   179
420
  2234388
370
     9
  0
INSERT
  5
E7
330
1F
100
AcDbEntity
  8
_U+30EC_U+30A4_U+30E4_U+30FC 1
100
AcDbBlockReference
  2
block 6
 10
0.0
 20
0.0
 30
0.0
  0
SPLINE
  5
EC
330
1F
100
AcDbEntity
  8
_U+30EC_U+30A4_U+30E4_U+30FC 1
 62
   179
420
  2234388
370
     9
100
AcDbSpline
210
0.0
220
0.0
230
1.0
 70
    11
 71
     3
 72
    17
 73
    13
 74
     0
 42
0.0000000001
 43
0.0000000001
 12
1.0
 22
0.0
 32
0.0
 13
1.0
 23
0.0
 33
0.0
 40
0.0
 40
0.0
 40
0.0
 40
0.0
 40
1.0
 40
1.0
 40
1.0
 40
2.0
 40
2.0
 40
2.0
 40
3.0
 40
3.0
 40
3.0
 40
4.0
 40
4.0
 40
4.0
 40
4.0
 10
107.6225113493693
 20
-138.5494242003887
 30
0.0
 10
107.6225113493693
 20
-138.4943995659352
 30
0.0
 10
107.5777035762143
 20
-138.4495917927802
 30
0.0
 10
107.5226681758374
 20
-138.4495917927802
 30
0.0
 10
107.4669329904401
 20
-138.4495917927802
 30
0.0
 10
107.4221252172851
 20
-138.4943995659352
 30
0.0
 10
107.4221252172851
 20
-138.5494242003887
 30
0.0
 10
107.4221252172851
 20
-138.6044596007656
 30
0.0
 10
107.4669329904401
 20
-138.6492673739206
 30
0.0
 10
107.5226681758374
 20
-138.6492673739206
 30
0.0
 10
107.5777035762143
 20
-138.6492673739206
 30
0.0
 10
107.6225113493693
 20
-138.6044596007656
 30
0.0
 10
107.6225113493693
 20
-138.5494242003887
 30
0.0
  0
SPLINE
  5
ED
330
1F
100
AcDbEntity
  8
_U+30EC_U+30A4_U+30E4_U+30FC 1
 62
   179
420
  2234388
370
     9
100
AcDbSpline
210
0.0
220
0.0
230
1.0
 70
    11
 71
     3
 72
    17
 73
    13
 74
     0
 42
0.0000000001
 43
0.0000000001
 12
1.0
 22
0.0
 32
0.0
 13
1.0
 23
0.0
 33
0.0
 40
0.0
 40
0.0
 40
0.0
 40
0.0
 40
1.0
 40
1.0
 40
1.0
 40
2.0
 40
2.0
 40
2.0
 40
3.0
 40
3.0
 40
3.0
 40
4.0
 40
4.0
 40
4.0
 40
4.0
 10
100.6220665574186
 20
-138.5494242003887
 30
0.0
 10
100.6220665574186
 20
-138.4943995659352
 30
0.0
 10
100.5772587842632
 20
-138.4495917927802
 30
0.0
 10
100.5222287668481
 20
-138.4495917927802
 30
0.0
 10
100.4671933664712
 20
-138.4495917927802
 30
0.0
 10
100.4223909762779
 20
-138.4943995659352
 30
0.0
 10
100.4223909762779
 20
-138.5494242003887
 30
0.0
 10
100.4223909762779
 20
-138.6044596007656
 30
0.0
 10
100.4671933664712
 20
-138.6492673739206
 30
0.0
 10
100.5222287668481
 20
-138.6492673739206
 30
0.0
 10
100.5772587842632
 20
-138.6492673739206
 30
0.0
 10
100.6220665574186
 20
-138.6044596007656
 30
0.0
 10
100.6220665574186
 20
-138.5494242003887
 30
0.0
  0
POLYLINE
  5
EE
330
1F
100
AcDbEntity
  8
_U+30EC_U+30A4_U+30E4_U+30FC 1
 62
   179
420
  2234388
370
     9
100
AcDb2dPolyline
 66
     1
 10
0.0
 20
0.0
 30
0.0
  0
VERTEX
  5
EF
330
EE
100
AcDbEntity
  8
_U+30EC_U+30A4_U+30E4_U+30FC 1
 62
   179
420
  2234388
370
     9
100
AcDbVertex
100
AcDb2dVertex
 10
100.5221587883463
 20
-140.009466432961
 30
0.0
  0
VERTEX
  5
F0
330
EE
100
AcDbEntity
  8
_U+30EC_U+30A4_U+30E4_U+30FC 1
 62
   179
420
  2234388
370
     9
100
AcDbVertex
100
AcDb2dVertex
 10
100.5221587883463
 20
-137.5495498313353
 30
0.0
  0
SEQEND
  5
F1
330
EE
100
AcDbEntity
  8
_U+30EC_U+30A4_U+30E4_U+30FC 1
 62
   179
420
  2234388
370
     9
  0
POLYLINE
  5
F2
330
1F
100
AcDbEntity
  8
_U+30EC_U+30A4_U+30E4_U+30FC 1
 62
   179
420
  2234388
370
     9
100
AcDb2dPolyline
 66
     1
 10
0.0
 20
0.0
 30
0.0
  0
VERTEX
  5
F3
330
F2
100
AcDbEntity
  8
_U+30EC_U+30A4_U+30E4_U+30FC 1
 62
   179
420
  2234388
370
     9
100
AcDbVertex
100
AcDb2dVertex
 10
100.5228639563282
 20
-138.5494242003887
 30
0.0
  0
VERTEX
  5
F4
330
F2
100
AcDbEntity
  8
_U+30EC_U+30A4_U+30E4_U+30FC 1
 62
   179
420
  2234388
370
     9
100
AcDbVertex
100
AcDb2dVertex
 10
107.5226789417608
 20
-138.5494242003887
 30
0.0
  0
SEQEND
  5
F5
330
F2
100
AcDbEntity
  8
_U+30EC_U+30A4_U+30E4_U+30FC 1
 62
   179
420
  2234388
370
     9
  0
POLYLINE
  5
F6
330
1F
100
AcDbEntity
  8
_U+30EC_U+30A4_U+30E4_U+30FC 1
 62
   179
420
  2234388
370
     9
100
AcDb2dPolyline
 66
     1
 10
0.0
 20
0.0
 30
0.0
  0
VERTEX
  5
F7
330
F6
100
AcDbEntity
  8
_U+30EC_U+30A4_U+30E4_U+30FC 1
 62
   179
420
  2234388
370
     9
100
AcDbVertex
100
AcDb2dVertex
 10
107.5226143462205
 20
-145.3914053659417
 30
0.0
  0
VERTEX
  5
F8
330
F6
100
AcDbEntity
  8
_U+30EC_U+30A4_U+30E4_U+30FC 1
 62
   179
420
  2234388
370
     9
100
AcDbVertex
100
AcDb2dVertex
 10
107.5226143462205
 20
-137.5495175335651
 30
0.0
  0
SEQEND
  5
F9
330
F6
100
AcDbEntity
  8
_U+30EC_U+30A4_U+30E4_U+30FC 1
 62
   179
420
  2234388
370
     9
  0
INSERT
  5
FB
330
1F
100
AcDbEntity
  8
_U+30EC_U+30A4_U+30E4_U+30FC 1
100
AcDbBlockReference
  2
block 7
 10
0.0
 20
0.0
 30
0.0
  0
ENDSEC
  0
SECTION
  2
OBJECTS
  0
DICTIONARY
  5
C
330
0
100
AcDbDictionary
281
     1
  3
ACAD_GROUP
350
D
  3
ACAD_LAYOUT
350
1A
  3
ACAD_MATERIAL
350
3B
  3
ACAD_MLEADERSTYLE
350
101
  3
ACAD_MLINESTYLE
350
17
  3
ACAD_PLOTSETTINGS
350
19
  3
ACAD_PLOTSTYLENAME
350
E
  3
ACAD_TABLESTYLE
350
100
  3
ACAD_VISUALSTYLE
350
2A
  0
SUN
  5
3F
330
29
100
AcDbSun
 90
        1
290
     0
 63
     7
421
 16777215
 40
1.0
291
     1
 91
  2455826
 92
 54000000
292
     0
 70
     2
 71
   256
280
     1
  0
DICTIONARY
  5
D
102
{ACAD_REACTORS
330
C
102
}
330
C
100
AcDbDictionary
281
     1
  0
DICTIONARY
  5
1A
102
{ACAD_REACTORS
330
C
102
}
330
C
100
AcDbDictionary
281
     1
  3
Layout1
350
1E
  3
Layout2
350
26
  3
Model
350
22
  0
DICTIONARY
  5
3B
102
{ACAD_REACTORS
330
C
102
}
330
C
100
AcDbDictionary
281
     1
  3
ByBlock
350
3D
  3
ByLayer
350
3C
  3
Global
350
3E
  0
DICTIONARY
  5
101
102
{ACAD_REACTORS
330
C
102
}
330
C
100
AcDbDictionary
281
     1
  0
DICTIONARY
  5
17
102
{ACAD_REACTORS
330
C
102
}
330
C
100
AcDbDictionary
281
     1
  3
Standard
350
18
  0
DICTIONARY
  5
19
102
{ACAD_REACTORS
330
C
102
}
330
C
100
AcDbDictionary
281
     1
  0
ACDBDICTIONARYWDFLT
  5
E
102
{ACAD_REACTORS
330
C
102
}
330
C
100
AcDbDictionary
281
     1
  3
Normal
350
F
100
AcDbDictionaryWithDefault
340
F
  0
DICTIONARY
  5
100
102
{ACAD_REACTORS
330
C
102
}
330
C
100
AcDbDictionary
281
     1
  0
DICTIONARY
  5
2A
102
{ACAD_REACTORS
330
C
102
}
330
C
100
AcDbDictionary
281
     1
  3
2dWireframe
350
2F
  3
3D Hidden
350
31
  3
3dWireframe
350
30
  3
Basic
350
32
  3
Brighten
350
36
  3
ColorChange
350
3A
  3
Conceptual
350
34
  3
Dim
350
35
  3
Facepattern
350
39
  3
Flat
350
2B
  3
FlatWithEdges
350
2C
  3
Gouraud
350
2D
  3
GouraudWithEdges
350
2E
  3
Linepattern
350
38
  3
Realistic
350
33
  3
Thicken
350
37
  0
LAYOUT
  5
1E
102
{ACAD_REACTORS
330
1A
102
}
330
1A
100
AcDbPlotSettings
  1

  2
none_device
  4

  6

 40
0.0
 41
0.0
 42
0.0
 43
0.0
 44
0.0
 45
0.0
 46
0.0
 47
0.0
 48
0.0
 49
0.0
140
0.0
141
0.0
142
1.0
143
1.0
 70
   688
 72
     0
 73
     0
 74
     5
  7

 75
    16
 76
     0
 77
     2
 78
   300
147
1.0
148
0.0
149
0.0
100
AcDbLayout
  1
Layout1
 70
     1
 71
     1
 10
0.0
 20
0.0
 11
12.0
 21
9.0
 12
0.0
 22
0.0
 32
0.0
 14
1.000000000000000E+20
 24
1.000000000000000E+20
 34
1.000000000000000E+20
 15
-1.000000000000000E+20
 25
-1.000000000000000E+20
 35
-1.000000000000000E+20
146
0.0
 13
0.0
 23
0.0
 33
0.0
 16
1.0
 26
0.0
 36
0.0
 17
0.0
 27
1.0
 37
0.0
 76
     0
330
1B
  0
LAYOUT
  5
26
102
{ACAD_REACTORS
330
1A
102
}
330
1A
100
AcDbPlotSettings
  1

  2
none_device
  4

  6

 40
0.0
 41
0.0
 42
0.0
 43
0.0
 44
0.0
 45
0.0
 46
0.0
 47
0.0
 48
0.0
 49
0.0
140
0.0
141
0.0
142
1.0
143
1.0
 70
   688
 72
     0
 73
     0
 74
     5
  7

 75
    16
 76
     0
 77
     2
 78
   300
147
1.0
148
0.0
149
0.0
100
AcDbLayout
  1
Layout2
 70
     1
 71
     2
 10
0.0
 20
0.0
 11
0.0
 21
0.0
 12
0.0
 22
0.0
 32
0.0
 14
0.0
 24
0.0
 34
0.0
 15
0.0
 25
0.0
 35
0.0
146
0.0
 13
0.0
 23
0.0
 33
0.0
 16
1.0
 26
0.0
 36
0.0
 17
0.0
 27
1.0
 37
0.0
 76
     0
330
23
  0
LAYOUT
  5
22
102
{ACAD_REACTORS
330
1A
102
}
330
1A
100
AcDbPlotSettings
  1

  2
none_device
  4

  6

 40
0.0
 41
0.0
 42
0.0
 43
0.0
 44
0.0
 45
0.0
 46
0.0
 47
0.0
 48
0.0
 49
0.0
140
0.0
141
0.0
142
1.0
143
1.0
 70
  1712
 72
     0
 73
     0
 74
     0
  7

 75
     0
 76
     0
 77
     2
 78
   300
147
1.0
148
0.0
149
0.0
100
AcDbLayout
  1
Model
 70
     1
 71
     0
 10
0.0
 20
0.0
 11
12.0
 21
9.0
 12
0.0
 22
0.0
 32
0.0
 14
1.000000000000000E+20
 24
1.000000000000000E+20
 34
1.000000000000000E+20
 15
-1.000000000000000E+20
 25
-1.000000000000000E+20
 35
-1.000000000000000E+20
146
0.0
 13
0.0
 23
0.0
 33
0.0
 16
1.0
 26
0.0
 36
0.0
 17
0.0
 27
1.0
 37
0.0
 76
     0
330
1F
331
29
  0
MATERIAL
  5
3D
102
{ACAD_REACTORS
330
3B
102
}
330
3B
100
AcDbMaterial
  1
ByBlock
 72
     1
 94
      127
  0
MATERIAL
  5
3C
102
{ACAD_REACTORS
330
3B
102
}
330
3B
100
AcDbMaterial
  1
ByLayer
 72
     1
 94
      127
  0
MATERIAL
  5
3E
102
{ACAD_REACTORS
330
3B
102
}
330
3B
100
AcDbMaterial
  1
Global
 72
     1
 94
      127
  0
MLINESTYLE
  5
18
102
{ACAD_REACTORS
330
17
102
}
330
17
100
AcDbMlineStyle
  2
Standard
 70
     0
  3

 62
   256
 51
90.0
 52
90.0
 71
     2
 49
0.5
 62
   256
  6
BYLAYER
 49
-0.5
 62
   256
  6
BYLAYER
  0
ACDBPLACEHOLDER
  5
F
102
{ACAD_REACTORS
330
E
102
}
330
E
  0
VISUALSTYLE
  5
2F
102
{ACAD_REACTORS
330
2A
102
}
330
2A
100
AcDbVisualStyle
  2
2dWireframe
 70
     4
177
     2
291
     0
 71
     0
176
     1
 72
     2
176
     1
 73
     0
176
     1
 90
        0
176
     1
 40
-0.6
176
     1
 41
-30.0
176
     1
 62
     5
 63
     7
421
 16777215
176
     1
 74
     1
176
     1
 91
        4
176
     1
 64
     7
176
     1
 65
   257
176
     1
 75
     1
176
     1
175
     1
176
     1
 42
1.0
176
     1
 92
        0
176
     1
 66
   257
176
     1
 43
1.0
176
     1
 76
     1
176
     1
 77
     6
176
     1
 78
     2
176
     1
 67
     7
176
     1
 79
     5
176
     1
170
     0
176
     1
171
     0
176
     1
290
     0
176
     1
 93
        1
176
     1
 44
0.0
176
     1
173
     0
176
     1
  0
VISUALSTYLE
  5
31
102
{ACAD_REACTORS
330
2A
102
}
330
2A
100
AcDbVisualStyle
  2
3D Hidden
 70
     6
177
     2
291
     0
 71
     1
176
     1
 72
     2
176
     1
 73
     2
176
     1
 90
        0
176
     1
 40
-0.6
176
     1
 41
-30.0
176
     1
 62
     5
 63
     7
421
 16777215
176
     1
 74
     2
176
     1
 91
        2
176
     1
 64
     7
176
     1
 65
   257
176
     1
 75
     2
176
     1
175
     1
176
     1
 42
40.0
176
     1
 92
        0
176
     1
 66
   257
176
     1
 43
1.0
176
     1
 76
     1
176
     1
 77
     6
176
     1
 78
     2
176
     1
 67
     7
176
     1
 79
     3
176
     1
170
     0
176
     1
171
     0
176
     1
290
     0
176
     1
 93
        1
176
     1
 44
0.0
176
     1
173
     0
176
     1
  0
VISUALSTYLE
  5
30
102
{ACAD_REACTORS
330
2A
102
}
330
2A
100
AcDbVisualStyle
  2
3dWireframe
 70
     5
177
     2
291
     0
 71
     0
176
     1
 72
     2
176
     1
 73
     0
176
     1
 90
        0
176
     1
 40
-0.6
176
     1
 41
-30.0
176
     1
 62
     5
 63
     7
421
 16777215
176
     1
 74
     1
176
     1
 91
        4
176
     1
 64
     7
176
     1
 65
   257
176
     1
 75
     1
176
     1
175
     1
176
     1
 42
1.0
176
     1
 92
        0
176
     1
 66
   257
176
     1
 43
1.0
176
     1
 76
     1
176
     1
 77
     6
176
     1
 78
     2
176
     1
 67
     7
176
     1
 79
     5
176
     1
170
     0
176
     1
171
     0
176
     1
290
     0
176
     1
 93
        1
176
     1
 44
0.0
176
     1
173
     0
176
     1
  0
VISUALSTYLE
  5
32
102
{ACAD_REACTORS
330
2A
102
}
330
2A
100
AcDbVisualStyle
  2
Basic
 70
     7
177
     2
291
     1
 71
     1
176
     1
 72
     0
176
     1
 73
     1
176
     1
 90
        0
176
     1
 40
-0.6
176
     1
 41
-30.0
176
     1
 62
     5
 63
     7
421
 16777215
176
     1
 74
     0
176
     1
 91
        4
176
     1
 64
     7
176
     1
 65
   257
176
     1
 75
     1
176
     1
175
     1
176
     1
 42
1.0
176
     1
 92
        8
176
     1
 66
     7
176
     1
 43
1.0
176
     1
 76
     1
176
     1
 77
     6
176
     1
 78
     2
176
     1
 67
     7
176
     1
 79
     5
176
     1
170
     0
176
     1
171
     0
176
     1
290
     0
176
     1
 93
        1
176
     1
 44
0.0
176
     1
173
     0
176
     1
  0
VISUALSTYLE
  5
36
102
{ACAD_REACTORS
330
2A
102
}
330
2A
100
AcDbVisualStyle
  2
Brighten
 70
    12
177
     2
291
     1
 71
     2
176
     1
 72
     2
176
     1
 73
     0
176
     1
 90
        0
176
     1
 40
-0.6
176
     1
 41
-30.0
176
     1
 62
     5
 63
     7
421
 16777215
176
     1
 74
     1
176
     1
 91
        4
176
     1
 64
     7
176
     1
 65
   257
176
     1
 75
     1
176
     1
175
     1
176
     1
 42
1.0
176
     1
 92
        8
176
     1
 66
     7
176
     1
 43
1.0
176
     1
 76
     1
176
     1
 77
     6
176
     1
 78
     2
176
     1
 67
     7
176
     1
 79
     5
176
     1
170
     0
176
     1
171
     0
176
     1
290
     0
176
     1
 93
        1
176
     1
 44
50.0
176
     1
173
     0
176
     1
  0
VISUALSTYLE
  5
3A
102
{ACAD_REACTORS
330
2A
102
}
330
2A
100
AcDbVisualStyle
  2
ColorChange
 70
    16
177
     2
291
     1
 71
     2
176
     1
 72
     2
176
     1
 73
     3
176
     1
 90
        0
176
     1
 40
-0.6
176
     1
 41
-30.0
176
     1
 62
     5
 63
     8
421
  8421504
176
     1
 74
     1
176
     1
 91
        4
176
     1
 64
     7
176
     1
 65
   257
176
     1
 75
     1
176
     1
175
     1
176
     1
 42
1.0
176
     1
 92
        8
176
     1
 66
     8
424
  8421504
176
     1
 43
1.0
176
     1
 76
     1
176
     1
 77
     6
176
     1
 78
     2
176
     1
 67
     7
176
     1
 79
     5
176
     1
170
     0
176
     1
171
     0
176
     1
290
     0
176
     1
 93
        1
176
     1
 44
0.0
176
     1
173
     0
176
     1
  0
VISUALSTYLE
  5
34
102
{ACAD_REACTORS
330
2A
102
}
330
2A
100
AcDbVisualStyle
  2
Conceptual
 70
     9
177
     2
291
     0
 71
     3
176
     1
 72
     2
176
     1
 73
     0
176
     1
 90
        0
176
     1
 40
-0.6
176
     1
 41
-30.0
176
     1
 62
     5
 63
     7
421
 16777215
176
     1
 74
     2
176
     1
 91
        2
176
     1
 64
     7
176
     1
 65
   257
176
     1
 75
     1
176
     1
175
     1
176
     1
 42
40.0
176
     1
 92
        8
176
     1
 66
     7
176
     1
 43
1.0
176
     1
 76
     1
176
     1
 77
     6
176
     1
 78
     2
176
     1
 67
     7
176
     1
 79
     3
176
     1
170
     0
176
     1
171
     0
176
     1
290
     0
176
     1
 93
        1
176
     1
 44
0.0
176
     1
173
     0
176
     1
  0
VISUALSTYLE
  5
35
102
{ACAD_REACTORS
330
2A
102
}
330
2A
100
AcDbVisualStyle
  2
Dim
 70
    11
177
     2
291
     1
 71
     2
176
     1
 72
     2
176
     1
 73
     0
176
     1
 90
        0
176
     1
 40
-0.6
176
     1
 41
-30.0
176
     1
 62
     5
 63
     7
421
 16777215
176
     1
 74
     1
176
     1
 91
        4
176
     1
 64
     7
176
     1
 65
   257
176
     1
 75
     1
176
     1
175
     1
176
     1
 42
1.0
176
     1
 92
        8
176
     1
 66
     7
176
     1
 43
1.0
176
     1
 76
     1
176
     1
 77
     6
176
     1
 78
     2
176
     1
 67
     7
176
     1
 79
     5
176
     1
170
     0
176
     1
171
     0
176
     1
290
     0
176
     1
 93
        1
176
     1
 44
-50.0
176
     1
173
     0
176
     1
  0
VISUALSTYLE
  5
39
102
{ACAD_REACTORS
330
2A
102
}
330
2A
100
AcDbVisualStyle
  2
Facepattern
 70
    15
177
     2
291
     1
 71
     2
176
     1
 72
     2
176
     1
 73
     0
176
     1
 90
        0
176
     1
 40
-0.6
176
     1
 41
-30.0
176
     1
 62
     5
 63
     7
421
 16777215
176
     1
 74
     1
176
     1
 91
        4
176
     1
 64
     7
176
     1
 65
   257
176
     1
 75
     1
176
     1
175
     1
176
     1
 42
1.0
176
     1
 92
        8
176
     1
 66
     7
176
     1
 43
1.0
176
     1
 76
     1
176
     1
 77
     6
176
     1
 78
     2
176
     1
 67
     7
176
     1
 79
     5
176
     1
170
     0
176
     1
171
     0
176
     1
290
     0
176
     1
 93
        1
176
     1
 44
0.0
176
     1
173
     0
176
     1
  0
VISUALSTYLE
  5
2B
102
{ACAD_REACTORS
330
2A
102
}
330
2A
100
AcDbVisualStyle
  2
Flat
 70
     0
177
     2
291
     1
 71
     2
176
     1
 72
     1
176
     1
 73
     1
176
     1
 90
        2
176
     1
 40
-0.6
176
     1
 41
30.0
176
     1
 62
     5
 63
     7
421
 16777215
176
     1
 74
     0
176
     1
 91
        4
176
     1
 64
     7
176
     1
 65
   257
176
     1
 75
     1
176
     1
175
     1
176
     1
 42
1.0
176
     1
 92
        8
176
     1
 66
     7
176
     1
 43
1.0
176
     1
 76
     1
176
     1
 77
     6
176
     1
 78
     2
176
     1
 67
     7
176
     1
 79
     5
176
     1
170
     0
176
     1
171
     0
176
     1
290
     0
176
     1
 93
       13
176
     1
 44
0.0
176
     1
173
     0
176
     1
  0
VISUALSTYLE
  5
2C
102
{ACAD_REACTORS
330
2A
102
}
330
2A
100
AcDbVisualStyle
  2
FlatWithEdges
 70
     1
177
     2
291
     1
 71
     2
176
     1
 72
     1
176
     1
 73
     1
176
     1
 90
        2
176
     1
 40
-0.6
176
     1
 41
30.0
176
     1
 62
     5
 63
     7
421
 16777215
176
     1
 74
     1
176
     1
 91
        4
176
     1
 64
     7
176
     1
 65
   257
176
     1
 75
     1
176
     1
175
     1
176
     1
 42
1.0
176
     1
 92
        0
176
     1
 66
   257
176
     1
 43
1.0
176
     1
 76
     1
176
     1
 77
     6
176
     1
 78
     2
176
     1
 67
     7
176
     1
 79
     5
176
     1
170
     0
176
     1
171
     0
176
     1
290
     0
176
     1
 93
       13
176
     1
 44
0.0
176
     1
173
     0
176
     1
  0
VISUALSTYLE
  5
2D
102
{ACAD_REACTORS
330
2A
102
}
330
2A
100
AcDbVisualStyle
  2
Gouraud
 70
     2
177
     2
291
     1
 71
     2
176
     1
 72
     2
176
     1
 73
     1
176
     1
 90
        2
176
     1
 40
-0.6
176
     1
 41
30.0
176
     1
 62
     5
 63
     7
421
 16777215
176
     1
 74
     0
176
     1
 91
        4
176
     1
 64
     7
176
     1
 65
   257
176
     1
 75
     1
176
     1
175
     1
176
     1
 42
1.0
176
     1
 92
        0
176
     1
 66
     7
176
     1
 43
1.0
176
     1
 76
     1
176
     1
 77
     6
176
     1
 78
     2
176
     1
 67
     7
176
     1
 79
     5
176
     1
170
     0
176
     1
171
     0
176
     1
290
     0
176
     1
 93
       13
176
     1
 44
0.0
176
     1
173
     0
176
     1
  0
VISUALSTYLE
  5
2E
102
{ACAD_REACTORS
330
2A
102
}
330
2A
100
AcDbVisualStyle
  2
GouraudWithEdges
 70
     3
177
     2
291
     1
 71
     2
176
     1
 72
     2
176
     1
 73
     1
176
     1
 90
        2
176
     1
 40
-0.6
176
     1
 41
30.0
176
     1
 62
     5
 63
     7
421
 16777215
176
     1
 74
     1
176
     1
 91
        4
176
     1
 64
     7
176
     1
 65
   257
176
     1
 75
     1
176
     1
175
     1
176
     1
 42
1.0
176
     1
 92
        0
176
     1
 66
   257
176
     1
 43
1.0
176
     1
 76
     1
176
     1
 77
     6
176
     1
 78
     2
176
     1
 67
     7
176
     1
 79
     5
176
     1
170
     0
176
     1
171
     0
176
     1
290
     0
176
     1
 93
       13
176
     1
 44
0.0
176
     1
173
     0
176
     1
  0
VISUALSTYLE
  5
38
102
{ACAD_REACTORS
330
2A
102
}
330
2A
100
AcDbVisualStyle
  2
Linepattern
 70
    14
177
     2
291
     1
 71
     2
176
     1
 72
     2
176
     1
 73
     0
176
     1
 90
        0
176
     1
 40
-0.6
176
     1
 41
-30.0
176
     1
 62
     5
 63
     7
421
 16777215
176
     1
 74
     1
176
     1
 91
        4
176
     1
 64
     7
176
     1
 65
   257
176
     1
 75
     7
176
     1
175
     7
176
     1
 42
1.0
176
     1
 92
        8
176
     1
 66
     7
176
     1
 43
1.0
176
     1
 76
     1
176
     1
 77
     6
176
     1
 78
     2
176
     1
 67
     7
176
     1
 79
     5
176
     1
170
     0
176
     1
171
     0
176
     1
290
     0
176
     1
 93
        1
176
     1
 44
0.0
176
     1
173
     0
176
     1
  0
VISUALSTYLE
  5
33
102
{ACAD_REACTORS
330
2A
102
}
330
2A
100
AcDbVisualStyle
  2
Realistic
 70
     8
177
     2
291
     0
 71
     2
176
     1
 72
     2
176
     1
 73
     0
176
     1
 90
        0
176
     1
 40
-0.6
176
     1
 41
-30.0
176
     1
 62
     5
 63
     7
421
 16777215
176
     1
 74
     1
176
     1
 91
        0
176
     1
 64
     7
176
     1
 65
   257
176
     1
 75
     1
176
     1
175
     1
176
     1
 42
1.0
176
     1
 92
        8
176
     1
 66
     8
424
  7895160
176
     1
 43
1.0
176
     1
 76
     1
176
     1
 77
     6
176
     1
 78
     2
176
     1
 67
     7
176
     1
 79
     5
176
     1
170
     0
176
     1
171
     0
176
     1
290
     0
176
     1
 93
       13
176
     1
 44
0.0
176
     1
173
     0
176
     1
  0
VISUALSTYLE
  5
37
102
{ACAD_REACTORS
330
2A
102
}
330
2A
100
AcDbVisualStyle
  2
Thicken
 70
    13
177
     2
291
     1
 71
     2
176
     1
 72
     2
176
     1
 73
     0
176
     1
 90
        0
176
     1
 40
-0.6
176
     1
 41
-30.0
176
     1
 62
     5
 63
     7
421
 16777215
176
     1
 74
     1
176
     1
 91
        4
176
     1
 64
     7
176
     1
 65
   257
176
     1
 75
     1
176
     1
175
     1
176
     1
 42
1.0
176
     1
 92
       12
176
     1
 66
     7
176
     1
 43
1.0
176
     1
 76
     1
176
     1
 77
     6
176
     1
 78
     2
176
     1
 67
     7
176
     1
 79
     5
176
     1
170
     0
176
     1
171
     0
176
     1
290
     0
176
     1
 93
        1
176
     1
 44
0.0
176
     1
173
     0
176
     1
  0
ENDSEC
  0
EOF
