  0
SECTION
  2
HEADER
  9
$ACADVER
  1
AC1024
  9
$ACADMAINTVER
 70
     6
  9
$DWGCODEPAGE
  3
UNDEFINED
  9
$INSBASE
 10
0.0
 20
0.0
 30
0.0
  9
$EXTMIN
 10
1.000000000000000E+20
 20
1.000000000000000E+20
 30
1.000000000000000E+20
  9
$EXTMAX
 10
-1.000000000000000E+20
 20
-1.000000000000000E+20
 30
-1.000000000000000E+20
  9
$LIMMIN
 10
0.0
 20
0.0
  9
$LIMMAX
 10
12.0
 20
9.0
  9
$ORTHOMODE
 70
     0
  9
$REGENMODE
 70
     1
  9
$FILLMODE
 70
     1
  9
$QTEXTMODE
 70
     0
  9
$MIRRTEXT
 70
     1
  9
$LTSCALE
 40
1.0
  9
$ATTMODE
 70
     1
  9
$TEXTSIZE
 40
0.2
  9
$TRACEWID
 40
0.05
  9
$TEXTSTYLE
  7
Standard
  9
$CLAYER
  8
0
  9
$CELTYPE
  6
ByLayer
  9
$CECOLOR
 62
   256
  9
$CELTSCALE
 40
1.0
  9
$DISPSILH
 70
     0
  9
$DIMSCALE
 40
1.0
  9
$DIMASZ
 40
0.18
  9
$DIMEXO
 40
0.0625
  9
$DIMDLI
 40
0.38
  9
$DIMRND
 40
0.0
  9
$DIMDLE
 40
0.0
  9
$DIMEXE
 40
0.18
  9
$DIMTP
 40
0.0
  9
$DIMTM
 40
0.0
  9
$DIMTXT
 40
0.18
  9
$DIMCEN
 40
0.09
  9
$DIMTSZ
 40
0.0
  9
$DIMTOL
 70
     0
  9
$DIMLIM
 70
     0
  9
$DIMTIH
 70
     1
  9
$DIMTOH
 70
     1
  9
$DIMSE1
 70
     0
  9
$DIMSE2
 70
     0
  9
$DIMTAD
 70
     0
  9
$DIMZIN
 70
     0
  9
$DIMBLK
  1

  9
$DIMASO
 70
     1
  9
$DIMSHO
 70
     1
  9
$DIMPOST
  1

  9
$DIMAPOST
  1

  9
$DIMALT
 70
     0
  9
$DIMALTD
 70
     2
  9
$DIMALTF
 40
25.4
  9
$DIMLFAC
 40
1.0
  9
$DIMTOFL
 70
     0
  9
$DIMTVP
 40
0.0
  9
$DIMTIX
 70
     0
  9
$DIMSOXD
 70
     0
  9
$DIMSAH
 70
     0
  9
$DIMBLK1
  1

  9
$DIMBLK2
  1

  9
$DIMSTYLE
  2
Standard
  9
$DIMCLRD
 70
     0
  9
$DIMCLRE
 70
     0
  9
$DIMCLRT
 70
     0
  9
$DIMTFAC
 40
1.0
  9
$DIMGAP
 40
0.09
  9
$DIMJUST
 70
     0
  9
$DIMSD1
 70
     0
  9
$DIMSD2
 70
     0
  9
$DIMTOLJ
 70
     1
  9
$DIMTZIN
 70
     0
  9
$DIMALTZ
 70
     0
  9
$DIMALTTZ
 70
     0
  9
$DIMUPT
 70
     0
  9
$DIMDEC
 70
     4
  9
$DIMTDEC
 70
     4
  9
$DIMALTU
 70
     2
  9
$DIMALTTD
 70
     2
  9
$DIMTXSTY
  7
Standard
  9
$DIMAUNIT
 70
     0
  9
$DIMADEC
 70
     0
  9
$DIMALTRND
 40
0.0
  9
$DIMAZIN
 70
     0
  9
$DIMDSEP
 70
    46
  9
$DIMATFIT
 70
     3
  9
$DIMFRAC
 70
     0
  9
$DIMLDRBLK
  1

  9
$DIMLUNIT
 70
     2
  9
$DIMLWD
 70
    -2
  9
$DIMLWE
 70
    -2
  9
$DIMTMOVE
 70
     0
  9
$DIMFXL
 40
1.0
  9
$DIMFXLON
 70
     0
  9
$DIMJOGANG
 40
0.7853981633974483
  9
$DIMTFILL
 70
     0
  9
$DIMTFILLCLR
 70
     0
  9
$DIMARCSYM
 70
     0
  9
$DIMLTYPE
  6

  9
$DIMLTEX1
  6

  9
$DIMLTEX2
  6

  9
$DIMTXTDIRECTION
 70
     0
  9
$LUNITS
 70
     2
  9
$LUPREC
 70
     4
  9
$SKETCHINC
 40
0.1
  9
$FILLETRAD
 40
0.5
  9
$AUNITS
 70
     0
  9
$AUPREC
 70
     0
  9
$MENU
  1
.
  9
$ELEVATION
 40
0.0
  9
$PELEVATION
 40
0.0
  9
$THICKNESS
 40
0.0
  9
$LIMCHECK
 70
     0
  9
$CHAMFERA
 40
0.5
  9
$CHAMFERB
 40
0.5
  9
$CHAMFERC
 40
1.0
  9
$CHAMFERD
 40
0.0
  9
$SKPOLY
 70
     0
  9
$TDCREATE
 40
2457917.618946748
  9
$TDUCREATE
 40
2457917.243946759
  9
$TDUPDATE
 40
2457917.618946748
  9
$TDUUPDATE
 40
2457917.243946759
  9
$TDINDWG
 40
0.0000000116
  9
$TDUSRTIMER
 40
0.0000000116
  9
$USRTIMER
 70
     1
  9
$ANGBASE
 50
0.0
  9
$ANGDIR
 70
     0
  9
$PDMODE
 70
     0
  9
$PDSIZE
 40
0.0
  9
$PLINEWID
 40
0.0
  9
$SPLFRAME
 70
     0
  9
$SPLINETYPE
 70
     6
  9
$SPLINESEGS
 70
     8
  9
$HANDSEED
  5
FA
  9
$SURFTAB1
 70
     6
  9
$SURFTAB2
 70
     6
  9
$SURFTYPE
 70
     6
  9
$SURFU
 70
     6
  9
$SURFV
 70
     6
  9
$UCSBASE
  2

  9
$UCSNAME
  2

  9
$UCSORG
 10
0.0
 20
0.0
 30
0.0
  9
$UCSXDIR
 10
1.0
 20
0.0
 30
0.0
  9
$UCSYDIR
 10
0.0
 20
1.0
 30
0.0
  9
$UCSORTHOREF
  2

  9
$UCSORTHOVIEW
 70
     0
  9
$UCSORGTOP
 10
0.0
 20
0.0
 30
0.0
  9
$UCSORGBOTTOM
 10
0.0
 20
0.0
 30
0.0
  9
$UCSORGLEFT
 10
0.0
 20
0.0
 30
0.0
  9
$UCSORGRIGHT
 10
0.0
 20
0.0
 30
0.0
  9
$UCSORGFRONT
 10
0.0
 20
0.0
 30
0.0
  9
$UCSORGBACK
 10
0.0
 20
0.0
 30
0.0
  9
$PUCSBASE
  2

  9
$PUCSNAME
  2

  9
$PUCSORG
 10
0.0
 20
0.0
 30
0.0
  9
$PUCSXDIR
 10
1.0
 20
0.0
 30
0.0
  9
$PUCSYDIR
 10
0.0
 20
1.0
 30
0.0
  9
$PUCSORTHOREF
  2

  9
$PUCSORTHOVIEW
 70
     0
  9
$PUCSORGTOP
 10
0.0
 20
0.0
 30
0.0
  9
$PUCSORGBOTTOM
 10
0.0
 20
0.0
 30
0.0
  9
$PUCSORGLEFT
 10
0.0
 20
0.0
 30
0.0
  9
$PUCSORGRIGHT
 10
0.0
 20
0.0
 30
0.0
  9
$PUCSORGFRONT
 10
0.0
 20
0.0
 30
0.0
  9
$PUCSORGBACK
 10
0.0
 20
0.0
 30
0.0
  9
$USERI1
 70
     0
  9
$USERI2
 70
     0
  9
$USERI3
 70
     0
  9
$USERI4
 70
     0
  9
$USERI5
 70
     0
  9
$USERR1
 40
0.0
  9
$USERR2
 40
0.0
  9
$USERR3
 40
0.0
  9
$USERR4
 40
0.0
  9
$USERR5
 40
0.0
  9
$WORLDVIEW
 70
     1
  9
$SHADEDGE
 70
     3
  9
$SHADEDIF
 70
    70
  9
$TILEMODE
 70
     1
  9
$MAXACTVP
 70
    64
  9
$PINSBASE
 10
0.0
 20
0.0
 30
0.0
  9
$PLIMCHECK
 70
     0
  9
$PEXTMIN
 10
1.000000000000000E+20
 20
1.000000000000000E+20
 30
1.000000000000000E+20
  9
$PEXTMAX
 10
-1.000000000000000E+20
 20
-1.000000000000000E+20
 30
-1.000000000000000E+20
  9
$PLIMMIN
 10
0.0
 20
0.0
  9
$PLIMMAX
 10
12.0
 20
9.0
  9
$UNITMODE
 70
     0
  9
$VISRETAIN
 70
     1
  9
$PLINEGEN
 70
     0
  9
$PSLTSCALE
 70
     1
  9
$TREEDEPTH
 70
  3020
  9
$CMLSTYLE
  2
Standard
  9
$CMLJUST
 70
     0
  9
$CMLSCALE
 40
1.0
  9
$PROXYGRAPHICS
 70
     1
  9
$MEASUREMENT
 70
     0
  9
$CELWEIGHT
370
    -1
  9
$ENDCAPS
280
     0
  9
$JOINSTYLE
280
     0
  9
$LWDISPLAY
290
     1
  9
$INSUNITS
 70
     1
  9
$HYPERLINKBASE
  1

  9
$STYLESHEET
  1

  9
$XEDIT
290
     1
  9
$CEPSNTYPE
380
     0
  9
$PSTYLEMODE
290
     1
  9
$FINGERPRINTGUID
  2
{56F980E4-E5BE-1EA8-748D-3FE3F3BDDF0C}
  9
$VERSIONGUID
  2
{FAEB1C32-E019-11D5-929B-00C0DF256EC4}
  9
$EXTNAMES
290
     1
  9
$PSVPSCALE
 40
0.0
  9
$OLESTARTUP
290
     0
  9
$SORTENTS
280
   127
  9
$INDEXCTL
280
     0
  9
$HIDETEXT
280
     1
  9
$XCLIPFRAME
280
     2
  9
$HALOGAP
280
     0
  9
$OBSCOLOR
 70
   257
  9
$OBSLTYPE
280
     0
  9
$INTERSECTIONDISPLAY
280
     0
  9
$INTERSECTIONCOLOR
 70
   257
  9
$DIMASSOC
280
     2
  9
$PROJECTNAME
  1

  9
$CAMERADISPLAY
290
     0
  9
$LENSLENGTH
 40
50.0
  9
$CAMERAHEIGHT
 40
0.0
  9
$STEPSPERSEC
 40
2.0
  9
$STEPSIZE
 40
6.0
  9
$3DDWFPREC
 40
2.0
  9
$PSOLWIDTH
 40
0.25
  9
$PSOLHEIGHT
 40
4.0
  9
$LOFTANG1
 40
1.570796326794897
  9
$LOFTANG2
 40
1.570796326794897
  9
$LOFTMAG1
 40
0.0
  9
$LOFTMAG2
 40
0.0
  9
$LOFTPARAM
 70
     7
  9
$LOFTNORMALS
280
     1
  9
$LATITUDE
 40
37.795
  9
$LONGITUDE
 40
-122.394
  9
$NORTHDIRECTION
 40
0.0
  9
$TIMEZONE
 70
 -8000
  9
$LIGHTGLYPHDISPLAY
280
     1
  9
$TILEMODELIGHTSYNCH
280
     1
  9
$CMATERIAL
347
3C
  9
$SOLIDHIST
280
     1
  9
$SHOWHIST
280
     1
  9
$DWFFRAME
280
     2
  9
$DGNFRAME
280
     2
  9
$REALWORLDSCALE
290
     1
  9
$INTERFERECOLOR
 62
   256
  9
$CSHADOW
280
     0
  9
$SHADOWPLANELOCATION
 40
0.0
  0
ENDSEC
  0
SECTION
  2
CLASSES
  0
CLASS
  1
ACDBDICTIONARYWDFLT
  2
AcDbDictionaryWithDefault
  3
ObjectDBX Classes
 90
        0
 91
        4
280
     0
281
     0
  0
CLASS
  1
VISUALSTYLE
  2
AcDbVisualStyle
  3
ObjectDBX Classes
 90
     4095
 91
        4
280
     0
281
     0
  0
CLASS
  1
MATERIAL
  2
AcDbMaterial
  3
ObjectDBX Classes
 90
     1153
 91
        4
280
     0
281
     0
  0
CLASS
  1
SUN
  2
AcDbSun
  3
SCENEOE
 90
     1024
 91
        4
280
     0
281
     0
  0
ENDSEC
  0
SECTION
  2
TABLES
  0
TABLE
  2
VPORT
  5
8
330
0
100
AcDbSymbolTable
 70
     1
  0
VPORT
  5
29
330
8
100
AcDbSymbolTableRecord
100
AcDbViewportTableRecord
  2
*Active
 70
     0
 10
0.0
 20
0.0
 11
1.0
 21
1.0
 12
0.0
 22
0.0
 13
0.0
 23
0.0
 14
0.5
 24
0.5
 15
0.5
 25
0.5
 16
0.0
 26
0.0
 36
1.0
 17
91.00082462281999
 27
-128.4993055234307
 37
0.0
 40
256.9986110468615
 41
0.7081814508812795
 42
50.0
 43
0.0
 44
0.0
 50
0.0
 51
0.0
 71
     0
 72
   100
 73
     1
 74
     3
 75
     0
 76
     0
 77
     0
 78
     0
281
     0
 65
     1
110
0.0
120
0.0
130
0.0
111
1.0
121
0.0
131
0.0
112
0.0
122
1.0
132
0.0
 79
     0
146
0.0
 60
     3
 61
     5
292
     1
282
     1
141
0.0
142
0.0
 63
   250
361
3F
  0
ENDTAB
  0
TABLE
  2
LTYPE
  5
5
330
0
100
AcDbSymbolTable
 70
     1
  0
LTYPE
  5
14
330
5
100
AcDbSymbolTableRecord
100
AcDbLinetypeTableRecord
  2
ByBlock
 70
     0
  3

 72
    65
 73
     0
 40
0.0
  0
LTYPE
  5
15
330
5
100
AcDbSymbolTableRecord
100
AcDbLinetypeTableRecord
  2
ByLayer
 70
     0
  3

 72
    65
 73
     0
 40
0.0
  0
LTYPE
  5
16
330
5
100
AcDbSymbolTableRecord
100
AcDbLinetypeTableRecord
  2
Continuous
 70
     0
  3
Solid line
 72
    65
 73
     0
 40
0.0
  0
ENDTAB
  0
TABLE
  2
LAYER
  5
2
330
0
100
AcDbSymbolTable
 70
     2
  0
LAYER
  5
10
330
2
100
AcDbSymbolTableRecord
100
AcDbLayerTableRecord
  2
0
 70
     0
 62
     7
  6
Continuous
370
    -3
390
F
347
3E
  0
LAYER
  5
40
330
2
100
AcDbSymbolTableRecord
100
AcDbLayerTableRecord
  2
_U+30EC_U+30A4_U+30E4_U+30FC 1
 70
     0
 62
     7
  6
Continuous
370
    -3
390
F
347
3E
  0
ENDTAB
  0
TABLE
  2
STYLE
  5
3
330
0
100
AcDbSymbolTable
 70
     1
  0
STYLE
  5
11
330
3
100
AcDbSymbolTableRecord
100
AcDbTextStyleTableRecord
  2
Standard
 70
     0
 40
0.0
 41
1.0
 50
0.0
 71
     0
 42
0.2
  3
txt
  4

  0
ENDTAB
  0
TABLE
  2
VIEW
  5
6
330
0
100
AcDbSymbolTable
 70
     0
  0
ENDTAB
  0
TABLE
  2
UCS
  5
7
330
0
100
AcDbSymbolTable
 70
     0
  0
ENDTAB
  0
TABLE
  2
APPID
  5
9
330
0
100
AcDbSymbolTable
 70
     1
  0
APPID
  5
12
330
9
100
AcDbSymbolTableRecord
100
AcDbRegAppTableRecord
  2
ACAD
 70
     0
  0
ENDTAB
  0
TABLE
  2
DIMSTYLE
  5
A
330
0
100
AcDbSymbolTable
 70
     1
100
AcDbDimStyleTable
  0
DIMSTYLE
105
27
330
A
100
AcDbSymbolTableRecord
100
AcDbDimStyleTableRecord
  2
Standard
 70
     0
178
     0
340
11
  0
ENDTAB
  0
TABLE
  2
BLOCK_RECORD
  5
1
330
0
100
AcDbSymbolTable
 70
     7
  0
BLOCK_RECORD
  5
1F
330
1
100
AcDbSymbolTableRecord
100
AcDbBlockTableRecord
  2
*Model_Space
340
22
 70
     0
280
     1
281
     0
  0
BLOCK_RECORD
  5
1B
330
1
100
AcDbSymbolTableRecord
100
AcDbBlockTableRecord
  2
*Paper_Space
340
1E
 70
     0
280
     1
281
     0
  0
BLOCK_RECORD
  5
23
330
1
100
AcDbSymbolTableRecord
100
AcDbBlockTableRecord
  2
*Paper_Space0
340
26
 70
     0
280
     1
281
     0
  0
BLOCK_RECORD
  5
4F
330
1
100
AcDbSymbolTableRecord
100
AcDbBlockTableRecord
  2
block 2
340
0
102
{BLKREFS
331
50
102
}
 70
     0
280
     1
281
     0
  0
BLOCK_RECORD
  5
90
330
1
100
AcDbSymbolTableRecord
100
AcDbBlockTableRecord
  2
block 3
340
0
102
{BLKREFS
331
91
102
}
 70
     0
280
     1
281
     0
  0
BLOCK_RECORD
  5
A2
330
1
100
AcDbSymbolTableRecord
100
AcDbBlockTableRecord
  2
block 4
340
0
102
{BLKREFS
331
A3
102
}
 70
     0
280
     1
281
     0
  0
BLOCK_RECORD
  5
B6
330
1
100
AcDbSymbolTableRecord
100
AcDbBlockTableRecord
  2
block 5
340
0
102
{BLKREFS
331
B7
102
}
 70
     0
280
     1
281
     0
  0
BLOCK_RECORD
  5
D9
330
1
100
AcDbSymbolTableRecord
100
AcDbBlockTableRecord
  2
block 6
340
0
102
{BLKREFS
331
DA
102
}
 70
     0
280
     1
281
     0
  0
BLOCK_RECORD
  5
F2
330
1
100
AcDbSymbolTableRecord
100
AcDbBlockTableRecord
  2
block 7
340
0
102
{BLKREFS
331
F3
102
}
 70
     0
280
     1
281
     0
  0
ENDTAB
  0
ENDSEC
  0
SECTION
  2
BLOCKS
  0
BLOCK
  5
20
330
1F
100
AcDbEntity
  8
0
100
AcDbBlockBegin
  2
*Model_Space
 70
     0
 10
0.0
 20
0.0
 30
0.0
  3
*Model_Space
  1

  0
ENDBLK
  5
21
330
1F
100
AcDbEntity
  8
0
100
AcDbBlockEnd
  0
BLOCK
  5
1C
330
1B
100
AcDbEntity
 67
     1
  8
0
100
AcDbBlockBegin
  2
*Paper_Space
 70
     0
 10
0.0
 20
0.0
 30
0.0
  3
*Paper_Space
  1

  0
ENDBLK
  5
1D
330
1B
100
AcDbEntity
 67
     1
  8
0
100
AcDbBlockEnd
  0
BLOCK
  5
24
330
23
100
AcDbEntity
  8
0
100
AcDbBlockBegin
  2
*Paper_Space0
 70
     0
 10
0.0
 20
0.0
 30
0.0
  3
*Paper_Space0
  1

  0
ENDBLK
  5
25
330
23
100
AcDbEntity
  8
0
100
AcDbBlockEnd
  0
BLOCK
  5
51
330
4F
100
AcDbEntity
  8
0
100
AcDbBlockBegin
  2
block 2
 70
     0
 10
0.0
 20
0.0
 30
0.0
  3
block 2
  1

  0
SPLINE
  5
53
330
4F
100
AcDbEntity
  8
_U+30EC_U+30A4_U+30E4_U+30FC 1
370
     0
100
AcDbSpline
210
0.0
220
0.0
230
1.0
 70
    11
 71
     3
 72
    26
 73
    22
 74
     0
 42
0.0000000001
 43
0.0000000001
 12
1.0
 22
0.0
 32
0.0
 13
1.0
 23
0.0
 33
0.0
 40
0.0
 40
0.0
 40
0.0
 40
0.0
 40
1.0
 40
1.0
 40
1.0
 40
2.0
 40
2.0
 40
2.0
 40
3.0
 40
3.0
 40
3.0
 40
4.0
 40
4.0
 40
4.0
 40
5.0
 40
5.0
 40
5.0
 40
6.0
 40
6.0
 40
6.0
 40
7.0
 40
7.0
 40
7.0
 40
7.0
 10
89.55456811997247
 20
-117.3778482779472
 30
0.0
 10
89.55456811997247
 20
-117.3778482779472
 30
0.0
 10
89.30135360180661
 20
-117.3778482779472
 30
0.0
 10
89.30135360180661
 20
-117.3778482779472
 30
0.0
 10
89.32856985614008
 20
-117.0689954676946
 30
0.0
 10
89.5342420566095
 20
-116.5506808519387
 30
0.0
 10
89.96832408775097
 20
-116.0451130894783
 30
0.0
 10
89.96832408775097
 20
-116.0451130894783
 30
0.0
 10
89.0731160259088
 20
-116.0451130894783
 30
0.0
 10
89.0731160259088
 20
-116.0451130894783
 30
0.0
 10
89.0731160259088
 20
-116.0451130894783
 30
0.0
 10
89.0731160259088
 20
-115.833584226684
 30
0.0
 10
89.0731160259088
 20
-115.833584226684
 30
0.0
 10
89.0731160259088
 20
-115.833584226684
 30
0.0
 10
90.22153860591685
 20
-115.833584226684
 30
0.0
 10
90.22153860591685
 20
-115.833584226684
 30
0.0
 10
90.22153860591685
 20
-115.833584226684
 30
0.0
 10
90.22153860591685
 20
-116.0451130894783
 30
0.0
 10
90.22153860591685
 20
-116.0451130894783
 30
0.0
 10
89.87565101919776
 20
-116.3348456197878
 30
0.0
 10
89.59074162256759
 20
-116.9272297884765
 30
0.0
 10
89.55456811997247
 20
-117.3778482779472
 30
0.0
  0
HATCH
  5
54
330
4F
100
AcDbEntity
  8
_U+30EC_U+30A4_U+30E4_U+30FC 1
 62
     7
420
 16777215
100
AcDbHatch
 10
0.0
 20
0.0
 30
0.0
210
0.0
220
0.0
230
1.0
  2
SOLID
 70
     1
 71
     0
 91
        1
 92
        1
 93
        1
 72
     4
 94
        3
 73
     0
 74
     1
 95
       26
 96
       22
 40
0.0
 40
0.0
 40
0.0
 40
0.0
 40
1.0
 40
1.0
 40
1.0
 40
2.0
 40
2.0
 40
2.0
 40
3.0
 40
3.0
 40
3.0
 40
4.0
 40
4.0
 40
4.0
 40
5.0
 40
5.0
 40
5.0
 40
6.0
 40
6.0
 40
6.0
 40
7.0
 40
7.0
 40
7.0
 40
7.0
 10
89.55456811997247
 20
-117.3778482779472
 10
89.55456811997247
 20
-117.3778482779472
 10
89.30135360180661
 20
-117.3778482779472
 10
89.30135360180661
 20
-117.3778482779472
 10
89.32856985614008
 20
-117.0689954676946
 10
89.5342420566095
 20
-116.5506808519387
 10
89.96832408775097
 20
-116.0451130894783
 10
89.96832408775097
 20
-116.0451130894783
 10
89.0731160259088
 20
-116.0451130894783
 10
89.0731160259088
 20
-116.0451130894783
 10
89.0731160259088
 20
-116.0451130894783
 10
89.0731160259088
 20
-115.833584226684
 10
89.0731160259088
 20
-115.833584226684
 10
89.0731160259088
 20
-115.833584226684
 10
90.22153860591685
 20
-115.833584226684
 10
90.22153860591685
 20
-115.833584226684
 10
90.22153860591685
 20
-115.833584226684
 10
90.22153860591685
 20
-116.0451130894783
 10
90.22153860591685
 20
-116.0451130894783
 10
89.87565101919776
 20
-116.3348456197878
 10
89.59074162256759
 20
-116.9272297884765
 10
89.55456811997247
 20
-117.3778482779472
 97
        0
 97
        0
 75
     2
 76
     1
 98
        0
  0
ENDBLK
  5
52
330
4F
100
AcDbEntity
  8
0
100
AcDbBlockEnd
  0
BLOCK
  5
92
330
90
100
AcDbEntity
  8
0
100
AcDbBlockBegin
  2
block 3
 70
     0
 10
0.0
 20
0.0
 30
0.0
  3
block 3
  1

  0
SPLINE
  5
94
330
90
100
AcDbEntity
  8
_U+30EC_U+30A4_U+30E4_U+30FC 1
370
     0
100
AcDbSpline
210
0.0
220
0.0
230
1.0
 70
    11
 71
     3
 72
    26
 73
    22
 74
     0
 42
0.0000000001
 43
0.0000000001
 12
1.0
 22
0.0
 32
0.0
 13
1.0
 23
0.0
 33
0.0
 40
0.0
 40
0.0
 40
0.0
 40
0.0
 40
1.0
 40
1.0
 40
1.0
 40
2.0
 40
2.0
 40
2.0
 40
3.0
 40
3.0
 40
3.0
 40
4.0
 40
4.0
 40
4.0
 40
5.0
 40
5.0
 40
5.0
 40
6.0
 40
6.0
 40
6.0
 40
7.0
 40
7.0
 40
7.0
 40
7.0
 10
89.11600746470017
 20
-123.6989094742836
 30
0.0
 10
89.11600746470017
 20
-123.6989094742836
 30
0.0
 10
89.11600746470017
 20
-122.5945841164868
 30
0.0
 10
89.11600746470017
 20
-122.5945841164868
 30
0.0
 10
89.11600746470017
 20
-122.5945841164868
 30
0.0
 10
88.76322968701058
 20
-122.5945841164868
 30
0.0
 10
88.76322968701058
 20
-122.5945841164868
 30
0.0
 10
88.76322968701058
 20
-122.5945841164868
 30
0.0
 10
88.76322968701058
 20
-122.4466172653953
 30
0.0
 10
88.76322968701058
 20
-122.4466172653953
 30
0.0
 10
89.11824677676559
 20
-122.4318033548087
 30
0.0
 10
89.16802840652744
 20
-122.2688503383564
 30
0.0
 10
89.19972328499173
 20
-122.1546454230204
 30
0.0
 10
89.19972328499173
 20
-122.1546454230204
 30
0.0
 10
89.35561385569929
 20
-122.1546454230204
 30
0.0
 10
89.35561385569929
 20
-122.1546454230204
 30
0.0
 10
89.35561385569929
 20
-122.1546454230204
 30
0.0
 10
89.35561385569929
 20
-123.6989094742836
 30
0.0
 10
89.35561385569929
 20
-123.6989094742836
 30
0.0
 10
89.35561385569929
 20
-123.6989094742836
 30
0.0
 10
89.11600746470017
 20
-123.6989094742836
 30
0.0
 10
89.11600746470017
 20
-123.6989094742836
 30
0.0
  0
HATCH
  5
95
330
90
100
AcDbEntity
  8
_U+30EC_U+30A4_U+30E4_U+30FC 1
 62
     7
420
 16777215
100
AcDbHatch
 10
0.0
 20
0.0
 30
0.0
210
0.0
220
0.0
230
1.0
  2
SOLID
 70
     1
 71
     0
 91
        1
 92
        1
 93
        1
 72
     4
 94
        3
 73
     0
 74
     1
 95
       26
 96
       22
 40
0.0
 40
0.0
 40
0.0
 40
0.0
 40
1.0
 40
1.0
 40
1.0
 40
2.0
 40
2.0
 40
2.0
 40
3.0
 40
3.0
 40
3.0
 40
4.0
 40
4.0
 40
4.0
 40
5.0
 40
5.0
 40
5.0
 40
6.0
 40
6.0
 40
6.0
 40
7.0
 40
7.0
 40
7.0
 40
7.0
 10
89.11600746470017
 20
-123.6989094742836
 10
89.11600746470017
 20
-123.6989094742836
 10
89.11600746470017
 20
-122.5945841164868
 10
89.11600746470017
 20
-122.5945841164868
 10
89.11600746470017
 20
-122.5945841164868
 10
88.76322968701058
 20
-122.5945841164868
 10
88.76322968701058
 20
-122.5945841164868
 10
88.76322968701058
 20
-122.5945841164868
 10
88.76322968701058
 20
-122.4466172653953
 10
88.76322968701058
 20
-122.4466172653953
 10
89.11824677676559
 20
-122.4318033548087
 10
89.16802840652744
 20
-122.2688503383564
 10
89.19972328499173
 20
-122.1546454230204
 10
89.19972328499173
 20
-122.1546454230204
 10
89.35561385569929
 20
-122.1546454230204
 10
89.35561385569929
 20
-122.1546454230204
 10
89.35561385569929
 20
-122.1546454230204
 10
89.35561385569929
 20
-123.6989094742836
 10
89.35561385569929
 20
-123.6989094742836
 10
89.35561385569929
 20
-123.6989094742836
 10
89.11600746470017
 20
-123.6989094742836
 10
89.11600746470017
 20
-123.6989094742836
 97
        0
 97
        0
 75
     2
 76
     1
 98
        0
  0
ENDBLK
  5
93
330
90
100
AcDbEntity
  8
0
100
AcDbBlockEnd
  0
BLOCK
  5
A4
330
A2
100
AcDbEntity
  8
0
100
AcDbBlockBegin
  2
block 4
 70
     0
 10
0.0
 20
0.0
 30
0.0
  3
block 4
  1

  0
SPLINE
  5
A6
330
A2
100
AcDbEntity
  8
_U+30EC_U+30A4_U+30E4_U+30FC 1
370
     0
100
AcDbSpline
210
0.0
220
0.0
230
1.0
 70
    11
 71
     3
 72
    26
 73
    22
 74
     0
 42
0.0000000001
 43
0.0000000001
 12
1.0
 22
0.0
 32
0.0
 13
1.0
 23
0.0
 33
0.0
 40
0.0
 40
0.0
 40
0.0
 40
0.0
 40
1.0
 40
1.0
 40
1.0
 40
2.0
 40
2.0
 40
2.0
 40
3.0
 40
3.0
 40
3.0
 40
4.0
 40
4.0
 40
4.0
 40
5.0
 40
5.0
 40
5.0
 40
6.0
 40
6.0
 40
6.0
 40
7.0
 40
7.0
 40
7.0
 40
7.0
 10
90.9491427724016
 20
-140.051744214119
 30
0.0
 10
90.9491427724016
 20
-140.051744214119
 30
0.0
 10
90.9491427724016
 20
-138.9475911110964
 30
0.0
 10
90.9491427724016
 20
-138.9475911110964
 30
0.0
 10
90.9491427724016
 20
-138.9475911110964
 30
0.0
 10
90.59670950426055
 20
-138.9475911110964
 30
0.0
 10
90.59670950426055
 20
-138.9475911110964
 30
0.0
 10
90.59670950426055
 20
-138.9475911110964
 30
0.0
 10
90.59670950426055
 20
-138.7994520052307
 30
0.0
 10
90.59670950426055
 20
-138.7994520052307
 30
0.0
 10
90.95155433924128
 20
-138.7846380946441
 30
0.0
 10
91.00116371422888
 20
-138.6216850781918
 30
0.0
 10
91.03285859269317
 20
-138.5073079080815
 30
0.0
 10
91.03285859269317
 20
-138.5073079080815
 30
0.0
 10
91.188921418175
 20
-138.5073079080815
 30
0.0
 10
91.188921418175
 20
-138.5073079080815
 30
0.0
 10
91.188921418175
 20
-138.5073079080815
 30
0.0
 10
91.188921418175
 20
-140.051744214119
 30
0.0
 10
91.188921418175
 20
-140.051744214119
 30
0.0
 10
91.188921418175
 20
-140.051744214119
 30
0.0
 10
90.9491427724016
 20
-140.051744214119
 30
0.0
 10
90.9491427724016
 20
-140.051744214119
 30
0.0
  0
HATCH
  5
A7
330
A2
100
AcDbEntity
  8
_U+30EC_U+30A4_U+30E4_U+30FC 1
 62
     7
420
 16777215
100
AcDbHatch
 10
0.0
 20
0.0
 30
0.0
210
0.0
220
0.0
230
1.0
  2
SOLID
 70
     1
 71
     0
 91
        1
 92
        1
 93
        1
 72
     4
 94
        3
 73
     0
 74
     1
 95
       26
 96
       22
 40
0.0
 40
0.0
 40
0.0
 40
0.0
 40
1.0
 40
1.0
 40
1.0
 40
2.0
 40
2.0
 40
2.0
 40
3.0
 40
3.0
 40
3.0
 40
4.0
 40
4.0
 40
4.0
 40
5.0
 40
5.0
 40
5.0
 40
6.0
 40
6.0
 40
6.0
 40
7.0
 40
7.0
 40
7.0
 40
7.0
 10
90.9491427724016
 20
-140.051744214119
 10
90.9491427724016
 20
-140.051744214119
 10
90.9491427724016
 20
-138.9475911110964
 10
90.9491427724016
 20
-138.9475911110964
 10
90.9491427724016
 20
-138.9475911110964
 10
90.59670950426055
 20
-138.9475911110964
 10
90.59670950426055
 20
-138.9475911110964
 10
90.59670950426055
 20
-138.9475911110964
 10
90.59670950426055
 20
-138.7994520052307
 10
90.59670950426055
 20
-138.7994520052307
 10
90.95155433924128
 20
-138.7846380946441
 10
91.00116371422888
 20
-138.6216850781918
 10
91.03285859269317
 20
-138.5073079080815
 10
91.03285859269317
 20
-138.5073079080815
 10
91.188921418175
 20
-138.5073079080815
 10
91.188921418175
 20
-138.5073079080815
 10
91.188921418175
 20
-138.5073079080815
 10
91.188921418175
 20
-140.051744214119
 10
91.188921418175
 20
-140.051744214119
 10
91.188921418175
 20
-140.051744214119
 10
90.9491427724016
 20
-140.051744214119
 10
90.9491427724016
 20
-140.051744214119
 97
        0
 97
        0
 75
     2
 76
     1
 98
        0
  0
SPLINE
  5
A8
330
A2
100
AcDbEntity
  8
_U+30EC_U+30A4_U+30E4_U+30FC 1
370
     0
100
AcDbSpline
210
0.0
220
0.0
230
1.0
 70
    11
 71
     3
 72
    62
 73
    58
 74
     0
 42
0.0000000001
 43
0.0000000001
 12
1.0
 22
0.0
 32
0.0
 13
1.0
 23
0.0
 33
0.0
 40
0.0
 40
0.0
 40
0.0
 40
0.0
 40
1.0
 40
1.0
 40
1.0
 40
2.0
 40
2.0
 40
2.0
 40
3.0
 40
3.0
 40
3.0
 40
4.0
 40
4.0
 40
4.0
 40
5.0
 40
5.0
 40
5.0
 40
6.0
 40
6.0
 40
6.0
 40
7.0
 40
7.0
 40
7.0
 40
8.0
 40
8.0
 40
8.0
 40
9.0
 40
9.0
 40
9.0
 40
10.0
 40
10.0
 40
10.0
 40
11.0
 40
11.0
 40
11.0
 40
12.0
 40
12.0
 40
12.0
 40
13.0
 40
13.0
 40
13.0
 40
14.0
 40
14.0
 40
14.0
 40
15.0
 40
15.0
 40
15.0
 40
16.0
 40
16.0
 40
16.0
 40
17.0
 40
17.0
 40
17.0
 40
18.0
 40
18.0
 40
18.0
 40
19.0
 40
19.0
 40
19.0
 40
19.0
 10
92.25001082763194
 20
-140.1023871177522
 30
0.0
 10
92.14838051081708
 20
-140.1023871177522
 30
0.0
 10
91.91549205601419
 20
-140.0813720352922
 30
0.0
 10
91.78216686073502
 20
-139.8953368790887
 30
0.0
 10
91.70292966457427
 20
-139.7830267662695
 30
0.0
 10
91.69845104044344
 20
-139.6838080162943
 30
0.0
 10
91.69397241631262
 20
-139.5990586673572
 30
0.0
 10
91.69397241631262
 20
-139.5990586673572
 30
0.0
 10
91.92892792840667
 20
-139.5990586673572
 30
0.0
 10
91.92892792840667
 20
-139.5990586673572
 30
0.0
 10
91.93133949524633
 20
-139.6731282202901
 30
0.0
 10
91.94270831034765
 20
-139.9077392228356
 30
0.0
 10
92.24553220350113
 20
-139.9077392228356
 30
0.0
 10
92.39263778072129
 20
-139.9077392228356
 30
0.0
 10
92.55524628762508
 20
-139.8381482940335
 30
0.0
 10
92.55524628762508
 20
-139.6097384633615
 30
0.0
 10
92.55524628762508
 20
-139.49329423596
 30
0.0
 10
92.51459416089914
 20
-139.444718389618
 30
0.0
 10
92.48083222514369
 20
-139.4130235111537
 30
0.0
 10
92.40159502898294
 20
-139.3389539582208
 30
0.0
 10
92.27722708196542
 20
-139.3262071049254
 30
0.0
 10
92.21831594916765
 20
-139.3262071049254
 30
0.0
 10
92.19798988580467
 20
-139.3262071049254
 30
0.0
 10
92.1597493259184
 20
-139.3282741622166
 30
0.0
 10
92.13012150474525
 20
-139.3324082767988
 30
0.0
 10
92.13012150474525
 20
-139.3324082767988
 30
0.0
 10
92.13012150474525
 20
-139.1377603818822
 30
0.0
 10
92.13012150474525
 20
-139.1377603818822
 30
0.0
 10
92.1707736314712
 20
-139.1443060633042
 30
0.0
 10
92.2162488918765
 20
-139.1463731205954
 30
0.0
 10
92.22279457329847
 20
-139.1463731205954
 30
0.0
 10
92.29307452119757
 20
-139.1463731205954
 30
0.0
 10
92.50563691263748
 20
-139.1250135285868
 30
0.0
 10
92.50563691263748
 20
-138.8883354687501
 30
0.0
 10
92.50563691263748
 20
-138.7105685417112
 30
0.0
 10
92.36542152638782
 20
-138.6554470139473
 30
0.0
 10
92.2479437703408
 20
-138.6554470139473
 30
0.0
 10
91.96510143100178
 20
-138.6554470139473
 30
0.0
 10
91.95614418274013
 20
-138.8883354687501
 30
0.0
 10
91.9516655586093
 20
-138.9599934548433
 30
0.0
 10
91.9516655586093
 20
-138.9599934548433
 30
0.0
 10
91.73462454303856
 20
-138.9599934548433
 30
0.0
 10
91.73462454303856
 20
-138.9599934548433
 30
0.0
 10
91.74358179130022
 20
-138.8352809982773
 30
0.0
 10
91.77286510292484
 20
-138.4587320617395
 30
0.0
 10
92.26137964273327
 20
-138.4587320617395
 30
0.0
 10
92.50115828850666
 20
-138.4587320617395
 30
0.0
 10
92.75885143080335
 20
-138.5858560851452
 30
0.0
 10
92.75885143080335
 20
-138.8817897873282
 30
0.0
 10
92.75885143080335
 20
-139.0681694530802
 30
0.0
 10
92.65687660443996
 20
-139.1505072351777
 30
0.0
 10
92.55076766349426
 20
-139.2118299348151
 30
0.0
 10
92.616224477714
 20
-139.2393906986971
 30
0.0
 10
92.81087237263061
 20
-139.3196614235034
 30
0.0
 10
92.81087237263061
 20
-139.596991610066
 30
0.0
 10
92.81087237263061
 20
-139.9352999867176
 30
0.0
 10
92.54628903936343
 20
-140.1023871177522
 30
0.0
 10
92.25001082763194
 20
-140.1023871177522
 30
0.0
  0
HATCH
  5
A9
330
A2
100
AcDbEntity
  8
_U+30EC_U+30A4_U+30E4_U+30FC 1
 62
     7
420
 16777215
100
AcDbHatch
 10
0.0
 20
0.0
 30
0.0
210
0.0
220
0.0
230
1.0
  2
SOLID
 70
     1
 71
     0
 91
        1
 92
        1
 93
        1
 72
     4
 94
        3
 73
     0
 74
     1
 95
       62
 96
       58
 40
0.0
 40
0.0
 40
0.0
 40
0.0
 40
1.0
 40
1.0
 40
1.0
 40
2.0
 40
2.0
 40
2.0
 40
3.0
 40
3.0
 40
3.0
 40
4.0
 40
4.0
 40
4.0
 40
5.0
 40
5.0
 40
5.0
 40
6.0
 40
6.0
 40
6.0
 40
7.0
 40
7.0
 40
7.0
 40
8.0
 40
8.0
 40
8.0
 40
9.0
 40
9.0
 40
9.0
 40
10.0
 40
10.0
 40
10.0
 40
11.0
 40
11.0
 40
11.0
 40
12.0
 40
12.0
 40
12.0
 40
13.0
 40
13.0
 40
13.0
 40
14.0
 40
14.0
 40
14.0
 40
15.0
 40
15.0
 40
15.0
 40
16.0
 40
16.0
 40
16.0
 40
17.0
 40
17.0
 40
17.0
 40
18.0
 40
18.0
 40
18.0
 40
19.0
 40
19.0
 40
19.0
 40
19.0
 10
92.25001082763194
 20
-140.1023871177522
 10
92.14838051081708
 20
-140.1023871177522
 10
91.91549205601419
 20
-140.0813720352922
 10
91.78216686073502
 20
-139.8953368790887
 10
91.70292966457427
 20
-139.7830267662695
 10
91.69845104044344
 20
-139.6838080162943
 10
91.69397241631262
 20
-139.5990586673572
 10
91.69397241631262
 20
-139.5990586673572
 10
91.92892792840667
 20
-139.5990586673572
 10
91.92892792840667
 20
-139.5990586673572
 10
91.93133949524633
 20
-139.6731282202901
 10
91.94270831034765
 20
-139.9077392228356
 10
92.24553220350113
 20
-139.9077392228356
 10
92.39263778072129
 20
-139.9077392228356
 10
92.55524628762508
 20
-139.8381482940335
 10
92.55524628762508
 20
-139.6097384633615
 10
92.55524628762508
 20
-139.49329423596
 10
92.51459416089914
 20
-139.444718389618
 10
92.48083222514369
 20
-139.4130235111537
 10
92.40159502898294
 20
-139.3389539582208
 10
92.27722708196542
 20
-139.3262071049254
 10
92.21831594916765
 20
-139.3262071049254
 10
92.19798988580467
 20
-139.3262071049254
 10
92.1597493259184
 20
-139.3282741622166
 10
92.13012150474525
 20
-139.3324082767988
 10
92.13012150474525
 20
-139.3324082767988
 10
92.13012150474525
 20
-139.1377603818822
 10
92.13012150474525
 20
-139.1377603818822
 10
92.1707736314712
 20
-139.1443060633042
 10
92.2162488918765
 20
-139.1463731205954
 10
92.22279457329847
 20
-139.1463731205954
 10
92.29307452119757
 20
-139.1463731205954
 10
92.50563691263748
 20
-139.1250135285868
 10
92.50563691263748
 20
-138.8883354687501
 10
92.50563691263748
 20
-138.7105685417112
 10
92.36542152638782
 20
-138.6554470139473
 10
92.2479437703408
 20
-138.6554470139473
 10
91.96510143100178
 20
-138.6554470139473
 10
91.95614418274013
 20
-138.8883354687501
 10
91.9516655586093
 20
-138.9599934548433
 10
91.9516655586093
 20
-138.9599934548433
 10
91.73462454303856
 20
-138.9599934548433
 10
91.73462454303856
 20
-138.9599934548433
 10
91.74358179130022
 20
-138.8352809982773
 10
91.77286510292484
 20
-138.4587320617395
 10
92.26137964273327
 20
-138.4587320617395
 10
92.50115828850666
 20
-138.4587320617395
 10
92.75885143080335
 20
-138.5858560851452
 10
92.75885143080335
 20
-138.8817897873282
 10
92.75885143080335
 20
-139.0681694530802
 10
92.65687660443996
 20
-139.1505072351777
 10
92.55076766349426
 20
-139.2118299348151
 10
92.616224477714
 20
-139.2393906986971
 10
92.81087237263061
 20
-139.3196614235034
 10
92.81087237263061
 20
-139.596991610066
 10
92.81087237263061
 20
-139.9352999867176
 10
92.54628903936343
 20
-140.1023871177522
 10
92.25001082763194
 20
-140.1023871177522
 97
        0
 97
        0
 75
     2
 76
     1
 98
        0
  0
ENDBLK
  5
A5
330
A2
100
AcDbEntity
  8
0
100
AcDbBlockEnd
  0
BLOCK
  5
B8
330
B6
100
AcDbEntity
  8
0
100
AcDbBlockBegin
  2
block 5
 70
     0
 10
0.0
 20
0.0
 30
0.0
  3
block 5
  1

  0
SPLINE
  5
BA
330
B6
100
AcDbEntity
  8
_U+30EC_U+30A4_U+30E4_U+30FC 1
370
     0
100
AcDbSpline
210
0.0
220
0.0
230
1.0
 70
    11
 71
     3
 72
    26
 73
    22
 74
     0
 42
0.0000000001
 43
0.0000000001
 12
1.0
 22
0.0
 32
0.0
 13
1.0
 23
0.0
 33
0.0
 40
0.0
 40
0.0
 40
0.0
 40
0.0
 40
1.0
 40
1.0
 40
1.0
 40
2.0
 40
2.0
 40
2.0
 40
3.0
 40
3.0
 40
3.0
 40
4.0
 40
4.0
 40
4.0
 40
5.0
 40
5.0
 40
5.0
 40
6.0
 40
6.0
 40
6.0
 40
7.0
 40
7.0
 40
7.0
 40
7.0
 10
80.52893471294068
 20
-130.2425238389671
 30
0.0
 10
80.52893471294068
 20
-130.2425238389671
 30
0.0
 10
79.42460935514386
 20
-130.2425238389671
 30
0.0
 10
79.42460935514386
 20
-130.2425238389671
 30
0.0
 10
79.42460935514386
 20
-130.2425238389671
 30
0.0
 10
79.42460935514386
 20
-130.5953016166567
 30
0.0
 10
79.42460935514386
 20
-130.5953016166567
 30
0.0
 10
79.42460935514386
 20
-130.5953016166567
 30
0.0
 10
79.2764702492781
 20
-130.5953016166567
 30
0.0
 10
79.2764702492781
 20
-130.5953016166567
 30
0.0
 10
79.2618285934658
 20
-130.240456781676
 30
0.0
 10
79.09887557701347
 20
-130.1905028971399
 30
0.0
 10
78.98467066167744
 20
-130.1588080186756
 30
0.0
 10
78.98467066167744
 20
-130.1588080186756
 30
0.0
 10
78.98467066167744
 20
-130.0030897027423
 30
0.0
 10
78.98467066167744
 20
-130.0030897027423
 30
0.0
 10
78.98467066167744
 20
-130.0030897027423
 30
0.0
 10
80.52893471294068
 20
-130.0030897027423
 30
0.0
 10
80.52893471294068
 20
-130.0030897027423
 30
0.0
 10
80.52893471294068
 20
-130.0030897027423
 30
0.0
 10
80.52893471294068
 20
-130.2425238389671
 30
0.0
 10
80.52893471294068
 20
-130.2425238389671
 30
0.0
  0
HATCH
  5
BB
330
B6
100
AcDbEntity
  8
_U+30EC_U+30A4_U+30E4_U+30FC 1
 62
     7
420
 16777215
100
AcDbHatch
 10
0.0
 20
0.0
 30
0.0
210
0.0
220
0.0
230
1.0
  2
SOLID
 70
     1
 71
     0
 91
        1
 92
        1
 93
        1
 72
     4
 94
        3
 73
     0
 74
     1
 95
       26
 96
       22
 40
0.0
 40
0.0
 40
0.0
 40
0.0
 40
1.0
 40
1.0
 40
1.0
 40
2.0
 40
2.0
 40
2.0
 40
3.0
 40
3.0
 40
3.0
 40
4.0
 40
4.0
 40
4.0
 40
5.0
 40
5.0
 40
5.0
 40
6.0
 40
6.0
 40
6.0
 40
7.0
 40
7.0
 40
7.0
 40
7.0
 10
80.52893471294068
 20
-130.2425238389671
 10
80.52893471294068
 20
-130.2425238389671
 10
79.42460935514386
 20
-130.2425238389671
 10
79.42460935514386
 20
-130.2425238389671
 10
79.42460935514386
 20
-130.2425238389671
 10
79.42460935514386
 20
-130.5953016166567
 10
79.42460935514386
 20
-130.5953016166567
 10
79.42460935514386
 20
-130.5953016166567
 10
79.2764702492781
 20
-130.5953016166567
 10
79.2764702492781
 20
-130.5953016166567
 10
79.2618285934658
 20
-130.240456781676
 10
79.09887557701347
 20
-130.1905028971399
 10
78.98467066167744
 20
-130.1588080186756
 10
78.98467066167744
 20
-130.1588080186756
 10
78.98467066167744
 20
-130.0030897027423
 10
78.98467066167744
 20
-130.0030897027423
 10
78.98467066167744
 20
-130.0030897027423
 10
80.52893471294068
 20
-130.0030897027423
 10
80.52893471294068
 20
-130.0030897027423
 10
80.52893471294068
 20
-130.0030897027423
 10
80.52893471294068
 20
-130.2425238389671
 10
80.52893471294068
 20
-130.2425238389671
 97
        0
 97
        0
 75
     2
 76
     1
 98
        0
  0
SPLINE
  5
BC
330
B6
100
AcDbEntity
  8
_U+30EC_U+30A4_U+30E4_U+30FC 1
370
     0
100
AcDbSpline
210
0.0
220
0.0
230
1.0
 70
    11
 71
     3
 72
    53
 73
    49
 74
     0
 42
0.0000000001
 43
0.0000000001
 12
1.0
 22
0.0
 32
0.0
 13
1.0
 23
0.0
 33
0.0
 40
0.0
 40
0.0
 40
0.0
 40
0.0
 40
1.0
 40
1.0
 40
1.0
 40
2.0
 40
2.0
 40
2.0
 40
3.0
 40
3.0
 40
3.0
 40
4.0
 40
4.0
 40
4.0
 40
5.0
 40
5.0
 40
5.0
 40
6.0
 40
6.0
 40
6.0
 40
7.0
 40
7.0
 40
7.0
 40
8.0
 40
8.0
 40
8.0
 40
9.0
 40
9.0
 40
9.0
 40
10.0
 40
10.0
 40
10.0
 40
11.0
 40
11.0
 40
11.0
 40
12.0
 40
12.0
 40
12.0
 40
13.0
 40
13.0
 40
13.0
 40
14.0
 40
14.0
 40
14.0
 40
15.0
 40
15.0
 40
15.0
 40
16.0
 40
16.0
 40
16.0
 40
16.0
 10
80.57974987134813
 20
-128.9530245988381
 30
0.0
 10
80.57974987134813
 20
-129.0367404191297
 30
0.0
 10
80.5628689034704
 20
-129.1452609269151
 30
0.0
 10
80.49930689176753
 20
-129.2537814347004
 30
0.0
 10
80.3892360910138
 20
-129.4391275718069
 30
0.0
 10
80.25815020780004
 20
-129.4618652020095
 30
0.0
 10
80.15031871911172
 20
-129.4821912653725
 30
0.0
 10
80.15031871911172
 20
-129.4821912653725
 30
0.0
 10
80.15031871911172
 20
-129.2448241864388
 30
0.0
 10
80.15031871911172
 20
-129.2448241864388
 30
0.0
 10
80.34910072861065
 20
-129.185913053641
 30
0.0
 10
80.37872854978379
 20
-129.0505208010707
 30
0.0
 10
80.37872854978379
 20
-128.950957541547
 30
0.0
 10
80.37872854978379
 20
-128.8017849070357
 30
0.0
 10
80.27933754503434
 20
-128.6388318905834
 30
0.0
 10
80.0466213450057
 20
-128.6388318905834
 30
0.0
 10
79.79065075045165
 20
-128.6388318905834
 30
0.0
 10
79.72088756687533
 20
-128.8310682186603
 30
0.0
 10
79.72088756687533
 20
-128.9599147898086
 30
0.0
 10
79.72088756687533
 20
-128.9940212351126
 30
0.0
 10
79.72088756687533
 20
-129.1452609269151
 30
0.0
 10
79.84990639279795
 20
-129.240345562308
 30
0.0
 10
79.84990639279795
 20
-129.240345562308
 30
0.0
 10
79.83078611285481
 20
-129.4281032662541
 30
0.0
 10
79.83078611285481
 20
-129.4281032662541
 30
0.0
 10
79.83078611285481
 20
-129.4281032662541
 30
0.0
 10
78.98467066167744
 20
-129.2989121855572
 30
0.0
 10
78.98467066167744
 20
-129.2989121855572
 30
0.0
 10
78.98467066167744
 20
-129.2989121855572
 30
0.0
 10
78.98467066167744
 20
-128.4669216258694
 30
0.0
 10
78.98467066167744
 20
-128.4669216258694
 30
0.0
 10
78.98467066167744
 20
-128.4669216258694
 30
0.0
 10
79.17931855659407
 20
-128.4669216258694
 30
0.0
 10
79.17931855659407
 20
-128.4669216258694
 30
0.0
 10
79.17931855659407
 20
-128.4669216258694
 30
0.0
 10
79.17931855659407
 20
-129.1249348635521
 30
0.0
 10
79.17931855659407
 20
-129.1249348635521
 30
0.0
 10
79.17931855659407
 20
-129.1249348635521
 30
0.0
 10
79.60237628218275
 20
-129.1952148114512
 30
0.0
 10
79.60237628218275
 20
-129.1952148114512
 30
0.0
 10
79.56844209165303
 20
-129.1294134876829
 30
0.0
 10
79.52830672924988
 20
-129.0412190432605
 30
0.0
 10
79.52830672924988
 20
-128.9147840389519
 30
0.0
 10
79.52830672924988
 20
-128.6433105147142
 30
0.0
 10
79.71451414022762
 20
-128.3900959965483
 30
0.0
 10
80.02750106506257
 20
-128.3900959965483
 30
0.0
 10
80.34496661402835
 20
-128.3900959965483
 30
0.0
 10
80.57974987134813
 20
-128.6298746423217
 30
0.0
 10
80.57974987134813
 20
-128.9530245988381
 30
0.0
  0
HATCH
  5
BD
330
B6
100
AcDbEntity
  8
_U+30EC_U+30A4_U+30E4_U+30FC 1
 62
     7
420
 16777215
100
AcDbHatch
 10
0.0
 20
0.0
 30
0.0
210
0.0
220
0.0
230
1.0
  2
SOLID
 70
     1
 71
     0
 91
        1
 92
        1
 93
        1
 72
     4
 94
        3
 73
     0
 74
     1
 95
       53
 96
       49
 40
0.0
 40
0.0
 40
0.0
 40
0.0
 40
1.0
 40
1.0
 40
1.0
 40
2.0
 40
2.0
 40
2.0
 40
3.0
 40
3.0
 40
3.0
 40
4.0
 40
4.0
 40
4.0
 40
5.0
 40
5.0
 40
5.0
 40
6.0
 40
6.0
 40
6.0
 40
7.0
 40
7.0
 40
7.0
 40
8.0
 40
8.0
 40
8.0
 40
9.0
 40
9.0
 40
9.0
 40
10.0
 40
10.0
 40
10.0
 40
11.0
 40
11.0
 40
11.0
 40
12.0
 40
12.0
 40
12.0
 40
13.0
 40
13.0
 40
13.0
 40
14.0
 40
14.0
 40
14.0
 40
15.0
 40
15.0
 40
15.0
 40
16.0
 40
16.0
 40
16.0
 40
16.0
 10
80.57974987134813
 20
-128.9530245988381
 10
80.57974987134813
 20
-129.0367404191297
 10
80.5628689034704
 20
-129.1452609269151
 10
80.49930689176753
 20
-129.2537814347004
 10
80.3892360910138
 20
-129.4391275718069
 10
80.25815020780004
 20
-129.4618652020095
 10
80.15031871911172
 20
-129.4821912653725
 10
80.15031871911172
 20
-129.4821912653725
 10
80.15031871911172
 20
-129.2448241864388
 10
80.15031871911172
 20
-129.2448241864388
 10
80.34910072861065
 20
-129.185913053641
 10
80.37872854978379
 20
-129.0505208010707
 10
80.37872854978379
 20
-128.950957541547
 10
80.37872854978379
 20
-128.8017849070357
 10
80.27933754503434
 20
-128.6388318905834
 10
80.0466213450057
 20
-128.6388318905834
 10
79.79065075045165
 20
-128.6388318905834
 10
79.72088756687533
 20
-128.8310682186603
 10
79.72088756687533
 20
-128.9599147898086
 10
79.72088756687533
 20
-128.9940212351126
 10
79.72088756687533
 20
-129.1452609269151
 10
79.84990639279795
 20
-129.240345562308
 10
79.84990639279795
 20
-129.240345562308
 10
79.83078611285481
 20
-129.4281032662541
 10
79.83078611285481
 20
-129.4281032662541
 10
79.83078611285481
 20
-129.4281032662541
 10
78.98467066167744
 20
-129.2989121855572
 10
78.98467066167744
 20
-129.2989121855572
 10
78.98467066167744
 20
-129.2989121855572
 10
78.98467066167744
 20
-128.4669216258694
 10
78.98467066167744
 20
-128.4669216258694
 10
78.98467066167744
 20
-128.4669216258694
 10
79.17931855659407
 20
-128.4669216258694
 10
79.17931855659407
 20
-128.4669216258694
 10
79.17931855659407
 20
-128.4669216258694
 10
79.17931855659407
 20
-129.1249348635521
 10
79.17931855659407
 20
-129.1249348635521
 10
79.17931855659407
 20
-129.1249348635521
 10
79.60237628218275
 20
-129.1952148114512
 10
79.60237628218275
 20
-129.1952148114512
 10
79.56844209165303
 20
-129.1294134876829
 10
79.52830672924988
 20
-129.0412190432605
 10
79.52830672924988
 20
-128.9147840389519
 10
79.52830672924988
 20
-128.6433105147142
 10
79.71451414022762
 20
-128.3900959965483
 10
80.02750106506257
 20
-128.3900959965483
 10
80.34496661402835
 20
-128.3900959965483
 10
80.57974987134813
 20
-128.6298746423217
 10
80.57974987134813
 20
-128.9530245988381
 97
        0
 97
        0
 75
     2
 76
     1
 98
        0
  0
POLYLINE
  5
BE
330
B6
100
AcDbEntity
  8
_U+30EC_U+30A4_U+30E4_U+30FC 1
370
     0
100
AcDb2dPolyline
 66
     1
 10
0.0
 20
0.0
 30
0.0
  0
VERTEX
  5
BF
330
BE
100
AcDbEntity
  8
_U+30EC_U+30A4_U+30E4_U+30FC 1
370
     0
100
AcDbVertex
100
AcDb2dVertex
 10
80.52893471294068
 20
-128.1451497075471
 30
0.0
  0
VERTEX
  5
C0
330
BE
100
AcDbEntity
  8
_U+30EC_U+30A4_U+30E4_U+30FC 1
370
     0
100
AcDbVertex
100
AcDb2dVertex
 10
80.27727048774318
 20
-128.1451497075471
 30
0.0
  0
VERTEX
  5
C1
330
BE
100
AcDbEntity
  8
_U+30EC_U+30A4_U+30E4_U+30FC 1
370
     0
100
AcDbVertex
100
AcDb2dVertex
 10
80.27727048774318
 20
-127.876087750149
 30
0.0
  0
VERTEX
  5
C2
330
BE
100
AcDbEntity
  8
_U+30EC_U+30A4_U+30E4_U+30FC 1
370
     0
100
AcDbVertex
100
AcDb2dVertex
 10
80.52893471294068
 20
-127.876087750149
 30
0.0
  0
VERTEX
  5
C3
330
BE
100
AcDbEntity
  8
_U+30EC_U+30A4_U+30E4_U+30FC 1
370
     0
100
AcDbVertex
100
AcDb2dVertex
 10
80.52893471294068
 20
-128.1451497075471
 30
0.0
  0
SEQEND
  5
C4
330
BE
100
AcDbEntity
  8
_U+30EC_U+30A4_U+30E4_U+30FC 1
370
     0
  0
HATCH
  5
C5
330
B6
100
AcDbEntity
  8
_U+30EC_U+30A4_U+30E4_U+30FC 1
 62
     7
420
 16777215
100
AcDbHatch
 10
0.0
 20
0.0
 30
0.0
210
0.0
220
0.0
230
1.0
  2
SOLID
 70
     1
 71
     0
 91
        1
 92
        1
 93
        4
 72
     1
 10
80.52893471294068
 20
-128.1451497075471
 11
80.27727048774318
 21
-128.1451497075471
 72
     1
 10
80.27727048774318
 20
-128.1451497075471
 11
80.27727048774318
 21
-127.876087750149
 72
     1
 10
80.27727048774318
 20
-127.876087750149
 11
80.52893471294068
 21
-127.876087750149
 72
     1
 10
80.52893471294068
 20
-127.876087750149
 11
80.52893471294068
 21
-128.1451497075471
 97
        0
 75
     2
 76
     1
 98
        0
  0
SPLINE
  5
C6
330
B6
100
AcDbEntity
  8
_U+30EC_U+30A4_U+30E4_U+30FC 1
370
     0
100
AcDbSpline
210
0.0
220
0.0
230
1.0
 70
    11
 71
     3
 72
    53
 73
    49
 74
     0
 42
0.0000000001
 43
0.0000000001
 12
1.0
 22
0.0
 32
0.0
 13
1.0
 23
0.0
 33
0.0
 40
0.0
 40
0.0
 40
0.0
 40
0.0
 40
1.0
 40
1.0
 40
1.0
 40
2.0
 40
2.0
 40
2.0
 40
3.0
 40
3.0
 40
3.0
 40
4.0
 40
4.0
 40
4.0
 40
5.0
 40
5.0
 40
5.0
 40
6.0
 40
6.0
 40
6.0
 40
7.0
 40
7.0
 40
7.0
 40
8.0
 40
8.0
 40
8.0
 40
9.0
 40
9.0
 40
9.0
 40
10.0
 40
10.0
 40
10.0
 40
11.0
 40
11.0
 40
11.0
 40
12.0
 40
12.0
 40
12.0
 40
13.0
 40
13.0
 40
13.0
 40
14.0
 40
14.0
 40
14.0
 40
15.0
 40
15.0
 40
15.0
 40
16.0
 40
16.0
 40
16.0
 40
16.0
 10
80.57974987134813
 20
-127.1093817499067
 30
0.0
 10
80.57974987134813
 20
-127.1930975701983
 30
0.0
 10
80.5628689034704
 20
-127.3016180779836
 30
0.0
 10
80.49930689176753
 20
-127.410138585769
 30
0.0
 10
80.3892360910138
 20
-127.5954847228754
 30
0.0
 10
80.25815020780004
 20
-127.6180500983038
 30
0.0
 10
80.15031871911172
 20
-127.6385484164411
 30
0.0
 10
80.15031871911172
 20
-127.6385484164411
 30
0.0
 10
80.15031871911172
 20
-127.4010090827331
 30
0.0
 10
80.15031871911172
 20
-127.4010090827331
 30
0.0
 10
80.34910072861065
 20
-127.3422702047096
 30
0.0
 10
80.37872854978379
 20
-127.206705697365
 30
0.0
 10
80.37872854978379
 20
-127.1071424378413
 30
0.0
 10
80.37872854978379
 20
-126.95796980333
 30
0.0
 10
80.27933754503434
 20
-126.7951890416519
 30
0.0
 10
80.0466213450057
 20
-126.7951890416519
 30
0.0
 10
79.79065075045165
 20
-126.7951890416519
 30
0.0
 10
79.72088756687533
 20
-126.9874253697288
 30
0.0
 10
79.72088756687533
 20
-127.1162719408772
 30
0.0
 10
79.72088756687533
 20
-127.1502061314069
 30
0.0
 10
79.72088756687533
 20
-127.3016180779836
 30
0.0
 10
79.84990639279795
 20
-127.3965304586023
 30
0.0
 10
79.84990639279795
 20
-127.3965304586023
 30
0.0
 10
79.83078611285481
 20
-127.5842881625484
 30
0.0
 10
79.83078611285481
 20
-127.5842881625484
 30
0.0
 10
79.83078611285481
 20
-127.5842881625484
 30
0.0
 10
78.98467066167744
 20
-127.4554415914
 30
0.0
 10
78.98467066167744
 20
-127.4554415914
 30
0.0
 10
78.98467066167744
 20
-127.4554415914
 30
0.0
 10
78.98467066167744
 20
-126.6234510317122
 30
0.0
 10
78.98467066167744
 20
-126.6234510317122
 30
0.0
 10
78.98467066167744
 20
-126.6234510317122
 30
0.0
 10
79.17931855659407
 20
-126.6234510317122
 30
0.0
 10
79.17931855659407
 20
-126.6234510317122
 30
0.0
 10
79.17931855659407
 20
-126.6234510317122
 30
0.0
 10
79.17931855659407
 20
-127.2812920146207
 30
0.0
 10
79.17931855659407
 20
-127.2812920146207
 30
0.0
 10
79.17931855659407
 20
-127.2812920146207
 30
0.0
 10
79.60237628218275
 20
-127.3513997077455
 30
0.0
 10
79.60237628218275
 20
-127.3513997077455
 30
0.0
 10
79.56844209165303
 20
-127.2857706387515
 30
0.0
 10
79.52830672924988
 20
-127.1975761943291
 30
0.0
 10
79.52830672924988
 20
-127.0709689352462
 30
0.0
 10
79.52830672924988
 20
-126.7996676657827
 30
0.0
 10
79.71451414022762
 20
-126.5464531476169
 30
0.0
 10
80.02750106506257
 20
-126.5464531476169
 30
0.0
 10
80.34496661402835
 20
-126.5464531476169
 30
0.0
 10
80.57974987134813
 20
-126.786059538616
 30
0.0
 10
80.57974987134813
 20
-127.1093817499067
 30
0.0
  0
HATCH
  5
C7
330
B6
100
AcDbEntity
  8
_U+30EC_U+30A4_U+30E4_U+30FC 1
 62
     7
420
 16777215
100
AcDbHatch
 10
0.0
 20
0.0
 30
0.0
210
0.0
220
0.0
230
1.0
  2
SOLID
 70
     1
 71
     0
 91
        1
 92
        1
 93
        1
 72
     4
 94
        3
 73
     0
 74
     1
 95
       53
 96
       49
 40
0.0
 40
0.0
 40
0.0
 40
0.0
 40
1.0
 40
1.0
 40
1.0
 40
2.0
 40
2.0
 40
2.0
 40
3.0
 40
3.0
 40
3.0
 40
4.0
 40
4.0
 40
4.0
 40
5.0
 40
5.0
 40
5.0
 40
6.0
 40
6.0
 40
6.0
 40
7.0
 40
7.0
 40
7.0
 40
8.0
 40
8.0
 40
8.0
 40
9.0
 40
9.0
 40
9.0
 40
10.0
 40
10.0
 40
10.0
 40
11.0
 40
11.0
 40
11.0
 40
12.0
 40
12.0
 40
12.0
 40
13.0
 40
13.0
 40
13.0
 40
14.0
 40
14.0
 40
14.0
 40
15.0
 40
15.0
 40
15.0
 40
16.0
 40
16.0
 40
16.0
 40
16.0
 10
80.57974987134813
 20
-127.1093817499067
 10
80.57974987134813
 20
-127.1930975701983
 10
80.5628689034704
 20
-127.3016180779836
 10
80.49930689176753
 20
-127.410138585769
 10
80.3892360910138
 20
-127.5954847228754
 10
80.25815020780004
 20
-127.6180500983038
 10
80.15031871911172
 20
-127.6385484164411
 10
80.15031871911172
 20
-127.6385484164411
 10
80.15031871911172
 20
-127.4010090827331
 10
80.15031871911172
 20
-127.4010090827331
 10
80.34910072861065
 20
-127.3422702047096
 10
80.37872854978379
 20
-127.206705697365
 10
80.37872854978379
 20
-127.1071424378413
 10
80.37872854978379
 20
-126.95796980333
 10
80.27933754503434
 20
-126.7951890416519
 10
80.0466213450057
 20
-126.7951890416519
 10
79.79065075045165
 20
-126.7951890416519
 10
79.72088756687533
 20
-126.9874253697288
 10
79.72088756687533
 20
-127.1162719408772
 10
79.72088756687533
 20
-127.1502061314069
 10
79.72088756687533
 20
-127.3016180779836
 10
79.84990639279795
 20
-127.3965304586023
 10
79.84990639279795
 20
-127.3965304586023
 10
79.83078611285481
 20
-127.5842881625484
 10
79.83078611285481
 20
-127.5842881625484
 10
79.83078611285481
 20
-127.5842881625484
 10
78.98467066167744
 20
-127.4554415914
 10
78.98467066167744
 20
-127.4554415914
 10
78.98467066167744
 20
-127.4554415914
 10
78.98467066167744
 20
-126.6234510317122
 10
78.98467066167744
 20
-126.6234510317122
 10
78.98467066167744
 20
-126.6234510317122
 10
79.17931855659407
 20
-126.6234510317122
 10
79.17931855659407
 20
-126.6234510317122
 10
79.17931855659407
 20
-126.6234510317122
 10
79.17931855659407
 20
-127.2812920146207
 10
79.17931855659407
 20
-127.2812920146207
 10
79.17931855659407
 20
-127.2812920146207
 10
79.60237628218275
 20
-127.3513997077455
 10
79.60237628218275
 20
-127.3513997077455
 10
79.56844209165303
 20
-127.2857706387515
 10
79.52830672924988
 20
-127.1975761943291
 10
79.52830672924988
 20
-127.0709689352462
 10
79.52830672924988
 20
-126.7996676657827
 10
79.71451414022762
 20
-126.5464531476169
 10
80.02750106506257
 20
-126.5464531476169
 10
80.34496661402835
 20
-126.5464531476169
 10
80.57974987134813
 20
-126.786059538616
 10
80.57974987134813
 20
-127.1093817499067
 97
        0
 97
        0
 75
     2
 76
     1
 98
        0
  0
ENDBLK
  5
B9
330
B6
100
AcDbEntity
  8
0
100
AcDbBlockEnd
  0
BLOCK
  5
DB
330
D9
100
AcDbEntity
  8
0
100
AcDbBlockBegin
  2
block 6
 70
     0
 10
0.0
 20
0.0
 30
0.0
  3
block 6
  1

  0
SPLINE
  5
DD
330
D9
100
AcDbEntity
  8
_U+30EC_U+30A4_U+30E4_U+30FC 1
370
     0
100
AcDbSpline
210
0.0
220
0.0
230
1.0
 70
    11
 71
     3
 72
    32
 73
    28
 74
     0
 42
0.0000000001
 43
0.0000000001
 12
1.0
 22
0.0
 32
0.0
 13
1.0
 23
0.0
 33
0.0
 40
0.0
 40
0.0
 40
0.0
 40
0.0
 40
1.0
 40
1.0
 40
1.0
 40
2.0
 40
2.0
 40
2.0
 40
3.0
 40
3.0
 40
3.0
 40
4.0
 40
4.0
 40
4.0
 40
5.0
 40
5.0
 40
5.0
 40
6.0
 40
6.0
 40
6.0
 40
7.0
 40
7.0
 40
7.0
 40
8.0
 40
8.0
 40
8.0
 40
9.0
 40
9.0
 40
9.0
 40
9.0
 10
101.5800184207855
 20
-133.1680989250413
 30
0.0
 10
101.5800184207855
 20
-133.7200032217783
 30
0.0
 10
101.0260470667574
 20
-133.72896047004
 30
0.0
 10
100.8121066371234
 20
-133.72896047004
 30
0.0
 10
100.5816297491602
 20
-133.72896047004
 30
0.0
 10
99.9342963074817
 20
-133.708634406677
 30
0.0
 10
99.9342963074817
 20
-133.1274467983154
 30
0.0
 10
99.9342963074817
 20
-132.9421006612089
 30
0.0
 10
100.0042317458323
 20
-132.6799288947814
 30
0.0
 10
100.3363389506104
 20
-132.6392767680555
 30
0.0
 10
100.3363389506104
 20
-132.6392767680555
 30
0.0
 10
100.3363389506104
 20
-132.8676865987275
 30
0.0
 10
100.3363389506104
 20
-132.8676865987275
 30
0.0
 10
100.2791503655552
 20
-132.8787109042803
 30
0.0
 10
100.1310112596895
 20
-132.9128173495843
 30
0.0
 10
100.1310112596895
 20
-133.129858365155
 30
0.0
 10
100.1310112596895
 20
-133.4419840161187
 30
0.0
 10
100.4589843498853
 20
-133.4847032001358
 30
0.0
 10
100.6639675312576
 20
-133.4984835820768
 30
0.0
 10
100.5857638637425
 20
-133.3989203225531
 30
0.0
 10
100.5265082213962
 20
-133.3265733173628
 30
0.0
 10
100.5265082213962
 20
-133.1322699319947
 30
0.0
 10
100.5265082213962
 20
-132.9400336039178
 30
0.0
 10
100.634684219633
 20
-132.6165391378528
 30
0.0
 10
101.040860977344
 20
-132.6165391378528
 30
0.0
 10
101.3602213288266
 20
-132.6165391378528
 30
0.0
 10
101.5800184207855
 20
-132.8291015292927
 30
0.0
 10
101.5800184207855
 20
-133.1680989250413
 30
0.0
  0
SPLINE
  5
DE
330
D9
100
AcDbEntity
  8
_U+30EC_U+30A4_U+30E4_U+30FC 1
370
     0
100
AcDbSpline
210
0.0
220
0.0
230
1.0
 70
    11
 71
     3
 72
    17
 73
    13
 74
     0
 42
0.0000000001
 43
0.0000000001
 12
1.0
 22
0.0
 32
0.0
 13
1.0
 23
0.0
 33
0.0
 40
0.0
 40
0.0
 40
0.0
 40
0.0
 40
1.0
 40
1.0
 40
1.0
 40
2.0
 40
2.0
 40
2.0
 40
3.0
 40
3.0
 40
3.0
 40
4.0
 40
4.0
 40
4.0
 40
4.0
 10
100.7211561163128
 20
-133.150184428518
 30
0.0
 10
100.7211561163128
 20
-133.4306152010174
 30
0.0
 10
100.9326849791071
 20
-133.4712673277433
 30
0.0
 10
101.0491292065086
 20
-133.4712673277433
 30
0.0
 10
101.2248290762563
 20
-133.4712673277433
 30
0.0
 10
101.3877820927086
 20
-133.3696370109284
 30
0.0
 10
101.3877820927086
 20
-133.1729220587207
 30
0.0
 10
101.3877820927086
 20
-133.0440754875723
 30
0.0
 10
101.3285264503623
 20
-132.8563177836262
 30
0.0
 10
101.0429280346351
 20
-132.8563177836262
 30
0.0
 10
100.8186523185453
 20
-132.8563177836262
 30
0.0
 10
100.7211561163128
 20
-133.0054904181375
 30
0.0
 10
100.7211561163128
 20
-133.150184428518
 30
0.0
  0
HATCH
  5
DF
330
D9
100
AcDbEntity
  8
_U+30EC_U+30A4_U+30E4_U+30FC 1
 62
     7
420
 16777215
100
AcDbHatch
 10
0.0
 20
0.0
 30
0.0
210
0.0
220
0.0
230
1.0
  2
SOLID
 70
     1
 71
     0
 91
        2
 92
        1
 93
        1
 72
     4
 94
        3
 73
     0
 74
     1
 95
       32
 96
       28
 40
0.0
 40
0.0
 40
0.0
 40
0.0
 40
1.0
 40
1.0
 40
1.0
 40
2.0
 40
2.0
 40
2.0
 40
3.0
 40
3.0
 40
3.0
 40
4.0
 40
4.0
 40
4.0
 40
5.0
 40
5.0
 40
5.0
 40
6.0
 40
6.0
 40
6.0
 40
7.0
 40
7.0
 40
7.0
 40
8.0
 40
8.0
 40
8.0
 40
9.0
 40
9.0
 40
9.0
 40
9.0
 10
101.5800184207855
 20
-133.1680989250413
 10
101.5800184207855
 20
-133.7200032217783
 10
101.0260470667574
 20
-133.72896047004
 10
100.8121066371234
 20
-133.72896047004
 10
100.5816297491602
 20
-133.72896047004
 10
99.9342963074817
 20
-133.708634406677
 10
99.9342963074817
 20
-133.1274467983154
 10
99.9342963074817
 20
-132.9421006612089
 10
100.0042317458323
 20
-132.6799288947814
 10
100.3363389506104
 20
-132.6392767680555
 10
100.3363389506104
 20
-132.6392767680555
 10
100.3363389506104
 20
-132.8676865987275
 10
100.3363389506104
 20
-132.8676865987275
 10
100.2791503655552
 20
-132.8787109042803
 10
100.1310112596895
 20
-132.9128173495843
 10
100.1310112596895
 20
-133.129858365155
 10
100.1310112596895
 20
-133.4419840161187
 10
100.4589843498853
 20
-133.4847032001358
 10
100.6639675312576
 20
-133.4984835820768
 10
100.5857638637425
 20
-133.3989203225531
 10
100.5265082213962
 20
-133.3265733173628
 10
100.5265082213962
 20
-133.1322699319947
 10
100.5265082213962
 20
-132.9400336039178
 10
100.634684219633
 20
-132.6165391378528
 10
101.040860977344
 20
-132.6165391378528
 10
101.3602213288266
 20
-132.6165391378528
 10
101.5800184207855
 20
-132.8291015292927
 10
101.5800184207855
 20
-133.1680989250413
 97
        0
 97
        0
 92
        1
 93
        1
 72
     4
 94
        3
 73
     0
 74
     1
 95
       17
 96
       13
 40
0.0
 40
0.0
 40
0.0
 40
0.0
 40
1.0
 40
1.0
 40
1.0
 40
2.0
 40
2.0
 40
2.0
 40
3.0
 40
3.0
 40
3.0
 40
4.0
 40
4.0
 40
4.0
 40
4.0
 10
100.7211561163128
 20
-133.150184428518
 10
100.7211561163128
 20
-133.4306152010174
 10
100.9326849791071
 20
-133.4712673277433
 10
101.0491292065086
 20
-133.4712673277433
 10
101.2248290762563
 20
-133.4712673277433
 10
101.3877820927086
 20
-133.3696370109284
 10
101.3877820927086
 20
-133.1729220587207
 10
101.3877820927086
 20
-133.0440754875723
 10
101.3285264503623
 20
-132.8563177836262
 10
101.0429280346351
 20
-132.8563177836262
 10
100.8186523185453
 20
-132.8563177836262
 10
100.7211561163128
 20
-133.0054904181375
 10
100.7211561163128
 20
-133.150184428518
 97
        0
 97
        0
 75
     2
 76
     1
 98
        0
  0
POLYLINE
  5
E0
330
D9
100
AcDbEntity
  8
_U+30EC_U+30A4_U+30E4_U+30FC 1
370
     0
100
AcDb2dPolyline
 66
     1
 10
0.0
 20
0.0
 30
0.0
  0
VERTEX
  5
E1
330
E0
100
AcDbEntity
  8
_U+30EC_U+30A4_U+30E4_U+30FC 1
370
     0
100
AcDbVertex
100
AcDb2dVertex
 10
101.5293755171524
 20
-132.3853732307925
 30
0.0
  0
VERTEX
  5
E2
330
E0
100
AcDbEntity
  8
_U+30EC_U+30A4_U+30E4_U+30FC 1
370
     0
100
AcDbVertex
100
AcDb2dVertex
 10
101.2775390371806
 20
-132.3853732307925
 30
0.0
  0
VERTEX
  5
E3
330
E0
100
AcDbEntity
  8
_U+30EC_U+30A4_U+30E4_U+30FC 1
370
     0
100
AcDbVertex
100
AcDb2dVertex
 10
101.2775390371806
 20
-132.1163112733945
 30
0.0
  0
VERTEX
  5
E4
330
E0
100
AcDbEntity
  8
_U+30EC_U+30A4_U+30E4_U+30FC 1
370
     0
100
AcDbVertex
100
AcDb2dVertex
 10
101.5293755171524
 20
-132.1163112733945
 30
0.0
  0
VERTEX
  5
E5
330
E0
100
AcDbEntity
  8
_U+30EC_U+30A4_U+30E4_U+30FC 1
370
     0
100
AcDbVertex
100
AcDb2dVertex
 10
101.5293755171524
 20
-132.3853732307925
 30
0.0
  0
SEQEND
  5
E6
330
E0
100
AcDbEntity
  8
_U+30EC_U+30A4_U+30E4_U+30FC 1
370
     0
  0
HATCH
  5
E7
330
D9
100
AcDbEntity
  8
_U+30EC_U+30A4_U+30E4_U+30FC 1
 62
     7
420
 16777215
100
AcDbHatch
 10
0.0
 20
0.0
 30
0.0
210
0.0
220
0.0
230
1.0
  2
SOLID
 70
     1
 71
     0
 91
        1
 92
        1
 93
        4
 72
     1
 10
101.5293755171524
 20
-132.3853732307925
 11
101.2775390371806
 21
-132.3853732307925
 72
     1
 10
101.2775390371806
 20
-132.3853732307925
 11
101.2775390371806
 21
-132.1163112733945
 72
     1
 10
101.2775390371806
 20
-132.1163112733945
 11
101.5293755171524
 21
-132.1163112733945
 72
     1
 10
101.5293755171524
 20
-132.1163112733945
 11
101.5293755171524
 21
-132.3853732307925
 97
        0
 75
     2
 76
     1
 98
        0
  0
SPLINE
  5
E8
330
D9
100
AcDbEntity
  8
_U+30EC_U+30A4_U+30E4_U+30FC 1
370
     0
100
AcDbSpline
210
0.0
220
0.0
230
1.0
 70
    11
 71
     3
 72
    53
 73
    49
 74
     0
 42
0.0000000001
 43
0.0000000001
 12
1.0
 22
0.0
 32
0.0
 13
1.0
 23
0.0
 33
0.0
 40
0.0
 40
0.0
 40
0.0
 40
0.0
 40
1.0
 40
1.0
 40
1.0
 40
2.0
 40
2.0
 40
2.0
 40
3.0
 40
3.0
 40
3.0
 40
4.0
 40
4.0
 40
4.0
 40
5.0
 40
5.0
 40
5.0
 40
6.0
 40
6.0
 40
6.0
 40
7.0
 40
7.0
 40
7.0
 40
8.0
 40
8.0
 40
8.0
 40
9.0
 40
9.0
 40
9.0
 40
10.0
 40
10.0
 40
10.0
 40
11.0
 40
11.0
 40
11.0
 40
12.0
 40
12.0
 40
12.0
 40
13.0
 40
13.0
 40
13.0
 40
14.0
 40
14.0
 40
14.0
 40
15.0
 40
15.0
 40
15.0
 40
16.0
 40
16.0
 40
16.0
 40
16.0
 10
101.5800184207855
 20
-131.3494330183779
 30
0.0
 10
101.5800184207855
 20
-131.4331488386695
 30
0.0
 10
101.5631374529078
 20
-131.5413248369063
 30
0.0
 10
101.4997476959792
 20
-131.6501898542402
 30
0.0
 10
101.3898491499998
 20
-131.8355359913467
 30
0.0
 10
101.2585910120117
 20
-131.8579291120008
 30
0.0
 10
101.1507595233234
 20
-131.8782551753638
 30
0.0
 10
101.1507595233234
 20
-131.8782551753638
 30
0.0
 10
101.1507595233234
 20
-131.6408880964301
 30
0.0
 10
101.1507595233234
 20
-131.6408880964301
 30
0.0
 10
101.3495415328223
 20
-131.5823214731808
 30
0.0
 10
101.3791693539955
 20
-131.446584711062
 30
0.0
 10
101.3791693539955
 20
-131.3470214515382
 30
0.0
 10
101.3791693539955
 20
-131.1978488170269
 30
0.0
 10
101.2796060944718
 20
-131.0352403101231
 30
0.0
 10
101.0470621492174
 20
-131.0352403101231
 30
0.0
 10
100.7910915546633
 20
-131.0352403101231
 30
0.0
 10
100.7211561163128
 20
-131.2274766382001
 30
0.0
 10
100.7211561163128
 20
-131.3559786997999
 30
0.0
 10
100.7211561163128
 20
-131.3900851451039
 30
0.0
 10
100.7211561163128
 20
-131.5413248369063
 30
0.0
 10
100.8503471970096
 20
-131.6364094722992
 30
0.0
 10
100.8503471970096
 20
-131.6364094722992
 30
0.0
 10
100.8313991718408
 20
-131.8241671762453
 30
0.0
 10
100.8313991718408
 20
-131.8241671762453
 30
0.0
 10
100.8313991718408
 20
-131.8241671762453
 30
0.0
 10
99.98493921111488
 20
-131.695320605097
 30
0.0
 10
99.98493921111488
 20
-131.695320605097
 30
0.0
 10
99.98493921111488
 20
-131.695320605097
 30
0.0
 10
99.98493921111488
 20
-130.8633300454092
 30
0.0
 10
99.98493921111488
 20
-130.8633300454092
 30
0.0
 10
99.98493921111488
 20
-130.8633300454092
 30
0.0
 10
100.1795871060315
 20
-130.8633300454092
 30
0.0
 10
100.1795871060315
 20
-130.8633300454092
 30
0.0
 10
100.1795871060315
 20
-130.8633300454092
 30
0.0
 10
100.1795871060315
 20
-131.5209987735434
 30
0.0
 10
100.1795871060315
 20
-131.5209987735434
 30
0.0
 10
100.1795871060315
 20
-131.5209987735434
 30
0.0
 10
100.6026448316202
 20
-131.5912787214425
 30
0.0
 10
100.6026448316202
 20
-131.5912787214425
 30
0.0
 10
100.5688828958647
 20
-131.5258219072227
 30
0.0
 10
100.5285752786873
 20
-131.4376274628003
 30
0.0
 10
100.5285752786873
 20
-131.3108479489431
 30
0.0
 10
100.5285752786873
 20
-131.039718934254
 30
0.0
 10
100.7149549444393
 20
-130.7865044160881
 30
0.0
 10
101.0281141240485
 20
-130.7865044160881
 30
0.0
 10
101.34540741824
 20
-130.7865044160881
 30
0.0
 10
101.5800184207855
 20
-131.025938552313
 30
0.0
 10
101.5800184207855
 20
-131.3494330183779
 30
0.0
  0
HATCH
  5
E9
330
D9
100
AcDbEntity
  8
_U+30EC_U+30A4_U+30E4_U+30FC 1
 62
     7
420
 16777215
100
AcDbHatch
 10
0.0
 20
0.0
 30
0.0
210
0.0
220
0.0
230
1.0
  2
SOLID
 70
     1
 71
     0
 91
        1
 92
        1
 93
        1
 72
     4
 94
        3
 73
     0
 74
     1
 95
       53
 96
       49
 40
0.0
 40
0.0
 40
0.0
 40
0.0
 40
1.0
 40
1.0
 40
1.0
 40
2.0
 40
2.0
 40
2.0
 40
3.0
 40
3.0
 40
3.0
 40
4.0
 40
4.0
 40
4.0
 40
5.0
 40
5.0
 40
5.0
 40
6.0
 40
6.0
 40
6.0
 40
7.0
 40
7.0
 40
7.0
 40
8.0
 40
8.0
 40
8.0
 40
9.0
 40
9.0
 40
9.0
 40
10.0
 40
10.0
 40
10.0
 40
11.0
 40
11.0
 40
11.0
 40
12.0
 40
12.0
 40
12.0
 40
13.0
 40
13.0
 40
13.0
 40
14.0
 40
14.0
 40
14.0
 40
15.0
 40
15.0
 40
15.0
 40
16.0
 40
16.0
 40
16.0
 40
16.0
 10
101.5800184207855
 20
-131.3494330183779
 10
101.5800184207855
 20
-131.4331488386695
 10
101.5631374529078
 20
-131.5413248369063
 10
101.4997476959792
 20
-131.6501898542402
 10
101.3898491499998
 20
-131.8355359913467
 10
101.2585910120117
 20
-131.8579291120008
 10
101.1507595233234
 20
-131.8782551753638
 10
101.1507595233234
 20
-131.8782551753638
 10
101.1507595233234
 20
-131.6408880964301
 10
101.1507595233234
 20
-131.6408880964301
 10
101.3495415328223
 20
-131.5823214731808
 10
101.3791693539955
 20
-131.446584711062
 10
101.3791693539955
 20
-131.3470214515382
 10
101.3791693539955
 20
-131.1978488170269
 10
101.2796060944718
 20
-131.0352403101231
 10
101.0470621492174
 20
-131.0352403101231
 10
100.7910915546633
 20
-131.0352403101231
 10
100.7211561163128
 20
-131.2274766382001
 10
100.7211561163128
 20
-131.3559786997999
 10
100.7211561163128
 20
-131.3900851451039
 10
100.7211561163128
 20
-131.5413248369063
 10
100.8503471970096
 20
-131.6364094722992
 10
100.8503471970096
 20
-131.6364094722992
 10
100.8313991718408
 20
-131.8241671762453
 10
100.8313991718408
 20
-131.8241671762453
 10
100.8313991718408
 20
-131.8241671762453
 10
99.98493921111488
 20
-131.695320605097
 10
99.98493921111488
 20
-131.695320605097
 10
99.98493921111488
 20
-131.695320605097
 10
99.98493921111488
 20
-130.8633300454092
 10
99.98493921111488
 20
-130.8633300454092
 10
99.98493921111488
 20
-130.8633300454092
 10
100.1795871060315
 20
-130.8633300454092
 10
100.1795871060315
 20
-130.8633300454092
 10
100.1795871060315
 20
-130.8633300454092
 10
100.1795871060315
 20
-131.5209987735434
 10
100.1795871060315
 20
-131.5209987735434
 10
100.1795871060315
 20
-131.5209987735434
 10
100.6026448316202
 20
-131.5912787214425
 10
100.6026448316202
 20
-131.5912787214425
 10
100.5688828958647
 20
-131.5258219072227
 10
100.5285752786873
 20
-131.4376274628003
 10
100.5285752786873
 20
-131.3108479489431
 10
100.5285752786873
 20
-131.039718934254
 10
100.7149549444393
 20
-130.7865044160881
 10
101.0281141240485
 20
-130.7865044160881
 10
101.34540741824
 20
-130.7865044160881
 10
101.5800184207855
 20
-131.025938552313
 10
101.5800184207855
 20
-131.3494330183779
 97
        0
 97
        0
 75
     2
 76
     1
 98
        0
  0
ENDBLK
  5
DC
330
D9
100
AcDbEntity
  8
0
100
AcDbBlockEnd
  0
BLOCK
  5
F4
330
F2
100
AcDbEntity
  8
0
100
AcDbBlockBegin
  2
block 7
 70
     0
 10
0.0
 20
0.0
 30
0.0
  3
block 7
  1

  0
SPLINE
  5
F6
330
F2
100
AcDbEntity
  8
_U+30EC_U+30A4_U+30E4_U+30FC 1
370
     0
100
AcDbSpline
210
0.0
220
0.0
230
1.0
 70
    11
 71
     3
 72
    26
 73
    22
 74
     0
 42
0.0000000001
 43
0.0000000001
 12
1.0
 22
0.0
 32
0.0
 13
1.0
 23
0.0
 33
0.0
 40
0.0
 40
0.0
 40
0.0
 40
0.0
 40
1.0
 40
1.0
 40
1.0
 40
2.0
 40
2.0
 40
2.0
 40
3.0
 40
3.0
 40
3.0
 40
4.0
 40
4.0
 40
4.0
 40
5.0
 40
5.0
 40
5.0
 40
6.0
 40
6.0
 40
6.0
 40
7.0
 40
7.0
 40
7.0
 40
7.0
 10
101.5297200267009
 20
-125.200626596304
 30
0.0
 10
101.5297200267009
 20
-125.200626596304
 30
0.0
 10
101.5297200267009
 20
-125.4538411144699
 30
0.0
 10
101.5297200267009
 20
-125.4538411144699
 30
0.0
 10
101.220694961674
 20
-125.4267971149107
 30
0.0
 10
100.7025526006924
 20
-125.2211249144412
 30
0.0
 10
100.1968125834577
 20
-124.7870428832998
 30
0.0
 10
100.1968125834577
 20
-124.7870428832998
 30
0.0
 10
100.1968125834577
 20
-125.6822509451419
 30
0.0
 10
100.1968125834577
 20
-125.6822509451419
 30
0.0
 10
100.1968125834577
 20
-125.6822509451419
 30
0.0
 10
99.9852837206634
 20
-125.6822509451419
 30
0.0
 10
99.9852837206634
 20
-125.6822509451419
 30
0.0
 10
99.9852837206634
 20
-125.6822509451419
 30
0.0
 10
99.9852837206634
 20
-124.5338283651339
 30
0.0
 10
99.9852837206634
 20
-124.5338283651339
 30
0.0
 10
99.9852837206634
 20
-124.5338283651339
 30
0.0
 10
100.1968125834577
 20
-124.5338283651339
 30
0.0
 10
100.1968125834577
 20
-124.5338283651339
 30
0.0
 10
100.4868896233158
 20
-124.879715951853
 30
0.0
 10
101.0791015372302
 20
-125.1644530937089
 30
0.0
 10
101.5297200267009
 20
-125.200626596304
 30
0.0
  0
HATCH
  5
F7
330
F2
100
AcDbEntity
  8
_U+30EC_U+30A4_U+30E4_U+30FC 1
 62
     7
420
 16777215
100
AcDbHatch
 10
0.0
 20
0.0
 30
0.0
210
0.0
220
0.0
230
1.0
  2
SOLID
 70
     1
 71
     0
 91
        1
 92
        1
 93
        1
 72
     4
 94
        3
 73
     0
 74
     1
 95
       26
 96
       22
 40
0.0
 40
0.0
 40
0.0
 40
0.0
 40
1.0
 40
1.0
 40
1.0
 40
2.0
 40
2.0
 40
2.0
 40
3.0
 40
3.0
 40
3.0
 40
4.0
 40
4.0
 40
4.0
 40
5.0
 40
5.0
 40
5.0
 40
6.0
 40
6.0
 40
6.0
 40
7.0
 40
7.0
 40
7.0
 40
7.0
 10
101.5297200267009
 20
-125.200626596304
 10
101.5297200267009
 20
-125.200626596304
 10
101.5297200267009
 20
-125.4538411144699
 10
101.5297200267009
 20
-125.4538411144699
 10
101.220694961674
 20
-125.4267971149107
 10
100.7025526006924
 20
-125.2211249144412
 10
100.1968125834577
 20
-124.7870428832998
 10
100.1968125834577
 20
-124.7870428832998
 10
100.1968125834577
 20
-125.6822509451419
 10
100.1968125834577
 20
-125.6822509451419
 10
100.1968125834577
 20
-125.6822509451419
 10
99.9852837206634
 20
-125.6822509451419
 10
99.9852837206634
 20
-125.6822509451419
 10
99.9852837206634
 20
-125.6822509451419
 10
99.9852837206634
 20
-124.5338283651339
 10
99.9852837206634
 20
-124.5338283651339
 10
99.9852837206634
 20
-124.5338283651339
 10
100.1968125834577
 20
-124.5338283651339
 10
100.1968125834577
 20
-124.5338283651339
 10
100.4868896233158
 20
-124.879715951853
 10
101.0791015372302
 20
-125.1644530937089
 10
101.5297200267009
 20
-125.200626596304
 97
        0
 97
        0
 75
     2
 76
     1
 98
        0
  0
ENDBLK
  5
F5
330
F2
100
AcDbEntity
  8
0
100
AcDbBlockEnd
  0
ENDSEC
  0
SECTION
  2
ENTITIES
  0
SPLINE
  5
41
330
1F
100
AcDbEntity
  8
_U+30EC_U+30A4_U+30E4_U+30FC 1
 62
     7
420
 16777215
370
     9
100
AcDbSpline
210
0.0
220
0.0
230
1.0
 70
    11
 71
     3
 72
    17
 73
    13
 74
     0
 42
0.0000000001
 43
0.0000000001
 12
1.0
 22
0.0
 32
0.0
 13
1.0
 23
0.0
 33
0.0
 40
0.0
 40
0.0
 40
0.0
 40
0.0
 40
1.0
 40
1.0
 40
1.0
 40
2.0
 40
2.0
 40
2.0
 40
3.0
 40
3.0
 40
3.0
 40
4.0
 40
4.0
 40
4.0
 40
4.0
 10
93.32626511904861
 20
-117.9738630260621
 30
0.0
 10
93.32626511904861
 20
-117.9187238594093
 30
0.0
 10
93.28146234241386
 20
-117.8739563594204
 30
0.0
 10
93.22635845493079
 20
-117.8739563594204
 30
0.0
 10
93.17054901191015
 20
-117.8739563594204
 30
0.0
 10
93.12574623527539
 20
-117.9187238594093
 30
0.0
 10
93.12574623527539
 20
-117.9738630260621
 30
0.0
 10
93.12574623527539
 20
-118.0289669149373
 30
0.0
 10
93.17054901191015
 20
-118.0737696927037
 30
0.0
 10
93.22635845493079
 20
-118.0737696927037
 30
0.0
 10
93.28146234241386
 20
-118.0737696927037
 30
0.0
 10
93.32626511904861
 20
-118.0289669149373
 30
0.0
 10
93.32626511904861
 20
-117.9738630260621
 30
0.0
  0
SPLINE
  5
42
330
1F
100
AcDbEntity
  8
_U+30EC_U+30A4_U+30E4_U+30FC 1
 62
     7
420
 16777215
370
     9
100
AcDbSpline
210
0.0
220
0.0
230
1.0
 70
    11
 71
     3
 72
    17
 73
    13
 74
     0
 42
0.0000000001
 43
0.0000000001
 12
1.0
 22
0.0
 32
0.0
 13
1.0
 23
0.0
 33
0.0
 40
0.0
 40
0.0
 40
0.0
 40
0.0
 40
1.0
 40
1.0
 40
1.0
 40
2.0
 40
2.0
 40
2.0
 40
3.0
 40
3.0
 40
3.0
 40
4.0
 40
4.0
 40
4.0
 40
4.0
 10
86.32563724209396
 20
-117.9738630260621
 30
0.0
 10
86.32563724209396
 20
-117.9187238594093
 30
0.0
 10
86.28086974323607
 20
-117.8739563594204
 30
0.0
 10
86.22573057797612
 20
-117.8739563594204
 30
0.0
 10
86.17062669049305
 20
-117.8739563594204
 30
0.0
 10
86.12582391385828
 20
-117.9187238594093
 30
0.0
 10
86.12582391385828
 20
-117.9738630260621
 30
0.0
 10
86.12582391385828
 20
-118.0289669149373
 30
0.0
 10
86.17062669049305
 20
-118.0737696927037
 30
0.0
 10
86.22573057797612
 20
-118.0737696927037
 30
0.0
 10
86.28086974323607
 20
-118.0737696927037
 30
0.0
 10
86.32563724209396
 20
-118.0289669149373
 30
0.0
 10
86.32563724209396
 20
-117.9738630260621
 30
0.0
  0
POLYLINE
  5
43
330
1F
100
AcDbEntity
  8
_U+30EC_U+30A4_U+30E4_U+30FC 1
 62
     7
420
 16777215
370
     9
100
AcDb2dPolyline
 66
     1
 10
0.0
 20
0.0
 30
0.0
  0
VERTEX
  5
44
330
43
100
AcDbEntity
  8
_U+30EC_U+30A4_U+30E4_U+30FC 1
 62
     7
420
 16777215
370
     9
100
AcDbVertex
100
AcDb2dVertex
 10
86.22573057797612
 20
-119.4338691368083
 30
0.0
  0
VERTEX
  5
45
330
43
100
AcDbEntity
  8
_U+30EC_U+30A4_U+30E4_U+30FC 1
 62
     7
420
 16777215
370
     9
100
AcDbVertex
100
AcDb2dVertex
 10
86.22573057797612
 20
-116.9740908040899
 30
0.0
  0
SEQEND
  5
46
330
43
100
AcDbEntity
  8
_U+30EC_U+30A4_U+30E4_U+30FC 1
 62
     7
420
 16777215
370
     9
  0
POLYLINE
  5
47
330
1F
100
AcDbEntity
  8
_U+30EC_U+30A4_U+30E4_U+30FC 1
 62
     7
420
 16777215
370
     9
100
AcDb2dPolyline
 66
     1
 10
0.0
 20
0.0
 30
0.0
  0
VERTEX
  5
48
330
47
100
AcDbEntity
  8
_U+30EC_U+30A4_U+30E4_U+30FC 1
 62
     7
420
 16777215
370
     9
100
AcDbVertex
100
AcDb2dVertex
 10
86.2260833557449
 20
-117.9738630260621
 30
0.0
  0
VERTEX
  5
49
330
47
100
AcDbEntity
  8
_U+30EC_U+30A4_U+30E4_U+30FC 1
 62
     7
420
 16777215
370
     9
100
AcDbVertex
100
AcDb2dVertex
 10
93.22635845493079
 20
-117.9738630260621
 30
0.0
  0
SEQEND
  5
4A
330
47
100
AcDbEntity
  8
_U+30EC_U+30A4_U+30E4_U+30FC 1
 62
     7
420
 16777215
370
     9
  0
POLYLINE
  5
4B
330
1F
100
AcDbEntity
  8
_U+30EC_U+30A4_U+30E4_U+30FC 1
 62
     7
420
 16777215
370
     9
100
AcDb2dPolyline
 66
     1
 10
0.0
 20
0.0
 30
0.0
  0
VERTEX
  5
4C
330
4B
100
AcDbEntity
  8
_U+30EC_U+30A4_U+30E4_U+30FC 1
 62
     7
420
 16777215
370
     9
100
AcDbVertex
100
AcDb2dVertex
 10
93.22635845493079
 20
-124.8158116354628
 30
0.0
  0
VERTEX
  5
4D
330
4B
100
AcDbEntity
  8
_U+30EC_U+30A4_U+30E4_U+30FC 1
 62
     7
420
 16777215
370
     9
100
AcDbVertex
100
AcDb2dVertex
 10
93.22635845493079
 20
-116.9740908040899
 30
0.0
  0
SEQEND
  5
4E
330
4B
100
AcDbEntity
  8
_U+30EC_U+30A4_U+30E4_U+30FC 1
 62
     7
420
 16777215
370
     9
  0
INSERT
  5
50
330
1F
100
AcDbEntity
  8
_U+30EC_U+30A4_U+30E4_U+30FC 1
100
AcDbBlockReference
  2
block 2
 10
0.0
 20
0.0
 30
0.0
  0
SPLINE
  5
55
330
1F
100
AcDbEntity
  8
_U+30EC_U+30A4_U+30E4_U+30FC 1
370
     0
100
AcDbSpline
210
0.0
220
0.0
230
1.0
 70
    11
 71
     3
 72
    44
 73
    40
 74
     0
 42
0.0000000001
 43
0.0000000001
 12
1.0
 22
0.0
 32
0.0
 13
1.0
 23
0.0
 33
0.0
 40
0.0
 40
0.0
 40
0.0
 40
0.0
 40
1.0
 40
1.0
 40
1.0
 40
2.0
 40
2.0
 40
2.0
 40
3.0
 40
3.0
 40
3.0
 40
4.0
 40
4.0
 40
4.0
 40
5.0
 40
5.0
 40
5.0
 40
6.0
 40
6.0
 40
6.0
 40
7.0
 40
7.0
 40
7.0
 40
8.0
 40
8.0
 40
8.0
 40
9.0
 40
9.0
 40
9.0
 40
10.0
 40
10.0
 40
10.0
 40
11.0
 40
11.0
 40
11.0
 40
12.0
 40
12.0
 40
12.0
 40
13.0
 40
13.0
 40
13.0
 40
13.0
 10
97.32602418367293
 20
-135.8477019104822
 30
0.0
 10
97.32602418367293
 20
-135.8477019104822
 30
0.0
 10
93.47231511532257
 20
-135.8477019104822
 30
0.0
 10
93.47231511532257
 20
-135.8477019104822
 30
0.0
 10
93.47231511532257
 20
-135.8477019104822
 30
0.0
 10
93.12574623527539
 20
-135.647888577199
 30
0.0
 10
93.12574623527539
 20
-135.647888577199
 30
0.0
 10
93.12574623527539
 20
-135.647888577199
 30
0.0
 10
86.12582391385828
 20
-135.647888577199
 30
0.0
 10
86.12582391385828
 20
-135.647888577199
 30
0.0
 10
86.12582391385828
 20
-135.647888577199
 30
0.0
 10
86.12582391385828
 20
-129.1476758010466
 30
0.0
 10
86.12582391385828
 20
-129.1476758010466
 30
0.0
 10
86.12582391385828
 20
-129.1476758010466
 30
0.0
 10
93.12574623527539
 20
-129.1476758010466
 30
0.0
 10
93.12574623527539
 20
-129.1476758010466
 30
0.0
 10
93.12574623527539
 20
-128.5957549678511
 30
0.0
 10
92.67789719905302
 20
-128.147903579074
 30
0.0
 10
92.12597403855948
 20
-128.147903579074
 30
0.0
 10
92.12597403855948
 20
-128.147903579074
 30
0.0
 10
86.12582391385828
 20
-128.147903579074
 30
0.0
 10
86.12582391385828
 20
-128.147903579074
 30
0.0
 10
86.12582391385828
 20
-128.147903579074
 30
0.0
 10
86.12582391385828
 20
-122.1479296916853
 30
0.0
 10
86.12582391385828
 20
-122.1479296916853
 30
0.0
 10
86.12582391385828
 20
-121.5960088584899
 30
0.0
 10
85.67797253639505
 20
-121.1481574697128
 30
0.0
 10
85.1253814393817
 20
-121.1481574697128
 30
0.0
 10
85.1253814393817
 20
-121.1481574697128
 30
0.0
 10
85.1253814393817
 20
-135.647888577199
 30
0.0
 10
85.1253814393817
 20
-135.647888577199
 30
0.0
 10
85.1253814393817
 20
-136.2004796881718
 30
0.0
 10
85.57323281684495
 20
-136.6476607991715
 30
0.0
 10
86.12582391385828
 20
-136.6476607991715
 30
0.0
 10
86.12582391385828
 20
-136.6476607991715
 30
0.0
 10
98.12594777437629
 20
-136.6476607991715
 30
0.0
 10
98.12594777437629
 20
-136.6476607991715
 30
0.0
 10
98.12594777437629
 20
-136.205983021504
 30
0.0
 10
97.7676666724057
 20
-135.8477019104822
 30
0.0
 10
97.32602418367293
 20
-135.8477019104822
 30
0.0
  0
HATCH
  5
56
330
1F
100
AcDbEntity
  8
_U+30EC_U+30A4_U+30E4_U+30FC 1
 62
   253
420
 11711154
100
AcDbHatch
 10
0.0
 20
0.0
 30
0.0
210
0.0
220
0.0
230
1.0
  2
SOLID
 70
     1
 71
     0
 91
        1
 92
        1
 93
        1
 72
     4
 94
        3
 73
     0
 74
     1
 95
       44
 96
       40
 40
0.0
 40
0.0
 40
0.0
 40
0.0
 40
1.0
 40
1.0
 40
1.0
 40
2.0
 40
2.0
 40
2.0
 40
3.0
 40
3.0
 40
3.0
 40
4.0
 40
4.0
 40
4.0
 40
5.0
 40
5.0
 40
5.0
 40
6.0
 40
6.0
 40
6.0
 40
7.0
 40
7.0
 40
7.0
 40
8.0
 40
8.0
 40
8.0
 40
9.0
 40
9.0
 40
9.0
 40
10.0
 40
10.0
 40
10.0
 40
11.0
 40
11.0
 40
11.0
 40
12.0
 40
12.0
 40
12.0
 40
13.0
 40
13.0
 40
13.0
 40
13.0
 10
97.32602418367293
 20
-135.8477019104822
 10
97.32602418367293
 20
-135.8477019104822
 10
93.47231511532257
 20
-135.8477019104822
 10
93.47231511532257
 20
-135.8477019104822
 10
93.47231511532257
 20
-135.8477019104822
 10
93.12574623527539
 20
-135.647888577199
 10
93.12574623527539
 20
-135.647888577199
 10
93.12574623527539
 20
-135.647888577199
 10
86.12582391385828
 20
-135.647888577199
 10
86.12582391385828
 20
-135.647888577199
 10
86.12582391385828
 20
-135.647888577199
 10
86.12582391385828
 20
-129.1476758010466
 10
86.12582391385828
 20
-129.1476758010466
 10
86.12582391385828
 20
-129.1476758010466
 10
93.12574623527539
 20
-129.1476758010466
 10
93.12574623527539
 20
-129.1476758010466
 10
93.12574623527539
 20
-128.5957549678511
 10
92.67789719905302
 20
-128.147903579074
 10
92.12597403855948
 20
-128.147903579074
 10
92.12597403855948
 20
-128.147903579074
 10
86.12582391385828
 20
-128.147903579074
 10
86.12582391385828
 20
-128.147903579074
 10
86.12582391385828
 20
-128.147903579074
 10
86.12582391385828
 20
-122.1479296916853
 10
86.12582391385828
 20
-122.1479296916853
 10
86.12582391385828
 20
-121.5960088584899
 10
85.67797253639505
 20
-121.1481574697128
 10
85.1253814393817
 20
-121.1481574697128
 10
85.1253814393817
 20
-121.1481574697128
 10
85.1253814393817
 20
-135.647888577199
 10
85.1253814393817
 20
-135.647888577199
 10
85.1253814393817
 20
-136.2004796881718
 10
85.57323281684495
 20
-136.6476607991715
 10
86.12582391385828
 20
-136.6476607991715
 10
86.12582391385828
 20
-136.6476607991715
 10
98.12594777437629
 20
-136.6476607991715
 10
98.12594777437629
 20
-136.6476607991715
 10
98.12594777437629
 20
-136.205983021504
 10
97.7676666724057
 20
-135.8477019104822
 10
97.32602418367293
 20
-135.8477019104822
 97
        0
 97
        0
 75
     2
 76
     1
 98
        0
  0
POLYLINE
  5
57
330
1F
100
AcDbEntity
  8
_U+30EC_U+30A4_U+30E4_U+30FC 1
 62
     7
420
 16777215
370
    25
100
AcDb2dPolyline
 66
     1
 10
0.0
 20
0.0
 30
0.0
  0
VERTEX
  5
58
330
57
100
AcDbEntity
  8
_U+30EC_U+30A4_U+30E4_U+30FC 1
 62
     7
420
 16777215
370
    25
100
AcDbVertex
100
AcDb2dVertex
 10
86.12582391385828
 20
-135.647888577199
 30
0.0
  0
VERTEX
  5
59
330
57
100
AcDbEntity
  8
_U+30EC_U+30A4_U+30E4_U+30FC 1
 62
     7
420
 16777215
370
    25
100
AcDbVertex
100
AcDb2dVertex
 10
93.12574623527539
 20
-135.647888577199
 30
0.0
  0
SEQEND
  5
5A
330
57
100
AcDbEntity
  8
_U+30EC_U+30A4_U+30E4_U+30FC 1
 62
     7
420
 16777215
370
    25
  0
POLYLINE
  5
5B
330
1F
100
AcDbEntity
  8
_U+30EC_U+30A4_U+30E4_U+30FC 1
 62
     7
420
 16777215
370
    25
100
AcDb2dPolyline
 66
     1
 10
0.0
 20
0.0
 30
0.0
  0
VERTEX
  5
5C
330
5B
100
AcDbEntity
  8
_U+30EC_U+30A4_U+30E4_U+30FC 1
 62
     7
420
 16777215
370
    25
100
AcDbVertex
100
AcDb2dVertex
 10
86.12582391385828
 20
-129.1476758010466
 30
0.0
  0
VERTEX
  5
5D
330
5B
100
AcDbEntity
  8
_U+30EC_U+30A4_U+30E4_U+30FC 1
 62
     7
420
 16777215
370
    25
100
AcDbVertex
100
AcDb2dVertex
 10
93.12574623527539
 20
-129.1476758010466
 30
0.0
  0
SEQEND
  5
5E
330
5B
100
AcDbEntity
  8
_U+30EC_U+30A4_U+30E4_U+30FC 1
 62
     7
420
 16777215
370
    25
  0
POLYLINE
  5
5F
330
1F
100
AcDbEntity
  8
_U+30EC_U+30A4_U+30E4_U+30FC 1
 62
     7
420
 16777215
370
    25
100
AcDb2dPolyline
 66
     1
 10
0.0
 20
0.0
 30
0.0
  0
VERTEX
  5
60
330
5F
100
AcDbEntity
  8
_U+30EC_U+30A4_U+30E4_U+30FC 1
 62
     7
420
 16777215
370
    25
100
AcDbVertex
100
AcDb2dVertex
 10
86.12582391385828
 20
-136.6476607991715
 30
0.0
  0
VERTEX
  5
61
330
5F
100
AcDbEntity
  8
_U+30EC_U+30A4_U+30E4_U+30FC 1
 62
     7
420
 16777215
370
    25
100
AcDbVertex
100
AcDb2dVertex
 10
98.12594777437629
 20
-136.6476607991715
 30
0.0
  0
SEQEND
  5
62
330
5F
100
AcDbEntity
  8
_U+30EC_U+30A4_U+30E4_U+30FC 1
 62
     7
420
 16777215
370
    25
  0
POLYLINE
  5
63
330
1F
100
AcDbEntity
  8
_U+30EC_U+30A4_U+30E4_U+30FC 1
 62
     7
420
 16777215
370
    25
100
AcDb2dPolyline
 66
     1
 10
0.0
 20
0.0
 30
0.0
  0
VERTEX
  5
64
330
63
100
AcDbEntity
  8
_U+30EC_U+30A4_U+30E4_U+30FC 1
 62
     7
420
 16777215
370
    25
100
AcDbVertex
100
AcDb2dVertex
 10
85.1253814393817
 20
-121.1481574697128
 30
0.0
  0
VERTEX
  5
65
330
63
100
AcDbEntity
  8
_U+30EC_U+30A4_U+30E4_U+30FC 1
 62
     7
420
 16777215
370
    25
100
AcDbVertex
100
AcDb2dVertex
 10
85.1253814393817
 20
-135.647888577199
 30
0.0
  0
SEQEND
  5
66
330
63
100
AcDbEntity
  8
_U+30EC_U+30A4_U+30E4_U+30FC 1
 62
     7
420
 16777215
370
    25
  0
POLYLINE
  5
67
330
1F
100
AcDbEntity
  8
_U+30EC_U+30A4_U+30E4_U+30FC 1
 62
     7
420
 16777215
370
    25
100
AcDb2dPolyline
 66
     1
 10
0.0
 20
0.0
 30
0.0
  0
VERTEX
  5
68
330
67
100
AcDbEntity
  8
_U+30EC_U+30A4_U+30E4_U+30FC 1
 62
     7
420
 16777215
370
    25
100
AcDbVertex
100
AcDb2dVertex
 10
86.12582391385828
 20
-122.1479296916853
 30
0.0
  0
VERTEX
  5
69
330
67
100
AcDbEntity
  8
_U+30EC_U+30A4_U+30E4_U+30FC 1
 62
     7
420
 16777215
370
    25
100
AcDbVertex
100
AcDb2dVertex
 10
86.12582391385828
 20
-128.147903579074
 30
0.0
  0
SEQEND
  5
6A
330
67
100
AcDbEntity
  8
_U+30EC_U+30A4_U+30E4_U+30FC 1
 62
     7
420
 16777215
370
    25
  0
POLYLINE
  5
6B
330
1F
100
AcDbEntity
  8
_U+30EC_U+30A4_U+30E4_U+30FC 1
 62
     7
420
 16777215
370
    25
100
AcDb2dPolyline
 66
     1
 10
0.0
 20
0.0
 30
0.0
  0
VERTEX
  5
6C
330
6B
100
AcDbEntity
  8
_U+30EC_U+30A4_U+30E4_U+30FC 1
 62
     7
420
 16777215
370
    25
100
AcDbVertex
100
AcDb2dVertex
 10
86.12582391385828
 20
-128.147903579074
 30
0.0
  0
VERTEX
  5
6D
330
6B
100
AcDbEntity
  8
_U+30EC_U+30A4_U+30E4_U+30FC 1
 62
     7
420
 16777215
370
    25
100
AcDbVertex
100
AcDb2dVertex
 10
92.12597403855948
 20
-128.147903579074
 30
0.0
  0
SEQEND
  5
6E
330
6B
100
AcDbEntity
  8
_U+30EC_U+30A4_U+30E4_U+30FC 1
 62
     7
420
 16777215
370
    25
  0
POLYLINE
  5
6F
330
1F
100
AcDbEntity
  8
_U+30EC_U+30A4_U+30E4_U+30FC 1
 62
     7
420
 16777215
370
    25
100
AcDb2dPolyline
 66
     1
 10
0.0
 20
0.0
 30
0.0
  0
VERTEX
  5
70
330
6F
100
AcDbEntity
  8
_U+30EC_U+30A4_U+30E4_U+30FC 1
 62
     7
420
 16777215
370
    25
100
AcDbVertex
100
AcDb2dVertex
 10
86.12582391385828
 20
-129.1476758010466
 30
0.0
  0
VERTEX
  5
71
330
6F
100
AcDbEntity
  8
_U+30EC_U+30A4_U+30E4_U+30FC 1
 62
     7
420
 16777215
370
    25
100
AcDbVertex
100
AcDb2dVertex
 10
86.12582391385828
 20
-135.647888577199
 30
0.0
  0
SEQEND
  5
72
330
6F
100
AcDbEntity
  8
_U+30EC_U+30A4_U+30E4_U+30FC 1
 62
     7
420
 16777215
370
    25
  0
POLYLINE
  5
73
330
1F
100
AcDbEntity
  8
_U+30EC_U+30A4_U+30E4_U+30FC 1
 62
     7
420
 16777215
370
    25
100
AcDb2dPolyline
 66
     1
 10
0.0
 20
0.0
 30
0.0
  0
VERTEX
  5
74
330
73
100
AcDbEntity
  8
_U+30EC_U+30A4_U+30E4_U+30FC 1
 62
     7
420
 16777215
370
    25
100
AcDbVertex
100
AcDb2dVertex
 10
93.47231511532257
 20
-135.8477019104822
 30
0.0
  0
VERTEX
  5
75
330
73
100
AcDbEntity
  8
_U+30EC_U+30A4_U+30E4_U+30FC 1
 62
     7
420
 16777215
370
    25
100
AcDbVertex
100
AcDb2dVertex
 10
97.32602418367293
 20
-135.8477019104822
 30
0.0
  0
SEQEND
  5
76
330
73
100
AcDbEntity
  8
_U+30EC_U+30A4_U+30E4_U+30FC 1
 62
     7
420
 16777215
370
    25
  0
POLYLINE
  5
77
330
1F
100
AcDbEntity
  8
_U+30EC_U+30A4_U+30E4_U+30FC 1
 62
     7
420
 16777215
370
    25
100
AcDb2dPolyline
 66
     1
 10
0.0
 20
0.0
 30
0.0
  0
VERTEX
  5
78
330
77
100
AcDbEntity
  8
_U+30EC_U+30A4_U+30E4_U+30FC 1
 62
     7
420
 16777215
370
    25
100
AcDbVertex
100
AcDb2dVertex
 10
93.12574623527539
 20
-135.647888577199
 30
0.0
  0
VERTEX
  5
79
330
77
100
AcDbEntity
  8
_U+30EC_U+30A4_U+30E4_U+30FC 1
 62
     7
420
 16777215
370
    25
100
AcDbVertex
100
AcDb2dVertex
 10
93.47231511532257
 20
-135.8477019104822
 30
0.0
  0
SEQEND
  5
7A
330
77
100
AcDbEntity
  8
_U+30EC_U+30A4_U+30E4_U+30FC 1
 62
     7
420
 16777215
370
    25
  0
SPLINE
  5
7B
330
1F
100
AcDbEntity
  8
_U+30EC_U+30A4_U+30E4_U+30FC 1
 62
     7
420
 16777215
370
    25
100
AcDbSpline
210
0.0
220
0.0
230
1.0
 70
     8
 71
     3
 72
     8
 73
     4
 74
     0
 42
0.0000000001
 43
0.0000000001
 12
1.0
 22
0.0
 32
0.0
 13
1.0
 23
0.0
 33
0.0
 40
0.0
 40
0.0
 40
0.0
 40
0.0
 40
1.0
 40
1.0
 40
1.0
 40
1.0
 10
85.1253814393817
 20
-135.647888577199
 30
0.0
 10
85.1253814393817
 20
-136.2004796881718
 30
0.0
 10
85.57323281684495
 20
-136.6476607991715
 30
0.0
 10
86.12582391385828
 20
-136.6476607991715
 30
0.0
  0
SPLINE
  5
7C
330
1F
100
AcDbEntity
  8
_U+30EC_U+30A4_U+30E4_U+30FC 1
 62
     7
420
 16777215
370
     9
100
AcDbSpline
210
0.0
220
0.0
230
1.0
 70
    11
 71
     3
 72
    17
 73
    13
 74
     0
 42
0.0000000001
 43
0.0000000001
 12
1.0
 22
0.0
 32
0.0
 13
1.0
 23
0.0
 33
0.0
 40
0.0
 40
0.0
 40
0.0
 40
0.0
 40
1.0
 40
1.0
 40
1.0
 40
2.0
 40
2.0
 40
2.0
 40
3.0
 40
3.0
 40
3.0
 40
4.0
 40
4.0
 40
4.0
 40
4.0
 10
85.22528810349954
 20
-124.1481444134075
 30
0.0
 10
85.22528810349954
 20
-124.0930405245322
 30
0.0
 10
85.18048532686477
 20
-124.0482377467658
 30
0.0
 10
85.1253814393817
 20
-124.0482377467658
 30
0.0
 10
85.07024442317697
 20
-124.0482377467658
 30
0.0
 10
85.02547477526387
 20
-124.0930405245322
 30
0.0
 10
85.02547477526387
 20
-124.1481444134075
 30
0.0
 10
85.02547477526387
 20
-124.2032835800602
 30
0.0
 10
85.07024442317697
 20
-124.2480510800491
 30
0.0
 10
85.1253814393817
 20
-124.2480510800491
 30
0.0
 10
85.18048532686477
 20
-124.2480510800491
 30
0.0
 10
85.22528810349954
 20
-124.2032835800602
 30
0.0
 10
85.22528810349954
 20
-124.1481444134075
 30
0.0
  0
SPLINE
  5
7D
330
1F
100
AcDbEntity
  8
_U+30EC_U+30A4_U+30E4_U+30FC 1
 62
     7
420
 16777215
370
     9
100
AcDbSpline
210
0.0
220
0.0
230
1.0
 70
    11
 71
     3
 72
    17
 73
    13
 74
     0
 42
0.0000000001
 43
0.0000000001
 12
1.0
 22
0.0
 32
0.0
 13
1.0
 23
0.0
 33
0.0
 40
0.0
 40
0.0
 40
0.0
 40
0.0
 40
1.0
 40
1.0
 40
1.0
 40
2.0
 40
2.0
 40
2.0
 40
3.0
 40
3.0
 40
3.0
 40
4.0
 40
4.0
 40
4.0
 40
4.0
 10
86.22573057797612
 20
-124.1481444134075
 30
0.0
 10
86.22573057797612
 20
-124.0930405245322
 30
0.0
 10
86.18096307911824
 20
-124.0482377467658
 30
0.0
 10
86.12582391385828
 20
-124.0482377467658
 30
0.0
 10
86.0700166451492
 20
-124.0482377467658
 30
0.0
 10
86.02524697197977
 20
-124.0930405245322
 30
0.0
 10
86.02524697197977
 20
-124.1481444134075
 30
0.0
 10
86.02524697197977
 20
-124.2032835800602
 30
0.0
 10
86.0700166451492
 20
-124.2480510800491
 30
0.0
 10
86.12582391385828
 20
-124.2480510800491
 30
0.0
 10
86.18096307911824
 20
-124.2480510800491
 30
0.0
 10
86.22573057797612
 20
-124.2032835800602
 30
0.0
 10
86.22573057797612
 20
-124.1481444134075
 30
0.0
  0
SPLINE
  5
7E
330
1F
100
AcDbEntity
  8
_U+30EC_U+30A4_U+30E4_U+30FC 1
 62
     7
420
 16777215
370
     9
100
AcDbSpline
210
0.0
220
0.0
230
1.0
 70
    11
 71
     3
 72
    17
 73
    13
 74
     0
 42
0.0000000001
 43
0.0000000001
 12
1.0
 22
0.0
 32
0.0
 13
1.0
 23
0.0
 33
0.0
 40
0.0
 40
0.0
 40
0.0
 40
0.0
 40
1.0
 40
1.0
 40
1.0
 40
2.0
 40
2.0
 40
2.0
 40
3.0
 40
3.0
 40
3.0
 40
4.0
 40
4.0
 40
4.0
 40
4.0
 10
98.22585443849412
 20
-140.6480902426158
 30
0.0
 10
98.22585443849412
 20
-140.5929863537409
 30
0.0
 10
98.18108693963624
 20
-140.5481835759741
 30
0.0
 10
98.12594777437629
 20
-140.5481835759741
 30
0.0
 10
98.07084388689321
 20
-140.5481835759741
 30
0.0
 10
98.02604111025846
 20
-140.5929863537409
 30
0.0
 10
98.02604111025846
 20
-140.6480902426158
 30
0.0
 10
98.02604111025846
 20
-140.7032294092688
 30
0.0
 10
98.07084388689321
 20
-140.7479969092574
 30
0.0
 10
98.12594777437629
 20
-140.7479969092574
 30
0.0
 10
98.18108693963624
 20
-140.7479969092574
 30
0.0
 10
98.22585443849412
 20
-140.7032294092688
 30
0.0
 10
98.22585443849412
 20
-140.6480902426158
 30
0.0
  0
SPLINE
  5
7F
330
1F
100
AcDbEntity
  8
_U+30EC_U+30A4_U+30E4_U+30FC 1
 62
     7
420
 16777215
370
     9
100
AcDbSpline
210
0.0
220
0.0
230
1.0
 70
    11
 71
     3
 72
    17
 73
    13
 74
     0
 42
0.0000000001
 43
0.0000000001
 12
1.0
 22
0.0
 32
0.0
 13
1.0
 23
0.0
 33
0.0
 40
0.0
 40
0.0
 40
0.0
 40
0.0
 40
1.0
 40
1.0
 40
1.0
 40
2.0
 40
2.0
 40
2.0
 40
3.0
 40
3.0
 40
3.0
 40
4.0
 40
4.0
 40
4.0
 40
4.0
 10
85.22528810349954
 20
-140.6480902426158
 30
0.0
 10
85.22528810349954
 20
-140.5929863537409
 30
0.0
 10
85.18048532686477
 20
-140.5481835759741
 30
0.0
 10
85.1253814393817
 20
-140.5481835759741
 30
0.0
 10
85.07024442317697
 20
-140.5481835759741
 30
0.0
 10
85.02547477526387
 20
-140.5929863537409
 30
0.0
 10
85.02547477526387
 20
-140.6480902426158
 30
0.0
 10
85.02547477526387
 20
-140.7032294092688
 30
0.0
 10
85.07024442317697
 20
-140.7479969092574
 30
0.0
 10
85.1253814393817
 20
-140.7479969092574
 30
0.0
 10
85.18048532686477
 20
-140.7479969092574
 30
0.0
 10
85.22528810349954
 20
-140.7032294092688
 30
0.0
 10
85.22528810349954
 20
-140.6480902426158
 30
0.0
  0
SPLINE
  5
80
330
1F
100
AcDbEntity
  8
_U+30EC_U+30A4_U+30E4_U+30FC 1
 62
     7
420
 16777215
370
    25
100
AcDbSpline
210
0.0
220
0.0
230
1.0
 70
     8
 71
     3
 72
     8
 73
     4
 74
     0
 42
0.0000000001
 43
0.0000000001
 12
1.0
 22
0.0
 32
0.0
 13
1.0
 23
0.0
 33
0.0
 40
0.0
 40
0.0
 40
0.0
 40
0.0
 40
1.0
 40
1.0
 40
1.0
 40
1.0
 10
86.12582391385828
 20
-122.1479296916853
 30
0.0
 10
86.12582391385828
 20
-121.5960088584899
 30
0.0
 10
85.67797253639505
 20
-121.1481574697128
 30
0.0
 10
85.1253814393817
 20
-121.1481574697128
 30
0.0
  0
SPLINE
  5
81
330
1F
100
AcDbEntity
  8
_U+30EC_U+30A4_U+30E4_U+30FC 1
 62
     7
420
 16777215
370
    25
100
AcDbSpline
210
0.0
220
0.0
230
1.0
 70
     8
 71
     3
 72
     8
 73
     4
 74
     0
 42
0.0000000001
 43
0.0000000001
 12
1.0
 22
0.0
 32
0.0
 13
1.0
 23
0.0
 33
0.0
 40
0.0
 40
0.0
 40
0.0
 40
0.0
 40
1.0
 40
1.0
 40
1.0
 40
1.0
 10
93.12574623527539
 20
-129.1476758010466
 30
0.0
 10
93.12574623527539
 20
-128.5957549678511
 30
0.0
 10
92.67789719905302
 20
-128.147903579074
 30
0.0
 10
92.12597403855948
 20
-128.147903579074
 30
0.0
  0
SPLINE
  5
82
330
1F
100
AcDbEntity
  8
_U+30EC_U+30A4_U+30E4_U+30FC 1
 62
     7
420
 16777215
370
    25
100
AcDbSpline
210
0.0
220
0.0
230
1.0
 70
     8
 71
     3
 72
     8
 73
     4
 74
     0
 42
0.0000000001
 43
0.0000000001
 12
1.0
 22
0.0
 32
0.0
 13
1.0
 23
0.0
 33
0.0
 40
0.0
 40
0.0
 40
0.0
 40
0.0
 40
1.0
 40
1.0
 40
1.0
 40
1.0
 10
98.12594777437629
 20
-136.6476607991715
 30
0.0
 10
98.12594777437629
 20
-136.205983021504
 30
0.0
 10
97.7676666724057
 20
-135.8477019104822
 30
0.0
 10
97.32602418367293
 20
-135.8477019104822
 30
0.0
  0
SPLINE
  5
83
330
1F
100
AcDbEntity
  8
_U+30EC_U+30A4_U+30E4_U+30FC 1
 62
     7
420
 16777215
370
     9
100
AcDbSpline
210
0.0
220
0.0
230
1.0
 70
    11
 71
     3
 72
    17
 73
    13
 74
     0
 42
0.0000000001
 43
0.0000000001
 12
1.0
 22
0.0
 32
0.0
 13
1.0
 23
0.0
 33
0.0
 40
0.0
 40
0.0
 40
0.0
 40
0.0
 40
1.0
 40
1.0
 40
1.0
 40
2.0
 40
2.0
 40
2.0
 40
3.0
 40
3.0
 40
3.0
 40
4.0
 40
4.0
 40
4.0
 40
4.0
 10
81.22552903887522
 20
-121.1481574697128
 30
0.0
 10
81.22552903887522
 20
-121.0930535808379
 30
0.0
 10
81.18076154001734
 20
-121.0482508030712
 30
0.0
 10
81.12562237475738
 20
-121.0482508030712
 30
0.0
 10
81.07051848727431
 20
-121.0482508030712
 30
0.0
 10
81.02571571063956
 20
-121.0930535808379
 30
0.0
 10
81.02571571063956
 20
-121.1481574697128
 30
0.0
 10
81.02571571063956
 20
-121.2032966363659
 30
0.0
 10
81.07051848727431
 20
-121.2480641363548
 30
0.0
 10
81.12562237475738
 20
-121.2480641363548
 30
0.0
 10
81.18076154001734
 20
-121.2480641363548
 30
0.0
 10
81.22552903887522
 20
-121.2032966363659
 30
0.0
 10
81.22552903887522
 20
-121.1481574697128
 30
0.0
  0
SPLINE
  5
84
330
1F
100
AcDbEntity
  8
_U+30EC_U+30A4_U+30E4_U+30FC 1
 62
     7
420
 16777215
370
     9
100
AcDbSpline
210
0.0
220
0.0
230
1.0
 70
    11
 71
     3
 72
    17
 73
    13
 74
     0
 42
0.0000000001
 43
0.0000000001
 12
1.0
 22
0.0
 32
0.0
 13
1.0
 23
0.0
 33
0.0
 40
0.0
 40
0.0
 40
0.0
 40
0.0
 40
1.0
 40
1.0
 40
1.0
 40
2.0
 40
2.0
 40
2.0
 40
3.0
 40
3.0
 40
3.0
 40
4.0
 40
4.0
 40
4.0
 40
4.0
 10
81.22552903887522
 20
-136.6476607991715
 30
0.0
 10
81.22552903887522
 20
-136.5925216325184
 30
0.0
 10
81.18076154001734
 20
-136.5477541325299
 30
0.0
 10
81.12562237475738
 20
-136.5477541325299
 30
0.0
 10
81.07051848727431
 20
-136.5477541325299
 30
0.0
 10
81.02571571063956
 20
-136.5925216325184
 30
0.0
 10
81.02571571063956
 20
-136.6476607991715
 30
0.0
 10
81.02571571063956
 20
-136.7034702436019
 30
0.0
 10
81.07051848727431
 20
-136.7482377435905
 30
0.0
 10
81.12562237475738
 20
-136.7482377435905
 30
0.0
 10
81.18076154001734
 20
-136.7482377435905
 30
0.0
 10
81.22552903887522
 20
-136.7034702436019
 30
0.0
 10
81.22552903887522
 20
-136.6476607991715
 30
0.0
  0
SPLINE
  5
85
330
1F
100
AcDbEntity
  8
_U+30EC_U+30A4_U+30E4_U+30FC 1
 62
     7
420
 16777215
370
     9
100
AcDbSpline
210
0.0
220
0.0
230
1.0
 70
    11
 71
     3
 72
    17
 73
    13
 74
     0
 42
0.0000000001
 43
0.0000000001
 12
1.0
 22
0.0
 32
0.0
 13
1.0
 23
0.0
 33
0.0
 40
0.0
 40
0.0
 40
0.0
 40
0.0
 40
1.0
 40
1.0
 40
1.0
 40
2.0
 40
2.0
 40
2.0
 40
3.0
 40
3.0
 40
3.0
 40
4.0
 40
4.0
 40
4.0
 40
4.0
 10
102.2256135031184
 20
-135.647888577199
 30
0.0
 10
102.2256135031184
 20
-135.5927494105465
 30
0.0
 10
102.1808460042605
 20
-135.5479819105573
 30
0.0
 10
102.1257068390006
 20
-135.5479819105573
 30
0.0
 10
102.0706055300382
 20
-135.5479819105573
 30
0.0
 10
102.0258027522714
 20
-135.5927494105465
 30
0.0
 10
102.0258027522714
 20
-135.647888577199
 30
0.0
 10
102.0258027522714
 20
-135.7029924660745
 30
0.0
 10
102.0706055300382
 20
-135.7477952438406
 30
0.0
 10
102.1257068390006
 20
-135.7477952438406
 30
0.0
 10
102.1808460042605
 20
-135.7477952438406
 30
0.0
 10
102.2256135031184
 20
-135.7029924660745
 30
0.0
 10
102.2256135031184
 20
-135.647888577199
 30
0.0
  0
SPLINE
  5
86
330
1F
100
AcDbEntity
  8
_U+30EC_U+30A4_U+30E4_U+30FC 1
 62
     7
420
 16777215
370
     9
100
AcDbSpline
210
0.0
220
0.0
230
1.0
 70
    11
 71
     3
 72
    17
 73
    13
 74
     0
 42
0.0000000001
 43
0.0000000001
 12
1.0
 22
0.0
 32
0.0
 13
1.0
 23
0.0
 33
0.0
 40
0.0
 40
0.0
 40
0.0
 40
0.0
 40
1.0
 40
1.0
 40
1.0
 40
2.0
 40
2.0
 40
2.0
 40
3.0
 40
3.0
 40
3.0
 40
4.0
 40
4.0
 40
4.0
 40
4.0
 10
102.2256135031184
 20
-129.1476758010466
 30
0.0
 10
102.2256135031184
 20
-129.0925366343935
 30
0.0
 10
102.1808460042605
 20
-129.0477691344049
 30
0.0
 10
102.1257068390006
 20
-129.0477691344049
 30
0.0
 10
102.0706055300382
 20
-129.0477691344049
 30
0.0
 10
102.0258027522714
 20
-129.0925366343935
 30
0.0
 10
102.0258027522714
 20
-129.1476758010466
 30
0.0
 10
102.0258027522714
 20
-129.203485245477
 30
0.0
 10
102.0706055300382
 20
-129.2482527454656
 30
0.0
 10
102.1257068390006
 20
-129.2482527454656
 30
0.0
 10
102.1808460042605
 20
-129.2482527454656
 30
0.0
 10
102.2256135031184
 20
-129.203485245477
 30
0.0
 10
102.2256135031184
 20
-129.1476758010466
 30
0.0
  0
SPLINE
  5
87
330
1F
100
AcDbEntity
  8
_U+30EC_U+30A4_U+30E4_U+30FC 1
 62
     7
420
 16777215
370
     9
100
AcDbSpline
210
0.0
220
0.0
230
1.0
 70
    11
 71
     3
 72
    17
 73
    13
 74
     0
 42
0.0000000001
 43
0.0000000001
 12
1.0
 22
0.0
 32
0.0
 13
1.0
 23
0.0
 33
0.0
 40
0.0
 40
0.0
 40
0.0
 40
0.0
 40
1.0
 40
1.0
 40
1.0
 40
2.0
 40
2.0
 40
2.0
 40
3.0
 40
3.0
 40
3.0
 40
4.0
 40
4.0
 40
4.0
 40
4.0
 10
102.2256135031184
 20
-121.1481574697128
 30
0.0
 10
102.2256135031184
 20
-121.0930535808379
 30
0.0
 10
102.1808460042605
 20
-121.0482508030712
 30
0.0
 10
102.1257068390006
 20
-121.0482508030712
 30
0.0
 10
102.0706055300382
 20
-121.0482508030712
 30
0.0
 10
102.0258027522714
 20
-121.0930535808379
 30
0.0
 10
102.0258027522714
 20
-121.1481574697128
 30
0.0
 10
102.0258027522714
 20
-121.2032966363659
 30
0.0
 10
102.0706055300382
 20
-121.2480641363548
 30
0.0
 10
102.1257068390006
 20
-121.2480641363548
 30
0.0
 10
102.1808460042605
 20
-121.2480641363548
 30
0.0
 10
102.2256135031184
 20
-121.2032966363659
 30
0.0
 10
102.2256135031184
 20
-121.1481574697128
 30
0.0
  0
POLYLINE
  5
88
330
1F
100
AcDbEntity
  8
_U+30EC_U+30A4_U+30E4_U+30FC 1
 62
     7
420
 16777215
370
     9
100
AcDb2dPolyline
 66
     1
 10
0.0
 20
0.0
 30
0.0
  0
VERTEX
  5
89
330
88
100
AcDbEntity
  8
_U+30EC_U+30A4_U+30E4_U+30FC 1
 62
     7
420
 16777215
370
     9
100
AcDbVertex
100
AcDb2dVertex
 10
86.12582391385828
 20
-124.1481444134075
 30
0.0
  0
VERTEX
  5
8A
330
88
100
AcDbEntity
  8
_U+30EC_U+30A4_U+30E4_U+30FC 1
 62
     7
420
 16777215
370
     9
100
AcDbVertex
100
AcDb2dVertex
 10
89.8961363176696
 20
-124.1481444134075
 30
0.0
  0
SEQEND
  5
8B
330
88
100
AcDbEntity
  8
_U+30EC_U+30A4_U+30E4_U+30FC 1
 62
     7
420
 16777215
370
     9
  0
POLYLINE
  5
8C
330
1F
100
AcDbEntity
  8
_U+30EC_U+30A4_U+30E4_U+30FC 1
 62
     7
420
 16777215
370
     9
100
AcDb2dPolyline
 66
     1
 10
0.0
 20
0.0
 30
0.0
  0
VERTEX
  5
8D
330
8C
100
AcDbEntity
  8
_U+30EC_U+30A4_U+30E4_U+30FC 1
 62
     7
420
 16777215
370
     9
100
AcDbVertex
100
AcDb2dVertex
 10
84.12560924266579
 20
-124.1481444134075
 30
0.0
  0
VERTEX
  5
8E
330
8C
100
AcDbEntity
  8
_U+30EC_U+30A4_U+30E4_U+30FC 1
 62
     7
420
 16777215
370
     9
100
AcDbVertex
100
AcDb2dVertex
 10
86.12582391385828
 20
-124.1481444134075
 30
0.0
  0
SEQEND
  5
8F
330
8C
100
AcDbEntity
  8
_U+30EC_U+30A4_U+30E4_U+30FC 1
 62
     7
420
 16777215
370
     9
  0
INSERT
  5
91
330
1F
100
AcDbEntity
  8
_U+30EC_U+30A4_U+30E4_U+30FC 1
100
AcDbBlockReference
  2
block 3
 10
0.0
 20
0.0
 30
0.0
  0
POLYLINE
  5
96
330
1F
100
AcDbEntity
  8
_U+30EC_U+30A4_U+30E4_U+30FC 1
 62
     7
420
 16777215
370
     9
100
AcDb2dPolyline
 66
     1
 10
0.0
 20
0.0
 30
0.0
  0
VERTEX
  5
97
330
96
100
AcDbEntity
  8
_U+30EC_U+30A4_U+30E4_U+30FC 1
 62
     7
420
 16777215
370
     9
100
AcDbVertex
100
AcDb2dVertex
 10
85.1253814393817
 20
-140.6480902426158
 30
0.0
  0
VERTEX
  5
98
330
96
100
AcDbEntity
  8
_U+30EC_U+30A4_U+30E4_U+30FC 1
 62
     7
420
 16777215
370
     9
100
AcDbVertex
100
AcDb2dVertex
 10
98.12594777437629
 20
-140.6480902426158
 30
0.0
  0
SEQEND
  5
99
330
96
100
AcDbEntity
  8
_U+30EC_U+30A4_U+30E4_U+30FC 1
 62
     7
420
 16777215
370
     9
  0
POLYLINE
  5
9A
330
1F
100
AcDbEntity
  8
_U+30EC_U+30A4_U+30E4_U+30FC 1
 62
     7
420
 16777215
370
     9
100
AcDb2dPolyline
 66
     1
 10
0.0
 20
0.0
 30
0.0
  0
VERTEX
  5
9B
330
9A
100
AcDbEntity
  8
_U+30EC_U+30A4_U+30E4_U+30FC 1
 62
     7
420
 16777215
370
     9
100
AcDbVertex
100
AcDb2dVertex
 10
85.1253814393817
 20
-138.1876063543421
 30
0.0
  0
VERTEX
  5
9C
330
9A
100
AcDbEntity
  8
_U+30EC_U+30A4_U+30E4_U+30FC 1
 62
     7
420
 16777215
370
     9
100
AcDbVertex
100
AcDb2dVertex
 10
85.1253814393817
 20
-141.6478624645883
 30
0.0
  0
SEQEND
  5
9D
330
9A
100
AcDbEntity
  8
_U+30EC_U+30A4_U+30E4_U+30FC 1
 62
     7
420
 16777215
370
     9
  0
POLYLINE
  5
9E
330
1F
100
AcDbEntity
  8
_U+30EC_U+30A4_U+30E4_U+30FC 1
 62
     7
420
 16777215
370
     9
100
AcDb2dPolyline
 66
     1
 10
0.0
 20
0.0
 30
0.0
  0
VERTEX
  5
9F
330
9E
100
AcDbEntity
  8
_U+30EC_U+30A4_U+30E4_U+30FC 1
 62
     7
420
 16777215
370
     9
100
AcDbVertex
100
AcDb2dVertex
 10
98.12594777437629
 20
-138.1876063543421
 30
0.0
  0
VERTEX
  5
A0
330
9E
100
AcDbEntity
  8
_U+30EC_U+30A4_U+30E4_U+30FC 1
 62
     7
420
 16777215
370
     9
100
AcDbVertex
100
AcDb2dVertex
 10
98.12594777437629
 20
-141.6478624645883
 30
0.0
  0
SEQEND
  5
A1
330
9E
100
AcDbEntity
  8
_U+30EC_U+30A4_U+30E4_U+30FC 1
 62
     7
420
 16777215
370
     9
  0
INSERT
  5
A3
330
1F
100
AcDbEntity
  8
_U+30EC_U+30A4_U+30E4_U+30FC 1
100
AcDbBlockReference
  2
block 4
 10
0.0
 20
0.0
 30
0.0
  0
POLYLINE
  5
AA
330
1F
100
AcDbEntity
  8
_U+30EC_U+30A4_U+30E4_U+30FC 1
 62
     7
420
 16777215
370
     9
100
AcDb2dPolyline
 66
     1
 10
0.0
 20
0.0
 30
0.0
  0
VERTEX
  5
AB
330
AA
100
AcDbEntity
  8
_U+30EC_U+30A4_U+30E4_U+30FC 1
 62
     7
420
 16777215
370
     9
100
AcDbVertex
100
AcDb2dVertex
 10
81.12562237475738
 20
-136.6476607991715
 30
0.0
  0
VERTEX
  5
AC
330
AA
100
AcDbEntity
  8
_U+30EC_U+30A4_U+30E4_U+30FC 1
 62
     7
420
 16777215
370
     9
100
AcDbVertex
100
AcDb2dVertex
 10
81.12562237475738
 20
-121.1481574697128
 30
0.0
  0
SEQEND
  5
AD
330
AA
100
AcDbEntity
  8
_U+30EC_U+30A4_U+30E4_U+30FC 1
 62
     7
420
 16777215
370
     9
  0
POLYLINE
  5
AE
330
1F
100
AcDbEntity
  8
_U+30EC_U+30A4_U+30E4_U+30FC 1
 62
     7
420
 16777215
370
     9
100
AcDb2dPolyline
 66
     1
 10
0.0
 20
0.0
 30
0.0
  0
VERTEX
  5
AF
330
AE
100
AcDbEntity
  8
_U+30EC_U+30A4_U+30E4_U+30FC 1
 62
     7
420
 16777215
370
     9
100
AcDbVertex
100
AcDb2dVertex
 10
83.58543592311344
 20
-136.6476607991715
 30
0.0
  0
VERTEX
  5
B0
330
AE
100
AcDbEntity
  8
_U+30EC_U+30A4_U+30E4_U+30FC 1
 62
     7
420
 16777215
370
     9
100
AcDbVertex
100
AcDb2dVertex
 10
80.12585017804149
 20
-136.6476607991715
 30
0.0
  0
SEQEND
  5
B1
330
AE
100
AcDbEntity
  8
_U+30EC_U+30A4_U+30E4_U+30FC 1
 62
     7
420
 16777215
370
     9
  0
POLYLINE
  5
B2
330
1F
100
AcDbEntity
  8
_U+30EC_U+30A4_U+30E4_U+30FC 1
 62
     7
420
 16777215
370
     9
100
AcDb2dPolyline
 66
     1
 10
0.0
 20
0.0
 30
0.0
  0
VERTEX
  5
B3
330
B2
100
AcDbEntity
  8
_U+30EC_U+30A4_U+30E4_U+30FC 1
 62
     7
420
 16777215
370
     9
100
AcDbVertex
100
AcDb2dVertex
 10
82.58566372639753
 20
-121.1481574697128
 30
0.0
  0
VERTEX
  5
B4
330
B2
100
AcDbEntity
  8
_U+30EC_U+30A4_U+30E4_U+30FC 1
 62
     7
420
 16777215
370
     9
100
AcDbVertex
100
AcDb2dVertex
 10
80.12585017804149
 20
-121.1481574697128
 30
0.0
  0
SEQEND
  5
B5
330
B2
100
AcDbEntity
  8
_U+30EC_U+30A4_U+30E4_U+30FC 1
 62
     7
420
 16777215
370
     9
  0
INSERT
  5
B7
330
1F
100
AcDbEntity
  8
_U+30EC_U+30A4_U+30E4_U+30FC 1
100
AcDbBlockReference
  2
block 5
 10
0.0
 20
0.0
 30
0.0
  0
POLYLINE
  5
C8
330
1F
100
AcDbEntity
  8
_U+30EC_U+30A4_U+30E4_U+30FC 1
 62
     7
420
 16777215
370
     9
100
AcDb2dPolyline
 66
     1
 10
0.0
 20
0.0
 30
0.0
  0
VERTEX
  5
C9
330
C8
100
AcDbEntity
  8
_U+30EC_U+30A4_U+30E4_U+30FC 1
 62
     7
420
 16777215
370
     9
100
AcDbVertex
100
AcDb2dVertex
 10
102.1257068390006
 20
-135.647888577199
 30
0.0
  0
VERTEX
  5
CA
330
C8
100
AcDbEntity
  8
_U+30EC_U+30A4_U+30E4_U+30FC 1
 62
     7
420
 16777215
370
     9
100
AcDbVertex
100
AcDb2dVertex
 10
102.1257068390006
 20
-129.1476758010466
 30
0.0
  0
SEQEND
  5
CB
330
C8
100
AcDbEntity
  8
_U+30EC_U+30A4_U+30E4_U+30FC 1
 62
     7
420
 16777215
370
     9
  0
POLYLINE
  5
CC
330
1F
100
AcDbEntity
  8
_U+30EC_U+30A4_U+30E4_U+30FC 1
 62
     7
420
 16777215
370
     9
100
AcDb2dPolyline
 66
     1
 10
0.0
 20
0.0
 30
0.0
  0
VERTEX
  5
CD
330
CC
100
AcDbEntity
  8
_U+30EC_U+30A4_U+30E4_U+30FC 1
 62
     7
420
 16777215
370
     9
100
AcDbVertex
100
AcDb2dVertex
 10
95.66546394825957
 20
-135.647888577199
 30
0.0
  0
VERTEX
  5
CE
330
CC
100
AcDbEntity
  8
_U+30EC_U+30A4_U+30E4_U+30FC 1
 62
     7
420
 16777215
370
     9
100
AcDbVertex
100
AcDb2dVertex
 10
103.1254790357165
 20
-135.647888577199
 30
0.0
  0
SEQEND
  5
CF
330
CC
100
AcDbEntity
  8
_U+30EC_U+30A4_U+30E4_U+30FC 1
 62
     7
420
 16777215
370
     9
  0
POLYLINE
  5
D0
330
1F
100
AcDbEntity
  8
_U+30EC_U+30A4_U+30E4_U+30FC 1
 62
     7
420
 16777215
370
     9
100
AcDb2dPolyline
 66
     1
 10
0.0
 20
0.0
 30
0.0
  0
VERTEX
  5
D1
330
D0
100
AcDbEntity
  8
_U+30EC_U+30A4_U+30E4_U+30FC 1
 62
     7
420
 16777215
370
     9
100
AcDbVertex
100
AcDb2dVertex
 10
95.66546394825957
 20
-129.1476758010466
 30
0.0
  0
VERTEX
  5
D2
330
D0
100
AcDbEntity
  8
_U+30EC_U+30A4_U+30E4_U+30FC 1
 62
     7
420
 16777215
370
     9
100
AcDbVertex
100
AcDb2dVertex
 10
103.1254790357165
 20
-129.1476758010466
 30
0.0
  0
SEQEND
  5
D3
330
D0
100
AcDbEntity
  8
_U+30EC_U+30A4_U+30E4_U+30FC 1
 62
     7
420
 16777215
370
     9
  0
SPLINE
  5
D4
330
1F
100
AcDbEntity
  8
_U+30EC_U+30A4_U+30E4_U+30FC 1
 62
     7
420
 16777215
370
     9
100
AcDbSpline
210
0.0
220
0.0
230
1.0
 70
    11
 71
     3
 72
    17
 73
    13
 74
     0
 42
0.0000000001
 43
0.0000000001
 12
1.0
 22
0.0
 32
0.0
 13
1.0
 23
0.0
 33
0.0
 40
0.0
 40
0.0
 40
0.0
 40
0.0
 40
1.0
 40
1.0
 40
1.0
 40
2.0
 40
2.0
 40
2.0
 40
3.0
 40
3.0
 40
3.0
 40
4.0
 40
4.0
 40
4.0
 40
4.0
 10
102.2256135031184
 20
-128.147903579074
 30
0.0
 10
102.2256135031184
 20
-128.0927996901991
 30
0.0
 10
102.1808460042605
 20
-128.0479969124324
 30
0.0
 10
102.1257068390006
 20
-128.0479969124324
 30
0.0
 10
102.0706055300382
 20
-128.0479969124324
 30
0.0
 10
102.0258027522714
 20
-128.0927996901991
 30
0.0
 10
102.0258027522714
 20
-128.147903579074
 30
0.0
 10
102.0258027522714
 20
-128.2030427457271
 30
0.0
 10
102.0706055300382
 20
-128.2478102457157
 30
0.0
 10
102.1257068390006
 20
-128.2478102457157
 30
0.0
 10
102.1808460042605
 20
-128.2478102457157
 30
0.0
 10
102.2256135031184
 20
-128.2030427457271
 30
0.0
 10
102.2256135031184
 20
-128.147903579074
 30
0.0
  0
POLYLINE
  5
D5
330
1F
100
AcDbEntity
  8
_U+30EC_U+30A4_U+30E4_U+30FC 1
 62
     7
420
 16777215
370
     9
100
AcDb2dPolyline
 66
     1
 10
0.0
 20
0.0
 30
0.0
  0
VERTEX
  5
D6
330
D5
100
AcDbEntity
  8
_U+30EC_U+30A4_U+30E4_U+30FC 1
 62
     7
420
 16777215
370
     9
100
AcDbVertex
100
AcDb2dVertex
 10
95.66546394825957
 20
-128.147903579074
 30
0.0
  0
VERTEX
  5
D7
330
D5
100
AcDbEntity
  8
_U+30EC_U+30A4_U+30E4_U+30FC 1
 62
     7
420
 16777215
370
     9
100
AcDbVertex
100
AcDb2dVertex
 10
103.1254790357165
 20
-128.147903579074
 30
0.0
  0
SEQEND
  5
D8
330
D5
100
AcDbEntity
  8
_U+30EC_U+30A4_U+30E4_U+30FC 1
 62
     7
420
 16777215
370
     9
  0
INSERT
  5
DA
330
1F
100
AcDbEntity
  8
_U+30EC_U+30A4_U+30E4_U+30FC 1
100
AcDbBlockReference
  2
block 6
 10
0.0
 20
0.0
 30
0.0
  0
POLYLINE
  5
EA
330
1F
100
AcDbEntity
  8
_U+30EC_U+30A4_U+30E4_U+30FC 1
 62
     7
420
 16777215
370
     9
100
AcDb2dPolyline
 66
     1
 10
0.0
 20
0.0
 30
0.0
  0
VERTEX
  5
EB
330
EA
100
AcDbEntity
  8
_U+30EC_U+30A4_U+30E4_U+30FC 1
 62
     7
420
 16777215
370
     9
100
AcDbVertex
100
AcDb2dVertex
 10
102.1257068390006
 20
-129.1476758010466
 30
0.0
  0
VERTEX
  5
EC
330
EA
100
AcDbEntity
  8
_U+30EC_U+30A4_U+30E4_U+30FC 1
 62
     7
420
 16777215
370
     9
100
AcDbVertex
100
AcDb2dVertex
 10
102.1257068390006
 20
-121.1481574697128
 30
0.0
  0
SEQEND
  5
ED
330
EA
100
AcDbEntity
  8
_U+30EC_U+30A4_U+30E4_U+30FC 1
 62
     7
420
 16777215
370
     9
  0
POLYLINE
  5
EE
330
1F
100
AcDbEntity
  8
_U+30EC_U+30A4_U+30E4_U+30FC 1
 62
     7
420
 16777215
370
     9
100
AcDb2dPolyline
 66
     1
 10
0.0
 20
0.0
 30
0.0
  0
VERTEX
  5
EF
330
EE
100
AcDbEntity
  8
_U+30EC_U+30A4_U+30E4_U+30FC 1
 62
     7
420
 16777215
370
     9
100
AcDbVertex
100
AcDb2dVertex
 10
87.66580470790343
 20
-121.1481574697128
 30
0.0
  0
VERTEX
  5
F0
330
EE
100
AcDbEntity
  8
_U+30EC_U+30A4_U+30E4_U+30FC 1
 62
     7
420
 16777215
370
     9
100
AcDbVertex
100
AcDb2dVertex
 10
103.1254790357165
 20
-121.1481574697128
 30
0.0
  0
SEQEND
  5
F1
330
EE
100
AcDbEntity
  8
_U+30EC_U+30A4_U+30E4_U+30FC 1
 62
     7
420
 16777215
370
     9
  0
INSERT
  5
F3
330
1F
100
AcDbEntity
  8
_U+30EC_U+30A4_U+30E4_U+30FC 1
100
AcDbBlockReference
  2
block 7
 10
0.0
 20
0.0
 30
0.0
  0
ENDSEC
  0
SECTION
  2
OBJECTS
  0
DICTIONARY
  5
C
330
0
100
AcDbDictionary
281
     1
  3
ACAD_GROUP
350
D
  3
ACAD_LAYOUT
350
1A
  3
ACAD_MATERIAL
350
3B
  3
ACAD_MLEADERSTYLE
350
F9
  3
ACAD_MLINESTYLE
350
17
  3
ACAD_PLOTSETTINGS
350
19
  3
ACAD_PLOTSTYLENAME
350
E
  3
ACAD_TABLESTYLE
350
F8
  3
ACAD_VISUALSTYLE
350
2A
  0
SUN
  5
3F
330
29
100
AcDbSun
 90
        1
290
     0
 63
     7
421
 16777215
 40
1.0
291
     1
 91
  2455826
 92
 54000000
292
     0
 70
     2
 71
   256
280
     1
  0
DICTIONARY
  5
D
102
{ACAD_REACTORS
330
C
102
}
330
C
100
AcDbDictionary
281
     1
  0
DICTIONARY
  5
1A
102
{ACAD_REACTORS
330
C
102
}
330
C
100
AcDbDictionary
281
     1
  3
Layout1
350
1E
  3
Layout2
350
26
  3
Model
350
22
  0
DICTIONARY
  5
3B
102
{ACAD_REACTORS
330
C
102
}
330
C
100
AcDbDictionary
281
     1
  3
ByBlock
350
3D
  3
ByLayer
350
3C
  3
Global
350
3E
  0
DICTIONARY
  5
F9
102
{ACAD_REACTORS
330
C
102
}
330
C
100
AcDbDictionary
281
     1
  0
DICTIONARY
  5
17
102
{ACAD_REACTORS
330
C
102
}
330
C
100
AcDbDictionary
281
     1
  3
Standard
350
18
  0
DICTIONARY
  5
19
102
{ACAD_REACTORS
330
C
102
}
330
C
100
AcDbDictionary
281
     1
  0
ACDBDICTIONARYWDFLT
  5
E
102
{ACAD_REACTORS
330
C
102
}
330
C
100
AcDbDictionary
281
     1
  3
Normal
350
F
100
AcDbDictionaryWithDefault
340
F
  0
DICTIONARY
  5
F8
102
{ACAD_REACTORS
330
C
102
}
330
C
100
AcDbDictionary
281
     1
  0
DICTIONARY
  5
2A
102
{ACAD_REACTORS
330
C
102
}
330
C
100
AcDbDictionary
281
     1
  3
2dWireframe
350
2F
  3
3D Hidden
350
31
  3
3dWireframe
350
30
  3
Basic
350
32
  3
Brighten
350
36
  3
ColorChange
350
3A
  3
Conceptual
350
34
  3
Dim
350
35
  3
Facepattern
350
39
  3
Flat
350
2B
  3
FlatWithEdges
350
2C
  3
Gouraud
350
2D
  3
GouraudWithEdges
350
2E
  3
Linepattern
350
38
  3
Realistic
350
33
  3
Thicken
350
37
  0
LAYOUT
  5
1E
102
{ACAD_REACTORS
330
1A
102
}
330
1A
100
AcDbPlotSettings
  1

  2
none_device
  4

  6

 40
0.0
 41
0.0
 42
0.0
 43
0.0
 44
0.0
 45
0.0
 46
0.0
 47
0.0
 48
0.0
 49
0.0
140
0.0
141
0.0
142
1.0
143
1.0
 70
   688
 72
     0
 73
     0
 74
     5
  7

 75
    16
 76
     0
 77
     2
 78
   300
147
1.0
148
0.0
149
0.0
100
AcDbLayout
  1
Layout1
 70
     1
 71
     1
 10
0.0
 20
0.0
 11
12.0
 21
9.0
 12
0.0
 22
0.0
 32
0.0
 14
1.000000000000000E+20
 24
1.000000000000000E+20
 34
1.000000000000000E+20
 15
-1.000000000000000E+20
 25
-1.000000000000000E+20
 35
-1.000000000000000E+20
146
0.0
 13
0.0
 23
0.0
 33
0.0
 16
1.0
 26
0.0
 36
0.0
 17
0.0
 27
1.0
 37
0.0
 76
     0
330
1B
  0
LAYOUT
  5
26
102
{ACAD_REACTORS
330
1A
102
}
330
1A
100
AcDbPlotSettings
  1

  2
none_device
  4

  6

 40
0.0
 41
0.0
 42
0.0
 43
0.0
 44
0.0
 45
0.0
 46
0.0
 47
0.0
 48
0.0
 49
0.0
140
0.0
141
0.0
142
1.0
143
1.0
 70
   688
 72
     0
 73
     0
 74
     5
  7

 75
    16
 76
     0
 77
     2
 78
   300
147
1.0
148
0.0
149
0.0
100
AcDbLayout
  1
Layout2
 70
     1
 71
     2
 10
0.0
 20
0.0
 11
0.0
 21
0.0
 12
0.0
 22
0.0
 32
0.0
 14
0.0
 24
0.0
 34
0.0
 15
0.0
 25
0.0
 35
0.0
146
0.0
 13
0.0
 23
0.0
 33
0.0
 16
1.0
 26
0.0
 36
0.0
 17
0.0
 27
1.0
 37
0.0
 76
     0
330
23
  0
LAYOUT
  5
22
102
{ACAD_REACTORS
330
1A
102
}
330
1A
100
AcDbPlotSettings
  1

  2
none_device
  4

  6

 40
0.0
 41
0.0
 42
0.0
 43
0.0
 44
0.0
 45
0.0
 46
0.0
 47
0.0
 48
0.0
 49
0.0
140
0.0
141
0.0
142
1.0
143
1.0
 70
  1712
 72
     0
 73
     0
 74
     0
  7

 75
     0
 76
     0
 77
     2
 78
   300
147
1.0
148
0.0
149
0.0
100
AcDbLayout
  1
Model
 70
     1
 71
     0
 10
0.0
 20
0.0
 11
12.0
 21
9.0
 12
0.0
 22
0.0
 32
0.0
 14
1.000000000000000E+20
 24
1.000000000000000E+20
 34
1.000000000000000E+20
 15
-1.000000000000000E+20
 25
-1.000000000000000E+20
 35
-1.000000000000000E+20
146
0.0
 13
0.0
 23
0.0
 33
0.0
 16
1.0
 26
0.0
 36
0.0
 17
0.0
 27
1.0
 37
0.0
 76
     0
330
1F
331
29
  0
MATERIAL
  5
3D
102
{ACAD_REACTORS
330
3B
102
}
330
3B
100
AcDbMaterial
  1
ByBlock
 72
     1
 94
      127
  0
MATERIAL
  5
3C
102
{ACAD_REACTORS
330
3B
102
}
330
3B
100
AcDbMaterial
  1
ByLayer
 72
     1
 94
      127
  0
MATERIAL
  5
3E
102
{ACAD_REACTORS
330
3B
102
}
330
3B
100
AcDbMaterial
  1
Global
 72
     1
 94
      127
  0
MLINESTYLE
  5
18
102
{ACAD_REACTORS
330
17
102
}
330
17
100
AcDbMlineStyle
  2
Standard
 70
     0
  3

 62
   256
 51
90.0
 52
90.0
 71
     2
 49
0.5
 62
   256
  6
BYLAYER
 49
-0.5
 62
   256
  6
BYLAYER
  0
ACDBPLACEHOLDER
  5
F
102
{ACAD_REACTORS
330
E
102
}
330
E
  0
VISUALSTYLE
  5
2F
102
{ACAD_REACTORS
330
2A
102
}
330
2A
100
AcDbVisualStyle
  2
2dWireframe
 70
     4
177
     2
291
     0
 71
     0
176
     1
 72
     2
176
     1
 73
     0
176
     1
 90
        0
176
     1
 40
-0.6
176
     1
 41
-30.0
176
     1
 62
     5
 63
     7
421
 16777215
176
     1
 74
     1
176
     1
 91
        4
176
     1
 64
     7
176
     1
 65
   257
176
     1
 75
     1
176
     1
175
     1
176
     1
 42
1.0
176
     1
 92
        0
176
     1
 66
   257
176
     1
 43
1.0
176
     1
 76
     1
176
     1
 77
     6
176
     1
 78
     2
176
     1
 67
     7
176
     1
 79
     5
176
     1
170
     0
176
     1
171
     0
176
     1
290
     0
176
     1
 93
        1
176
     1
 44
0.0
176
     1
173
     0
176
     1
  0
VISUALSTYLE
  5
31
102
{ACAD_REACTORS
330
2A
102
}
330
2A
100
AcDbVisualStyle
  2
3D Hidden
 70
     6
177
     2
291
     0
 71
     1
176
     1
 72
     2
176
     1
 73
     2
176
     1
 90
        0
176
     1
 40
-0.6
176
     1
 41
-30.0
176
     1
 62
     5
 63
     7
421
 16777215
176
     1
 74
     2
176
     1
 91
        2
176
     1
 64
     7
176
     1
 65
   257
176
     1
 75
     2
176
     1
175
     1
176
     1
 42
40.0
176
     1
 92
        0
176
     1
 66
   257
176
     1
 43
1.0
176
     1
 76
     1
176
     1
 77
     6
176
     1
 78
     2
176
     1
 67
     7
176
     1
 79
     3
176
     1
170
     0
176
     1
171
     0
176
     1
290
     0
176
     1
 93
        1
176
     1
 44
0.0
176
     1
173
     0
176
     1
  0
VISUALSTYLE
  5
30
102
{ACAD_REACTORS
330
2A
102
}
330
2A
100
AcDbVisualStyle
  2
3dWireframe
 70
     5
177
     2
291
     0
 71
     0
176
     1
 72
     2
176
     1
 73
     0
176
     1
 90
        0
176
     1
 40
-0.6
176
     1
 41
-30.0
176
     1
 62
     5
 63
     7
421
 16777215
176
     1
 74
     1
176
     1
 91
        4
176
     1
 64
     7
176
     1
 65
   257
176
     1
 75
     1
176
     1
175
     1
176
     1
 42
1.0
176
     1
 92
        0
176
     1
 66
   257
176
     1
 43
1.0
176
     1
 76
     1
176
     1
 77
     6
176
     1
 78
     2
176
     1
 67
     7
176
     1
 79
     5
176
     1
170
     0
176
     1
171
     0
176
     1
290
     0
176
     1
 93
        1
176
     1
 44
0.0
176
     1
173
     0
176
     1
  0
VISUALSTYLE
  5
32
102
{ACAD_REACTORS
330
2A
102
}
330
2A
100
AcDbVisualStyle
  2
Basic
 70
     7
177
     2
291
     1
 71
     1
176
     1
 72
     0
176
     1
 73
     1
176
     1
 90
        0
176
     1
 40
-0.6
176
     1
 41
-30.0
176
     1
 62
     5
 63
     7
421
 16777215
176
     1
 74
     0
176
     1
 91
        4
176
     1
 64
     7
176
     1
 65
   257
176
     1
 75
     1
176
     1
175
     1
176
     1
 42
1.0
176
     1
 92
        8
176
     1
 66
     7
176
     1
 43
1.0
176
     1
 76
     1
176
     1
 77
     6
176
     1
 78
     2
176
     1
 67
     7
176
     1
 79
     5
176
     1
170
     0
176
     1
171
     0
176
     1
290
     0
176
     1
 93
        1
176
     1
 44
0.0
176
     1
173
     0
176
     1
  0
VISUALSTYLE
  5
36
102
{ACAD_REACTORS
330
2A
102
}
330
2A
100
AcDbVisualStyle
  2
Brighten
 70
    12
177
     2
291
     1
 71
     2
176
     1
 72
     2
176
     1
 73
     0
176
     1
 90
        0
176
     1
 40
-0.6
176
     1
 41
-30.0
176
     1
 62
     5
 63
     7
421
 16777215
176
     1
 74
     1
176
     1
 91
        4
176
     1
 64
     7
176
     1
 65
   257
176
     1
 75
     1
176
     1
175
     1
176
     1
 42
1.0
176
     1
 92
        8
176
     1
 66
     7
176
     1
 43
1.0
176
     1
 76
     1
176
     1
 77
     6
176
     1
 78
     2
176
     1
 67
     7
176
     1
 79
     5
176
     1
170
     0
176
     1
171
     0
176
     1
290
     0
176
     1
 93
        1
176
     1
 44
50.0
176
     1
173
     0
176
     1
  0
VISUALSTYLE
  5
3A
102
{ACAD_REACTORS
330
2A
102
}
330
2A
100
AcDbVisualStyle
  2
ColorChange
 70
    16
177
     2
291
     1
 71
     2
176
     1
 72
     2
176
     1
 73
     3
176
     1
 90
        0
176
     1
 40
-0.6
176
     1
 41
-30.0
176
     1
 62
     5
 63
     8
421
  8421504
176
     1
 74
     1
176
     1
 91
        4
176
     1
 64
     7
176
     1
 65
   257
176
     1
 75
     1
176
     1
175
     1
176
     1
 42
1.0
176
     1
 92
        8
176
     1
 66
     8
424
  8421504
176
     1
 43
1.0
176
     1
 76
     1
176
     1
 77
     6
176
     1
 78
     2
176
     1
 67
     7
176
     1
 79
     5
176
     1
170
     0
176
     1
171
     0
176
     1
290
     0
176
     1
 93
        1
176
     1
 44
0.0
176
     1
173
     0
176
     1
  0
VISUALSTYLE
  5
34
102
{ACAD_REACTORS
330
2A
102
}
330
2A
100
AcDbVisualStyle
  2
Conceptual
 70
     9
177
     2
291
     0
 71
     3
176
     1
 72
     2
176
     1
 73
     0
176
     1
 90
        0
176
     1
 40
-0.6
176
     1
 41
-30.0
176
     1
 62
     5
 63
     7
421
 16777215
176
     1
 74
     2
176
     1
 91
        2
176
     1
 64
     7
176
     1
 65
   257
176
     1
 75
     1
176
     1
175
     1
176
     1
 42
40.0
176
     1
 92
        8
176
     1
 66
     7
176
     1
 43
1.0
176
     1
 76
     1
176
     1
 77
     6
176
     1
 78
     2
176
     1
 67
     7
176
     1
 79
     3
176
     1
170
     0
176
     1
171
     0
176
     1
290
     0
176
     1
 93
        1
176
     1
 44
0.0
176
     1
173
     0
176
     1
  0
VISUALSTYLE
  5
35
102
{ACAD_REACTORS
330
2A
102
}
330
2A
100
AcDbVisualStyle
  2
Dim
 70
    11
177
     2
291
     1
 71
     2
176
     1
 72
     2
176
     1
 73
     0
176
     1
 90
        0
176
     1
 40
-0.6
176
     1
 41
-30.0
176
     1
 62
     5
 63
     7
421
 16777215
176
     1
 74
     1
176
     1
 91
        4
176
     1
 64
     7
176
     1
 65
   257
176
     1
 75
     1
176
     1
175
     1
176
     1
 42
1.0
176
     1
 92
        8
176
     1
 66
     7
176
     1
 43
1.0
176
     1
 76
     1
176
     1
 77
     6
176
     1
 78
     2
176
     1
 67
     7
176
     1
 79
     5
176
     1
170
     0
176
     1
171
     0
176
     1
290
     0
176
     1
 93
        1
176
     1
 44
-50.0
176
     1
173
     0
176
     1
  0
VISUALSTYLE
  5
39
102
{ACAD_REACTORS
330
2A
102
}
330
2A
100
AcDbVisualStyle
  2
Facepattern
 70
    15
177
     2
291
     1
 71
     2
176
     1
 72
     2
176
     1
 73
     0
176
     1
 90
        0
176
     1
 40
-0.6
176
     1
 41
-30.0
176
     1
 62
     5
 63
     7
421
 16777215
176
     1
 74
     1
176
     1
 91
        4
176
     1
 64
     7
176
     1
 65
   257
176
     1
 75
     1
176
     1
175
     1
176
     1
 42
1.0
176
     1
 92
        8
176
     1
 66
     7
176
     1
 43
1.0
176
     1
 76
     1
176
     1
 77
     6
176
     1
 78
     2
176
     1
 67
     7
176
     1
 79
     5
176
     1
170
     0
176
     1
171
     0
176
     1
290
     0
176
     1
 93
        1
176
     1
 44
0.0
176
     1
173
     0
176
     1
  0
VISUALSTYLE
  5
2B
102
{ACAD_REACTORS
330
2A
102
}
330
2A
100
AcDbVisualStyle
  2
Flat
 70
     0
177
     2
291
     1
 71
     2
176
     1
 72
     1
176
     1
 73
     1
176
     1
 90
        2
176
     1
 40
-0.6
176
     1
 41
30.0
176
     1
 62
     5
 63
     7
421
 16777215
176
     1
 74
     0
176
     1
 91
        4
176
     1
 64
     7
176
     1
 65
   257
176
     1
 75
     1
176
     1
175
     1
176
     1
 42
1.0
176
     1
 92
        8
176
     1
 66
     7
176
     1
 43
1.0
176
     1
 76
     1
176
     1
 77
     6
176
     1
 78
     2
176
     1
 67
     7
176
     1
 79
     5
176
     1
170
     0
176
     1
171
     0
176
     1
290
     0
176
     1
 93
       13
176
     1
 44
0.0
176
     1
173
     0
176
     1
  0
VISUALSTYLE
  5
2C
102
{ACAD_REACTORS
330
2A
102
}
330
2A
100
AcDbVisualStyle
  2
FlatWithEdges
 70
     1
177
     2
291
     1
 71
     2
176
     1
 72
     1
176
     1
 73
     1
176
     1
 90
        2
176
     1
 40
-0.6
176
     1
 41
30.0
176
     1
 62
     5
 63
     7
421
 16777215
176
     1
 74
     1
176
     1
 91
        4
176
     1
 64
     7
176
     1
 65
   257
176
     1
 75
     1
176
     1
175
     1
176
     1
 42
1.0
176
     1
 92
        0
176
     1
 66
   257
176
     1
 43
1.0
176
     1
 76
     1
176
     1
 77
     6
176
     1
 78
     2
176
     1
 67
     7
176
     1
 79
     5
176
     1
170
     0
176
     1
171
     0
176
     1
290
     0
176
     1
 93
       13
176
     1
 44
0.0
176
     1
173
     0
176
     1
  0
VISUALSTYLE
  5
2D
102
{ACAD_REACTORS
330
2A
102
}
330
2A
100
AcDbVisualStyle
  2
Gouraud
 70
     2
177
     2
291
     1
 71
     2
176
     1
 72
     2
176
     1
 73
     1
176
     1
 90
        2
176
     1
 40
-0.6
176
     1
 41
30.0
176
     1
 62
     5
 63
     7
421
 16777215
176
     1
 74
     0
176
     1
 91
        4
176
     1
 64
     7
176
     1
 65
   257
176
     1
 75
     1
176
     1
175
     1
176
     1
 42
1.0
176
     1
 92
        0
176
     1
 66
     7
176
     1
 43
1.0
176
     1
 76
     1
176
     1
 77
     6
176
     1
 78
     2
176
     1
 67
     7
176
     1
 79
     5
176
     1
170
     0
176
     1
171
     0
176
     1
290
     0
176
     1
 93
       13
176
     1
 44
0.0
176
     1
173
     0
176
     1
  0
VISUALSTYLE
  5
2E
102
{ACAD_REACTORS
330
2A
102
}
330
2A
100
AcDbVisualStyle
  2
GouraudWithEdges
 70
     3
177
     2
291
     1
 71
     2
176
     1
 72
     2
176
     1
 73
     1
176
     1
 90
        2
176
     1
 40
-0.6
176
     1
 41
30.0
176
     1
 62
     5
 63
     7
421
 16777215
176
     1
 74
     1
176
     1
 91
        4
176
     1
 64
     7
176
     1
 65
   257
176
     1
 75
     1
176
     1
175
     1
176
     1
 42
1.0
176
     1
 92
        0
176
     1
 66
   257
176
     1
 43
1.0
176
     1
 76
     1
176
     1
 77
     6
176
     1
 78
     2
176
     1
 67
     7
176
     1
 79
     5
176
     1
170
     0
176
     1
171
     0
176
     1
290
     0
176
     1
 93
       13
176
     1
 44
0.0
176
     1
173
     0
176
     1
  0
VISUALSTYLE
  5
38
102
{ACAD_REACTORS
330
2A
102
}
330
2A
100
AcDbVisualStyle
  2
Linepattern
 70
    14
177
     2
291
     1
 71
     2
176
     1
 72
     2
176
     1
 73
     0
176
     1
 90
        0
176
     1
 40
-0.6
176
     1
 41
-30.0
176
     1
 62
     5
 63
     7
421
 16777215
176
     1
 74
     1
176
     1
 91
        4
176
     1
 64
     7
176
     1
 65
   257
176
     1
 75
     7
176
     1
175
     7
176
     1
 42
1.0
176
     1
 92
        8
176
     1
 66
     7
176
     1
 43
1.0
176
     1
 76
     1
176
     1
 77
     6
176
     1
 78
     2
176
     1
 67
     7
176
     1
 79
     5
176
     1
170
     0
176
     1
171
     0
176
     1
290
     0
176
     1
 93
        1
176
     1
 44
0.0
176
     1
173
     0
176
     1
  0
VISUALSTYLE
  5
33
102
{ACAD_REACTORS
330
2A
102
}
330
2A
100
AcDbVisualStyle
  2
Realistic
 70
     8
177
     2
291
     0
 71
     2
176
     1
 72
     2
176
     1
 73
     0
176
     1
 90
        0
176
     1
 40
-0.6
176
     1
 41
-30.0
176
     1
 62
     5
 63
     7
421
 16777215
176
     1
 74
     1
176
     1
 91
        0
176
     1
 64
     7
176
     1
 65
   257
176
     1
 75
     1
176
     1
175
     1
176
     1
 42
1.0
176
     1
 92
        8
176
     1
 66
     8
424
  7895160
176
     1
 43
1.0
176
     1
 76
     1
176
     1
 77
     6
176
     1
 78
     2
176
     1
 67
     7
176
     1
 79
     5
176
     1
170
     0
176
     1
171
     0
176
     1
290
     0
176
     1
 93
       13
176
     1
 44
0.0
176
     1
173
     0
176
     1
  0
VISUALSTYLE
  5
37
102
{ACAD_REACTORS
330
2A
102
}
330
2A
100
AcDbVisualStyle
  2
Thicken
 70
    13
177
     2
291
     1
 71
     2
176
     1
 72
     2
176
     1
 73
     0
176
     1
 90
        0
176
     1
 40
-0.6
176
     1
 41
-30.0
176
     1
 62
     5
 63
     7
421
 16777215
176
     1
 74
     1
176
     1
 91
        4
176
     1
 64
     7
176
     1
 65
   257
176
     1
 75
     1
176
     1
175
     1
176
     1
 42
1.0
176
     1
 92
       12
176
     1
 66
     7
176
     1
 43
1.0
176
     1
 76
     1
176
     1
 77
     6
176
     1
 78
     2
176
     1
 67
     7
176
     1
 79
     5
176
     1
170
     0
176
     1
171
     0
176
     1
290
     0
176
     1
 93
        1
176
     1
 44
0.0
176
     1
173
     0
176
     1
  0
ENDSEC
  0
EOF
