  0
SECTION
  2
HEADER
  9
$ACADVER
  1
AC1024
  9
$ACADMAINTVER
 70
     6
  9
$DWGCODEPAGE
  3
UNDEFINED
  9
$INSBASE
 10
0.0
 20
0.0
 30
0.0
  9
$EXTMIN
 10
1.000000000000000E+20
 20
1.000000000000000E+20
 30
1.000000000000000E+20
  9
$EXTMAX
 10
-1.000000000000000E+20
 20
-1.000000000000000E+20
 30
-1.000000000000000E+20
  9
$LIMMIN
 10
0.0
 20
0.0
  9
$LIMMAX
 10
12.0
 20
9.0
  9
$ORTHOMODE
 70
     0
  9
$REGENMODE
 70
     1
  9
$FILLMODE
 70
     1
  9
$QTEXTMODE
 70
     0
  9
$MIRRTEXT
 70
     1
  9
$LTSCALE
 40
1.0
  9
$ATTMODE
 70
     1
  9
$TEXTSIZE
 40
0.2
  9
$TRACEWID
 40
0.05
  9
$TEXTSTYLE
  7
Standard
  9
$CLAYER
  8
0
  9
$CELTYPE
  6
ByLayer
  9
$CECOLOR
 62
   256
  9
$CELTSCALE
 40
1.0
  9
$DISPSILH
 70
     0
  9
$DIMSCALE
 40
1.0
  9
$DIMASZ
 40
0.18
  9
$DIMEXO
 40
0.0625
  9
$DIMDLI
 40
0.38
  9
$DIMRND
 40
0.0
  9
$DIMDLE
 40
0.0
  9
$DIMEXE
 40
0.18
  9
$DIMTP
 40
0.0
  9
$DIMTM
 40
0.0
  9
$DIMTXT
 40
0.18
  9
$DIMCEN
 40
0.09
  9
$DIMTSZ
 40
0.0
  9
$DIMTOL
 70
     0
  9
$DIMLIM
 70
     0
  9
$DIMTIH
 70
     1
  9
$DIMTOH
 70
     1
  9
$DIMSE1
 70
     0
  9
$DIMSE2
 70
     0
  9
$DIMTAD
 70
     0
  9
$DIMZIN
 70
     0
  9
$DIMBLK
  1

  9
$DIMASO
 70
     1
  9
$DIMSHO
 70
     1
  9
$DIMPOST
  1

  9
$DIMAPOST
  1

  9
$DIMALT
 70
     0
  9
$DIMALTD
 70
     2
  9
$DIMALTF
 40
25.4
  9
$DIMLFAC
 40
1.0
  9
$DIMTOFL
 70
     0
  9
$DIMTVP
 40
0.0
  9
$DIMTIX
 70
     0
  9
$DIMSOXD
 70
     0
  9
$DIMSAH
 70
     0
  9
$DIMBLK1
  1

  9
$DIMBLK2
  1

  9
$DIMSTYLE
  2
Standard
  9
$DIMCLRD
 70
     0
  9
$DIMCLRE
 70
     0
  9
$DIMCLRT
 70
     0
  9
$DIMTFAC
 40
1.0
  9
$DIMGAP
 40
0.09
  9
$DIMJUST
 70
     0
  9
$DIMSD1
 70
     0
  9
$DIMSD2
 70
     0
  9
$DIMTOLJ
 70
     1
  9
$DIMTZIN
 70
     0
  9
$DIMALTZ
 70
     0
  9
$DIMALTTZ
 70
     0
  9
$DIMUPT
 70
     0
  9
$DIMDEC
 70
     4
  9
$DIMTDEC
 70
     4
  9
$DIMALTU
 70
     2
  9
$DIMALTTD
 70
     2
  9
$DIMTXSTY
  7
Standard
  9
$DIMAUNIT
 70
     0
  9
$DIMADEC
 70
     0
  9
$DIMALTRND
 40
0.0
  9
$DIMAZIN
 70
     0
  9
$DIMDSEP
 70
    46
  9
$DIMATFIT
 70
     3
  9
$DIMFRAC
 70
     0
  9
$DIMLDRBLK
  1

  9
$DIMLUNIT
 70
     2
  9
$DIMLWD
 70
    -2
  9
$DIMLWE
 70
    -2
  9
$DIMTMOVE
 70
     0
  9
$DIMFXL
 40
1.0
  9
$DIMFXLON
 70
     0
  9
$DIMJOGANG
 40
0.7853981633974483
  9
$DIMTFILL
 70
     0
  9
$DIMTFILLCLR
 70
     0
  9
$DIMARCSYM
 70
     0
  9
$DIMLTYPE
  6

  9
$DIMLTEX1
  6

  9
$DIMLTEX2
  6

  9
$DIMTXTDIRECTION
 70
     0
  9
$LUNITS
 70
     2
  9
$LUPREC
 70
     4
  9
$SKETCHINC
 40
0.1
  9
$FILLETRAD
 40
0.5
  9
$AUNITS
 70
     0
  9
$AUPREC
 70
     0
  9
$MENU
  1
.
  9
$ELEVATION
 40
0.0
  9
$PELEVATION
 40
0.0
  9
$THICKNESS
 40
0.0
  9
$LIMCHECK
 70
     0
  9
$CHAMFERA
 40
0.5
  9
$CHAMFERB
 40
0.5
  9
$CHAMFERC
 40
1.0
  9
$CHAMFERD
 40
0.0
  9
$SKPOLY
 70
     0
  9
$TDCREATE
 40
2457917.618912025
  9
$TDUCREATE
 40
2457917.243912037
  9
$TDUPDATE
 40
2457917.618912025
  9
$TDUUPDATE
 40
2457917.243912037
  9
$TDINDWG
 40
0.0000000116
  9
$TDUSRTIMER
 40
0.0000000116
  9
$USRTIMER
 70
     1
  9
$ANGBASE
 50
0.0
  9
$ANGDIR
 70
     0
  9
$PDMODE
 70
     0
  9
$PDSIZE
 40
0.0
  9
$PLINEWID
 40
0.0
  9
$SPLFRAME
 70
     0
  9
$SPLINETYPE
 70
     6
  9
$SPLINESEGS
 70
     8
  9
$HANDSEED
  5
D2
  9
$SURFTAB1
 70
     6
  9
$SURFTAB2
 70
     6
  9
$SURFTYPE
 70
     6
  9
$SURFU
 70
     6
  9
$SURFV
 70
     6
  9
$UCSBASE
  2

  9
$UCSNAME
  2

  9
$UCSORG
 10
0.0
 20
0.0
 30
0.0
  9
$UCSXDIR
 10
1.0
 20
0.0
 30
0.0
  9
$UCSYDIR
 10
0.0
 20
1.0
 30
0.0
  9
$UCSORTHOREF
  2

  9
$UCSORTHOVIEW
 70
     0
  9
$UCSORGTOP
 10
0.0
 20
0.0
 30
0.0
  9
$UCSORGBOTTOM
 10
0.0
 20
0.0
 30
0.0
  9
$UCSORGLEFT
 10
0.0
 20
0.0
 30
0.0
  9
$UCSORGRIGHT
 10
0.0
 20
0.0
 30
0.0
  9
$UCSORGFRONT
 10
0.0
 20
0.0
 30
0.0
  9
$UCSORGBACK
 10
0.0
 20
0.0
 30
0.0
  9
$PUCSBASE
  2

  9
$PUCSNAME
  2

  9
$PUCSORG
 10
0.0
 20
0.0
 30
0.0
  9
$PUCSXDIR
 10
1.0
 20
0.0
 30
0.0
  9
$PUCSYDIR
 10
0.0
 20
1.0
 30
0.0
  9
$PUCSORTHOREF
  2

  9
$PUCSORTHOVIEW
 70
     0
  9
$PUCSORGTOP
 10
0.0
 20
0.0
 30
0.0
  9
$PUCSORGBOTTOM
 10
0.0
 20
0.0
 30
0.0
  9
$PUCSORGLEFT
 10
0.0
 20
0.0
 30
0.0
  9
$PUCSORGRIGHT
 10
0.0
 20
0.0
 30
0.0
  9
$PUCSORGFRONT
 10
0.0
 20
0.0
 30
0.0
  9
$PUCSORGBACK
 10
0.0
 20
0.0
 30
0.0
  9
$USERI1
 70
     0
  9
$USERI2
 70
     0
  9
$USERI3
 70
     0
  9
$USERI4
 70
     0
  9
$USERI5
 70
     0
  9
$USERR1
 40
0.0
  9
$USERR2
 40
0.0
  9
$USERR3
 40
0.0
  9
$USERR4
 40
0.0
  9
$USERR5
 40
0.0
  9
$WORLDVIEW
 70
     1
  9
$SHADEDGE
 70
     3
  9
$SHADEDIF
 70
    70
  9
$TILEMODE
 70
     1
  9
$MAXACTVP
 70
    64
  9
$PINSBASE
 10
0.0
 20
0.0
 30
0.0
  9
$PLIMCHECK
 70
     0
  9
$PEXTMIN
 10
1.000000000000000E+20
 20
1.000000000000000E+20
 30
1.000000000000000E+20
  9
$PEXTMAX
 10
-1.000000000000000E+20
 20
-1.000000000000000E+20
 30
-1.000000000000000E+20
  9
$PLIMMIN
 10
0.0
 20
0.0
  9
$PLIMMAX
 10
12.0
 20
9.0
  9
$UNITMODE
 70
     0
  9
$VISRETAIN
 70
     1
  9
$PLINEGEN
 70
     0
  9
$PSLTSCALE
 70
     1
  9
$TREEDEPTH
 70
  3020
  9
$CMLSTYLE
  2
Standard
  9
$CMLJUST
 70
     0
  9
$CMLSCALE
 40
1.0
  9
$PROXYGRAPHICS
 70
     1
  9
$MEASUREMENT
 70
     0
  9
$CELWEIGHT
370
    -1
  9
$ENDCAPS
280
     0
  9
$JOINSTYLE
280
     0
  9
$LWDISPLAY
290
     1
  9
$INSUNITS
 70
     1
  9
$HYPERLINKBASE
  1

  9
$STYLESHEET
  1

  9
$XEDIT
290
     1
  9
$CEPSNTYPE
380
     0
  9
$PSTYLEMODE
290
     1
  9
$FINGERPRINTGUID
  2
{125D544A-7AF0-F2CC-F976-6A6809A9F5B3}
  9
$VERSIONGUID
  2
{FAEB1C32-E019-11D5-929B-00C0DF256EC4}
  9
$EXTNAMES
290
     1
  9
$PSVPSCALE
 40
0.0
  9
$OLESTARTUP
290
     0
  9
$SORTENTS
280
   127
  9
$INDEXCTL
280
     0
  9
$HIDETEXT
280
     1
  9
$XCLIPFRAME
280
     2
  9
$HALOGAP
280
     0
  9
$OBSCOLOR
 70
   257
  9
$OBSLTYPE
280
     0
  9
$INTERSECTIONDISPLAY
280
     0
  9
$INTERSECTIONCOLOR
 70
   257
  9
$DIMASSOC
280
     2
  9
$PROJECTNAME
  1

  9
$CAMERADISPLAY
290
     0
  9
$LENSLENGTH
 40
50.0
  9
$CAMERAHEIGHT
 40
0.0
  9
$STEPSPERSEC
 40
2.0
  9
$STEPSIZE
 40
6.0
  9
$3DDWFPREC
 40
2.0
  9
$PSOLWIDTH
 40
0.25
  9
$PSOLHEIGHT
 40
4.0
  9
$LOFTANG1
 40
1.570796326794897
  9
$LOFTANG2
 40
1.570796326794897
  9
$LOFTMAG1
 40
0.0
  9
$LOFTMAG2
 40
0.0
  9
$LOFTPARAM
 70
     7
  9
$LOFTNORMALS
280
     1
  9
$LATITUDE
 40
37.795
  9
$LONGITUDE
 40
-122.394
  9
$NORTHDIRECTION
 40
0.0
  9
$TIMEZONE
 70
 -8000
  9
$LIGHTGLYPHDISPLAY
280
     1
  9
$TILEMODELIGHTSYNCH
280
     1
  9
$CMATERIAL
347
3C
  9
$SOLIDHIST
280
     1
  9
$SHOWHIST
280
     1
  9
$DWFFRAME
280
     2
  9
$DGNFRAME
280
     2
  9
$REALWORLDSCALE
290
     1
  9
$INTERFERECOLOR
 62
   256
  9
$CSHADOW
280
     0
  9
$SHADOWPLANELOCATION
 40
0.0
  0
ENDSEC
  0
SECTION
  2
CLASSES
  0
CLASS
  1
ACDBDICTIONARYWDFLT
  2
AcDbDictionaryWithDefault
  3
ObjectDBX Classes
 90
        0
 91
        4
280
     0
281
     0
  0
CLASS
  1
VISUALSTYLE
  2
AcDbVisualStyle
  3
ObjectDBX Classes
 90
     4095
 91
        4
280
     0
281
     0
  0
CLASS
  1
MATERIAL
  2
AcDbMaterial
  3
ObjectDBX Classes
 90
     1153
 91
        4
280
     0
281
     0
  0
CLASS
  1
SUN
  2
AcDbSun
  3
SCENEOE
 90
     1024
 91
        4
280
     0
281
     0
  0
ENDSEC
  0
SECTION
  2
TABLES
  0
TABLE
  2
VPORT
  5
8
330
0
100
AcDbSymbolTable
 70
     1
  0
VPORT
  5
29
330
8
100
AcDbSymbolTableRecord
100
AcDbViewportTableRecord
  2
*Active
 70
     0
 10
0.0
 20
0.0
 11
1.0
 21
1.0
 12
0.0
 22
0.0
 13
0.0
 23
0.0
 14
0.5
 24
0.5
 15
0.5
 25
0.5
 16
0.0
 26
0.0
 36
1.0
 17
91.00082462281999
 27
-128.4993055234307
 37
0.0
 40
256.9986110468615
 41
0.7081814508812795
 42
50.0
 43
0.0
 44
0.0
 50
0.0
 51
0.0
 71
     0
 72
   100
 73
     1
 74
     3
 75
     0
 76
     0
 77
     0
 78
     0
281
     0
 65
     1
110
0.0
120
0.0
130
0.0
111
1.0
121
0.0
131
0.0
112
0.0
122
1.0
132
0.0
 79
     0
146
0.0
 60
     3
 61
     5
292
     1
282
     1
141
0.0
142
0.0
 63
   250
361
3F
  0
ENDTAB
  0
TABLE
  2
LTYPE
  5
5
330
0
100
AcDbSymbolTable
 70
     1
  0
LTYPE
  5
14
330
5
100
AcDbSymbolTableRecord
100
AcDbLinetypeTableRecord
  2
ByBlock
 70
     0
  3

 72
    65
 73
     0
 40
0.0
  0
LTYPE
  5
15
330
5
100
AcDbSymbolTableRecord
100
AcDbLinetypeTableRecord
  2
ByLayer
 70
     0
  3

 72
    65
 73
     0
 40
0.0
  0
LTYPE
  5
16
330
5
100
AcDbSymbolTableRecord
100
AcDbLinetypeTableRecord
  2
Continuous
 70
     0
  3
Solid line
 72
    65
 73
     0
 40
0.0
  0
ENDTAB
  0
TABLE
  2
LAYER
  5
2
330
0
100
AcDbSymbolTable
 70
     2
  0
LAYER
  5
10
330
2
100
AcDbSymbolTableRecord
100
AcDbLayerTableRecord
  2
0
 70
     0
 62
     7
  6
Continuous
370
    -3
390
F
347
3E
  0
LAYER
  5
40
330
2
100
AcDbSymbolTableRecord
100
AcDbLayerTableRecord
  2
_U+30EC_U+30A4_U+30E4_U+30FC 1
 70
     0
 62
     7
  6
Continuous
370
    -3
390
F
347
3E
  0
ENDTAB
  0
TABLE
  2
STYLE
  5
3
330
0
100
AcDbSymbolTable
 70
     1
  0
STYLE
  5
11
330
3
100
AcDbSymbolTableRecord
100
AcDbTextStyleTableRecord
  2
Standard
 70
     0
 40
0.0
 41
1.0
 50
0.0
 71
     0
 42
0.2
  3
txt
  4

  0
ENDTAB
  0
TABLE
  2
VIEW
  5
6
330
0
100
AcDbSymbolTable
 70
     0
  0
ENDTAB
  0
TABLE
  2
UCS
  5
7
330
0
100
AcDbSymbolTable
 70
     0
  0
ENDTAB
  0
TABLE
  2
APPID
  5
9
330
0
100
AcDbSymbolTable
 70
     1
  0
APPID
  5
12
330
9
100
AcDbSymbolTableRecord
100
AcDbRegAppTableRecord
  2
ACAD
 70
     0
  0
ENDTAB
  0
TABLE
  2
DIMSTYLE
  5
A
330
0
100
AcDbSymbolTable
 70
     1
100
AcDbDimStyleTable
  0
DIMSTYLE
105
27
330
A
100
AcDbSymbolTableRecord
100
AcDbDimStyleTableRecord
  2
Standard
 70
     0
178
     0
340
11
  0
ENDTAB
  0
TABLE
  2
BLOCK_RECORD
  5
1
330
0
100
AcDbSymbolTable
 70
     7
  0
BLOCK_RECORD
  5
1F
330
1
100
AcDbSymbolTableRecord
100
AcDbBlockTableRecord
  2
*Model_Space
340
22
 70
     0
280
     1
281
     0
  0
BLOCK_RECORD
  5
1B
330
1
100
AcDbSymbolTableRecord
100
AcDbBlockTableRecord
  2
*Paper_Space
340
1E
 70
     0
280
     1
281
     0
  0
BLOCK_RECORD
  5
23
330
1
100
AcDbSymbolTableRecord
100
AcDbBlockTableRecord
  2
*Paper_Space0
340
26
 70
     0
280
     1
281
     0
  0
BLOCK_RECORD
  5
5D
330
1
100
AcDbSymbolTableRecord
100
AcDbBlockTableRecord
  2
block 2
340
0
102
{BLKREFS
331
5E
102
}
 70
     0
280
     1
281
     0
  0
BLOCK_RECORD
  5
72
330
1
100
AcDbSymbolTableRecord
100
AcDbBlockTableRecord
  2
block 3
340
0
102
{BLKREFS
331
73
102
}
 70
     0
280
     1
281
     0
  0
BLOCK_RECORD
  5
83
330
1
100
AcDbSymbolTableRecord
100
AcDbBlockTableRecord
  2
block 4
340
0
102
{BLKREFS
331
84
102
}
 70
     0
280
     1
281
     0
  0
BLOCK_RECORD
  5
95
330
1
100
AcDbSymbolTableRecord
100
AcDbBlockTableRecord
  2
block 5
340
0
102
{BLKREFS
331
96
102
}
 70
     0
280
     1
281
     0
  0
BLOCK_RECORD
  5
A9
330
1
100
AcDbSymbolTableRecord
100
AcDbBlockTableRecord
  2
block 6
340
0
102
{BLKREFS
331
AA
102
}
 70
     0
280
     1
281
     0
  0
BLOCK_RECORD
  5
C7
330
1
100
AcDbSymbolTableRecord
100
AcDbBlockTableRecord
  2
block 7
340
0
102
{BLKREFS
331
C8
102
}
 70
     0
280
     1
281
     0
  0
ENDTAB
  0
ENDSEC
  0
SECTION
  2
BLOCKS
  0
BLOCK
  5
20
330
1F
100
AcDbEntity
  8
0
100
AcDbBlockBegin
  2
*Model_Space
 70
     0
 10
0.0
 20
0.0
 30
0.0
  3
*Model_Space
  1

  0
ENDBLK
  5
21
330
1F
100
AcDbEntity
  8
0
100
AcDbBlockEnd
  0
BLOCK
  5
1C
330
1B
100
AcDbEntity
 67
     1
  8
0
100
AcDbBlockBegin
  2
*Paper_Space
 70
     0
 10
0.0
 20
0.0
 30
0.0
  3
*Paper_Space
  1

  0
ENDBLK
  5
1D
330
1B
100
AcDbEntity
 67
     1
  8
0
100
AcDbBlockEnd
  0
BLOCK
  5
24
330
23
100
AcDbEntity
  8
0
100
AcDbBlockBegin
  2
*Paper_Space0
 70
     0
 10
0.0
 20
0.0
 30
0.0
  3
*Paper_Space0
  1

  0
ENDBLK
  5
25
330
23
100
AcDbEntity
  8
0
100
AcDbBlockEnd
  0
BLOCK
  5
5F
330
5D
100
AcDbEntity
  8
0
100
AcDbBlockBegin
  2
block 2
 70
     0
 10
0.0
 20
0.0
 30
0.0
  3
block 2
  1

  0
SPLINE
  5
61
330
5D
100
AcDbEntity
  8
_U+30EC_U+30A4_U+30E4_U+30FC 1
370
     0
100
AcDbSpline
210
0.0
220
0.0
230
1.0
 70
    11
 71
     3
 72
    26
 73
    22
 74
     0
 42
0.0000000001
 43
0.0000000001
 12
1.0
 22
0.0
 32
0.0
 13
1.0
 23
0.0
 33
0.0
 40
0.0
 40
0.0
 40
0.0
 40
0.0
 40
1.0
 40
1.0
 40
1.0
 40
2.0
 40
2.0
 40
2.0
 40
3.0
 40
3.0
 40
3.0
 40
4.0
 40
4.0
 40
4.0
 40
5.0
 40
5.0
 40
5.0
 40
6.0
 40
6.0
 40
6.0
 40
7.0
 40
7.0
 40
7.0
 40
7.0
 10
76.77670896518083
 20
-139.5728759416693
 30
0.0
 10
76.77670896518083
 20
-139.5728759416693
 30
0.0
 10
76.77670896518083
 20
-138.4687228386467
 30
0.0
 10
76.77670896518083
 20
-138.4687228386467
 30
0.0
 10
76.77670896518083
 20
-138.4687228386467
 30
0.0
 10
76.44666881769389
 20
-138.4687228386467
 30
0.0
 10
76.44666881769389
 20
-138.4687228386467
 30
0.0
 10
76.44666881769389
 20
-138.4687228386467
 30
0.0
 10
76.44666881769389
 20
-138.320583732781
 30
0.0
 10
76.44666881769389
 20
-138.320583732781
 30
0.0
 10
76.77877602247197
 20
-138.3057698221944
 30
0.0
 10
76.82528481152285
 20
-138.1428168057421
 30
0.0
 10
76.854912632696
 20
-138.0284396356318
 30
0.0
 10
76.854912632696
 20
-138.0284396356318
 30
0.0
 10
77.0009846812706
 20
-138.0284396356318
 30
0.0
 10
77.0009846812706
 20
-138.0284396356318
 30
0.0
 10
77.0009846812706
 20
-138.0284396356318
 30
0.0
 10
77.0009846812706
 20
-139.5728759416693
 30
0.0
 10
77.0009846812706
 20
-139.5728759416693
 30
0.0
 10
77.0009846812706
 20
-139.5728759416693
 30
0.0
 10
76.77670896518083
 20
-139.5728759416693
 30
0.0
 10
76.77670896518083
 20
-139.5728759416693
 30
0.0
  0
HATCH
  5
62
330
5D
100
AcDbEntity
  8
_U+30EC_U+30A4_U+30E4_U+30FC 1
 62
   179
420
  2234388
100
AcDbHatch
 10
0.0
 20
0.0
 30
0.0
210
0.0
220
0.0
230
1.0
  2
SOLID
 70
     1
 71
     0
 91
        1
 92
        1
 93
        1
 72
     4
 94
        3
 73
     0
 74
     1
 95
       26
 96
       22
 40
0.0
 40
0.0
 40
0.0
 40
0.0
 40
1.0
 40
1.0
 40
1.0
 40
2.0
 40
2.0
 40
2.0
 40
3.0
 40
3.0
 40
3.0
 40
4.0
 40
4.0
 40
4.0
 40
5.0
 40
5.0
 40
5.0
 40
6.0
 40
6.0
 40
6.0
 40
7.0
 40
7.0
 40
7.0
 40
7.0
 10
76.77670896518083
 20
-139.5728759416693
 10
76.77670896518083
 20
-139.5728759416693
 10
76.77670896518083
 20
-138.4687228386467
 10
76.77670896518083
 20
-138.4687228386467
 10
76.77670896518083
 20
-138.4687228386467
 10
76.44666881769389
 20
-138.4687228386467
 10
76.44666881769389
 20
-138.4687228386467
 10
76.44666881769389
 20
-138.4687228386467
 10
76.44666881769389
 20
-138.320583732781
 10
76.44666881769389
 20
-138.320583732781
 10
76.77877602247197
 20
-138.3057698221944
 10
76.82528481152285
 20
-138.1428168057421
 10
76.854912632696
 20
-138.0284396356318
 10
76.854912632696
 20
-138.0284396356318
 10
77.0009846812706
 20
-138.0284396356318
 10
77.0009846812706
 20
-138.0284396356318
 10
77.0009846812706
 20
-138.0284396356318
 10
77.0009846812706
 20
-139.5728759416693
 10
77.0009846812706
 20
-139.5728759416693
 10
77.0009846812706
 20
-139.5728759416693
 10
76.77670896518083
 20
-139.5728759416693
 10
76.77670896518083
 20
-139.5728759416693
 97
        0
 97
        0
 75
     2
 76
     1
 98
        0
  0
SPLINE
  5
63
330
5D
100
AcDbEntity
  8
_U+30EC_U+30A4_U+30E4_U+30FC 1
370
     0
100
AcDbSpline
210
0.0
220
0.0
230
1.0
 70
    11
 71
     3
 72
    44
 73
    40
 74
     0
 42
0.0000000001
 43
0.0000000001
 12
1.0
 22
0.0
 32
0.0
 13
1.0
 23
0.0
 33
0.0
 40
0.0
 40
0.0
 40
0.0
 40
0.0
 40
1.0
 40
1.0
 40
1.0
 40
2.0
 40
2.0
 40
2.0
 40
3.0
 40
3.0
 40
3.0
 40
4.0
 40
4.0
 40
4.0
 40
5.0
 40
5.0
 40
5.0
 40
6.0
 40
6.0
 40
6.0
 40
7.0
 40
7.0
 40
7.0
 40
8.0
 40
8.0
 40
8.0
 40
9.0
 40
9.0
 40
9.0
 40
10.0
 40
10.0
 40
10.0
 40
11.0
 40
11.0
 40
11.0
 40
12.0
 40
12.0
 40
12.0
 40
13.0
 40
13.0
 40
13.0
 40
13.0
 10
78.51630993045774
 20
-139.5728759416693
 30
0.0
 10
78.49288328115803
 20
-139.5284342099096
 30
0.0
 10
78.471868198698
 20
-139.4757242489852
 30
0.0
 10
78.46962888663259
 20
-139.2449028514735
 30
0.0
 10
78.46549477205029
 20
-139.0016791102149
 30
0.0
 10
78.406239129704
 20
-138.9317436718643
 30
0.0
 10
78.2284722026651
 20
-138.9317436718643
 30
0.0
 10
78.2284722026651
 20
-138.9317436718643
 30
0.0
 10
77.82022838766301
 20
-138.9317436718643
 30
0.0
 10
77.82022838766301
 20
-138.9317436718643
 30
0.0
 10
77.82022838766301
 20
-138.9317436718643
 30
0.0
 10
77.82022838766301
 20
-139.5728759416693
 30
0.0
 10
77.82022838766301
 20
-139.5728759416693
 30
0.0
 10
77.82022838766301
 20
-139.5728759416693
 30
0.0
 10
77.58544513034323
 20
-139.5728759416693
 30
0.0
 10
77.58544513034323
 20
-139.5728759416693
 30
0.0
 10
77.58544513034323
 20
-139.5728759416693
 30
0.0
 10
77.58544513034323
 20
-138.0284396356318
 30
0.0
 10
77.58544513034323
 20
-138.0284396356318
 30
0.0
 10
77.58544513034323
 20
-138.0284396356318
 30
0.0
 10
78.26016708112941
 20
-138.0284396356318
 30
0.0
 10
78.26016708112941
 20
-138.0284396356318
 30
0.0
 10
78.5669528340909
 20
-138.0284396356318
 30
0.0
 10
78.73421221989979
 20
-138.2000053907972
 30
0.0
 10
78.73421221989979
 20
-138.4559759853513
 30
0.0
 10
78.73421221989979
 20
-138.5066188889845
 30
0.0
 10
78.72559948118666
 20
-138.5893011806305
 30
0.0
 10
78.68115774942693
 20
-138.6695719054368
 30
0.0
 10
78.6220743618549
 20
-138.7732692795428
 30
0.0
 10
78.55644529286089
 20
-138.7922173047117
 30
0.0
 10
78.49512259322344
 20
-138.8090982725894
 30
0.0
 10
78.63258190308491
 20
-138.851472947058
 30
0.0
 10
78.70027802937007
 20
-138.9000487934
 30
0.0
 10
78.70458439872664
 20
-139.2152750303003
 30
0.0
 10
78.70871851330894
 20
-139.486059535441
 30
0.0
 10
78.7447197611298
 20
-139.5177544139053
 30
0.0
 10
78.81241588741496
 20
-139.5728759416693
 30
0.0
 10
78.81241588741496
 20
-139.5728759416693
 30
0.0
 10
78.51630993045774
 20
-139.5728759416693
 30
0.0
 10
78.51630993045774
 20
-139.5728759416693
 30
0.0
  0
SPLINE
  5
64
330
5D
100
AcDbEntity
  8
_U+30EC_U+30A4_U+30E4_U+30FC 1
370
     0
100
AcDbSpline
210
0.0
220
0.0
230
1.0
 70
    11
 71
     3
 72
    20
 73
    16
 74
     0
 42
0.0000000001
 43
0.0000000001
 12
1.0
 22
0.0
 32
0.0
 13
1.0
 23
0.0
 33
0.0
 40
0.0
 40
0.0
 40
0.0
 40
0.0
 40
1.0
 40
1.0
 40
1.0
 40
2.0
 40
2.0
 40
2.0
 40
3.0
 40
3.0
 40
3.0
 40
4.0
 40
4.0
 40
4.0
 40
5.0
 40
5.0
 40
5.0
 40
5.0
 10
78.26447345048597
 20
-138.2399684984261
 30
0.0
 10
78.26447345048597
 20
-138.2399684984261
 30
0.0
 10
77.82022838766301
 20
-138.2399684984261
 30
0.0
 10
77.82022838766301
 20
-138.2399684984261
 30
0.0
 10
77.82022838766301
 20
-138.2399684984261
 30
0.0
 10
77.82022838766301
 20
-138.7202148090699
 30
0.0
 10
77.82022838766301
 20
-138.7202148090699
 30
0.0
 10
77.82022838766301
 20
-138.7202148090699
 30
0.0
 10
78.26240639319482
 20
-138.7202148090699
 30
0.0
 10
78.26240639319482
 20
-138.7202148090699
 30
0.0
 10
78.36179739794427
 20
-138.7202148090699
 30
0.0
 10
78.4971896505146
 20
-138.6440781988459
 30
0.0
 10
78.4971896505146
 20
-138.472856953229
 30
0.0
 10
78.4971896505146
 20
-138.3946532857138
 30
0.0
 10
78.46342771475915
 20
-138.2399684984261
 30
0.0
 10
78.26447345048597
 20
-138.2399684984261
 30
0.0
  0
HATCH
  5
65
330
5D
100
AcDbEntity
  8
_U+30EC_U+30A4_U+30E4_U+30FC 1
 62
   179
420
  2234388
100
AcDbHatch
 10
0.0
 20
0.0
 30
0.0
210
0.0
220
0.0
230
1.0
  2
SOLID
 70
     1
 71
     0
 91
        2
 92
        1
 93
        1
 72
     4
 94
        3
 73
     0
 74
     1
 95
       44
 96
       40
 40
0.0
 40
0.0
 40
0.0
 40
0.0
 40
1.0
 40
1.0
 40
1.0
 40
2.0
 40
2.0
 40
2.0
 40
3.0
 40
3.0
 40
3.0
 40
4.0
 40
4.0
 40
4.0
 40
5.0
 40
5.0
 40
5.0
 40
6.0
 40
6.0
 40
6.0
 40
7.0
 40
7.0
 40
7.0
 40
8.0
 40
8.0
 40
8.0
 40
9.0
 40
9.0
 40
9.0
 40
10.0
 40
10.0
 40
10.0
 40
11.0
 40
11.0
 40
11.0
 40
12.0
 40
12.0
 40
12.0
 40
13.0
 40
13.0
 40
13.0
 40
13.0
 10
78.51630993045774
 20
-139.5728759416693
 10
78.49288328115803
 20
-139.5284342099096
 10
78.471868198698
 20
-139.4757242489852
 10
78.46962888663259
 20
-139.2449028514735
 10
78.46549477205029
 20
-139.0016791102149
 10
78.406239129704
 20
-138.9317436718643
 10
78.2284722026651
 20
-138.9317436718643
 10
78.2284722026651
 20
-138.9317436718643
 10
77.82022838766301
 20
-138.9317436718643
 10
77.82022838766301
 20
-138.9317436718643
 10
77.82022838766301
 20
-138.9317436718643
 10
77.82022838766301
 20
-139.5728759416693
 10
77.82022838766301
 20
-139.5728759416693
 10
77.82022838766301
 20
-139.5728759416693
 10
77.58544513034323
 20
-139.5728759416693
 10
77.58544513034323
 20
-139.5728759416693
 10
77.58544513034323
 20
-139.5728759416693
 10
77.58544513034323
 20
-138.0284396356318
 10
77.58544513034323
 20
-138.0284396356318
 10
77.58544513034323
 20
-138.0284396356318
 10
78.26016708112941
 20
-138.0284396356318
 10
78.26016708112941
 20
-138.0284396356318
 10
78.5669528340909
 20
-138.0284396356318
 10
78.73421221989979
 20
-138.2000053907972
 10
78.73421221989979
 20
-138.4559759853513
 10
78.73421221989979
 20
-138.5066188889845
 10
78.72559948118666
 20
-138.5893011806305
 10
78.68115774942693
 20
-138.6695719054368
 10
78.6220743618549
 20
-138.7732692795428
 10
78.55644529286089
 20
-138.7922173047117
 10
78.49512259322344
 20
-138.8090982725894
 10
78.63258190308491
 20
-138.851472947058
 10
78.70027802937007
 20
-138.9000487934
 10
78.70458439872664
 20
-139.2152750303003
 10
78.70871851330894
 20
-139.486059535441
 10
78.7447197611298
 20
-139.5177544139053
 10
78.81241588741496
 20
-139.5728759416693
 10
78.81241588741496
 20
-139.5728759416693
 10
78.51630993045774
 20
-139.5728759416693
 10
78.51630993045774
 20
-139.5728759416693
 97
        0
 97
        0
 92
        1
 93
        1
 72
     4
 94
        3
 73
     0
 74
     1
 95
       20
 96
       16
 40
0.0
 40
0.0
 40
0.0
 40
0.0
 40
1.0
 40
1.0
 40
1.0
 40
2.0
 40
2.0
 40
2.0
 40
3.0
 40
3.0
 40
3.0
 40
4.0
 40
4.0
 40
4.0
 40
5.0
 40
5.0
 40
5.0
 40
5.0
 10
78.26447345048597
 20
-138.2399684984261
 10
78.26447345048597
 20
-138.2399684984261
 10
77.82022838766301
 20
-138.2399684984261
 10
77.82022838766301
 20
-138.2399684984261
 10
77.82022838766301
 20
-138.2399684984261
 10
77.82022838766301
 20
-138.7202148090699
 10
77.82022838766301
 20
-138.7202148090699
 10
77.82022838766301
 20
-138.7202148090699
 10
78.26240639319482
 20
-138.7202148090699
 10
78.26240639319482
 20
-138.7202148090699
 10
78.36179739794427
 20
-138.7202148090699
 10
78.4971896505146
 20
-138.6440781988459
 10
78.4971896505146
 20
-138.472856953229
 10
78.4971896505146
 20
-138.3946532857138
 10
78.46342771475915
 20
-138.2399684984261
 10
78.26447345048597
 20
-138.2399684984261
 97
        0
 97
        0
 75
     2
 76
     1
 98
        0
  0
ENDBLK
  5
60
330
5D
100
AcDbEntity
  8
0
100
AcDbBlockEnd
  0
BLOCK
  5
74
330
72
100
AcDbEntity
  8
0
100
AcDbBlockBegin
  2
block 3
 70
     0
 10
0.0
 20
0.0
 30
0.0
  3
block 3
  1

  0
SPLINE
  5
76
330
72
100
AcDbEntity
  8
_U+30EC_U+30A4_U+30E4_U+30FC 1
370
     0
100
AcDbSpline
210
0.0
220
0.0
230
1.0
 70
    11
 71
     3
 72
    44
 73
    40
 74
     0
 42
0.0000000001
 43
0.0000000001
 12
1.0
 22
0.0
 32
0.0
 13
1.0
 23
0.0
 33
0.0
 40
0.0
 40
0.0
 40
0.0
 40
0.0
 40
1.0
 40
1.0
 40
1.0
 40
2.0
 40
2.0
 40
2.0
 40
3.0
 40
3.0
 40
3.0
 40
4.0
 40
4.0
 40
4.0
 40
5.0
 40
5.0
 40
5.0
 40
6.0
 40
6.0
 40
6.0
 40
7.0
 40
7.0
 40
7.0
 40
8.0
 40
8.0
 40
8.0
 40
9.0
 40
9.0
 40
9.0
 40
10.0
 40
10.0
 40
10.0
 40
11.0
 40
11.0
 40
11.0
 40
12.0
 40
12.0
 40
12.0
 40
13.0
 40
13.0
 40
13.0
 40
13.0
 10
94.73047957701183
 20
-116.5418958584513
 30
0.0
 10
94.51274954234404
 20
-116.7005425055471
 30
0.0
 10
94.41973196424229
 20
-116.77461205848
 30
0.0
 10
94.37081160835174
 20
-116.9182725402149
 30
0.0
 10
94.37081160835174
 20
-116.9182725402149
 30
0.0
 10
95.14940318801821
 20
-116.9182725402149
 30
0.0
 10
95.14940318801821
 20
-116.9182725402149
 30
0.0
 10
95.14940318801821
 20
-116.9182725402149
 30
0.0
 10
95.14940318801821
 20
-117.1236002311358
 30
0.0
 10
95.14940318801821
 20
-117.1236002311358
 30
0.0
 10
95.14940318801821
 20
-117.1236002311358
 30
0.0
 10
94.12138669521966
 20
-117.1236002311358
 30
0.0
 10
94.12138669521966
 20
-117.1236002311358
 30
0.0
 10
94.15308157368396
 20
-116.7659993197668
 30
0.0
 10
94.2185383879037
 20
-116.6877956522517
 30
0.0
 10
94.60370006315463
 20
-116.389450383229
 30
0.0
 10
94.8596706577087
 20
-116.1906683737301
 30
0.0
 10
94.92512747192845
 20
-116.122972247445
 30
0.0
 10
94.92512747192845
 20
-115.9855129375835
 30
0.0
 10
94.92512747192845
 20
-115.8670016528909
 30
0.0
 10
94.85312497628672
 20
-115.7359157696771
 30
0.0
 10
94.65641002407895
 20
-115.7359157696771
 30
0.0
 10
94.3963053149426
 20
-115.7359157696771
 30
0.0
 10
94.38769257622947
 20
-115.9663926576404
 30
0.0
 10
94.38355846164717
 20
-116.0828368850418
 30
0.0
 10
94.38355846164717
 20
-116.0828368850418
 30
0.0
 10
94.1592827455574
 20
-116.0828368850418
 30
0.0
 10
94.1592827455574
 20
-116.0828368850418
 30
0.0
 10
94.16789548427053
 20
-115.9558851164103
 30
0.0
 10
94.1785752802748
 20
-115.8437472583655
 30
0.0
 10
94.25884600508112
 20
-115.7252359736729
 30
0.0
 10
94.3687445510606
 20
-115.564522269286
 30
0.0
 10
94.55512421681262
 20
-115.5305880787563
 30
0.0
 10
94.67122393466553
 20
-115.5305880787563
 30
0.0
 10
94.94855412122814
 20
-115.5305880787563
 30
0.0
 10
95.15594886944018
 20
-115.7147284324429
 30
0.0
 10
95.15594886944018
 20
-115.9875799948746
 30
0.0
 10
95.15594886944018
 20
-116.2159898255467
 30
0.0
 10
95.03950464203874
 20
-116.3155530850704
 30
0.0
 10
94.73047957701183
 20
-116.5418958584513
 30
0.0
  0
HATCH
  5
77
330
72
100
AcDbEntity
  8
_U+30EC_U+30A4_U+30E4_U+30FC 1
 62
   179
420
  2234388
100
AcDbHatch
 10
0.0
 20
0.0
 30
0.0
210
0.0
220
0.0
230
1.0
  2
SOLID
 70
     1
 71
     0
 91
        1
 92
        1
 93
        1
 72
     4
 94
        3
 73
     0
 74
     1
 95
       44
 96
       40
 40
0.0
 40
0.0
 40
0.0
 40
0.0
 40
1.0
 40
1.0
 40
1.0
 40
2.0
 40
2.0
 40
2.0
 40
3.0
 40
3.0
 40
3.0
 40
4.0
 40
4.0
 40
4.0
 40
5.0
 40
5.0
 40
5.0
 40
6.0
 40
6.0
 40
6.0
 40
7.0
 40
7.0
 40
7.0
 40
8.0
 40
8.0
 40
8.0
 40
9.0
 40
9.0
 40
9.0
 40
10.0
 40
10.0
 40
10.0
 40
11.0
 40
11.0
 40
11.0
 40
12.0
 40
12.0
 40
12.0
 40
13.0
 40
13.0
 40
13.0
 40
13.0
 10
94.73047957701183
 20
-116.5418958584513
 10
94.51274954234404
 20
-116.7005425055471
 10
94.41973196424229
 20
-116.77461205848
 10
94.37081160835174
 20
-116.9182725402149
 10
94.37081160835174
 20
-116.9182725402149
 10
95.14940318801821
 20
-116.9182725402149
 10
95.14940318801821
 20
-116.9182725402149
 10
95.14940318801821
 20
-116.9182725402149
 10
95.14940318801821
 20
-117.1236002311358
 10
95.14940318801821
 20
-117.1236002311358
 10
95.14940318801821
 20
-117.1236002311358
 10
94.12138669521966
 20
-117.1236002311358
 10
94.12138669521966
 20
-117.1236002311358
 10
94.15308157368396
 20
-116.7659993197668
 10
94.2185383879037
 20
-116.6877956522517
 10
94.60370006315463
 20
-116.389450383229
 10
94.8596706577087
 20
-116.1906683737301
 10
94.92512747192845
 20
-116.122972247445
 10
94.92512747192845
 20
-115.9855129375835
 10
94.92512747192845
 20
-115.8670016528909
 10
94.85312497628672
 20
-115.7359157696771
 10
94.65641002407895
 20
-115.7359157696771
 10
94.3963053149426
 20
-115.7359157696771
 10
94.38769257622947
 20
-115.9663926576404
 10
94.38355846164717
 20
-116.0828368850418
 10
94.38355846164717
 20
-116.0828368850418
 10
94.1592827455574
 20
-116.0828368850418
 10
94.1592827455574
 20
-116.0828368850418
 10
94.16789548427053
 20
-115.9558851164103
 10
94.1785752802748
 20
-115.8437472583655
 10
94.25884600508112
 20
-115.7252359736729
 10
94.3687445510606
 20
-115.564522269286
 10
94.55512421681262
 20
-115.5305880787563
 10
94.67122393466553
 20
-115.5305880787563
 10
94.94855412122814
 20
-115.5305880787563
 10
95.15594886944018
 20
-115.7147284324429
 10
95.15594886944018
 20
-115.9875799948746
 10
95.15594886944018
 20
-116.2159898255467
 10
95.03950464203874
 20
-116.3155530850704
 10
94.73047957701183
 20
-116.5418958584513
 97
        0
 97
        0
 75
     2
 76
     1
 98
        0
  0
SPLINE
  5
78
330
72
100
AcDbEntity
  8
_U+30EC_U+30A4_U+30E4_U+30FC 1
370
     0
100
AcDbSpline
210
0.0
220
0.0
230
1.0
 70
    11
 71
     3
 72
    29
 73
    25
 74
     0
 42
0.0000000001
 43
0.0000000001
 12
1.0
 22
0.0
 32
0.0
 13
1.0
 23
0.0
 33
0.0
 40
0.0
 40
0.0
 40
0.0
 40
0.0
 40
1.0
 40
1.0
 40
1.0
 40
2.0
 40
2.0
 40
2.0
 40
3.0
 40
3.0
 40
3.0
 40
4.0
 40
4.0
 40
4.0
 40
5.0
 40
5.0
 40
5.0
 40
6.0
 40
6.0
 40
6.0
 40
7.0
 40
7.0
 40
7.0
 40
8.0
 40
8.0
 40
8.0
 40
8.0
 10
96.21221514521778
 20
-116.9458333040969
 30
0.0
 10
96.10403914698094
 20
-117.1552951096001
 30
0.0
 10
95.93075084407288
 20
-117.1742431347689
 30
0.0
 10
95.81430661667143
 20
-117.1742431347689
 30
0.0
 10
95.65342065751027
 20
-117.1742431347689
 30
0.0
 10
95.5118272330665
 20
-117.1277343457181
 30
0.0
 10
95.41674259767359
 20
-116.9458333040969
 30
0.0
 10
95.31304522356757
 20
-116.7511854091803
 30
0.0
 10
95.29375268885018
 20
-116.5143350945693
 30
0.0
 10
95.29375268885018
 20
-116.351382078117
 30
0.0
 10
95.29375268885018
 20
-116.2075493416078
 30
0.0
 10
95.31097816627643
 20
-115.9558851164103
 30
0.0
 10
95.41674259767359
 20
-115.7569308521372
 30
0.0
 10
95.52457408636192
 20
-115.5538424732817
 30
0.0
 10
95.68546004552309
 20
-115.5305880787563
 30
0.0
 10
95.81430661667143
 20
-115.5305880787563
 30
0.0
 10
95.97312551854145
 20
-115.5305880787563
 30
0.0
 10
96.11678600027636
 20
-115.575029810516
 30
0.0
 10
96.21221514521778
 20
-115.7569308521372
 30
0.0
 10
96.31143389519298
 20
-115.9495116897626
 30
0.0
 10
96.33486054449268
 20
-116.1779215204347
 30
0.0
 10
96.33486054449268
 20
-116.351382078117
 30
0.0
 10
96.33486054449268
 20
-116.5227755785082
 30
0.0
 10
96.31350095248413
 20
-116.7534247212457
 30
0.0
 10
96.21221514521778
 20
-116.9458333040969
 30
0.0
  0
SPLINE
  5
79
330
72
100
AcDbEntity
  8
_U+30EC_U+30A4_U+30E4_U+30FC 1
370
     0
100
AcDbSpline
210
0.0
220
0.0
230
1.0
 70
    11
 71
     3
 72
    17
 73
    13
 74
     0
 42
0.0000000001
 43
0.0000000001
 12
1.0
 22
0.0
 32
0.0
 13
1.0
 23
0.0
 33
0.0
 40
0.0
 40
0.0
 40
0.0
 40
0.0
 40
1.0
 40
1.0
 40
1.0
 40
2.0
 40
2.0
 40
2.0
 40
3.0
 40
3.0
 40
3.0
 40
4.0
 40
4.0
 40
4.0
 40
4.0
 10
95.81430661667143
 20
-115.7231689163817
 30
0.0
 10
95.56453719399082
 20
-115.7231689163817
 30
0.0
 10
95.51802840493994
 20
-116.0067002748178
 30
0.0
 10
95.51802840493994
 20
-116.351382078117
 30
0.0
 10
95.51802840493994
 20
-116.6709146843739
 30
0.0
 10
95.55420190753506
 20
-116.9795952398523
 30
0.0
 10
95.81430661667143
 20
-116.9795952398523
 30
0.0
 10
96.06200898206089
 20
-116.9795952398523
 30
0.0
 10
96.11058482840292
 20
-116.6983031934817
 30
0.0
 10
96.11058482840292
 20
-116.351382078117
 30
0.0
 10
96.11058482840292
 20
-116.0320217266344
 30
0.0
 10
96.07234426851664
 20
-115.7231689163817
 30
0.0
 10
95.81430661667143
 20
-115.7231689163817
 30
0.0
  0
HATCH
  5
7A
330
72
100
AcDbEntity
  8
_U+30EC_U+30A4_U+30E4_U+30FC 1
 62
   179
420
  2234388
100
AcDbHatch
 10
0.0
 20
0.0
 30
0.0
210
0.0
220
0.0
230
1.0
  2
SOLID
 70
     1
 71
     0
 91
        2
 92
        1
 93
        1
 72
     4
 94
        3
 73
     0
 74
     1
 95
       29
 96
       25
 40
0.0
 40
0.0
 40
0.0
 40
0.0
 40
1.0
 40
1.0
 40
1.0
 40
2.0
 40
2.0
 40
2.0
 40
3.0
 40
3.0
 40
3.0
 40
4.0
 40
4.0
 40
4.0
 40
5.0
 40
5.0
 40
5.0
 40
6.0
 40
6.0
 40
6.0
 40
7.0
 40
7.0
 40
7.0
 40
8.0
 40
8.0
 40
8.0
 40
8.0
 10
96.21221514521778
 20
-116.9458333040969
 10
96.10403914698094
 20
-117.1552951096001
 10
95.93075084407288
 20
-117.1742431347689
 10
95.81430661667143
 20
-117.1742431347689
 10
95.65342065751027
 20
-117.1742431347689
 10
95.5118272330665
 20
-117.1277343457181
 10
95.41674259767359
 20
-116.9458333040969
 10
95.31304522356757
 20
-116.7511854091803
 10
95.29375268885018
 20
-116.5143350945693
 10
95.29375268885018
 20
-116.351382078117
 10
95.29375268885018
 20
-116.2075493416078
 10
95.31097816627643
 20
-115.9558851164103
 10
95.41674259767359
 20
-115.7569308521372
 10
95.52457408636192
 20
-115.5538424732817
 10
95.68546004552309
 20
-115.5305880787563
 10
95.81430661667143
 20
-115.5305880787563
 10
95.97312551854145
 20
-115.5305880787563
 10
96.11678600027636
 20
-115.575029810516
 10
96.21221514521778
 20
-115.7569308521372
 10
96.31143389519298
 20
-115.9495116897626
 10
96.33486054449268
 20
-116.1779215204347
 10
96.33486054449268
 20
-116.351382078117
 10
96.33486054449268
 20
-116.5227755785082
 10
96.31350095248413
 20
-116.7534247212457
 10
96.21221514521778
 20
-116.9458333040969
 97
        0
 97
        0
 92
        1
 93
        1
 72
     4
 94
        3
 73
     0
 74
     1
 95
       17
 96
       13
 40
0.0
 40
0.0
 40
0.0
 40
0.0
 40
1.0
 40
1.0
 40
1.0
 40
2.0
 40
2.0
 40
2.0
 40
3.0
 40
3.0
 40
3.0
 40
4.0
 40
4.0
 40
4.0
 40
4.0
 10
95.81430661667143
 20
-115.7231689163817
 10
95.56453719399082
 20
-115.7231689163817
 10
95.51802840493994
 20
-116.0067002748178
 10
95.51802840493994
 20
-116.351382078117
 10
95.51802840493994
 20
-116.6709146843739
 10
95.55420190753506
 20
-116.9795952398523
 10
95.81430661667143
 20
-116.9795952398523
 10
96.06200898206089
 20
-116.9795952398523
 10
96.11058482840292
 20
-116.6983031934817
 10
96.11058482840292
 20
-116.351382078117
 10
96.11058482840292
 20
-116.0320217266344
 10
96.07234426851664
 20
-115.7231689163817
 10
95.81430661667143
 20
-115.7231689163817
 97
        0
 97
        0
 75
     2
 76
     1
 98
        0
  0
ENDBLK
  5
75
330
72
100
AcDbEntity
  8
0
100
AcDbBlockEnd
  0
BLOCK
  5
85
330
83
100
AcDbEntity
  8
0
100
AcDbBlockBegin
  2
block 4
 70
     0
 10
0.0
 20
0.0
 30
0.0
  3
block 4
  1

  0
SPLINE
  5
87
330
83
100
AcDbEntity
  8
_U+30EC_U+30A4_U+30E4_U+30FC 1
370
     0
100
AcDbSpline
210
0.0
220
0.0
230
1.0
 70
    11
 71
     3
 72
    26
 73
    22
 74
     0
 42
0.0000000001
 43
0.0000000001
 12
1.0
 22
0.0
 32
0.0
 13
1.0
 23
0.0
 33
0.0
 40
0.0
 40
0.0
 40
0.0
 40
0.0
 40
1.0
 40
1.0
 40
1.0
 40
2.0
 40
2.0
 40
2.0
 40
3.0
 40
3.0
 40
3.0
 40
4.0
 40
4.0
 40
4.0
 40
5.0
 40
5.0
 40
5.0
 40
6.0
 40
6.0
 40
6.0
 40
7.0
 40
7.0
 40
7.0
 40
7.0
 10
86.49652911249045
 20
-123.6232896283824
 30
0.0
 10
86.49652911249045
 20
-123.6232896283824
 30
0.0
 10
86.49652911249045
 20
-122.5189642705855
 30
0.0
 10
86.49652911249045
 20
-122.5189642705855
 30
0.0
 10
86.49652911249045
 20
-122.5189642705855
 30
0.0
 10
86.16648896500352
 20
-122.5189642705855
 30
0.0
 10
86.16648896500352
 20
-122.5189642705855
 30
0.0
 10
86.16648896500352
 20
-122.5189642705855
 30
0.0
 10
86.16648896500352
 20
-122.3708251647198
 30
0.0
 10
86.16648896500352
 20
-122.3708251647198
 30
0.0
 10
86.4985961697816
 20
-122.3561835089075
 30
0.0
 10
86.54510495883248
 20
-122.1932304924552
 30
0.0
 10
86.57473278000563
 20
-122.0790255771191
 30
0.0
 10
86.57473278000563
 20
-122.0790255771191
 30
0.0
 10
86.72080482858021
 20
-122.0790255771191
 30
0.0
 10
86.72080482858021
 20
-122.0790255771191
 30
0.0
 10
86.72080482858021
 20
-122.0790255771191
 30
0.0
 10
86.72080482858021
 20
-123.6232896283824
 30
0.0
 10
86.72080482858021
 20
-123.6232896283824
 30
0.0
 10
86.72080482858021
 20
-123.6232896283824
 30
0.0
 10
86.49652911249045
 20
-123.6232896283824
 30
0.0
 10
86.49652911249045
 20
-123.6232896283824
 30
0.0
  0
HATCH
  5
88
330
83
100
AcDbEntity
  8
_U+30EC_U+30A4_U+30E4_U+30FC 1
 62
   179
420
  2234388
100
AcDbHatch
 10
0.0
 20
0.0
 30
0.0
210
0.0
220
0.0
230
1.0
  2
SOLID
 70
     1
 71
     0
 91
        1
 92
        1
 93
        1
 72
     4
 94
        3
 73
     0
 74
     1
 95
       26
 96
       22
 40
0.0
 40
0.0
 40
0.0
 40
0.0
 40
1.0
 40
1.0
 40
1.0
 40
2.0
 40
2.0
 40
2.0
 40
3.0
 40
3.0
 40
3.0
 40
4.0
 40
4.0
 40
4.0
 40
5.0
 40
5.0
 40
5.0
 40
6.0
 40
6.0
 40
6.0
 40
7.0
 40
7.0
 40
7.0
 40
7.0
 10
86.49652911249045
 20
-123.6232896283824
 10
86.49652911249045
 20
-123.6232896283824
 10
86.49652911249045
 20
-122.5189642705855
 10
86.49652911249045
 20
-122.5189642705855
 10
86.49652911249045
 20
-122.5189642705855
 10
86.16648896500352
 20
-122.5189642705855
 10
86.16648896500352
 20
-122.5189642705855
 10
86.16648896500352
 20
-122.5189642705855
 10
86.16648896500352
 20
-122.3708251647198
 10
86.16648896500352
 20
-122.3708251647198
 10
86.4985961697816
 20
-122.3561835089075
 10
86.54510495883248
 20
-122.1932304924552
 10
86.57473278000563
 20
-122.0790255771191
 10
86.57473278000563
 20
-122.0790255771191
 10
86.72080482858021
 20
-122.0790255771191
 10
86.72080482858021
 20
-122.0790255771191
 10
86.72080482858021
 20
-122.0790255771191
 10
86.72080482858021
 20
-123.6232896283824
 10
86.72080482858021
 20
-123.6232896283824
 10
86.72080482858021
 20
-123.6232896283824
 10
86.49652911249045
 20
-123.6232896283824
 10
86.49652911249045
 20
-123.6232896283824
 97
        0
 97
        0
 75
     2
 76
     1
 98
        0
  0
ENDBLK
  5
86
330
83
100
AcDbEntity
  8
0
100
AcDbBlockEnd
  0
BLOCK
  5
97
330
95
100
AcDbEntity
  8
0
100
AcDbBlockBegin
  2
block 5
 70
     0
 10
0.0
 20
0.0
 30
0.0
  3
block 5
  1

  0
SPLINE
  5
99
330
95
100
AcDbEntity
  8
_U+30EC_U+30A4_U+30E4_U+30FC 1
370
     0
100
AcDbSpline
210
0.0
220
0.0
230
1.0
 70
    11
 71
     3
 72
    26
 73
    22
 74
     0
 42
0.0000000001
 43
0.0000000001
 12
1.0
 22
0.0
 32
0.0
 13
1.0
 23
0.0
 33
0.0
 40
0.0
 40
0.0
 40
0.0
 40
0.0
 40
1.0
 40
1.0
 40
1.0
 40
2.0
 40
2.0
 40
2.0
 40
3.0
 40
3.0
 40
3.0
 40
4.0
 40
4.0
 40
4.0
 40
5.0
 40
5.0
 40
5.0
 40
6.0
 40
6.0
 40
6.0
 40
7.0
 40
7.0
 40
7.0
 40
7.0
 10
91.08884139432848
 20
-140.1230576906637
 30
0.0
 10
91.08884139432848
 20
-140.1230576906637
 30
0.0
 10
91.08884139432848
 20
-139.0189045876411
 30
0.0
 10
91.08884139432848
 20
-139.0189045876411
 30
0.0
 10
91.08884139432848
 20
-139.0189045876411
 30
0.0
 10
90.75880124684156
 20
-139.0189045876411
 30
0.0
 10
90.75880124684156
 20
-139.0189045876411
 30
0.0
 10
90.75880124684156
 20
-139.0189045876411
 30
0.0
 10
90.75880124684156
 20
-138.8707654817754
 30
0.0
 10
90.75880124684156
 20
-138.8707654817754
 30
0.0
 10
91.09090845161964
 20
-138.8559515711888
 30
0.0
 10
91.13741724067052
 20
-138.6929985547365
 30
0.0
 10
91.16704506184367
 20
-138.5786213846262
 30
0.0
 10
91.16704506184367
 20
-138.5786213846262
 30
0.0
 10
91.31311711041825
 20
-138.5786213846262
 30
0.0
 10
91.31311711041825
 20
-138.5786213846262
 30
0.0
 10
91.31311711041825
 20
-138.5786213846262
 30
0.0
 10
91.31311711041825
 20
-140.1230576906637
 30
0.0
 10
91.31311711041825
 20
-140.1230576906637
 30
0.0
 10
91.31311711041825
 20
-140.1230576906637
 30
0.0
 10
91.08884139432848
 20
-140.1230576906637
 30
0.0
 10
91.08884139432848
 20
-140.1230576906637
 30
0.0
  0
HATCH
  5
9A
330
95
100
AcDbEntity
  8
_U+30EC_U+30A4_U+30E4_U+30FC 1
 62
   179
420
  2234388
100
AcDbHatch
 10
0.0
 20
0.0
 30
0.0
210
0.0
220
0.0
230
1.0
  2
SOLID
 70
     1
 71
     0
 91
        1
 92
        1
 93
        1
 72
     4
 94
        3
 73
     0
 74
     1
 95
       26
 96
       22
 40
0.0
 40
0.0
 40
0.0
 40
0.0
 40
1.0
 40
1.0
 40
1.0
 40
2.0
 40
2.0
 40
2.0
 40
3.0
 40
3.0
 40
3.0
 40
4.0
 40
4.0
 40
4.0
 40
5.0
 40
5.0
 40
5.0
 40
6.0
 40
6.0
 40
6.0
 40
7.0
 40
7.0
 40
7.0
 40
7.0
 10
91.08884139432848
 20
-140.1230576906637
 10
91.08884139432848
 20
-140.1230576906637
 10
91.08884139432848
 20
-139.0189045876411
 10
91.08884139432848
 20
-139.0189045876411
 10
91.08884139432848
 20
-139.0189045876411
 10
90.75880124684156
 20
-139.0189045876411
 10
90.75880124684156
 20
-139.0189045876411
 10
90.75880124684156
 20
-139.0189045876411
 10
90.75880124684156
 20
-138.8707654817754
 10
90.75880124684156
 20
-138.8707654817754
 10
91.09090845161964
 20
-138.8559515711888
 10
91.13741724067052
 20
-138.6929985547365
 10
91.16704506184367
 20
-138.5786213846262
 10
91.16704506184367
 20
-138.5786213846262
 10
91.31311711041825
 20
-138.5786213846262
 10
91.31311711041825
 20
-138.5786213846262
 10
91.31311711041825
 20
-138.5786213846262
 10
91.31311711041825
 20
-140.1230576906637
 10
91.31311711041825
 20
-140.1230576906637
 10
91.31311711041825
 20
-140.1230576906637
 10
91.08884139432848
 20
-140.1230576906637
 10
91.08884139432848
 20
-140.1230576906637
 97
        0
 97
        0
 75
     2
 76
     1
 98
        0
  0
SPLINE
  5
9B
330
95
100
AcDbEntity
  8
_U+30EC_U+30A4_U+30E4_U+30FC 1
370
     0
100
AcDbSpline
210
0.0
220
0.0
230
1.0
 70
    11
 71
     3
 72
    53
 73
    49
 74
     0
 42
0.0000000001
 43
0.0000000001
 12
1.0
 22
0.0
 32
0.0
 13
1.0
 23
0.0
 33
0.0
 40
0.0
 40
0.0
 40
0.0
 40
0.0
 40
1.0
 40
1.0
 40
1.0
 40
2.0
 40
2.0
 40
2.0
 40
3.0
 40
3.0
 40
3.0
 40
4.0
 40
4.0
 40
4.0
 40
5.0
 40
5.0
 40
5.0
 40
6.0
 40
6.0
 40
6.0
 40
7.0
 40
7.0
 40
7.0
 40
8.0
 40
8.0
 40
8.0
 40
9.0
 40
9.0
 40
9.0
 40
10.0
 40
10.0
 40
10.0
 40
11.0
 40
11.0
 40
11.0
 40
12.0
 40
12.0
 40
12.0
 40
13.0
 40
13.0
 40
13.0
 40
14.0
 40
14.0
 40
14.0
 40
15.0
 40
15.0
 40
15.0
 40
16.0
 40
16.0
 40
16.0
 40
16.0
 10
92.29548608803725
 20
-140.1737005942969
 30
0.0
 10
92.21693791097354
 20
-140.1737005942969
 30
0.0
 10
92.1156521037072
 20
-140.1568196264191
 30
0.0
 10
92.0136772773438
 20
-140.0934298694905
 30
0.0
 10
91.84073348398427
 20
-139.9835313235111
 30
0.0
 10
91.81937389197572
 20
-139.852273185523
 30
0.0
 10
91.80008135725832
 20
-139.7444416968347
 30
0.0
 10
91.80008135725832
 20
-139.7444416968347
 30
0.0
 10
92.02263452560545
 20
-139.7444416968347
 30
0.0
 10
92.02263452560545
 20
-139.7444416968347
 30
0.0
 10
92.0770670342724
 20
-139.9432237063336
 30
0.0
 10
92.20453556722664
 20
-139.9728515275068
 30
0.0
 10
92.2975531453284
 20
-139.9728515275068
 30
0.0
 10
92.4367350029325
 20
-139.9728515275068
 30
0.0
 10
92.58900822338053
 20
-139.8732882679831
 30
0.0
 10
92.58900822338053
 20
-139.6407443227287
 30
0.0
 10
92.58900822338053
 20
-139.3847737281747
 30
0.0
 10
92.40917423905049
 20
-139.3148382898241
 30
0.0
 10
92.28859589706674
 20
-139.3148382898241
 30
0.0
 10
92.25690101860245
 20
-139.3148382898241
 30
0.0
 10
92.1156521037072
 20
-139.3148382898241
 30
0.0
 10
92.02676864018775
 20
-139.444029370521
 30
0.0
 10
92.02676864018775
 20
-139.444029370521
 30
0.0
 10
91.85106877044001
 20
-139.4250813453521
 30
0.0
 10
91.85106877044001
 20
-139.4250813453521
 30
0.0
 10
91.85106877044001
 20
-139.4250813453521
 30
0.0
 10
91.97164711242375
 20
-138.5786213846262
 30
0.0
 10
91.97164711242375
 20
-138.5786213846262
 30
0.0
 10
91.97164711242375
 20
-138.5786213846262
 30
0.0
 10
92.75023869209022
 20
-138.5786213846262
 30
0.0
 10
92.75023869209022
 20
-138.5786213846262
 30
0.0
 10
92.75023869209022
 20
-138.5786213846262
 30
0.0
 10
92.75023869209022
 20
-138.7732692795428
 30
0.0
 10
92.75023869209022
 20
-138.7732692795428
 30
0.0
 10
92.75023869209022
 20
-138.7732692795428
 30
0.0
 10
92.13425561932755
 20
-138.7732692795428
 30
0.0
 10
92.13425561932755
 20
-138.7732692795428
 30
0.0
 10
92.13425561932755
 20
-138.7732692795428
 30
0.0
 10
92.0687988051078
 20
-139.1963270051315
 30
0.0
 10
92.0687988051078
 20
-139.1963270051315
 30
0.0
 10
92.13012150474525
 20
-139.162565069376
 30
0.0
 10
92.21280379639124
 20
-139.1222574521986
 30
0.0
 10
92.33131508108384
 20
-139.1222574521986
 30
0.0
 10
92.58487410879823
 20
-139.1222574521986
 30
0.0
 10
92.82189667818342
 20
-139.3086371179506
 30
0.0
 10
92.82189667818342
 20
-139.6217962975598
 30
0.0
 10
92.82189667818342
 20
-139.9390895917514
 30
0.0
 10
92.59796547164218
 20
-140.1737005942969
 30
0.0
 10
92.29548608803725
 20
-140.1737005942969
 30
0.0
  0
HATCH
  5
9C
330
95
100
AcDbEntity
  8
_U+30EC_U+30A4_U+30E4_U+30FC 1
 62
   179
420
  2234388
100
AcDbHatch
 10
0.0
 20
0.0
 30
0.0
210
0.0
220
0.0
230
1.0
  2
SOLID
 70
     1
 71
     0
 91
        1
 92
        1
 93
        1
 72
     4
 94
        3
 73
     0
 74
     1
 95
       53
 96
       49
 40
0.0
 40
0.0
 40
0.0
 40
0.0
 40
1.0
 40
1.0
 40
1.0
 40
2.0
 40
2.0
 40
2.0
 40
3.0
 40
3.0
 40
3.0
 40
4.0
 40
4.0
 40
4.0
 40
5.0
 40
5.0
 40
5.0
 40
6.0
 40
6.0
 40
6.0
 40
7.0
 40
7.0
 40
7.0
 40
8.0
 40
8.0
 40
8.0
 40
9.0
 40
9.0
 40
9.0
 40
10.0
 40
10.0
 40
10.0
 40
11.0
 40
11.0
 40
11.0
 40
12.0
 40
12.0
 40
12.0
 40
13.0
 40
13.0
 40
13.0
 40
14.0
 40
14.0
 40
14.0
 40
15.0
 40
15.0
 40
15.0
 40
16.0
 40
16.0
 40
16.0
 40
16.0
 10
92.29548608803725
 20
-140.1737005942969
 10
92.21693791097354
 20
-140.1737005942969
 10
92.1156521037072
 20
-140.1568196264191
 10
92.0136772773438
 20
-140.0934298694905
 10
91.84073348398427
 20
-139.9835313235111
 10
91.81937389197572
 20
-139.852273185523
 10
91.80008135725832
 20
-139.7444416968347
 10
91.80008135725832
 20
-139.7444416968347
 10
92.02263452560545
 20
-139.7444416968347
 10
92.02263452560545
 20
-139.7444416968347
 10
92.0770670342724
 20
-139.9432237063336
 10
92.20453556722664
 20
-139.9728515275068
 10
92.2975531453284
 20
-139.9728515275068
 10
92.4367350029325
 20
-139.9728515275068
 10
92.58900822338053
 20
-139.8732882679831
 10
92.58900822338053
 20
-139.6407443227287
 10
92.58900822338053
 20
-139.3847737281747
 10
92.40917423905049
 20
-139.3148382898241
 10
92.28859589706674
 20
-139.3148382898241
 10
92.25690101860245
 20
-139.3148382898241
 10
92.1156521037072
 20
-139.3148382898241
 10
92.02676864018775
 20
-139.444029370521
 10
92.02676864018775
 20
-139.444029370521
 10
91.85106877044001
 20
-139.4250813453521
 10
91.85106877044001
 20
-139.4250813453521
 10
91.85106877044001
 20
-139.4250813453521
 10
91.97164711242375
 20
-138.5786213846262
 10
91.97164711242375
 20
-138.5786213846262
 10
91.97164711242375
 20
-138.5786213846262
 10
92.75023869209022
 20
-138.5786213846262
 10
92.75023869209022
 20
-138.5786213846262
 10
92.75023869209022
 20
-138.5786213846262
 10
92.75023869209022
 20
-138.7732692795428
 10
92.75023869209022
 20
-138.7732692795428
 10
92.75023869209022
 20
-138.7732692795428
 10
92.13425561932755
 20
-138.7732692795428
 10
92.13425561932755
 20
-138.7732692795428
 10
92.13425561932755
 20
-138.7732692795428
 10
92.0687988051078
 20
-139.1963270051315
 10
92.0687988051078
 20
-139.1963270051315
 10
92.13012150474525
 20
-139.162565069376
 10
92.21280379639124
 20
-139.1222574521986
 10
92.33131508108384
 20
-139.1222574521986
 10
92.58487410879823
 20
-139.1222574521986
 10
92.82189667818342
 20
-139.3086371179506
 10
92.82189667818342
 20
-139.6217962975598
 10
92.82189667818342
 20
-139.9390895917514
 10
92.59796547164218
 20
-140.1737005942969
 10
92.29548608803725
 20
-140.1737005942969
 97
        0
 97
        0
 75
     2
 76
     1
 98
        0
  0
ENDBLK
  5
98
330
95
100
AcDbEntity
  8
0
100
AcDbBlockEnd
  0
BLOCK
  5
AB
330
A9
100
AcDbEntity
  8
0
100
AcDbBlockBegin
  2
block 6
 70
     0
 10
0.0
 20
0.0
 30
0.0
  3
block 6
  1

  0
SPLINE
  5
AD
330
A9
100
AcDbEntity
  8
_U+30EC_U+30A4_U+30E4_U+30FC 1
370
     0
100
AcDbSpline
210
0.0
220
0.0
230
1.0
 70
    11
 71
     3
 72
    29
 73
    25
 74
     0
 42
0.0000000001
 43
0.0000000001
 12
1.0
 22
0.0
 32
0.0
 13
1.0
 23
0.0
 33
0.0
 40
0.0
 40
0.0
 40
0.0
 40
0.0
 40
1.0
 40
1.0
 40
1.0
 40
2.0
 40
2.0
 40
2.0
 40
3.0
 40
3.0
 40
3.0
 40
4.0
 40
4.0
 40
4.0
 40
5.0
 40
5.0
 40
5.0
 40
6.0
 40
6.0
 40
6.0
 40
7.0
 40
7.0
 40
7.0
 40
8.0
 40
8.0
 40
8.0
 40
8.0
 10
102.7613416626777
 20
-132.9662163296057
 30
0.0
 10
102.7613416626777
 20
-133.232866720164
 30
0.0
 10
102.6238823528163
 20
-133.4867702574269
 30
0.0
 10
102.2748941801604
 20
-133.4867702574269
 30
0.0
 10
102.0189235856064
 20
-133.4867702574269
 30
0.0
 10
101.9238389502135
 20
-133.3448323234346
 30
0.0
 10
101.862516250576
 20
-133.2390678920375
 30
0.0
 10
101.8032606082297
 20
-133.3637803486035
 30
0.0
 10
101.6888834381194
 20
-133.4399169588275
 30
0.0
 10
101.5279974789583
 20
-133.4399169588275
 30
0.0
 10
101.2530788592353
 20
-133.4399169588275
 30
0.0
 10
101.117686606665
 20
-133.2411349493286
 30
0.0
 10
101.117686606665
 20
-132.9662163296057
 30
0.0
 10
101.117686606665
 20
-132.6826849711696
 30
0.0
 10
101.2616915979485
 20
-132.4921711908353
 30
0.0
 10
101.5279974789583
 20
-132.4921711908353
 30
0.0
 10
101.6888834381194
 20
-132.4921711908353
 30
0.0
 10
101.8032606082297
 20
-132.570719367899
 30
0.0
 10
101.862516250576
 20
-132.695431824465
 30
0.0
 10
101.9131591542092
 20
-132.6065483609456
 30
0.0
 10
102.0082437896021
 20
-132.4477294590756
 30
0.0
 10
102.2707600655781
 20
-132.4477294590756
 30
0.0
 10
102.6452419448248
 20
-132.4477294590756
 30
0.0
 10
102.7613416626777
 20
-132.7271267029293
 30
0.0
 10
102.7613416626777
 20
-132.9662163296057
 30
0.0
  0
SPLINE
  5
AE
330
A9
100
AcDbEntity
  8
_U+30EC_U+30A4_U+30E4_U+30FC 1
370
     0
100
AcDbSpline
210
0.0
220
0.0
230
1.0
 70
    11
 71
     3
 72
    17
 73
    13
 74
     0
 42
0.0000000001
 43
0.0000000001
 12
1.0
 22
0.0
 32
0.0
 13
1.0
 23
0.0
 33
0.0
 40
0.0
 40
0.0
 40
0.0
 40
0.0
 40
1.0
 40
1.0
 40
1.0
 40
2.0
 40
2.0
 40
2.0
 40
3.0
 40
3.0
 40
3.0
 40
4.0
 40
4.0
 40
4.0
 40
4.0
 10
101.3102674442905
 20
-132.9662163296057
 30
0.0
 10
101.3102674442905
 20
-133.1312364033491
 30
0.0
 10
101.4053520796834
 20
-133.2159857522863
 30
0.0
 10
101.5407443322537
 20
-133.2159857522863
 30
0.0
 10
101.6633897315286
 20
-133.2159857522863
 30
0.0
 10
101.7819010162212
 20
-133.1439832566446
 30
0.0
 10
101.7819010162212
 20
-132.9662163296057
 30
0.0
 10
101.7819010162212
 20
-132.7884494025668
 30
0.0
 10
101.6633897315286
 20
-132.7164469069251
 30
0.0
 10
101.5407443322537
 20
-132.7164469069251
 30
0.0
 10
101.4053520796834
 20
-132.7164469069251
 30
0.0
 10
101.3102674442905
 20
-132.8032633131534
 30
0.0
 10
101.3102674442905
 20
-132.9662163296057
 30
0.0
  0
SPLINE
  5
AF
330
A9
100
AcDbEntity
  8
_U+30EC_U+30A4_U+30E4_U+30FC 1
370
     0
100
AcDbSpline
210
0.0
220
0.0
230
1.0
 70
    11
 71
     3
 72
    17
 73
    13
 74
     0
 42
0.0000000001
 43
0.0000000001
 12
1.0
 22
0.0
 32
0.0
 13
1.0
 23
0.0
 33
0.0
 40
0.0
 40
0.0
 40
0.0
 40
0.0
 40
1.0
 40
1.0
 40
1.0
 40
2.0
 40
2.0
 40
2.0
 40
3.0
 40
3.0
 40
3.0
 40
4.0
 40
4.0
 40
4.0
 40
4.0
 10
101.9703477392644
 20
-132.9662163296057
 30
0.0
 10
101.9703477392644
 20
-133.1098768113406
 30
0.0
 10
102.0571641454927
 20
-133.2624945413372
 30
0.0
 10
102.2600802695739
 20
-133.2624945413372
 30
0.0
 10
102.4654079604948
 20
-133.2624945413372
 30
0.0
 10
102.5666937677611
 20
-133.1353705179314
 30
0.0
 10
102.5666937677611
 20
-132.9662163296057
 30
0.0
 10
102.5666937677611
 20
-132.7801811734022
 30
0.0
 10
102.4440483684862
 20
-132.6699381178742
 30
0.0
 10
102.2662814414473
 20
-132.6699381178742
 30
0.0
 10
102.0444172921972
 20
-132.6699381178742
 30
0.0
 10
101.9703477392644
 20
-132.8328911343265
 30
0.0
 10
101.9703477392644
 20
-132.9662163296057
 30
0.0
  0
HATCH
  5
B0
330
A9
100
AcDbEntity
  8
_U+30EC_U+30A4_U+30E4_U+30FC 1
 62
   179
420
  2234388
100
AcDbHatch
 10
0.0
 20
0.0
 30
0.0
210
0.0
220
0.0
230
1.0
  2
SOLID
 70
     1
 71
     0
 91
        3
 92
        1
 93
        1
 72
     4
 94
        3
 73
     0
 74
     1
 95
       29
 96
       25
 40
0.0
 40
0.0
 40
0.0
 40
0.0
 40
1.0
 40
1.0
 40
1.0
 40
2.0
 40
2.0
 40
2.0
 40
3.0
 40
3.0
 40
3.0
 40
4.0
 40
4.0
 40
4.0
 40
5.0
 40
5.0
 40
5.0
 40
6.0
 40
6.0
 40
6.0
 40
7.0
 40
7.0
 40
7.0
 40
8.0
 40
8.0
 40
8.0
 40
8.0
 10
102.7613416626777
 20
-132.9662163296057
 10
102.7613416626777
 20
-133.232866720164
 10
102.6238823528163
 20
-133.4867702574269
 10
102.2748941801604
 20
-133.4867702574269
 10
102.0189235856064
 20
-133.4867702574269
 10
101.9238389502135
 20
-133.3448323234346
 10
101.862516250576
 20
-133.2390678920375
 10
101.8032606082297
 20
-133.3637803486035
 10
101.6888834381194
 20
-133.4399169588275
 10
101.5279974789583
 20
-133.4399169588275
 10
101.2530788592353
 20
-133.4399169588275
 10
101.117686606665
 20
-133.2411349493286
 10
101.117686606665
 20
-132.9662163296057
 10
101.117686606665
 20
-132.6826849711696
 10
101.2616915979485
 20
-132.4921711908353
 10
101.5279974789583
 20
-132.4921711908353
 10
101.6888834381194
 20
-132.4921711908353
 10
101.8032606082297
 20
-132.570719367899
 10
101.862516250576
 20
-132.695431824465
 10
101.9131591542092
 20
-132.6065483609456
 10
102.0082437896021
 20
-132.4477294590756
 10
102.2707600655781
 20
-132.4477294590756
 10
102.6452419448248
 20
-132.4477294590756
 10
102.7613416626777
 20
-132.7271267029293
 10
102.7613416626777
 20
-132.9662163296057
 97
        0
 97
        0
 92
        1
 93
        1
 72
     4
 94
        3
 73
     0
 74
     1
 95
       17
 96
       13
 40
0.0
 40
0.0
 40
0.0
 40
0.0
 40
1.0
 40
1.0
 40
1.0
 40
2.0
 40
2.0
 40
2.0
 40
3.0
 40
3.0
 40
3.0
 40
4.0
 40
4.0
 40
4.0
 40
4.0
 10
101.3102674442905
 20
-132.9662163296057
 10
101.3102674442905
 20
-133.1312364033491
 10
101.4053520796834
 20
-133.2159857522863
 10
101.5407443322537
 20
-133.2159857522863
 10
101.6633897315286
 20
-133.2159857522863
 10
101.7819010162212
 20
-133.1439832566446
 10
101.7819010162212
 20
-132.9662163296057
 10
101.7819010162212
 20
-132.7884494025668
 10
101.6633897315286
 20
-132.7164469069251
 10
101.5407443322537
 20
-132.7164469069251
 10
101.4053520796834
 20
-132.7164469069251
 10
101.3102674442905
 20
-132.8032633131534
 10
101.3102674442905
 20
-132.9662163296057
 97
        0
 97
        0
 92
        1
 93
        1
 72
     4
 94
        3
 73
     0
 74
     1
 95
       17
 96
       13
 40
0.0
 40
0.0
 40
0.0
 40
0.0
 40
1.0
 40
1.0
 40
1.0
 40
2.0
 40
2.0
 40
2.0
 40
3.0
 40
3.0
 40
3.0
 40
4.0
 40
4.0
 40
4.0
 40
4.0
 10
101.9703477392644
 20
-132.9662163296057
 10
101.9703477392644
 20
-133.1098768113406
 10
102.0571641454927
 20
-133.2624945413372
 10
102.2600802695739
 20
-133.2624945413372
 10
102.4654079604948
 20
-133.2624945413372
 10
102.5666937677611
 20
-133.1353705179314
 10
102.5666937677611
 20
-132.9662163296057
 10
102.5666937677611
 20
-132.7801811734022
 10
102.4440483684862
 20
-132.6699381178742
 10
102.2662814414473
 20
-132.6699381178742
 10
102.0444172921972
 20
-132.6699381178742
 10
101.9703477392644
 20
-132.8328911343265
 10
101.9703477392644
 20
-132.9662163296057
 97
        0
 97
        0
 75
     2
 76
     1
 98
        0
  0
POLYLINE
  5
B1
330
A9
100
AcDbEntity
  8
_U+30EC_U+30A4_U+30E4_U+30FC 1
370
     0
100
AcDb2dPolyline
 66
     1
 10
0.0
 20
0.0
 30
0.0
  0
VERTEX
  5
B2
330
B1
100
AcDbEntity
  8
_U+30EC_U+30A4_U+30E4_U+30FC 1
370
     0
100
AcDbVertex
100
AcDb2dVertex
 10
102.7106987590445
 20
-132.2293104053107
 30
0.0
  0
VERTEX
  5
B3
330
B1
100
AcDbEntity
  8
_U+30EC_U+30A4_U+30E4_U+30FC 1
370
     0
100
AcDbVertex
100
AcDb2dVertex
 10
102.4588622790728
 20
-132.2293104053107
 30
0.0
  0
VERTEX
  5
B4
330
B1
100
AcDbEntity
  8
_U+30EC_U+30A4_U+30E4_U+30FC 1
370
     0
100
AcDbVertex
100
AcDb2dVertex
 10
102.4588622790728
 20
-131.977473925339
 30
0.0
  0
VERTEX
  5
B5
330
B1
100
AcDbEntity
  8
_U+30EC_U+30A4_U+30E4_U+30FC 1
370
     0
100
AcDbVertex
100
AcDb2dVertex
 10
102.7106987590445
 20
-131.977473925339
 30
0.0
  0
VERTEX
  5
B6
330
B1
100
AcDbEntity
  8
_U+30EC_U+30A4_U+30E4_U+30FC 1
370
     0
100
AcDbVertex
100
AcDb2dVertex
 10
102.7106987590445
 20
-132.2293104053107
 30
0.0
  0
SEQEND
  5
B7
330
B1
100
AcDbEntity
  8
_U+30EC_U+30A4_U+30E4_U+30FC 1
370
     0
  0
HATCH
  5
B8
330
A9
100
AcDbEntity
  8
_U+30EC_U+30A4_U+30E4_U+30FC 1
 62
   179
420
  2234388
100
AcDbHatch
 10
0.0
 20
0.0
 30
0.0
210
0.0
220
0.0
230
1.0
  2
SOLID
 70
     1
 71
     0
 91
        1
 92
        1
 93
        4
 72
     1
 10
102.7106987590445
 20
-132.2293104053107
 11
102.4588622790728
 21
-132.2293104053107
 72
     1
 10
102.4588622790728
 20
-132.2293104053107
 11
102.4588622790728
 21
-131.977473925339
 72
     1
 10
102.4588622790728
 20
-131.977473925339
 11
102.7106987590445
 21
-131.977473925339
 72
     1
 10
102.7106987590445
 20
-131.977473925339
 11
102.7106987590445
 21
-132.2293104053107
 97
        0
 75
     2
 76
     1
 98
        0
  0
SPLINE
  5
B9
330
A9
100
AcDbEntity
  8
_U+30EC_U+30A4_U+30E4_U+30FC 1
370
     0
100
AcDbSpline
210
0.0
220
0.0
230
1.0
 70
    11
 71
     3
 72
    53
 73
    49
 74
     0
 42
0.0000000001
 43
0.0000000001
 12
1.0
 22
0.0
 32
0.0
 13
1.0
 23
0.0
 33
0.0
 40
0.0
 40
0.0
 40
0.0
 40
0.0
 40
1.0
 40
1.0
 40
1.0
 40
2.0
 40
2.0
 40
2.0
 40
3.0
 40
3.0
 40
3.0
 40
4.0
 40
4.0
 40
4.0
 40
5.0
 40
5.0
 40
5.0
 40
6.0
 40
6.0
 40
6.0
 40
7.0
 40
7.0
 40
7.0
 40
8.0
 40
8.0
 40
8.0
 40
9.0
 40
9.0
 40
9.0
 40
10.0
 40
10.0
 40
10.0
 40
11.0
 40
11.0
 40
11.0
 40
12.0
 40
12.0
 40
12.0
 40
13.0
 40
13.0
 40
13.0
 40
14.0
 40
14.0
 40
14.0
 40
15.0
 40
15.0
 40
15.0
 40
16.0
 40
16.0
 40
16.0
 40
16.0
 10
102.7613416626777
 20
-131.26020504531
 30
0.0
 10
102.7613416626777
 20
-131.3384087128251
 30
0.0
 10
102.7444606948
 20
-131.44003902964
 30
0.0
 10
102.6810709378714
 20
-131.5416693464549
 30
0.0
 10
102.5711723918919
 20
-131.7149576493629
 30
0.0
 10
102.4399142539039
 20
-131.7363172413715
 30
0.0
 10
102.3320827652156
 20
-131.7552652665404
 30
0.0
 10
102.3320827652156
 20
-131.7552652665404
 30
0.0
 10
102.3320827652156
 20
-131.5330566077417
 30
0.0
 10
102.3320827652156
 20
-131.5330566077417
 30
0.0
 10
102.5308647747145
 20
-131.4782795895263
 30
0.0
 10
102.5604925958877
 20
-131.3511555661206
 30
0.0
 10
102.5604925958877
 20
-131.2581379880188
 30
0.0
 10
102.5604925958877
 20
-131.1186116208662
 30
0.0
 10
102.4609293363639
 20
-130.9663384004182
 30
0.0
 10
102.2283853911096
 20
-130.9663384004182
 30
0.0
 10
101.9724147965555
 20
-130.9663384004182
 30
0.0
 10
101.9024793582049
 20
-131.1461723847482
 30
0.0
 10
101.9024793582049
 20
-131.2667507267319
 30
0.0
 10
101.9024793582049
 20
-131.2984456051962
 30
0.0
 10
101.9024793582049
 20
-131.44003902964
 30
0.0
 10
102.0316704389018
 20
-131.5289224931595
 30
0.0
 10
102.0316704389018
 20
-131.5289224931595
 30
0.0
 10
102.0127224137329
 20
-131.7046223629072
 30
0.0
 10
102.0127224137329
 20
-131.7046223629072
 30
0.0
 10
102.0127224137329
 20
-131.7046223629072
 30
0.0
 10
101.1662624530071
 20
-131.5840440209234
 30
0.0
 10
101.1662624530071
 20
-131.5840440209234
 30
0.0
 10
101.1662624530071
 20
-131.5840440209234
 30
0.0
 10
101.1662624530071
 20
-130.805452441257
 30
0.0
 10
101.1662624530071
 20
-130.805452441257
 30
0.0
 10
101.1662624530071
 20
-130.805452441257
 30
0.0
 10
101.3609103479237
 20
-130.805452441257
 30
0.0
 10
101.3609103479237
 20
-130.805452441257
 30
0.0
 10
101.3609103479237
 20
-130.805452441257
 30
0.0
 10
101.3609103479237
 20
-131.4210910044711
 30
0.0
 10
101.3609103479237
 20
-131.4210910044711
 30
0.0
 10
101.3609103479237
 20
-131.4210910044711
 30
0.0
 10
101.7839680735123
 20
-131.4865478186909
 30
0.0
 10
101.7839680735123
 20
-131.4865478186909
 30
0.0
 10
101.7502061377569
 20
-131.4252251190534
 30
0.0
 10
101.7098985205795
 20
-131.342887336956
 30
0.0
 10
101.7098985205795
 20
-131.2243760522634
 30
0.0
 10
101.7098985205795
 20
-130.9704725150004
 30
0.0
 10
101.8962781863315
 20
-130.7334499456153
 30
0.0
 10
102.2094373659407
 20
-130.7334499456153
 30
0.0
 10
102.5267306601322
 20
-130.7334499456153
 30
0.0
 10
102.7613416626777
 20
-130.957725661705
 30
0.0
 10
102.7613416626777
 20
-131.26020504531
 30
0.0
  0
HATCH
  5
BA
330
A9
100
AcDbEntity
  8
_U+30EC_U+30A4_U+30E4_U+30FC 1
 62
   179
420
  2234388
100
AcDbHatch
 10
0.0
 20
0.0
 30
0.0
210
0.0
220
0.0
230
1.0
  2
SOLID
 70
     1
 71
     0
 91
        1
 92
        1
 93
        1
 72
     4
 94
        3
 73
     0
 74
     1
 95
       53
 96
       49
 40
0.0
 40
0.0
 40
0.0
 40
0.0
 40
1.0
 40
1.0
 40
1.0
 40
2.0
 40
2.0
 40
2.0
 40
3.0
 40
3.0
 40
3.0
 40
4.0
 40
4.0
 40
4.0
 40
5.0
 40
5.0
 40
5.0
 40
6.0
 40
6.0
 40
6.0
 40
7.0
 40
7.0
 40
7.0
 40
8.0
 40
8.0
 40
8.0
 40
9.0
 40
9.0
 40
9.0
 40
10.0
 40
10.0
 40
10.0
 40
11.0
 40
11.0
 40
11.0
 40
12.0
 40
12.0
 40
12.0
 40
13.0
 40
13.0
 40
13.0
 40
14.0
 40
14.0
 40
14.0
 40
15.0
 40
15.0
 40
15.0
 40
16.0
 40
16.0
 40
16.0
 40
16.0
 10
102.7613416626777
 20
-131.26020504531
 10
102.7613416626777
 20
-131.3384087128251
 10
102.7444606948
 20
-131.44003902964
 10
102.6810709378714
 20
-131.5416693464549
 10
102.5711723918919
 20
-131.7149576493629
 10
102.4399142539039
 20
-131.7363172413715
 10
102.3320827652156
 20
-131.7552652665404
 10
102.3320827652156
 20
-131.7552652665404
 10
102.3320827652156
 20
-131.5330566077417
 10
102.3320827652156
 20
-131.5330566077417
 10
102.5308647747145
 20
-131.4782795895263
 10
102.5604925958877
 20
-131.3511555661206
 10
102.5604925958877
 20
-131.2581379880188
 10
102.5604925958877
 20
-131.1186116208662
 10
102.4609293363639
 20
-130.9663384004182
 10
102.2283853911096
 20
-130.9663384004182
 10
101.9724147965555
 20
-130.9663384004182
 10
101.9024793582049
 20
-131.1461723847482
 10
101.9024793582049
 20
-131.2667507267319
 10
101.9024793582049
 20
-131.2984456051962
 10
101.9024793582049
 20
-131.44003902964
 10
102.0316704389018
 20
-131.5289224931595
 10
102.0316704389018
 20
-131.5289224931595
 10
102.0127224137329
 20
-131.7046223629072
 10
102.0127224137329
 20
-131.7046223629072
 10
102.0127224137329
 20
-131.7046223629072
 10
101.1662624530071
 20
-131.5840440209234
 10
101.1662624530071
 20
-131.5840440209234
 10
101.1662624530071
 20
-131.5840440209234
 10
101.1662624530071
 20
-130.805452441257
 10
101.1662624530071
 20
-130.805452441257
 10
101.1662624530071
 20
-130.805452441257
 10
101.3609103479237
 20
-130.805452441257
 10
101.3609103479237
 20
-130.805452441257
 10
101.3609103479237
 20
-130.805452441257
 10
101.3609103479237
 20
-131.4210910044711
 10
101.3609103479237
 20
-131.4210910044711
 10
101.3609103479237
 20
-131.4210910044711
 10
101.7839680735123
 20
-131.4865478186909
 10
101.7839680735123
 20
-131.4865478186909
 10
101.7502061377569
 20
-131.4252251190534
 10
101.7098985205795
 20
-131.342887336956
 10
101.7098985205795
 20
-131.2243760522634
 10
101.7098985205795
 20
-130.9704725150004
 10
101.8962781863315
 20
-130.7334499456153
 10
102.2094373659407
 20
-130.7334499456153
 10
102.5267306601322
 20
-130.7334499456153
 10
102.7613416626777
 20
-130.957725661705
 10
102.7613416626777
 20
-131.26020504531
 97
        0
 97
        0
 75
     2
 76
     1
 98
        0
  0
ENDBLK
  5
AC
330
A9
100
AcDbEntity
  8
0
100
AcDbBlockEnd
  0
BLOCK
  5
C9
330
C7
100
AcDbEntity
  8
0
100
AcDbBlockBegin
  2
block 7
 70
     0
 10
0.0
 20
0.0
 30
0.0
  3
block 7
  1

  0
SPLINE
  5
CB
330
C7
100
AcDbEntity
  8
_U+30EC_U+30A4_U+30E4_U+30FC 1
370
     0
100
AcDbSpline
210
0.0
220
0.0
230
1.0
 70
    11
 71
     3
 72
    26
 73
    22
 74
     0
 42
0.0000000001
 43
0.0000000001
 12
1.0
 22
0.0
 32
0.0
 13
1.0
 23
0.0
 33
0.0
 40
0.0
 40
0.0
 40
0.0
 40
0.0
 40
1.0
 40
1.0
 40
1.0
 40
2.0
 40
2.0
 40
2.0
 40
3.0
 40
3.0
 40
3.0
 40
4.0
 40
4.0
 40
4.0
 40
5.0
 40
5.0
 40
5.0
 40
6.0
 40
6.0
 40
6.0
 40
7.0
 40
7.0
 40
7.0
 40
7.0
 10
79.71020777087107
 20
-129.8956027236025
 30
0.0
 10
79.71020777087107
 20
-129.8956027236025
 30
0.0
 10
78.60588241307423
 20
-129.8956027236025
 30
0.0
 10
78.60588241307423
 20
-129.8956027236025
 30
0.0
 10
78.60588241307423
 20
-129.8956027236025
 30
0.0
 10
78.60588241307423
 20
-130.2256428710894
 30
0.0
 10
78.60588241307423
 20
-130.2256428710894
 30
0.0
 10
78.60588241307423
 20
-130.2256428710894
 30
0.0
 10
78.45774330720849
 20
-130.2256428710894
 30
0.0
 10
78.45774330720849
 20
-130.2256428710894
 30
0.0
 10
78.44310165139618
 20
-129.8935356663114
 30
0.0
 10
78.28014863494386
 20
-129.8470268772605
 30
0.0
 10
78.16594371960782
 20
-129.8173990560873
 30
0.0
 10
78.16594371960782
 20
-129.8173990560873
 30
0.0
 10
78.16594371960782
 20
-129.6713270075127
 30
0.0
 10
78.16594371960782
 20
-129.6713270075127
 30
0.0
 10
78.16594371960782
 20
-129.6713270075127
 30
0.0
 10
79.71020777087107
 20
-129.6713270075127
 30
0.0
 10
79.71020777087107
 20
-129.6713270075127
 30
0.0
 10
79.71020777087107
 20
-129.6713270075127
 30
0.0
 10
79.71020777087107
 20
-129.8956027236025
 30
0.0
 10
79.71020777087107
 20
-129.8956027236025
 30
0.0
  0
HATCH
  5
CC
330
C7
100
AcDbEntity
  8
_U+30EC_U+30A4_U+30E4_U+30FC 1
 62
   179
420
  2234388
100
AcDbHatch
 10
0.0
 20
0.0
 30
0.0
210
0.0
220
0.0
230
1.0
  2
SOLID
 70
     1
 71
     0
 91
        1
 92
        1
 93
        1
 72
     4
 94
        3
 73
     0
 74
     1
 95
       26
 96
       22
 40
0.0
 40
0.0
 40
0.0
 40
0.0
 40
1.0
 40
1.0
 40
1.0
 40
2.0
 40
2.0
 40
2.0
 40
3.0
 40
3.0
 40
3.0
 40
4.0
 40
4.0
 40
4.0
 40
5.0
 40
5.0
 40
5.0
 40
6.0
 40
6.0
 40
6.0
 40
7.0
 40
7.0
 40
7.0
 40
7.0
 10
79.71020777087107
 20
-129.8956027236025
 10
79.71020777087107
 20
-129.8956027236025
 10
78.60588241307423
 20
-129.8956027236025
 10
78.60588241307423
 20
-129.8956027236025
 10
78.60588241307423
 20
-129.8956027236025
 10
78.60588241307423
 20
-130.2256428710894
 10
78.60588241307423
 20
-130.2256428710894
 10
78.60588241307423
 20
-130.2256428710894
 10
78.45774330720849
 20
-130.2256428710894
 10
78.45774330720849
 20
-130.2256428710894
 10
78.44310165139618
 20
-129.8935356663114
 10
78.28014863494386
 20
-129.8470268772605
 10
78.16594371960782
 20
-129.8173990560873
 10
78.16594371960782
 20
-129.8173990560873
 10
78.16594371960782
 20
-129.6713270075127
 10
78.16594371960782
 20
-129.6713270075127
 10
78.16594371960782
 20
-129.6713270075127
 10
79.71020777087107
 20
-129.6713270075127
 10
79.71020777087107
 20
-129.6713270075127
 10
79.71020777087107
 20
-129.6713270075127
 10
79.71020777087107
 20
-129.8956027236025
 10
79.71020777087107
 20
-129.8956027236025
 97
        0
 97
        0
 75
     2
 76
     1
 98
        0
  0
SPLINE
  5
CD
330
C7
100
AcDbEntity
  8
_U+30EC_U+30A4_U+30E4_U+30FC 1
370
     0
100
AcDbSpline
210
0.0
220
0.0
230
1.0
 70
    11
 71
     3
 72
    53
 73
    49
 74
     0
 42
0.0000000001
 43
0.0000000001
 12
1.0
 22
0.0
 32
0.0
 13
1.0
 23
0.0
 33
0.0
 40
0.0
 40
0.0
 40
0.0
 40
0.0
 40
1.0
 40
1.0
 40
1.0
 40
2.0
 40
2.0
 40
2.0
 40
3.0
 40
3.0
 40
3.0
 40
4.0
 40
4.0
 40
4.0
 40
5.0
 40
5.0
 40
5.0
 40
6.0
 40
6.0
 40
6.0
 40
7.0
 40
7.0
 40
7.0
 40
8.0
 40
8.0
 40
8.0
 40
9.0
 40
9.0
 40
9.0
 40
10.0
 40
10.0
 40
10.0
 40
11.0
 40
11.0
 40
11.0
 40
12.0
 40
12.0
 40
12.0
 40
13.0
 40
13.0
 40
13.0
 40
14.0
 40
14.0
 40
14.0
 40
15.0
 40
15.0
 40
15.0
 40
16.0
 40
16.0
 40
16.0
 40
16.0
 10
79.7610229292785
 20
-128.689130284668
 30
0.0
 10
79.7610229292785
 20
-128.7673339521832
 30
0.0
 10
79.74414196140077
 20
-128.868964268998
 30
0.0
 10
79.68057994969791
 20
-128.9705945858129
 30
0.0
 10
79.57050914894418
 20
-129.143882888721
 30
0.0
 10
79.43942326573043
 20
-129.1652424807295
 30
0.0
 10
79.3315917770421
 20
-129.1841905058984
 30
0.0
 10
79.3315917770421
 20
-129.1841905058984
 30
0.0
 10
79.3315917770421
 20
-128.9619818470998
 30
0.0
 10
79.3315917770421
 20
-128.9619818470998
 30
0.0
 10
79.53037378654102
 20
-128.9072048288843
 30
0.0
 10
79.56000160771417
 20
-128.7800808054786
 30
0.0
 10
79.56000160771417
 20
-128.6870632273769
 30
0.0
 10
79.56000160771417
 20
-128.5475368602242
 30
0.0
 10
79.4606106029647
 20
-128.3952636397762
 30
0.0
 10
79.22789440293609
 20
-128.3952636397762
 30
0.0
 10
78.97192380838202
 20
-128.3952636397762
 30
0.0
 10
78.90216062480572
 20
-128.5750976241062
 30
0.0
 10
78.90216062480572
 20
-128.69567596609
 30
0.0
 10
78.90216062480572
 20
-128.7273708445543
 30
0.0
 10
78.90216062480572
 20
-128.868964268998
 30
0.0
 10
79.03117945072832
 20
-128.9578477325175
 30
0.0
 10
79.03117945072832
 20
-128.9578477325175
 30
0.0
 10
79.01205917078518
 20
-129.1335476022652
 30
0.0
 10
79.01205917078518
 20
-129.1335476022652
 30
0.0
 10
79.01205917078518
 20
-129.1335476022652
 30
0.0
 10
78.16594371960782
 20
-129.0129692602815
 30
0.0
 10
78.16594371960782
 20
-129.0129692602815
 30
0.0
 10
78.16594371960782
 20
-129.0129692602815
 30
0.0
 10
78.16594371960782
 20
-128.234377680615
 30
0.0
 10
78.16594371960782
 20
-128.234377680615
 30
0.0
 10
78.16594371960782
 20
-128.234377680615
 30
0.0
 10
78.36059161452444
 20
-128.234377680615
 30
0.0
 10
78.36059161452444
 20
-128.234377680615
 30
0.0
 10
78.36059161452444
 20
-128.234377680615
 30
0.0
 10
78.36059161452444
 20
-128.8500162438292
 30
0.0
 10
78.36059161452444
 20
-128.8500162438292
 30
0.0
 10
78.36059161452444
 20
-128.8500162438292
 30
0.0
 10
78.78364934011312
 20
-128.9154730580489
 30
0.0
 10
78.78364934011312
 20
-128.9154730580489
 30
0.0
 10
78.74971514958341
 20
-128.8541503584115
 30
0.0
 10
78.70957978718025
 20
-128.771812576314
 30
0.0
 10
78.70957978718025
 20
-128.6533012916214
 30
0.0
 10
78.70957978718025
 20
-128.3993977543585
 30
0.0
 10
78.895787198158
 20
-128.1623751849733
 30
0.0
 10
79.20877412299295
 20
-128.1623751849733
 30
0.0
 10
79.52623967195872
 20
-128.1623751849733
 30
0.0
 10
79.7610229292785
 20
-128.3866509010631
 30
0.0
 10
79.7610229292785
 20
-128.689130284668
 30
0.0
  0
HATCH
  5
CE
330
C7
100
AcDbEntity
  8
_U+30EC_U+30A4_U+30E4_U+30FC 1
 62
   179
420
  2234388
100
AcDbHatch
 10
0.0
 20
0.0
 30
0.0
210
0.0
220
0.0
230
1.0
  2
SOLID
 70
     1
 71
     0
 91
        1
 92
        1
 93
        1
 72
     4
 94
        3
 73
     0
 74
     1
 95
       53
 96
       49
 40
0.0
 40
0.0
 40
0.0
 40
0.0
 40
1.0
 40
1.0
 40
1.0
 40
2.0
 40
2.0
 40
2.0
 40
3.0
 40
3.0
 40
3.0
 40
4.0
 40
4.0
 40
4.0
 40
5.0
 40
5.0
 40
5.0
 40
6.0
 40
6.0
 40
6.0
 40
7.0
 40
7.0
 40
7.0
 40
8.0
 40
8.0
 40
8.0
 40
9.0
 40
9.0
 40
9.0
 40
10.0
 40
10.0
 40
10.0
 40
11.0
 40
11.0
 40
11.0
 40
12.0
 40
12.0
 40
12.0
 40
13.0
 40
13.0
 40
13.0
 40
14.0
 40
14.0
 40
14.0
 40
15.0
 40
15.0
 40
15.0
 40
16.0
 40
16.0
 40
16.0
 40
16.0
 10
79.7610229292785
 20
-128.689130284668
 10
79.7610229292785
 20
-128.7673339521832
 10
79.74414196140077
 20
-128.868964268998
 10
79.68057994969791
 20
-128.9705945858129
 10
79.57050914894418
 20
-129.143882888721
 10
79.43942326573043
 20
-129.1652424807295
 10
79.3315917770421
 20
-129.1841905058984
 10
79.3315917770421
 20
-129.1841905058984
 10
79.3315917770421
 20
-128.9619818470998
 10
79.3315917770421
 20
-128.9619818470998
 10
79.53037378654102
 20
-128.9072048288843
 10
79.56000160771417
 20
-128.7800808054786
 10
79.56000160771417
 20
-128.6870632273769
 10
79.56000160771417
 20
-128.5475368602242
 10
79.4606106029647
 20
-128.3952636397762
 10
79.22789440293609
 20
-128.3952636397762
 10
78.97192380838202
 20
-128.3952636397762
 10
78.90216062480572
 20
-128.5750976241062
 10
78.90216062480572
 20
-128.69567596609
 10
78.90216062480572
 20
-128.7273708445543
 10
78.90216062480572
 20
-128.868964268998
 10
79.03117945072832
 20
-128.9578477325175
 10
79.03117945072832
 20
-128.9578477325175
 10
79.01205917078518
 20
-129.1335476022652
 10
79.01205917078518
 20
-129.1335476022652
 10
79.01205917078518
 20
-129.1335476022652
 10
78.16594371960782
 20
-129.0129692602815
 10
78.16594371960782
 20
-129.0129692602815
 10
78.16594371960782
 20
-129.0129692602815
 10
78.16594371960782
 20
-128.234377680615
 10
78.16594371960782
 20
-128.234377680615
 10
78.16594371960782
 20
-128.234377680615
 10
78.36059161452444
 20
-128.234377680615
 10
78.36059161452444
 20
-128.234377680615
 10
78.36059161452444
 20
-128.234377680615
 10
78.36059161452444
 20
-128.8500162438292
 10
78.36059161452444
 20
-128.8500162438292
 10
78.36059161452444
 20
-128.8500162438292
 10
78.78364934011312
 20
-128.9154730580489
 10
78.78364934011312
 20
-128.9154730580489
 10
78.74971514958341
 20
-128.8541503584115
 10
78.70957978718025
 20
-128.771812576314
 10
78.70957978718025
 20
-128.6533012916214
 10
78.70957978718025
 20
-128.3993977543585
 10
78.895787198158
 20
-128.1623751849733
 10
79.20877412299295
 20
-128.1623751849733
 10
79.52623967195872
 20
-128.1623751849733
 10
79.7610229292785
 20
-128.3866509010631
 10
79.7610229292785
 20
-128.689130284668
 97
        0
 97
        0
 75
     2
 76
     1
 98
        0
  0
ENDBLK
  5
CA
330
C7
100
AcDbEntity
  8
0
100
AcDbBlockEnd
  0
ENDSEC
  0
SECTION
  2
ENTITIES
  0
SPLINE
  5
41
330
1F
100
AcDbEntity
  8
_U+30EC_U+30A4_U+30E4_U+30FC 1
 62
   253
420
 11711154
370
     9
100
AcDbSpline
210
0.0
220
0.0
230
1.0
 70
    11
 71
     3
 72
    74
 73
    70
 74
     0
 42
0.0000000001
 43
0.0000000001
 12
1.0
 22
0.0
 32
0.0
 13
1.0
 23
0.0
 33
0.0
 40
0.0
 40
0.0
 40
0.0
 40
0.0
 40
1.0
 40
1.0
 40
1.0
 40
2.0
 40
2.0
 40
2.0
 40
3.0
 40
3.0
 40
3.0
 40
4.0
 40
4.0
 40
4.0
 40
5.0
 40
5.0
 40
5.0
 40
6.0
 40
6.0
 40
6.0
 40
7.0
 40
7.0
 40
7.0
 40
8.0
 40
8.0
 40
8.0
 40
9.0
 40
9.0
 40
9.0
 40
10.0
 40
10.0
 40
10.0
 40
11.0
 40
11.0
 40
11.0
 40
12.0
 40
12.0
 40
12.0
 40
13.0
 40
13.0
 40
13.0
 40
14.0
 40
14.0
 40
14.0
 40
15.0
 40
15.0
 40
15.0
 40
16.0
 40
16.0
 40
16.0
 40
17.0
 40
17.0
 40
17.0
 40
18.0
 40
18.0
 40
18.0
 40
19.0
 40
19.0
 40
19.0
 40
20.0
 40
20.0
 40
20.0
 40
21.0
 40
21.0
 40
21.0
 40
22.0
 40
22.0
 40
22.0
 40
23.0
 40
23.0
 40
23.0
 40
23.0
 10
87.29733053373134
 20
-126.2875652462058
 30
0.0
 10
87.29733053373134
 20
-126.2875652462058
 30
0.0
 10
87.10442944444753
 20
-126.4877313572668
 30
0.0
 10
87.10442944444753
 20
-126.4877313572668
 30
0.0
 10
87.10442944444753
 20
-126.4877313572668
 30
0.0
 10
86.90045553383057
 20
-126.2875652462058
 30
0.0
 10
86.90045553383057
 20
-126.2875652462058
 30
0.0
 10
86.90045553383057
 20
-126.2875652462058
 30
0.0
 10
86.69584442277063
 20
-126.4877313572668
 30
0.0
 10
86.69584442277063
 20
-126.4877313572668
 30
0.0
 10
86.69584442277063
 20
-126.4877313572668
 30
0.0
 10
86.4956761266448
 20
-126.2875652462058
 30
0.0
 10
86.4956761266448
 20
-126.2875652462058
 30
0.0
 10
86.4956761266448
 20
-126.2875652462058
 30
0.0
 10
86.29586279840912
 20
-126.4877313572668
 30
0.0
 10
86.29586279840912
 20
-126.4877313572668
 30
0.0
 10
86.29586279840912
 20
-126.4877313572668
 30
0.0
 10
86.09569669240467
 20
-126.2875652462058
 30
0.0
 10
86.09569669240467
 20
-126.2875652462058
 30
0.0
 10
86.09569669240467
 20
-126.2875652462058
 30
0.0
 10
85.30692087919469
 20
-126.2875652462058
 30
0.0
 10
85.30692087919469
 20
-126.2875652462058
 30
0.0
 10
85.30692087919469
 20
-126.2875652462058
 30
0.0
 10
85.30692087919469
 20
-121.7193752473478
 30
0.0
 10
85.30692087919469
 20
-121.7193752473478
 30
0.0
 10
84.75468255995013
 20
-121.7193752473478
 30
0.0
 10
84.30683331225647
 20
-122.1672266361249
 30
0.0
 10
84.30683331225647
 20
-122.7194649693203
 30
0.0
 10
84.30683331225647
 20
-122.7194649693203
 30
0.0
 10
84.30683331225647
 20
-135.7188321882924
 30
0.0
 10
84.30683331225647
 20
-135.7188321882924
 30
0.0
 10
84.30683331225647
 20
-136.2714585770435
 30
0.0
 10
84.75468255995013
 20
-136.7193099658205
 30
0.0
 10
85.30692087919469
 20
-136.7193099658205
 30
0.0
 10
85.30692087919469
 20
-136.7193099658205
 30
0.0
 10
98.26240221533949
 20
-136.7193099658205
 30
0.0
 10
98.26240221533949
 20
-136.7193099658205
 30
0.0
 10
98.81499331235283
 20
-136.7193099658205
 30
0.0
 10
99.30694441961771
 20
-136.3396505214705
 30
0.0
 10
99.30694441961771
 20
-135.7870594104976
 30
0.0
 10
99.30694441961771
 20
-135.7870594104976
 30
0.0
 10
85.30692087919469
 20
-135.7870594104976
 30
0.0
 10
85.30692087919469
 20
-135.7870594104976
 30
0.0
 10
85.30692087919469
 20
-135.7870594104976
 30
0.0
 10
85.30692087919469
 20
-127.2873374681783
 30
0.0
 10
85.30692087919469
 20
-127.2873374681783
 30
0.0
 10
85.30692087919469
 20
-127.2873374681783
 30
0.0
 10
99.30694441961771
 20
-127.2873374681783
 30
0.0
 10
99.30694441961771
 20
-127.2873374681783
 30
0.0
 10
99.30694441961771
 20
-127.2873374681783
 30
0.0
 10
99.82647773099215
 20
-126.9875821904752
 30
0.0
 10
99.82647773099215
 20
-126.9875821904752
 30
0.0
 10
99.82647773099215
 20
-126.9875821904752
 30
0.0
 10
104.6068634423677
 20
-126.9875821904752
 30
0.0
 10
104.6068634423677
 20
-126.9875821904752
 30
0.0
 10
104.9934020436174
 20
-126.9875821904752
 30
0.0
 10
105.3069156467301
 20
-126.6741038572205
 30
0.0
 10
105.3069156467301
 20
-126.2875652462058
 30
0.0
 10
105.3069156467301
 20
-126.2875652462058
 30
0.0
 10
99.50813107244718
 20
-126.2875652462058
 30
0.0
 10
99.50813107244718
 20
-126.2875652462058
 30
0.0
 10
99.50813107244718
 20
-126.2875652462058
 30
0.0
 10
99.30694441961771
 20
-126.4877313572668
 30
0.0
 10
99.30694441961771
 20
-126.4877313572668
 30
0.0
 10
99.30694441961771
 20
-126.4877313572668
 30
0.0
 10
99.10815163820708
 20
-126.2875652462058
 30
0.0
 10
99.10815163820708
 20
-126.2875652462058
 30
0.0
 10
99.10815163820708
 20
-126.2875652462058
 30
0.0
 10
87.29733053373134
 20
-126.2875652462058
 30
0.0
 10
87.29733053373134
 20
-126.2875652462058
 30
0.0
  0
HATCH
  5
42
330
1F
100
AcDbEntity
  8
_U+30EC_U+30A4_U+30E4_U+30FC 1
 62
   253
420
 11711154
100
AcDbHatch
 10
0.0
 20
0.0
 30
0.0
210
0.0
220
0.0
230
1.0
  2
SOLID
 70
     1
 71
     0
 91
        1
 92
        1
 93
        1
 72
     4
 94
        3
 73
     0
 74
     1
 95
       74
 96
       70
 40
0.0
 40
0.0
 40
0.0
 40
0.0
 40
1.0
 40
1.0
 40
1.0
 40
2.0
 40
2.0
 40
2.0
 40
3.0
 40
3.0
 40
3.0
 40
4.0
 40
4.0
 40
4.0
 40
5.0
 40
5.0
 40
5.0
 40
6.0
 40
6.0
 40
6.0
 40
7.0
 40
7.0
 40
7.0
 40
8.0
 40
8.0
 40
8.0
 40
9.0
 40
9.0
 40
9.0
 40
10.0
 40
10.0
 40
10.0
 40
11.0
 40
11.0
 40
11.0
 40
12.0
 40
12.0
 40
12.0
 40
13.0
 40
13.0
 40
13.0
 40
14.0
 40
14.0
 40
14.0
 40
15.0
 40
15.0
 40
15.0
 40
16.0
 40
16.0
 40
16.0
 40
17.0
 40
17.0
 40
17.0
 40
18.0
 40
18.0
 40
18.0
 40
19.0
 40
19.0
 40
19.0
 40
20.0
 40
20.0
 40
20.0
 40
21.0
 40
21.0
 40
21.0
 40
22.0
 40
22.0
 40
22.0
 40
23.0
 40
23.0
 40
23.0
 40
23.0
 10
87.29733053373134
 20
-126.2875652462058
 10
87.29733053373134
 20
-126.2875652462058
 10
87.10442944444753
 20
-126.4877313572668
 10
87.10442944444753
 20
-126.4877313572668
 10
87.10442944444753
 20
-126.4877313572668
 10
86.90045553383057
 20
-126.2875652462058
 10
86.90045553383057
 20
-126.2875652462058
 10
86.90045553383057
 20
-126.2875652462058
 10
86.69584442277063
 20
-126.4877313572668
 10
86.69584442277063
 20
-126.4877313572668
 10
86.69584442277063
 20
-126.4877313572668
 10
86.4956761266448
 20
-126.2875652462058
 10
86.4956761266448
 20
-126.2875652462058
 10
86.4956761266448
 20
-126.2875652462058
 10
86.29586279840912
 20
-126.4877313572668
 10
86.29586279840912
 20
-126.4877313572668
 10
86.29586279840912
 20
-126.4877313572668
 10
86.09569669240467
 20
-126.2875652462058
 10
86.09569669240467
 20
-126.2875652462058
 10
86.09569669240467
 20
-126.2875652462058
 10
85.30692087919469
 20
-126.2875652462058
 10
85.30692087919469
 20
-126.2875652462058
 10
85.30692087919469
 20
-126.2875652462058
 10
85.30692087919469
 20
-121.7193752473478
 10
85.30692087919469
 20
-121.7193752473478
 10
84.75468255995013
 20
-121.7193752473478
 10
84.30683331225647
 20
-122.1672266361249
 10
84.30683331225647
 20
-122.7194649693203
 10
84.30683331225647
 20
-122.7194649693203
 10
84.30683331225647
 20
-135.7188321882924
 10
84.30683331225647
 20
-135.7188321882924
 10
84.30683331225647
 20
-136.2714585770435
 10
84.75468255995013
 20
-136.7193099658205
 10
85.30692087919469
 20
-136.7193099658205
 10
85.30692087919469
 20
-136.7193099658205
 10
98.26240221533949
 20
-136.7193099658205
 10
98.26240221533949
 20
-136.7193099658205
 10
98.81499331235283
 20
-136.7193099658205
 10
99.30694441961771
 20
-136.3396505214705
 10
99.30694441961771
 20
-135.7870594104976
 10
99.30694441961771
 20
-135.7870594104976
 10
85.30692087919469
 20
-135.7870594104976
 10
85.30692087919469
 20
-135.7870594104976
 10
85.30692087919469
 20
-135.7870594104976
 10
85.30692087919469
 20
-127.2873374681783
 10
85.30692087919469
 20
-127.2873374681783
 10
85.30692087919469
 20
-127.2873374681783
 10
99.30694441961771
 20
-127.2873374681783
 10
99.30694441961771
 20
-127.2873374681783
 10
99.30694441961771
 20
-127.2873374681783
 10
99.82647773099215
 20
-126.9875821904752
 10
99.82647773099215
 20
-126.9875821904752
 10
99.82647773099215
 20
-126.9875821904752
 10
104.6068634423677
 20
-126.9875821904752
 10
104.6068634423677
 20
-126.9875821904752
 10
104.9934020436174
 20
-126.9875821904752
 10
105.3069156467301
 20
-126.6741038572205
 10
105.3069156467301
 20
-126.2875652462058
 10
105.3069156467301
 20
-126.2875652462058
 10
99.50813107244718
 20
-126.2875652462058
 10
99.50813107244718
 20
-126.2875652462058
 10
99.50813107244718
 20
-126.2875652462058
 10
99.30694441961771
 20
-126.4877313572668
 10
99.30694441961771
 20
-126.4877313572668
 10
99.30694441961771
 20
-126.4877313572668
 10
99.10815163820708
 20
-126.2875652462058
 10
99.10815163820708
 20
-126.2875652462058
 10
99.10815163820708
 20
-126.2875652462058
 10
87.29733053373134
 20
-126.2875652462058
 10
87.29733053373134
 20
-126.2875652462058
 97
        0
 97
        0
 75
     2
 76
     1
 98
        0
  0
POLYLINE
  5
43
330
1F
100
AcDbEntity
  8
_U+30EC_U+30A4_U+30E4_U+30FC 1
 62
   179
420
  2234388
370
     9
100
AcDb2dPolyline
 66
     1
 10
0.0
 20
0.0
 30
0.0
  0
VERTEX
  5
44
330
43
100
AcDbEntity
  8
_U+30EC_U+30A4_U+30E4_U+30FC 1
 62
   179
420
  2234388
370
     9
100
AcDbVertex
100
AcDb2dVertex
 10
84.59967200834922
 20
-136.42646913256
 30
0.0
  0
VERTEX
  5
45
330
43
100
AcDbEntity
  8
_U+30EC_U+30A4_U+30E4_U+30FC 1
 62
   179
420
  2234388
370
     9
100
AcDbVertex
100
AcDb2dVertex
 10
80.30707211786257
 20
-140.7190691314867
 30
0.0
  0
SEQEND
  5
46
330
43
100
AcDbEntity
  8
_U+30EC_U+30A4_U+30E4_U+30FC 1
 62
   179
420
  2234388
370
     9
  0
POLYLINE
  5
47
330
1F
100
AcDbEntity
  8
_U+30EC_U+30A4_U+30E4_U+30FC 1
 62
   179
420
  2234388
370
     9
100
AcDb2dPolyline
 66
     1
 10
0.0
 20
0.0
 30
0.0
  0
VERTEX
  5
48
330
47
100
AcDbEntity
  8
_U+30EC_U+30A4_U+30E4_U+30FC 1
 62
   179
420
  2234388
370
     9
100
AcDbVertex
100
AcDb2dVertex
 10
76.09476444754971
 20
-140.7190691314867
 30
0.0
  0
VERTEX
  5
49
330
47
100
AcDbEntity
  8
_U+30EC_U+30A4_U+30E4_U+30FC 1
 62
   179
420
  2234388
370
     9
100
AcDbVertex
100
AcDb2dVertex
 10
80.30707211786257
 20
-140.7190691314867
 30
0.0
  0
SEQEND
  5
4A
330
47
100
AcDbEntity
  8
_U+30EC_U+30A4_U+30E4_U+30FC 1
 62
   179
420
  2234388
370
     9
  0
POLYLINE
  5
4B
330
1F
100
AcDbEntity
  8
_U+30EC_U+30A4_U+30E4_U+30FC 1
 62
   179
420
  2234388
370
     9
100
AcDb2dPolyline
 66
     1
 10
0.0
 20
0.0
 30
0.0
  0
VERTEX
  5
4C
330
4B
100
AcDbEntity
  8
_U+30EC_U+30A4_U+30E4_U+30FC 1
 62
   179
420
  2234388
370
     9
100
AcDbVertex
100
AcDb2dVertex
 10
84.59967200834922
 20
-136.42646913256
 30
0.0
  0
VERTEX
  5
4D
330
4B
100
AcDbEntity
  8
_U+30EC_U+30A4_U+30E4_U+30FC 1
 62
   179
420
  2234388
370
     9
100
AcDbVertex
100
AcDb2dVertex
 10
83.30085009704048
 20
-137.1761219101504
 30
0.0
  0
SEQEND
  5
4E
330
4B
100
AcDbEntity
  8
_U+30EC_U+30A4_U+30E4_U+30FC 1
 62
   179
420
  2234388
370
     9
  0
POLYLINE
  5
4F
330
1F
100
AcDbEntity
  8
_U+30EC_U+30A4_U+30E4_U+30FC 1
 62
   179
420
  2234388
370
     9
100
AcDb2dPolyline
 66
     1
 10
0.0
 20
0.0
 30
0.0
  0
VERTEX
  5
50
330
4F
100
AcDbEntity
  8
_U+30EC_U+30A4_U+30E4_U+30FC 1
 62
   179
420
  2234388
370
     9
100
AcDbVertex
100
AcDb2dVertex
 10
84.59967200834922
 20
-136.42646913256
 30
0.0
  0
VERTEX
  5
51
330
4F
100
AcDbEntity
  8
_U+30EC_U+30A4_U+30E4_U+30FC 1
 62
   179
420
  2234388
370
     9
100
AcDbVertex
100
AcDb2dVertex
 10
83.85001924969669
 20
-137.7252557989019
 30
0.0
  0
SEQEND
  5
52
330
4F
100
AcDbEntity
  8
_U+30EC_U+30A4_U+30E4_U+30FC 1
 62
   179
420
  2234388
370
     9
  0
SPLINE
  5
53
330
1F
100
AcDbEntity
  8
_U+30EC_U+30A4_U+30E4_U+30FC 1
 62
   179
420
  2234388
370
     9
100
AcDbSpline
210
0.0
220
0.0
230
1.0
 70
    11
 71
     3
 72
    17
 73
    13
 74
     0
 42
0.0000000001
 43
0.0000000001
 12
1.0
 22
0.0
 32
0.0
 13
1.0
 23
0.0
 33
0.0
 40
0.0
 40
0.0
 40
0.0
 40
0.0
 40
1.0
 40
1.0
 40
1.0
 40
2.0
 40
2.0
 40
2.0
 40
3.0
 40
3.0
 40
3.0
 40
4.0
 40
4.0
 40
4.0
 40
4.0
 10
105.406824973648
 20
-117.7196160816813
 30
0.0
 10
105.406824973648
 20
-117.6644769150282
 30
0.0
 10
105.36205481199
 20
-117.6197094150396
 30
0.0
 10
105.3069156467301
 20
-117.6197094150396
 30
0.0
 10
105.251811759247
 20
-117.6197094150396
 30
0.0
 10
105.2070089826123
 20
-117.6644769150282
 30
0.0
 10
105.2070089826123
 20
-117.7196160816813
 30
0.0
 10
105.2070089826123
 20
-117.7747199705562
 30
0.0
 10
105.251811759247
 20
-117.8195227483229
 30
0.0
 10
105.3069156467301
 20
-117.8195227483229
 30
0.0
 10
105.36205481199
 20
-117.8195227483229
 30
0.0
 10
105.406824973648
 20
-117.7747199705562
 30
0.0
 10
105.406824973648
 20
-117.7196160816813
 30
0.0
  0
SPLINE
  5
54
330
1F
100
AcDbEntity
  8
_U+30EC_U+30A4_U+30E4_U+30FC 1
 62
   179
420
  2234388
370
     9
100
AcDbSpline
210
0.0
220
0.0
230
1.0
 70
    11
 71
     3
 72
    17
 73
    13
 74
     0
 42
0.0000000001
 43
0.0000000001
 12
1.0
 22
0.0
 32
0.0
 13
1.0
 23
0.0
 33
0.0
 40
0.0
 40
0.0
 40
0.0
 40
0.0
 40
1.0
 40
1.0
 40
1.0
 40
2.0
 40
2.0
 40
2.0
 40
3.0
 40
3.0
 40
3.0
 40
4.0
 40
4.0
 40
4.0
 40
4.0
 10
85.40668643220502
 20
-117.7196160816813
 30
0.0
 10
85.40668643220502
 20
-117.6644769150282
 30
0.0
 10
85.36188365557025
 20
-117.6197094150396
 30
0.0
 10
85.30677976808718
 20
-117.6197094150396
 30
0.0
 10
85.25164060282722
 20
-117.6197094150396
 30
0.0
 10
85.20687310396934
 20
-117.6644769150282
 30
0.0
 10
85.20687310396934
 20
-117.7196160816813
 30
0.0
 10
85.20687310396934
 20
-117.7747199705562
 30
0.0
 10
85.25164060282722
 20
-117.8195227483229
 30
0.0
 10
85.30677976808718
 20
-117.8195227483229
 30
0.0
 10
85.36188365557025
 20
-117.8195227483229
 30
0.0
 10
85.40668643220502
 20
-117.7747199705562
 30
0.0
 10
85.40668643220502
 20
-117.7196160816813
 30
0.0
  0
SPLINE
  5
55
330
1F
100
AcDbEntity
  8
_U+30EC_U+30A4_U+30E4_U+30FC 1
 62
   179
420
  2234388
370
     9
100
AcDbSpline
210
0.0
220
0.0
230
1.0
 70
    11
 71
     3
 72
    17
 73
    13
 74
     0
 42
0.0000000001
 43
0.0000000001
 12
1.0
 22
0.0
 32
0.0
 13
1.0
 23
0.0
 33
0.0
 40
0.0
 40
0.0
 40
0.0
 40
0.0
 40
1.0
 40
1.0
 40
1.0
 40
2.0
 40
2.0
 40
2.0
 40
3.0
 40
3.0
 40
3.0
 40
4.0
 40
4.0
 40
4.0
 40
4.0
 10
84.40673784660471
 20
-124.2196524689451
 30
0.0
 10
84.40673784660471
 20
-124.1645133022923
 30
0.0
 10
84.36193506996996
 20
-124.1197105245256
 30
0.0
 10
84.30683331225647
 20
-124.1197105245256
 30
0.0
 10
84.25169201722693
 20
-124.1197105245256
 30
0.0
 10
84.20692451836905
 20
-124.1645133022923
 30
0.0
 10
84.20692451836905
 20
-124.2196524689451
 30
0.0
 10
84.20692451836905
 20
-124.2747563578203
 30
0.0
 10
84.25169201722693
 20
-124.3195591355867
 30
0.0
 10
84.30683331225647
 20
-124.3195591355867
 30
0.0
 10
84.36193506996996
 20
-124.3195591355867
 30
0.0
 10
84.40673784660471
 20
-124.2747563578203
 30
0.0
 10
84.40673784660471
 20
-124.2196524689451
 30
0.0
  0
SPLINE
  5
56
330
1F
100
AcDbEntity
  8
_U+30EC_U+30A4_U+30E4_U+30FC 1
 62
   179
420
  2234388
370
     9
100
AcDbSpline
210
0.0
220
0.0
230
1.0
 70
    11
 71
     3
 72
    17
 73
    13
 74
     0
 42
0.0000000001
 43
0.0000000001
 12
1.0
 22
0.0
 32
0.0
 13
1.0
 23
0.0
 33
0.0
 40
0.0
 40
0.0
 40
0.0
 40
0.0
 40
1.0
 40
1.0
 40
1.0
 40
2.0
 40
2.0
 40
2.0
 40
3.0
 40
3.0
 40
3.0
 40
4.0
 40
4.0
 40
4.0
 40
4.0
 10
85.40682754331253
 20
-124.2196524689451
 30
0.0
 10
85.40682754331253
 20
-124.1645133022923
 30
0.0
 10
85.36206004445464
 20
-124.1197105245256
 30
0.0
 10
85.30692087919469
 20
-124.1197105245256
 30
0.0
 10
85.25146421394284
 20
-124.1197105245256
 30
0.0
 10
85.20669671508496
 20
-124.1645133022923
 30
0.0
 10
85.20669671508496
 20
-124.2196524689451
 30
0.0
 10
85.20669671508496
 20
-124.2747563578203
 30
0.0
 10
85.25146421394284
 20
-124.3195591355867
 30
0.0
 10
85.30692087919469
 20
-124.3195591355867
 30
0.0
 10
85.36206004445464
 20
-124.3195591355867
 30
0.0
 10
85.40682754331253
 20
-124.2747563578203
 30
0.0
 10
85.40682754331253
 20
-124.2196524689451
 30
0.0
  0
SPLINE
  5
57
330
1F
100
AcDbEntity
  8
_U+30EC_U+30A4_U+30E4_U+30FC 1
 62
   179
420
  2234388
370
     9
100
AcDbSpline
210
0.0
220
0.0
230
1.0
 70
    11
 71
     3
 72
    17
 73
    13
 74
     0
 42
0.0000000001
 43
0.0000000001
 12
1.0
 22
0.0
 32
0.0
 13
1.0
 23
0.0
 33
0.0
 40
0.0
 40
0.0
 40
0.0
 40
0.0
 40
1.0
 40
1.0
 40
1.0
 40
2.0
 40
2.0
 40
2.0
 40
3.0
 40
3.0
 40
3.0
 40
4.0
 40
4.0
 40
4.0
 40
4.0
 10
80.4069787819804
 20
-136.6945096880485
 30
0.0
 10
80.4069787819804
 20
-136.638700243618
 30
0.0
 10
80.36217600534565
 20
-136.5938974658513
 30
0.0
 10
80.30707211786257
 20
-136.5938974658513
 30
0.0
 10
80.25161545261072
 20
-136.5938974658513
 30
0.0
 10
80.20681267597595
 20
-136.638700243618
 30
0.0
 10
80.20681267597595
 20
-136.6945096880485
 30
0.0
 10
80.20681267597595
 20
-136.7496135769234
 30
0.0
 10
80.25161545261072
 20
-136.7944163546901
 30
0.0
 10
80.30707211786257
 20
-136.7944163546901
 30
0.0
 10
80.36217600534565
 20
-136.7944163546901
 30
0.0
 10
80.4069787819804
 20
-136.7496135769234
 30
0.0
 10
80.4069787819804
 20
-136.6945096880485
 30
0.0
  0
SPLINE
  5
58
330
1F
100
AcDbEntity
  8
_U+30EC_U+30A4_U+30E4_U+30FC 1
 62
   179
420
  2234388
370
     9
100
AcDbSpline
210
0.0
220
0.0
230
1.0
 70
    11
 71
     3
 72
    17
 73
    13
 74
     0
 42
0.0000000001
 43
0.0000000001
 12
1.0
 22
0.0
 32
0.0
 13
1.0
 23
0.0
 33
0.0
 40
0.0
 40
0.0
 40
0.0
 40
0.0
 40
1.0
 40
1.0
 40
1.0
 40
2.0
 40
2.0
 40
2.0
 40
3.0
 40
3.0
 40
3.0
 40
4.0
 40
4.0
 40
4.0
 40
4.0
 10
80.4069787819804
 20
-121.7193752473478
 30
0.0
 10
80.4069787819804
 20
-121.6642360806951
 30
0.0
 10
80.36217600534565
 20
-121.6194333029283
 30
0.0
 10
80.30707211786257
 20
-121.6194333029283
 30
0.0
 10
80.25161545261072
 20
-121.6194333029283
 30
0.0
 10
80.20681267597595
 20
-121.6642360806951
 30
0.0
 10
80.20681267597595
 20
-121.7193752473478
 30
0.0
 10
80.20681267597595
 20
-121.7748319140008
 30
0.0
 10
80.25161545261072
 20
-121.8195994139897
 30
0.0
 10
80.30707211786257
 20
-121.8195994139897
 30
0.0
 10
80.36217600534565
 20
-121.8195994139897
 30
0.0
 10
80.4069787819804
 20
-121.7748319140008
 30
0.0
 10
80.4069787819804
 20
-121.7193752473478
 30
0.0
  0
SPLINE
  5
59
330
1F
100
AcDbEntity
  8
_U+30EC_U+30A4_U+30E4_U+30FC 1
 62
   179
420
  2234388
370
     9
100
AcDbSpline
210
0.0
220
0.0
230
1.0
 70
    11
 71
     3
 72
    17
 73
    13
 74
     0
 42
0.0000000001
 43
0.0000000001
 12
1.0
 22
0.0
 32
0.0
 13
1.0
 23
0.0
 33
0.0
 40
0.0
 40
0.0
 40
0.0
 40
0.0
 40
1.0
 40
1.0
 40
1.0
 40
2.0
 40
2.0
 40
2.0
 40
3.0
 40
3.0
 40
3.0
 40
4.0
 40
4.0
 40
4.0
 40
4.0
 10
99.40684857503112
 20
-140.7190691314867
 30
0.0
 10
99.40684857503112
 20
-140.6639299648343
 30
0.0
 10
99.36208107617324
 20
-140.6191624648451
 30
0.0
 10
99.30694441961771
 20
-140.6191624648451
 30
0.0
 10
99.25183802343021
 20
-140.6191624648451
 30
0.0
 10
99.20703524679546
 20
-140.6639299648343
 30
0.0
 10
99.20703524679546
 20
-140.7190691314867
 30
0.0
 10
99.20703524679546
 20
-140.7741730203623
 30
0.0
 10
99.25183802343021
 20
-140.8189757981284
 30
0.0
 10
99.30694441961771
 20
-140.8189757981284
 30
0.0
 10
99.36208107617324
 20
-140.8189757981284
 30
0.0
 10
99.40684857503112
 20
-140.7741730203623
 30
0.0
 10
99.40684857503112
 20
-140.7190691314867
 30
0.0
  0
SPLINE
  5
5A
330
1F
100
AcDbEntity
  8
_U+30EC_U+30A4_U+30E4_U+30FC 1
 62
   179
420
  2234388
370
     9
100
AcDbSpline
210
0.0
220
0.0
230
1.0
 70
    11
 71
     3
 72
    17
 73
    13
 74
     0
 42
0.0000000001
 43
0.0000000001
 12
1.0
 22
0.0
 32
0.0
 13
1.0
 23
0.0
 33
0.0
 40
0.0
 40
0.0
 40
0.0
 40
0.0
 40
1.0
 40
1.0
 40
1.0
 40
2.0
 40
2.0
 40
2.0
 40
3.0
 40
3.0
 40
3.0
 40
4.0
 40
4.0
 40
4.0
 40
4.0
 10
84.40673784660471
 20
-140.7190691314867
 30
0.0
 10
84.40673784660471
 20
-140.6639299648343
 30
0.0
 10
84.36193506996996
 20
-140.6191624648451
 30
0.0
 10
84.30683331225647
 20
-140.6191624648451
 30
0.0
 10
84.25169201722693
 20
-140.6191624648451
 30
0.0
 10
84.20692451836905
 20
-140.6639299648343
 30
0.0
 10
84.20692451836905
 20
-140.7190691314867
 30
0.0
 10
84.20692451836905
 20
-140.7741730203623
 30
0.0
 10
84.25169201722693
 20
-140.8189757981284
 30
0.0
 10
84.30683331225647
 20
-140.8189757981284
 30
0.0
 10
84.36193506996996
 20
-140.8189757981284
 30
0.0
 10
84.40673784660471
 20
-140.7741730203623
 30
0.0
 10
84.40673784660471
 20
-140.7190691314867
 30
0.0
  0
SPLINE
  5
5B
330
1F
100
AcDbEntity
  8
_U+30EC_U+30A4_U+30E4_U+30FC 1
 62
   179
420
  2234388
370
     9
100
AcDbSpline
210
0.0
220
0.0
230
1.0
 70
    11
 71
     3
 72
    17
 73
    13
 74
     0
 42
0.0000000001
 43
0.0000000001
 12
1.0
 22
0.0
 32
0.0
 13
1.0
 23
0.0
 33
0.0
 40
0.0
 40
0.0
 40
0.0
 40
0.0
 40
1.0
 40
1.0
 40
1.0
 40
2.0
 40
2.0
 40
2.0
 40
3.0
 40
3.0
 40
3.0
 40
4.0
 40
4.0
 40
4.0
 40
4.0
 10
103.4072805297036
 20
-127.2873374681783
 30
0.0
 10
103.4072805297036
 20
-127.2321983015252
 30
0.0
 10
103.3625104185582
 20
-127.1874308015364
 30
0.0
 10
103.3073712532983
 20
-127.1874308015364
 30
0.0
 10
103.2522673658152
 20
-127.1874308015364
 30
0.0
 10
103.2074645891804
 20
-127.2321983015252
 30
0.0
 10
103.2074645891804
 20
-127.2873374681783
 30
0.0
 10
103.2074645891804
 20
-127.3431469126088
 30
0.0
 10
103.2522673658152
 20
-127.3879144125973
 30
0.0
 10
103.3073712532983
 20
-127.3879144125973
 30
0.0
 10
103.3625104185582
 20
-127.3879144125973
 30
0.0
 10
103.4072805297036
 20
-127.3431469126088
 30
0.0
 10
103.4072805297036
 20
-127.2873374681783
 30
0.0
  0
SPLINE
  5
5C
330
1F
100
AcDbEntity
  8
_U+30EC_U+30A4_U+30E4_U+30FC 1
 62
   179
420
  2234388
370
     9
100
AcDbSpline
210
0.0
220
0.0
230
1.0
 70
    11
 71
     3
 72
    17
 73
    13
 74
     0
 42
0.0000000001
 43
0.0000000001
 12
1.0
 22
0.0
 32
0.0
 13
1.0
 23
0.0
 33
0.0
 40
0.0
 40
0.0
 40
0.0
 40
0.0
 40
1.0
 40
1.0
 40
1.0
 40
2.0
 40
2.0
 40
2.0
 40
3.0
 40
3.0
 40
3.0
 40
4.0
 40
4.0
 40
4.0
 40
4.0
 10
103.4072805297036
 20
-135.7188321882924
 30
0.0
 10
103.4072805297036
 20
-135.6637282994175
 30
0.0
 10
103.3625104185582
 20
-135.6189255216508
 30
0.0
 10
103.3073712532983
 20
-135.6189255216508
 30
0.0
 10
103.2522673658152
 20
-135.6189255216508
 30
0.0
 10
103.2074645891804
 20
-135.6637282994175
 30
0.0
 10
103.2074645891804
 20
-135.7188321882924
 30
0.0
 10
103.2074645891804
 20
-135.7746416327229
 30
0.0
 10
103.2522673658152
 20
-135.8194444104896
 30
0.0
 10
103.3073712532983
 20
-135.8194444104896
 30
0.0
 10
103.3625104185582
 20
-135.8194444104896
 30
0.0
 10
103.4072805297036
 20
-135.7746416327229
 30
0.0
 10
103.4072805297036
 20
-135.7188321882924
 30
0.0
  0
INSERT
  5
5E
330
1F
100
AcDbEntity
  8
_U+30EC_U+30A4_U+30E4_U+30FC 1
100
AcDbBlockReference
  2
block 2
 10
0.0
 20
0.0
 30
0.0
  0
POLYLINE
  5
66
330
1F
100
AcDbEntity
  8
_U+30EC_U+30A4_U+30E4_U+30FC 1
 62
   179
420
  2234388
370
     9
100
AcDb2dPolyline
 66
     1
 10
0.0
 20
0.0
 30
0.0
  0
VERTEX
  5
67
330
66
100
AcDbEntity
  8
_U+30EC_U+30A4_U+30E4_U+30FC 1
 62
   179
420
  2234388
370
     9
100
AcDbVertex
100
AcDb2dVertex
 10
85.30677976808718
 20
-117.7196160816813
 30
0.0
  0
VERTEX
  5
68
330
66
100
AcDbEntity
  8
_U+30EC_U+30A4_U+30E4_U+30FC 1
 62
   179
420
  2234388
370
     9
100
AcDbVertex
100
AcDb2dVertex
 10
105.3069156467301
 20
-117.7196160816813
 30
0.0
  0
SEQEND
  5
69
330
66
100
AcDbEntity
  8
_U+30EC_U+30A4_U+30E4_U+30FC 1
 62
   179
420
  2234388
370
     9
  0
POLYLINE
  5
6A
330
1F
100
AcDbEntity
  8
_U+30EC_U+30A4_U+30E4_U+30FC 1
 62
   179
420
  2234388
370
     9
100
AcDb2dPolyline
 66
     1
 10
0.0
 20
0.0
 30
0.0
  0
VERTEX
  5
6B
330
6A
100
AcDbEntity
  8
_U+30EC_U+30A4_U+30E4_U+30FC 1
 62
   179
420
  2234388
370
     9
100
AcDbVertex
100
AcDb2dVertex
 10
85.30677976808718
 20
-120.1793944143997
 30
0.0
  0
VERTEX
  5
6C
330
6A
100
AcDbEntity
  8
_U+30EC_U+30A4_U+30E4_U+30FC 1
 62
   179
420
  2234388
370
     9
100
AcDbVertex
100
AcDb2dVertex
 10
85.30677976808718
 20
-116.7194910819313
 30
0.0
  0
SEQEND
  5
6D
330
6A
100
AcDbEntity
  8
_U+30EC_U+30A4_U+30E4_U+30FC 1
 62
   179
420
  2234388
370
     9
  0
POLYLINE
  5
6E
330
1F
100
AcDbEntity
  8
_U+30EC_U+30A4_U+30E4_U+30FC 1
 62
   179
420
  2234388
370
     9
100
AcDb2dPolyline
 66
     1
 10
0.0
 20
0.0
 30
0.0
  0
VERTEX
  5
6F
330
6E
100
AcDbEntity
  8
_U+30EC_U+30A4_U+30E4_U+30FC 1
 62
   179
420
  2234388
370
     9
100
AcDbVertex
100
AcDb2dVertex
 10
105.3069156467301
 20
-124.7875541354698
 30
0.0
  0
VERTEX
  5
70
330
6E
100
AcDbEntity
  8
_U+30EC_U+30A4_U+30E4_U+30FC 1
 62
   179
420
  2234388
370
     9
100
AcDbVertex
100
AcDb2dVertex
 10
105.3069156467301
 20
-116.7194910819313
 30
0.0
  0
SEQEND
  5
71
330
6E
100
AcDbEntity
  8
_U+30EC_U+30A4_U+30E4_U+30FC 1
 62
   179
420
  2234388
370
     9
  0
INSERT
  5
73
330
1F
100
AcDbEntity
  8
_U+30EC_U+30A4_U+30E4_U+30FC 1
100
AcDbBlockReference
  2
block 3
 10
0.0
 20
0.0
 30
0.0
  0
POLYLINE
  5
7B
330
1F
100
AcDbEntity
  8
_U+30EC_U+30A4_U+30E4_U+30FC 1
 62
   179
420
  2234388
370
     9
100
AcDb2dPolyline
 66
     1
 10
0.0
 20
0.0
 30
0.0
  0
VERTEX
  5
7C
330
7B
100
AcDbEntity
  8
_U+30EC_U+30A4_U+30E4_U+30FC 1
 62
   179
420
  2234388
370
     9
100
AcDbVertex
100
AcDb2dVertex
 10
85.30692087919469
 20
-124.2196524689451
 30
0.0
  0
VERTEX
  5
7D
330
7B
100
AcDbEntity
  8
_U+30EC_U+30A4_U+30E4_U+30FC 1
 62
   179
420
  2234388
370
     9
100
AcDbVertex
100
AcDb2dVertex
 10
89.07709442217532
 20
-124.2196524689451
 30
0.0
  0
SEQEND
  5
7E
330
7B
100
AcDbEntity
  8
_U+30EC_U+30A4_U+30E4_U+30FC 1
 62
   179
420
  2234388
370
     9
  0
POLYLINE
  5
7F
330
1F
100
AcDbEntity
  8
_U+30EC_U+30A4_U+30E4_U+30FC 1
 62
   179
420
  2234388
370
     9
100
AcDb2dPolyline
 66
     1
 10
0.0
 20
0.0
 30
0.0
  0
VERTEX
  5
80
330
7F
100
AcDbEntity
  8
_U+30EC_U+30A4_U+30E4_U+30FC 1
 62
   179
420
  2234388
370
     9
100
AcDbVertex
100
AcDb2dVertex
 10
83.30706109028425
 20
-124.2196524689451
 30
0.0
  0
VERTEX
  5
81
330
7F
100
AcDbEntity
  8
_U+30EC_U+30A4_U+30E4_U+30FC 1
 62
   179
420
  2234388
370
     9
100
AcDbVertex
100
AcDb2dVertex
 10
85.30692087919469
 20
-124.2196524689451
 30
0.0
  0
SEQEND
  5
82
330
7F
100
AcDbEntity
  8
_U+30EC_U+30A4_U+30E4_U+30FC 1
 62
   179
420
  2234388
370
     9
  0
INSERT
  5
84
330
1F
100
AcDbEntity
  8
_U+30EC_U+30A4_U+30E4_U+30FC 1
100
AcDbBlockReference
  2
block 4
 10
0.0
 20
0.0
 30
0.0
  0
POLYLINE
  5
89
330
1F
100
AcDbEntity
  8
_U+30EC_U+30A4_U+30E4_U+30FC 1
 62
   179
420
  2234388
370
     9
100
AcDb2dPolyline
 66
     1
 10
0.0
 20
0.0
 30
0.0
  0
VERTEX
  5
8A
330
89
100
AcDbEntity
  8
_U+30EC_U+30A4_U+30E4_U+30FC 1
 62
   179
420
  2234388
370
     9
100
AcDbVertex
100
AcDb2dVertex
 10
84.30683331225647
 20
-140.7190691314867
 30
0.0
  0
VERTEX
  5
8B
330
89
100
AcDbEntity
  8
_U+30EC_U+30A4_U+30E4_U+30FC 1
 62
   179
420
  2234388
370
     9
100
AcDbVertex
100
AcDb2dVertex
 10
99.30694441961771
 20
-140.7190691314867
 30
0.0
  0
SEQEND
  5
8C
330
89
100
AcDbEntity
  8
_U+30EC_U+30A4_U+30E4_U+30FC 1
 62
   179
420
  2234388
370
     9
  0
POLYLINE
  5
8D
330
1F
100
AcDbEntity
  8
_U+30EC_U+30A4_U+30E4_U+30FC 1
 62
   179
420
  2234388
370
     9
100
AcDb2dPolyline
 66
     1
 10
0.0
 20
0.0
 30
0.0
  0
VERTEX
  5
8E
330
8D
100
AcDbEntity
  8
_U+30EC_U+30A4_U+30E4_U+30FC 1
 62
   179
420
  2234388
370
     9
100
AcDbVertex
100
AcDb2dVertex
 10
84.30683331225647
 20
-138.2592555209905
 30
0.0
  0
VERTEX
  5
8F
330
8D
100
AcDbEntity
  8
_U+30EC_U+30A4_U+30E4_U+30FC 1
 62
   179
420
  2234388
370
     9
100
AcDbVertex
100
AcDb2dVertex
 10
84.30683331225647
 20
-141.7195116312366
 30
0.0
  0
SEQEND
  5
90
330
8D
100
AcDbEntity
  8
_U+30EC_U+30A4_U+30E4_U+30FC 1
 62
   179
420
  2234388
370
     9
  0
POLYLINE
  5
91
330
1F
100
AcDbEntity
  8
_U+30EC_U+30A4_U+30E4_U+30FC 1
 62
   179
420
  2234388
370
     9
100
AcDb2dPolyline
 66
     1
 10
0.0
 20
0.0
 30
0.0
  0
VERTEX
  5
92
330
91
100
AcDbEntity
  8
_U+30EC_U+30A4_U+30E4_U+30FC 1
 62
   179
420
  2234388
370
     9
100
AcDbVertex
100
AcDb2dVertex
 10
99.30694441961771
 20
-138.2592555209905
 30
0.0
  0
VERTEX
  5
93
330
91
100
AcDbEntity
  8
_U+30EC_U+30A4_U+30E4_U+30FC 1
 62
   179
420
  2234388
370
     9
100
AcDbVertex
100
AcDb2dVertex
 10
99.30694441961771
 20
-141.7195116312366
 30
0.0
  0
SEQEND
  5
94
330
91
100
AcDbEntity
  8
_U+30EC_U+30A4_U+30E4_U+30FC 1
 62
   179
420
  2234388
370
     9
  0
INSERT
  5
96
330
1F
100
AcDbEntity
  8
_U+30EC_U+30A4_U+30E4_U+30FC 1
100
AcDbBlockReference
  2
block 5
 10
0.0
 20
0.0
 30
0.0
  0
POLYLINE
  5
9D
330
1F
100
AcDbEntity
  8
_U+30EC_U+30A4_U+30E4_U+30FC 1
 62
   179
420
  2234388
370
     9
100
AcDb2dPolyline
 66
     1
 10
0.0
 20
0.0
 30
0.0
  0
VERTEX
  5
9E
330
9D
100
AcDbEntity
  8
_U+30EC_U+30A4_U+30E4_U+30FC 1
 62
   179
420
  2234388
370
     9
100
AcDbVertex
100
AcDb2dVertex
 10
103.3073712532983
 20
-135.7188321882924
 30
0.0
  0
VERTEX
  5
9F
330
9D
100
AcDbEntity
  8
_U+30EC_U+30A4_U+30E4_U+30FC 1
 62
   179
420
  2234388
370
     9
100
AcDbVertex
100
AcDb2dVertex
 10
103.3073712532983
 20
-127.2873374681783
 30
0.0
  0
SEQEND
  5
A0
330
9D
100
AcDbEntity
  8
_U+30EC_U+30A4_U+30E4_U+30FC 1
 62
   179
420
  2234388
370
     9
  0
POLYLINE
  5
A1
330
1F
100
AcDbEntity
  8
_U+30EC_U+30A4_U+30E4_U+30FC 1
 62
   179
420
  2234388
370
     9
100
AcDb2dPolyline
 66
     1
 10
0.0
 20
0.0
 30
0.0
  0
VERTEX
  5
A2
330
A1
100
AcDbEntity
  8
_U+30EC_U+30A4_U+30E4_U+30FC 1
 62
   179
420
  2234388
370
     9
100
AcDbVertex
100
AcDb2dVertex
 10
101.847365179435
 20
-135.7188321882924
 30
0.0
  0
VERTEX
  5
A3
330
A1
100
AcDbEntity
  8
_U+30EC_U+30A4_U+30E4_U+30FC 1
 62
   179
420
  2234388
370
     9
100
AcDbVertex
100
AcDb2dVertex
 10
104.3071434500142
 20
-135.7188321882924
 30
0.0
  0
SEQEND
  5
A4
330
A1
100
AcDbEntity
  8
_U+30EC_U+30A4_U+30E4_U+30FC 1
 62
   179
420
  2234388
370
     9
  0
POLYLINE
  5
A5
330
1F
100
AcDbEntity
  8
_U+30EC_U+30A4_U+30E4_U+30FC 1
 62
   179
420
  2234388
370
     9
100
AcDb2dPolyline
 66
     1
 10
0.0
 20
0.0
 30
0.0
  0
VERTEX
  5
A6
330
A5
100
AcDbEntity
  8
_U+30EC_U+30A4_U+30E4_U+30FC 1
 62
   179
420
  2234388
370
     9
100
AcDbVertex
100
AcDb2dVertex
 10
101.847365179435
 20
-127.2873374681783
 30
0.0
  0
VERTEX
  5
A7
330
A5
100
AcDbEntity
  8
_U+30EC_U+30A4_U+30E4_U+30FC 1
 62
   179
420
  2234388
370
     9
100
AcDbVertex
100
AcDb2dVertex
 10
104.3071434500142
 20
-127.2873374681783
 30
0.0
  0
SEQEND
  5
A8
330
A5
100
AcDbEntity
  8
_U+30EC_U+30A4_U+30E4_U+30FC 1
 62
   179
420
  2234388
370
     9
  0
INSERT
  5
AA
330
1F
100
AcDbEntity
  8
_U+30EC_U+30A4_U+30E4_U+30FC 1
100
AcDbBlockReference
  2
block 6
 10
0.0
 20
0.0
 30
0.0
  0
POLYLINE
  5
BB
330
1F
100
AcDbEntity
  8
_U+30EC_U+30A4_U+30E4_U+30FC 1
 62
   179
420
  2234388
370
     9
100
AcDb2dPolyline
 66
     1
 10
0.0
 20
0.0
 30
0.0
  0
VERTEX
  5
BC
330
BB
100
AcDbEntity
  8
_U+30EC_U+30A4_U+30E4_U+30FC 1
 62
   179
420
  2234388
370
     9
100
AcDbVertex
100
AcDb2dVertex
 10
80.30707211786257
 20
-136.693804132493
 30
0.0
  0
VERTEX
  5
BD
330
BB
100
AcDbEntity
  8
_U+30EC_U+30A4_U+30E4_U+30FC 1
 62
   179
420
  2234388
370
     9
100
AcDbVertex
100
AcDb2dVertex
 10
80.30707211786257
 20
-121.7193752473478
 30
0.0
  0
SEQEND
  5
BE
330
BB
100
AcDbEntity
  8
_U+30EC_U+30A4_U+30E4_U+30FC 1
 62
   179
420
  2234388
370
     9
  0
POLYLINE
  5
BF
330
1F
100
AcDbEntity
  8
_U+30EC_U+30A4_U+30E4_U+30FC 1
 62
   179
420
  2234388
370
     9
100
AcDb2dPolyline
 66
     1
 10
0.0
 20
0.0
 30
0.0
  0
VERTEX
  5
C0
330
BF
100
AcDbEntity
  8
_U+30EC_U+30A4_U+30E4_U+30FC 1
 62
   179
420
  2234388
370
     9
100
AcDbVertex
100
AcDb2dVertex
 10
82.76685038844172
 20
-136.6945096880485
 30
0.0
  0
VERTEX
  5
C1
330
BF
100
AcDbEntity
  8
_U+30EC_U+30A4_U+30E4_U+30FC 1
 62
   179
420
  2234388
370
     9
100
AcDbVertex
100
AcDb2dVertex
 10
79.30694714337788
 20
-136.6945096880485
 30
0.0
  0
SEQEND
  5
C2
330
BF
100
AcDbEntity
  8
_U+30EC_U+30A4_U+30E4_U+30FC 1
 62
   179
420
  2234388
370
     9
  0
POLYLINE
  5
C3
330
1F
100
AcDbEntity
  8
_U+30EC_U+30A4_U+30E4_U+30FC 1
 62
   179
420
  2234388
370
     9
100
AcDb2dPolyline
 66
     1
 10
0.0
 20
0.0
 30
0.0
  0
VERTEX
  5
C4
330
C3
100
AcDbEntity
  8
_U+30EC_U+30A4_U+30E4_U+30FC 1
 62
   179
420
  2234388
370
     9
100
AcDbVertex
100
AcDb2dVertex
 10
82.76685038844172
 20
-121.7193752473478
 30
0.0
  0
VERTEX
  5
C5
330
C3
100
AcDbEntity
  8
_U+30EC_U+30A4_U+30E4_U+30FC 1
 62
   179
420
  2234388
370
     9
100
AcDbVertex
100
AcDb2dVertex
 10
79.30694714337788
 20
-121.7193752473478
 30
0.0
  0
SEQEND
  5
C6
330
C3
100
AcDbEntity
  8
_U+30EC_U+30A4_U+30E4_U+30FC 1
 62
   179
420
  2234388
370
     9
  0
INSERT
  5
C8
330
1F
100
AcDbEntity
  8
_U+30EC_U+30A4_U+30E4_U+30FC 1
100
AcDbBlockReference
  2
block 7
 10
0.0
 20
0.0
 30
0.0
  0
SPLINE
  5
CF
330
1F
100
AcDbEntity
  8
_U+30EC_U+30A4_U+30E4_U+30FC 1
 62
   179
420
  2234388
370
    25
100
AcDbSpline
210
0.0
220
0.0
230
1.0
 70
    11
 71
     3
 72
    74
 73
    70
 74
     0
 42
0.0000000001
 43
0.0000000001
 12
1.0
 22
0.0
 32
0.0
 13
1.0
 23
0.0
 33
0.0
 40
0.0
 40
0.0
 40
0.0
 40
0.0
 40
1.0
 40
1.0
 40
1.0
 40
2.0
 40
2.0
 40
2.0
 40
3.0
 40
3.0
 40
3.0
 40
4.0
 40
4.0
 40
4.0
 40
5.0
 40
5.0
 40
5.0
 40
6.0
 40
6.0
 40
6.0
 40
7.0
 40
7.0
 40
7.0
 40
8.0
 40
8.0
 40
8.0
 40
9.0
 40
9.0
 40
9.0
 40
10.0
 40
10.0
 40
10.0
 40
11.0
 40
11.0
 40
11.0
 40
12.0
 40
12.0
 40
12.0
 40
13.0
 40
13.0
 40
13.0
 40
14.0
 40
14.0
 40
14.0
 40
15.0
 40
15.0
 40
15.0
 40
16.0
 40
16.0
 40
16.0
 40
17.0
 40
17.0
 40
17.0
 40
18.0
 40
18.0
 40
18.0
 40
19.0
 40
19.0
 40
19.0
 40
20.0
 40
20.0
 40
20.0
 40
21.0
 40
21.0
 40
21.0
 40
22.0
 40
22.0
 40
22.0
 40
23.0
 40
23.0
 40
23.0
 40
23.0
 10
87.29559971734815
 20
-126.2885883017612
 30
0.0
 10
87.29559971734815
 20
-126.2885883017612
 30
0.0
 10
87.10442944444753
 20
-126.4884016350445
 30
0.0
 10
87.10442944444753
 20
-126.4884016350445
 30
0.0
 10
87.10442944444753
 20
-126.4884016350445
 30
0.0
 10
86.89565556088492
 20
-126.2882355239835
 30
0.0
 10
86.89565556088492
 20
-126.2882355239835
 30
0.0
 10
86.89565556088492
 20
-126.2882355239835
 30
0.0
 10
86.69584442277063
 20
-126.488048857267
 30
0.0
 10
86.69584442277063
 20
-126.488048857267
 30
0.0
 10
86.69584442277063
 20
-126.488048857267
 30
0.0
 10
86.4956761266448
 20
-126.2878827462057
 30
0.0
 10
86.4956761266448
 20
-126.2878827462057
 30
0.0
 10
86.4956761266448
 20
-126.2878827462057
 30
0.0
 10
86.29586279840912
 20
-126.4877313572668
 30
0.0
 10
86.29586279840912
 20
-126.4877313572668
 30
0.0
 10
86.29586279840912
 20
-126.4877313572668
 30
0.0
 10
86.09569669240467
 20
-126.2875652462058
 30
0.0
 10
86.09569669240467
 20
-126.2875652462058
 30
0.0
 10
86.09569669240467
 20
-126.2875652462058
 30
0.0
 10
85.30692087919469
 20
-126.2875652462058
 30
0.0
 10
85.30692087919469
 20
-126.2875652462058
 30
0.0
 10
85.30692087919469
 20
-126.2875652462058
 30
0.0
 10
85.30692087919469
 20
-121.7193752473478
 30
0.0
 10
85.30692087919469
 20
-121.7193752473478
 30
0.0
 10
84.75468255995013
 20
-121.7193752473478
 30
0.0
 10
84.30683331225647
 20
-122.1672266361249
 30
0.0
 10
84.30683331225647
 20
-122.7194649693203
 30
0.0
 10
84.30683331225647
 20
-122.7194649693203
 30
0.0
 10
84.30683331225647
 20
-135.7188321882924
 30
0.0
 10
84.30683331225647
 20
-135.7188321882924
 30
0.0
 10
84.30683331225647
 20
-136.2714585770435
 30
0.0
 10
84.75468255995013
 20
-136.7193099658205
 30
0.0
 10
85.30692087919469
 20
-136.7193099658205
 30
0.0
 10
85.30692087919469
 20
-136.7193099658205
 30
0.0
 10
98.26240221533949
 20
-136.7193099658205
 30
0.0
 10
98.26240221533949
 20
-136.7193099658205
 30
0.0
 10
98.81499331235283
 20
-136.7193099658205
 30
0.0
 10
99.30694441961771
 20
-136.3396505214705
 30
0.0
 10
99.30694441961771
 20
-135.7870594104976
 30
0.0
 10
99.30694441961771
 20
-135.7870594104976
 30
0.0
 10
85.30692087919469
 20
-135.7870594104976
 30
0.0
 10
85.30692087919469
 20
-135.7870594104976
 30
0.0
 10
85.30692087919469
 20
-135.7870594104976
 30
0.0
 10
85.30692087919469
 20
-127.2873374681783
 30
0.0
 10
85.30692087919469
 20
-127.2873374681783
 30
0.0
 10
85.30692087919469
 20
-127.2873374681783
 30
0.0
 10
99.30694441961771
 20
-127.2873374681783
 30
0.0
 10
99.30694441961771
 20
-127.2873374681783
 30
0.0
 10
99.30694441961771
 20
-127.2873374681783
 30
0.0
 10
99.82647773099215
 20
-126.9875821904752
 30
0.0
 10
99.82647773099215
 20
-126.9875821904752
 30
0.0
 10
99.82647773099215
 20
-126.9875821904752
 30
0.0
 10
104.6068634423677
 20
-126.9875821904752
 30
0.0
 10
104.6068634423677
 20
-126.9875821904752
 30
0.0
 10
104.9934020436174
 20
-126.9875821904752
 30
0.0
 10
105.3069156467301
 20
-126.6741038572205
 30
0.0
 10
105.3069156467301
 20
-126.2875652462058
 30
0.0
 10
105.3069156467301
 20
-126.2875652462058
 30
0.0
 10
99.50813107244718
 20
-126.2875652462058
 30
0.0
 10
99.50813107244718
 20
-126.2875652462058
 30
0.0
 10
99.50813107244718
 20
-126.2875652462058
 30
0.0
 10
99.30831774421152
 20
-126.4873785794894
 30
0.0
 10
99.30831774421152
 20
-126.4873785794894
 30
0.0
 10
99.30831774421152
 20
-126.4873785794894
 30
0.0
 10
99.10815163820708
 20
-126.2872124684283
 30
0.0
 10
99.10815163820708
 20
-126.2872124684283
 30
0.0
 10
99.10815163820708
 20
-126.2872124684283
 30
0.0
 10
87.29559971734815
 20
-126.2885883017612
 30
0.0
 10
87.29559971734815
 20
-126.2885883017612
 30
0.0
  0
ENDSEC
  0
SECTION
  2
OBJECTS
  0
DICTIONARY
  5
C
330
0
100
AcDbDictionary
281
     1
  3
ACAD_GROUP
350
D
  3
ACAD_LAYOUT
350
1A
  3
ACAD_MATERIAL
350
3B
  3
ACAD_MLEADERSTYLE
350
D1
  3
ACAD_MLINESTYLE
350
17
  3
ACAD_PLOTSETTINGS
350
19
  3
ACAD_PLOTSTYLENAME
350
E
  3
ACAD_TABLESTYLE
350
D0
  3
ACAD_VISUALSTYLE
350
2A
  0
SUN
  5
3F
330
29
100
AcDbSun
 90
        1
290
     0
 63
     7
421
 16777215
 40
1.0
291
     1
 91
  2455826
 92
 54000000
292
     0
 70
     2
 71
   256
280
     1
  0
DICTIONARY
  5
D
102
{ACAD_REACTORS
330
C
102
}
330
C
100
AcDbDictionary
281
     1
  0
DICTIONARY
  5
1A
102
{ACAD_REACTORS
330
C
102
}
330
C
100
AcDbDictionary
281
     1
  3
Layout1
350
1E
  3
Layout2
350
26
  3
Model
350
22
  0
DICTIONARY
  5
3B
102
{ACAD_REACTORS
330
C
102
}
330
C
100
AcDbDictionary
281
     1
  3
ByBlock
350
3D
  3
ByLayer
350
3C
  3
Global
350
3E
  0
DICTIONARY
  5
D1
102
{ACAD_REACTORS
330
C
102
}
330
C
100
AcDbDictionary
281
     1
  0
DICTIONARY
  5
17
102
{ACAD_REACTORS
330
C
102
}
330
C
100
AcDbDictionary
281
     1
  3
Standard
350
18
  0
DICTIONARY
  5
19
102
{ACAD_REACTORS
330
C
102
}
330
C
100
AcDbDictionary
281
     1
  0
ACDBDICTIONARYWDFLT
  5
E
102
{ACAD_REACTORS
330
C
102
}
330
C
100
AcDbDictionary
281
     1
  3
Normal
350
F
100
AcDbDictionaryWithDefault
340
F
  0
DICTIONARY
  5
D0
102
{ACAD_REACTORS
330
C
102
}
330
C
100
AcDbDictionary
281
     1
  0
DICTIONARY
  5
2A
102
{ACAD_REACTORS
330
C
102
}
330
C
100
AcDbDictionary
281
     1
  3
2dWireframe
350
2F
  3
3D Hidden
350
31
  3
3dWireframe
350
30
  3
Basic
350
32
  3
Brighten
350
36
  3
ColorChange
350
3A
  3
Conceptual
350
34
  3
Dim
350
35
  3
Facepattern
350
39
  3
Flat
350
2B
  3
FlatWithEdges
350
2C
  3
Gouraud
350
2D
  3
GouraudWithEdges
350
2E
  3
Linepattern
350
38
  3
Realistic
350
33
  3
Thicken
350
37
  0
LAYOUT
  5
1E
102
{ACAD_REACTORS
330
1A
102
}
330
1A
100
AcDbPlotSettings
  1

  2
none_device
  4

  6

 40
0.0
 41
0.0
 42
0.0
 43
0.0
 44
0.0
 45
0.0
 46
0.0
 47
0.0
 48
0.0
 49
0.0
140
0.0
141
0.0
142
1.0
143
1.0
 70
   688
 72
     0
 73
     0
 74
     5
  7

 75
    16
 76
     0
 77
     2
 78
   300
147
1.0
148
0.0
149
0.0
100
AcDbLayout
  1
Layout1
 70
     1
 71
     1
 10
0.0
 20
0.0
 11
12.0
 21
9.0
 12
0.0
 22
0.0
 32
0.0
 14
1.000000000000000E+20
 24
1.000000000000000E+20
 34
1.000000000000000E+20
 15
-1.000000000000000E+20
 25
-1.000000000000000E+20
 35
-1.000000000000000E+20
146
0.0
 13
0.0
 23
0.0
 33
0.0
 16
1.0
 26
0.0
 36
0.0
 17
0.0
 27
1.0
 37
0.0
 76
     0
330
1B
  0
LAYOUT
  5
26
102
{ACAD_REACTORS
330
1A
102
}
330
1A
100
AcDbPlotSettings
  1

  2
none_device
  4

  6

 40
0.0
 41
0.0
 42
0.0
 43
0.0
 44
0.0
 45
0.0
 46
0.0
 47
0.0
 48
0.0
 49
0.0
140
0.0
141
0.0
142
1.0
143
1.0
 70
   688
 72
     0
 73
     0
 74
     5
  7

 75
    16
 76
     0
 77
     2
 78
   300
147
1.0
148
0.0
149
0.0
100
AcDbLayout
  1
Layout2
 70
     1
 71
     2
 10
0.0
 20
0.0
 11
0.0
 21
0.0
 12
0.0
 22
0.0
 32
0.0
 14
0.0
 24
0.0
 34
0.0
 15
0.0
 25
0.0
 35
0.0
146
0.0
 13
0.0
 23
0.0
 33
0.0
 16
1.0
 26
0.0
 36
0.0
 17
0.0
 27
1.0
 37
0.0
 76
     0
330
23
  0
LAYOUT
  5
22
102
{ACAD_REACTORS
330
1A
102
}
330
1A
100
AcDbPlotSettings
  1

  2
none_device
  4

  6

 40
0.0
 41
0.0
 42
0.0
 43
0.0
 44
0.0
 45
0.0
 46
0.0
 47
0.0
 48
0.0
 49
0.0
140
0.0
141
0.0
142
1.0
143
1.0
 70
  1712
 72
     0
 73
     0
 74
     0
  7

 75
     0
 76
     0
 77
     2
 78
   300
147
1.0
148
0.0
149
0.0
100
AcDbLayout
  1
Model
 70
     1
 71
     0
 10
0.0
 20
0.0
 11
12.0
 21
9.0
 12
0.0
 22
0.0
 32
0.0
 14
1.000000000000000E+20
 24
1.000000000000000E+20
 34
1.000000000000000E+20
 15
-1.000000000000000E+20
 25
-1.000000000000000E+20
 35
-1.000000000000000E+20
146
0.0
 13
0.0
 23
0.0
 33
0.0
 16
1.0
 26
0.0
 36
0.0
 17
0.0
 27
1.0
 37
0.0
 76
     0
330
1F
331
29
  0
MATERIAL
  5
3D
102
{ACAD_REACTORS
330
3B
102
}
330
3B
100
AcDbMaterial
  1
ByBlock
 72
     1
 94
      127
  0
MATERIAL
  5
3C
102
{ACAD_REACTORS
330
3B
102
}
330
3B
100
AcDbMaterial
  1
ByLayer
 72
     1
 94
      127
  0
MATERIAL
  5
3E
102
{ACAD_REACTORS
330
3B
102
}
330
3B
100
AcDbMaterial
  1
Global
 72
     1
 94
      127
  0
MLINESTYLE
  5
18
102
{ACAD_REACTORS
330
17
102
}
330
17
100
AcDbMlineStyle
  2
Standard
 70
     0
  3

 62
   256
 51
90.0
 52
90.0
 71
     2
 49
0.5
 62
   256
  6
BYLAYER
 49
-0.5
 62
   256
  6
BYLAYER
  0
ACDBPLACEHOLDER
  5
F
102
{ACAD_REACTORS
330
E
102
}
330
E
  0
VISUALSTYLE
  5
2F
102
{ACAD_REACTORS
330
2A
102
}
330
2A
100
AcDbVisualStyle
  2
2dWireframe
 70
     4
177
     2
291
     0
 71
     0
176
     1
 72
     2
176
     1
 73
     0
176
     1
 90
        0
176
     1
 40
-0.6
176
     1
 41
-30.0
176
     1
 62
     5
 63
     7
421
 16777215
176
     1
 74
     1
176
     1
 91
        4
176
     1
 64
     7
176
     1
 65
   257
176
     1
 75
     1
176
     1
175
     1
176
     1
 42
1.0
176
     1
 92
        0
176
     1
 66
   257
176
     1
 43
1.0
176
     1
 76
     1
176
     1
 77
     6
176
     1
 78
     2
176
     1
 67
     7
176
     1
 79
     5
176
     1
170
     0
176
     1
171
     0
176
     1
290
     0
176
     1
 93
        1
176
     1
 44
0.0
176
     1
173
     0
176
     1
  0
VISUALSTYLE
  5
31
102
{ACAD_REACTORS
330
2A
102
}
330
2A
100
AcDbVisualStyle
  2
3D Hidden
 70
     6
177
     2
291
     0
 71
     1
176
     1
 72
     2
176
     1
 73
     2
176
     1
 90
        0
176
     1
 40
-0.6
176
     1
 41
-30.0
176
     1
 62
     5
 63
     7
421
 16777215
176
     1
 74
     2
176
     1
 91
        2
176
     1
 64
     7
176
     1
 65
   257
176
     1
 75
     2
176
     1
175
     1
176
     1
 42
40.0
176
     1
 92
        0
176
     1
 66
   257
176
     1
 43
1.0
176
     1
 76
     1
176
     1
 77
     6
176
     1
 78
     2
176
     1
 67
     7
176
     1
 79
     3
176
     1
170
     0
176
     1
171
     0
176
     1
290
     0
176
     1
 93
        1
176
     1
 44
0.0
176
     1
173
     0
176
     1
  0
VISUALSTYLE
  5
30
102
{ACAD_REACTORS
330
2A
102
}
330
2A
100
AcDbVisualStyle
  2
3dWireframe
 70
     5
177
     2
291
     0
 71
     0
176
     1
 72
     2
176
     1
 73
     0
176
     1
 90
        0
176
     1
 40
-0.6
176
     1
 41
-30.0
176
     1
 62
     5
 63
     7
421
 16777215
176
     1
 74
     1
176
     1
 91
        4
176
     1
 64
     7
176
     1
 65
   257
176
     1
 75
     1
176
     1
175
     1
176
     1
 42
1.0
176
     1
 92
        0
176
     1
 66
   257
176
     1
 43
1.0
176
     1
 76
     1
176
     1
 77
     6
176
     1
 78
     2
176
     1
 67
     7
176
     1
 79
     5
176
     1
170
     0
176
     1
171
     0
176
     1
290
     0
176
     1
 93
        1
176
     1
 44
0.0
176
     1
173
     0
176
     1
  0
VISUALSTYLE
  5
32
102
{ACAD_REACTORS
330
2A
102
}
330
2A
100
AcDbVisualStyle
  2
Basic
 70
     7
177
     2
291
     1
 71
     1
176
     1
 72
     0
176
     1
 73
     1
176
     1
 90
        0
176
     1
 40
-0.6
176
     1
 41
-30.0
176
     1
 62
     5
 63
     7
421
 16777215
176
     1
 74
     0
176
     1
 91
        4
176
     1
 64
     7
176
     1
 65
   257
176
     1
 75
     1
176
     1
175
     1
176
     1
 42
1.0
176
     1
 92
        8
176
     1
 66
     7
176
     1
 43
1.0
176
     1
 76
     1
176
     1
 77
     6
176
     1
 78
     2
176
     1
 67
     7
176
     1
 79
     5
176
     1
170
     0
176
     1
171
     0
176
     1
290
     0
176
     1
 93
        1
176
     1
 44
0.0
176
     1
173
     0
176
     1
  0
VISUALSTYLE
  5
36
102
{ACAD_REACTORS
330
2A
102
}
330
2A
100
AcDbVisualStyle
  2
Brighten
 70
    12
177
     2
291
     1
 71
     2
176
     1
 72
     2
176
     1
 73
     0
176
     1
 90
        0
176
     1
 40
-0.6
176
     1
 41
-30.0
176
     1
 62
     5
 63
     7
421
 16777215
176
     1
 74
     1
176
     1
 91
        4
176
     1
 64
     7
176
     1
 65
   257
176
     1
 75
     1
176
     1
175
     1
176
     1
 42
1.0
176
     1
 92
        8
176
     1
 66
     7
176
     1
 43
1.0
176
     1
 76
     1
176
     1
 77
     6
176
     1
 78
     2
176
     1
 67
     7
176
     1
 79
     5
176
     1
170
     0
176
     1
171
     0
176
     1
290
     0
176
     1
 93
        1
176
     1
 44
50.0
176
     1
173
     0
176
     1
  0
VISUALSTYLE
  5
3A
102
{ACAD_REACTORS
330
2A
102
}
330
2A
100
AcDbVisualStyle
  2
ColorChange
 70
    16
177
     2
291
     1
 71
     2
176
     1
 72
     2
176
     1
 73
     3
176
     1
 90
        0
176
     1
 40
-0.6
176
     1
 41
-30.0
176
     1
 62
     5
 63
     8
421
  8421504
176
     1
 74
     1
176
     1
 91
        4
176
     1
 64
     7
176
     1
 65
   257
176
     1
 75
     1
176
     1
175
     1
176
     1
 42
1.0
176
     1
 92
        8
176
     1
 66
     8
424
  8421504
176
     1
 43
1.0
176
     1
 76
     1
176
     1
 77
     6
176
     1
 78
     2
176
     1
 67
     7
176
     1
 79
     5
176
     1
170
     0
176
     1
171
     0
176
     1
290
     0
176
     1
 93
        1
176
     1
 44
0.0
176
     1
173
     0
176
     1
  0
VISUALSTYLE
  5
34
102
{ACAD_REACTORS
330
2A
102
}
330
2A
100
AcDbVisualStyle
  2
Conceptual
 70
     9
177
     2
291
     0
 71
     3
176
     1
 72
     2
176
     1
 73
     0
176
     1
 90
        0
176
     1
 40
-0.6
176
     1
 41
-30.0
176
     1
 62
     5
 63
     7
421
 16777215
176
     1
 74
     2
176
     1
 91
        2
176
     1
 64
     7
176
     1
 65
   257
176
     1
 75
     1
176
     1
175
     1
176
     1
 42
40.0
176
     1
 92
        8
176
     1
 66
     7
176
     1
 43
1.0
176
     1
 76
     1
176
     1
 77
     6
176
     1
 78
     2
176
     1
 67
     7
176
     1
 79
     3
176
     1
170
     0
176
     1
171
     0
176
     1
290
     0
176
     1
 93
        1
176
     1
 44
0.0
176
     1
173
     0
176
     1
  0
VISUALSTYLE
  5
35
102
{ACAD_REACTORS
330
2A
102
}
330
2A
100
AcDbVisualStyle
  2
Dim
 70
    11
177
     2
291
     1
 71
     2
176
     1
 72
     2
176
     1
 73
     0
176
     1
 90
        0
176
     1
 40
-0.6
176
     1
 41
-30.0
176
     1
 62
     5
 63
     7
421
 16777215
176
     1
 74
     1
176
     1
 91
        4
176
     1
 64
     7
176
     1
 65
   257
176
     1
 75
     1
176
     1
175
     1
176
     1
 42
1.0
176
     1
 92
        8
176
     1
 66
     7
176
     1
 43
1.0
176
     1
 76
     1
176
     1
 77
     6
176
     1
 78
     2
176
     1
 67
     7
176
     1
 79
     5
176
     1
170
     0
176
     1
171
     0
176
     1
290
     0
176
     1
 93
        1
176
     1
 44
-50.0
176
     1
173
     0
176
     1
  0
VISUALSTYLE
  5
39
102
{ACAD_REACTORS
330
2A
102
}
330
2A
100
AcDbVisualStyle
  2
Facepattern
 70
    15
177
     2
291
     1
 71
     2
176
     1
 72
     2
176
     1
 73
     0
176
     1
 90
        0
176
     1
 40
-0.6
176
     1
 41
-30.0
176
     1
 62
     5
 63
     7
421
 16777215
176
     1
 74
     1
176
     1
 91
        4
176
     1
 64
     7
176
     1
 65
   257
176
     1
 75
     1
176
     1
175
     1
176
     1
 42
1.0
176
     1
 92
        8
176
     1
 66
     7
176
     1
 43
1.0
176
     1
 76
     1
176
     1
 77
     6
176
     1
 78
     2
176
     1
 67
     7
176
     1
 79
     5
176
     1
170
     0
176
     1
171
     0
176
     1
290
     0
176
     1
 93
        1
176
     1
 44
0.0
176
     1
173
     0
176
     1
  0
VISUALSTYLE
  5
2B
102
{ACAD_REACTORS
330
2A
102
}
330
2A
100
AcDbVisualStyle
  2
Flat
 70
     0
177
     2
291
     1
 71
     2
176
     1
 72
     1
176
     1
 73
     1
176
     1
 90
        2
176
     1
 40
-0.6
176
     1
 41
30.0
176
     1
 62
     5
 63
     7
421
 16777215
176
     1
 74
     0
176
     1
 91
        4
176
     1
 64
     7
176
     1
 65
   257
176
     1
 75
     1
176
     1
175
     1
176
     1
 42
1.0
176
     1
 92
        8
176
     1
 66
     7
176
     1
 43
1.0
176
     1
 76
     1
176
     1
 77
     6
176
     1
 78
     2
176
     1
 67
     7
176
     1
 79
     5
176
     1
170
     0
176
     1
171
     0
176
     1
290
     0
176
     1
 93
       13
176
     1
 44
0.0
176
     1
173
     0
176
     1
  0
VISUALSTYLE
  5
2C
102
{ACAD_REACTORS
330
2A
102
}
330
2A
100
AcDbVisualStyle
  2
FlatWithEdges
 70
     1
177
     2
291
     1
 71
     2
176
     1
 72
     1
176
     1
 73
     1
176
     1
 90
        2
176
     1
 40
-0.6
176
     1
 41
30.0
176
     1
 62
     5
 63
     7
421
 16777215
176
     1
 74
     1
176
     1
 91
        4
176
     1
 64
     7
176
     1
 65
   257
176
     1
 75
     1
176
     1
175
     1
176
     1
 42
1.0
176
     1
 92
        0
176
     1
 66
   257
176
     1
 43
1.0
176
     1
 76
     1
176
     1
 77
     6
176
     1
 78
     2
176
     1
 67
     7
176
     1
 79
     5
176
     1
170
     0
176
     1
171
     0
176
     1
290
     0
176
     1
 93
       13
176
     1
 44
0.0
176
     1
173
     0
176
     1
  0
VISUALSTYLE
  5
2D
102
{ACAD_REACTORS
330
2A
102
}
330
2A
100
AcDbVisualStyle
  2
Gouraud
 70
     2
177
     2
291
     1
 71
     2
176
     1
 72
     2
176
     1
 73
     1
176
     1
 90
        2
176
     1
 40
-0.6
176
     1
 41
30.0
176
     1
 62
     5
 63
     7
421
 16777215
176
     1
 74
     0
176
     1
 91
        4
176
     1
 64
     7
176
     1
 65
   257
176
     1
 75
     1
176
     1
175
     1
176
     1
 42
1.0
176
     1
 92
        0
176
     1
 66
     7
176
     1
 43
1.0
176
     1
 76
     1
176
     1
 77
     6
176
     1
 78
     2
176
     1
 67
     7
176
     1
 79
     5
176
     1
170
     0
176
     1
171
     0
176
     1
290
     0
176
     1
 93
       13
176
     1
 44
0.0
176
     1
173
     0
176
     1
  0
VISUALSTYLE
  5
2E
102
{ACAD_REACTORS
330
2A
102
}
330
2A
100
AcDbVisualStyle
  2
GouraudWithEdges
 70
     3
177
     2
291
     1
 71
     2
176
     1
 72
     2
176
     1
 73
     1
176
     1
 90
        2
176
     1
 40
-0.6
176
     1
 41
30.0
176
     1
 62
     5
 63
     7
421
 16777215
176
     1
 74
     1
176
     1
 91
        4
176
     1
 64
     7
176
     1
 65
   257
176
     1
 75
     1
176
     1
175
     1
176
     1
 42
1.0
176
     1
 92
        0
176
     1
 66
   257
176
     1
 43
1.0
176
     1
 76
     1
176
     1
 77
     6
176
     1
 78
     2
176
     1
 67
     7
176
     1
 79
     5
176
     1
170
     0
176
     1
171
     0
176
     1
290
     0
176
     1
 93
       13
176
     1
 44
0.0
176
     1
173
     0
176
     1
  0
VISUALSTYLE
  5
38
102
{ACAD_REACTORS
330
2A
102
}
330
2A
100
AcDbVisualStyle
  2
Linepattern
 70
    14
177
     2
291
     1
 71
     2
176
     1
 72
     2
176
     1
 73
     0
176
     1
 90
        0
176
     1
 40
-0.6
176
     1
 41
-30.0
176
     1
 62
     5
 63
     7
421
 16777215
176
     1
 74
     1
176
     1
 91
        4
176
     1
 64
     7
176
     1
 65
   257
176
     1
 75
     7
176
     1
175
     7
176
     1
 42
1.0
176
     1
 92
        8
176
     1
 66
     7
176
     1
 43
1.0
176
     1
 76
     1
176
     1
 77
     6
176
     1
 78
     2
176
     1
 67
     7
176
     1
 79
     5
176
     1
170
     0
176
     1
171
     0
176
     1
290
     0
176
     1
 93
        1
176
     1
 44
0.0
176
     1
173
     0
176
     1
  0
VISUALSTYLE
  5
33
102
{ACAD_REACTORS
330
2A
102
}
330
2A
100
AcDbVisualStyle
  2
Realistic
 70
     8
177
     2
291
     0
 71
     2
176
     1
 72
     2
176
     1
 73
     0
176
     1
 90
        0
176
     1
 40
-0.6
176
     1
 41
-30.0
176
     1
 62
     5
 63
     7
421
 16777215
176
     1
 74
     1
176
     1
 91
        0
176
     1
 64
     7
176
     1
 65
   257
176
     1
 75
     1
176
     1
175
     1
176
     1
 42
1.0
176
     1
 92
        8
176
     1
 66
     8
424
  7895160
176
     1
 43
1.0
176
     1
 76
     1
176
     1
 77
     6
176
     1
 78
     2
176
     1
 67
     7
176
     1
 79
     5
176
     1
170
     0
176
     1
171
     0
176
     1
290
     0
176
     1
 93
       13
176
     1
 44
0.0
176
     1
173
     0
176
     1
  0
VISUALSTYLE
  5
37
102
{ACAD_REACTORS
330
2A
102
}
330
2A
100
AcDbVisualStyle
  2
Thicken
 70
    13
177
     2
291
     1
 71
     2
176
     1
 72
     2
176
     1
 73
     0
176
     1
 90
        0
176
     1
 40
-0.6
176
     1
 41
-30.0
176
     1
 62
     5
 63
     7
421
 16777215
176
     1
 74
     1
176
     1
 91
        4
176
     1
 64
     7
176
     1
 65
   257
176
     1
 75
     1
176
     1
175
     1
176
     1
 42
1.0
176
     1
 92
       12
176
     1
 66
     7
176
     1
 43
1.0
176
     1
 76
     1
176
     1
 77
     6
176
     1
 78
     2
176
     1
 67
     7
176
     1
 79
     5
176
     1
170
     0
176
     1
171
     0
176
     1
290
     0
176
     1
 93
        1
176
     1
 44
0.0
176
     1
173
     0
176
     1
  0
ENDSEC
  0
EOF
