  0
SECTION
  2
HEADER
  9
$ACADVER
  1
AC1024
  9
$ACADMAINTVER
 70
     6
  9
$DWGCODEPAGE
  3
UNDEFINED
  9
$INSBASE
 10
0.0
 20
0.0
 30
0.0
  9
$EXTMIN
 10
1.000000000000000E+20
 20
1.000000000000000E+20
 30
1.000000000000000E+20
  9
$EXTMAX
 10
-1.000000000000000E+20
 20
-1.000000000000000E+20
 30
-1.000000000000000E+20
  9
$LIMMIN
 10
0.0
 20
0.0
  9
$LIMMAX
 10
12.0
 20
9.0
  9
$ORTHOMODE
 70
     0
  9
$REGENMODE
 70
     1
  9
$FILLMODE
 70
     1
  9
$QTEXTMODE
 70
     0
  9
$MIRRTEXT
 70
     1
  9
$LTSCALE
 40
1.0
  9
$ATTMODE
 70
     1
  9
$TEXTSIZE
 40
0.2
  9
$TRACEWID
 40
0.05
  9
$TEXTSTYLE
  7
Standard
  9
$CLAYER
  8
0
  9
$CELTYPE
  6
ByLayer
  9
$CECOLOR
 62
   256
  9
$CELTSCALE
 40
1.0
  9
$DISPSILH
 70
     0
  9
$DIMSCALE
 40
1.0
  9
$DIMASZ
 40
0.18
  9
$DIMEXO
 40
0.0625
  9
$DIMDLI
 40
0.38
  9
$DIMRND
 40
0.0
  9
$DIMDLE
 40
0.0
  9
$DIMEXE
 40
0.18
  9
$DIMTP
 40
0.0
  9
$DIMTM
 40
0.0
  9
$DIMTXT
 40
0.18
  9
$DIMCEN
 40
0.09
  9
$DIMTSZ
 40
0.0
  9
$DIMTOL
 70
     0
  9
$DIMLIM
 70
     0
  9
$DIMTIH
 70
     1
  9
$DIMTOH
 70
     1
  9
$DIMSE1
 70
     0
  9
$DIMSE2
 70
     0
  9
$DIMTAD
 70
     0
  9
$DIMZIN
 70
     0
  9
$DIMBLK
  1

  9
$DIMASO
 70
     1
  9
$DIMSHO
 70
     1
  9
$DIMPOST
  1

  9
$DIMAPOST
  1

  9
$DIMALT
 70
     0
  9
$DIMALTD
 70
     2
  9
$DIMALTF
 40
25.4
  9
$DIMLFAC
 40
1.0
  9
$DIMTOFL
 70
     0
  9
$DIMTVP
 40
0.0
  9
$DIMTIX
 70
     0
  9
$DIMSOXD
 70
     0
  9
$DIMSAH
 70
     0
  9
$DIMBLK1
  1

  9
$DIMBLK2
  1

  9
$DIMSTYLE
  2
Standard
  9
$DIMCLRD
 70
     0
  9
$DIMCLRE
 70
     0
  9
$DIMCLRT
 70
     0
  9
$DIMTFAC
 40
1.0
  9
$DIMGAP
 40
0.09
  9
$DIMJUST
 70
     0
  9
$DIMSD1
 70
     0
  9
$DIMSD2
 70
     0
  9
$DIMTOLJ
 70
     1
  9
$DIMTZIN
 70
     0
  9
$DIMALTZ
 70
     0
  9
$DIMALTTZ
 70
     0
  9
$DIMUPT
 70
     0
  9
$DIMDEC
 70
     4
  9
$DIMTDEC
 70
     4
  9
$DIMALTU
 70
     2
  9
$DIMALTTD
 70
     2
  9
$DIMTXSTY
  7
Standard
  9
$DIMAUNIT
 70
     0
  9
$DIMADEC
 70
     0
  9
$DIMALTRND
 40
0.0
  9
$DIMAZIN
 70
     0
  9
$DIMDSEP
 70
    46
  9
$DIMATFIT
 70
     3
  9
$DIMFRAC
 70
     0
  9
$DIMLDRBLK
  1

  9
$DIMLUNIT
 70
     2
  9
$DIMLWD
 70
    -2
  9
$DIMLWE
 70
    -2
  9
$DIMTMOVE
 70
     0
  9
$DIMFXL
 40
1.0
  9
$DIMFXLON
 70
     0
  9
$DIMJOGANG
 40
0.7853981633974483
  9
$DIMTFILL
 70
     0
  9
$DIMTFILLCLR
 70
     0
  9
$DIMARCSYM
 70
     0
  9
$DIMLTYPE
  6

  9
$DIMLTEX1
  6

  9
$DIMLTEX2
  6

  9
$DIMTXTDIRECTION
 70
     0
  9
$LUNITS
 70
     2
  9
$LUPREC
 70
     4
  9
$SKETCHINC
 40
0.1
  9
$FILLETRAD
 40
0.5
  9
$AUNITS
 70
     0
  9
$AUPREC
 70
     0
  9
$MENU
  1
.
  9
$ELEVATION
 40
0.0
  9
$PELEVATION
 40
0.0
  9
$THICKNESS
 40
0.0
  9
$LIMCHECK
 70
     0
  9
$CHAMFERA
 40
0.5
  9
$CHAMFERB
 40
0.5
  9
$CHAMFERC
 40
1.0
  9
$CHAMFERD
 40
0.0
  9
$SKPOLY
 70
     0
  9
$TDCREATE
 40
2457917.618865741
  9
$TDUCREATE
 40
2457917.243865741
  9
$TDUPDATE
 40
2457917.618865741
  9
$TDUUPDATE
 40
2457917.243865741
  9
$TDINDWG
 40
0.0000000116
  9
$TDUSRTIMER
 40
0.0000000116
  9
$USRTIMER
 70
     1
  9
$ANGBASE
 50
0.0
  9
$ANGDIR
 70
     0
  9
$PDMODE
 70
     0
  9
$PDSIZE
 40
0.0
  9
$PLINEWID
 40
0.0
  9
$SPLFRAME
 70
     0
  9
$SPLINETYPE
 70
     6
  9
$SPLINESEGS
 70
     8
  9
$HANDSEED
  5
F9
  9
$SURFTAB1
 70
     6
  9
$SURFTAB2
 70
     6
  9
$SURFTYPE
 70
     6
  9
$SURFU
 70
     6
  9
$SURFV
 70
     6
  9
$UCSBASE
  2

  9
$UCSNAME
  2

  9
$UCSORG
 10
0.0
 20
0.0
 30
0.0
  9
$UCSXDIR
 10
1.0
 20
0.0
 30
0.0
  9
$UCSYDIR
 10
0.0
 20
1.0
 30
0.0
  9
$UCSORTHOREF
  2

  9
$UCSORTHOVIEW
 70
     0
  9
$UCSORGTOP
 10
0.0
 20
0.0
 30
0.0
  9
$UCSORGBOTTOM
 10
0.0
 20
0.0
 30
0.0
  9
$UCSORGLEFT
 10
0.0
 20
0.0
 30
0.0
  9
$UCSORGRIGHT
 10
0.0
 20
0.0
 30
0.0
  9
$UCSORGFRONT
 10
0.0
 20
0.0
 30
0.0
  9
$UCSORGBACK
 10
0.0
 20
0.0
 30
0.0
  9
$PUCSBASE
  2

  9
$PUCSNAME
  2

  9
$PUCSORG
 10
0.0
 20
0.0
 30
0.0
  9
$PUCSXDIR
 10
1.0
 20
0.0
 30
0.0
  9
$PUCSYDIR
 10
0.0
 20
1.0
 30
0.0
  9
$PUCSORTHOREF
  2

  9
$PUCSORTHOVIEW
 70
     0
  9
$PUCSORGTOP
 10
0.0
 20
0.0
 30
0.0
  9
$PUCSORGBOTTOM
 10
0.0
 20
0.0
 30
0.0
  9
$PUCSORGLEFT
 10
0.0
 20
0.0
 30
0.0
  9
$PUCSORGRIGHT
 10
0.0
 20
0.0
 30
0.0
  9
$PUCSORGFRONT
 10
0.0
 20
0.0
 30
0.0
  9
$PUCSORGBACK
 10
0.0
 20
0.0
 30
0.0
  9
$USERI1
 70
     0
  9
$USERI2
 70
     0
  9
$USERI3
 70
     0
  9
$USERI4
 70
     0
  9
$USERI5
 70
     0
  9
$USERR1
 40
0.0
  9
$USERR2
 40
0.0
  9
$USERR3
 40
0.0
  9
$USERR4
 40
0.0
  9
$USERR5
 40
0.0
  9
$WORLDVIEW
 70
     1
  9
$SHADEDGE
 70
     3
  9
$SHADEDIF
 70
    70
  9
$TILEMODE
 70
     1
  9
$MAXACTVP
 70
    64
  9
$PINSBASE
 10
0.0
 20
0.0
 30
0.0
  9
$PLIMCHECK
 70
     0
  9
$PEXTMIN
 10
1.000000000000000E+20
 20
1.000000000000000E+20
 30
1.000000000000000E+20
  9
$PEXTMAX
 10
-1.000000000000000E+20
 20
-1.000000000000000E+20
 30
-1.000000000000000E+20
  9
$PLIMMIN
 10
0.0
 20
0.0
  9
$PLIMMAX
 10
12.0
 20
9.0
  9
$UNITMODE
 70
     0
  9
$VISRETAIN
 70
     1
  9
$PLINEGEN
 70
     0
  9
$PSLTSCALE
 70
     1
  9
$TREEDEPTH
 70
  3020
  9
$CMLSTYLE
  2
Standard
  9
$CMLJUST
 70
     0
  9
$CMLSCALE
 40
1.0
  9
$PROXYGRAPHICS
 70
     1
  9
$MEASUREMENT
 70
     0
  9
$CELWEIGHT
370
    -1
  9
$ENDCAPS
280
     0
  9
$JOINSTYLE
280
     0
  9
$LWDISPLAY
290
     1
  9
$INSUNITS
 70
     1
  9
$HYPERLINKBASE
  1

  9
$STYLESHEET
  1

  9
$XEDIT
290
     1
  9
$CEPSNTYPE
380
     0
  9
$PSTYLEMODE
290
     1
  9
$FINGERPRINTGUID
  2
{B7E10F0F-7873-AC52-AF8D-CB273C4CE825}
  9
$VERSIONGUID
  2
{FAEB1C32-E019-11D5-929B-00C0DF256EC4}
  9
$EXTNAMES
290
     1
  9
$PSVPSCALE
 40
0.0
  9
$OLESTARTUP
290
     0
  9
$SORTENTS
280
   127
  9
$INDEXCTL
280
     0
  9
$HIDETEXT
280
     1
  9
$XCLIPFRAME
280
     2
  9
$HALOGAP
280
     0
  9
$OBSCOLOR
 70
   257
  9
$OBSLTYPE
280
     0
  9
$INTERSECTIONDISPLAY
280
     0
  9
$INTERSECTIONCOLOR
 70
   257
  9
$DIMASSOC
280
     2
  9
$PROJECTNAME
  1

  9
$CAMERADISPLAY
290
     0
  9
$LENSLENGTH
 40
50.0
  9
$CAMERAHEIGHT
 40
0.0
  9
$STEPSPERSEC
 40
2.0
  9
$STEPSIZE
 40
6.0
  9
$3DDWFPREC
 40
2.0
  9
$PSOLWIDTH
 40
0.25
  9
$PSOLHEIGHT
 40
4.0
  9
$LOFTANG1
 40
1.570796326794897
  9
$LOFTANG2
 40
1.570796326794897
  9
$LOFTMAG1
 40
0.0
  9
$LOFTMAG2
 40
0.0
  9
$LOFTPARAM
 70
     7
  9
$LOFTNORMALS
280
     1
  9
$LATITUDE
 40
37.795
  9
$LONGITUDE
 40
-122.394
  9
$NORTHDIRECTION
 40
0.0
  9
$TIMEZONE
 70
 -8000
  9
$LIGHTGLYPHDISPLAY
280
     1
  9
$TILEMODELIGHTSYNCH
280
     1
  9
$CMATERIAL
347
3C
  9
$SOLIDHIST
280
     1
  9
$SHOWHIST
280
     1
  9
$DWFFRAME
280
     2
  9
$DGNFRAME
280
     2
  9
$REALWORLDSCALE
290
     1
  9
$INTERFERECOLOR
 62
   256
  9
$CSHADOW
280
     0
  9
$SHADOWPLANELOCATION
 40
0.0
  0
ENDSEC
  0
SECTION
  2
CLASSES
  0
CLASS
  1
ACDBDICTIONARYWDFLT
  2
AcDbDictionaryWithDefault
  3
ObjectDBX Classes
 90
        0
 91
        4
280
     0
281
     0
  0
CLASS
  1
VISUALSTYLE
  2
AcDbVisualStyle
  3
ObjectDBX Classes
 90
     4095
 91
        4
280
     0
281
     0
  0
CLASS
  1
MATERIAL
  2
AcDbMaterial
  3
ObjectDBX Classes
 90
     1153
 91
        4
280
     0
281
     0
  0
CLASS
  1
SUN
  2
AcDbSun
  3
SCENEOE
 90
     1024
 91
        4
280
     0
281
     0
  0
ENDSEC
  0
SECTION
  2
TABLES
  0
TABLE
  2
VPORT
  5
8
330
0
100
AcDbSymbolTable
 70
     1
  0
VPORT
  5
29
330
8
100
AcDbSymbolTableRecord
100
AcDbViewportTableRecord
  2
*Active
 70
     0
 10
0.0
 20
0.0
 11
1.0
 21
1.0
 12
0.0
 22
0.0
 13
0.0
 23
0.0
 14
0.5
 24
0.5
 15
0.5
 25
0.5
 16
0.0
 26
0.0
 36
1.0
 17
91.00082462281999
 27
-128.4993055234307
 37
0.0
 40
256.9986110468615
 41
0.7081814508812795
 42
50.0
 43
0.0
 44
0.0
 50
0.0
 51
0.0
 71
     0
 72
   100
 73
     1
 74
     3
 75
     0
 76
     0
 77
     0
 78
     0
281
     0
 65
     1
110
0.0
120
0.0
130
0.0
111
1.0
121
0.0
131
0.0
112
0.0
122
1.0
132
0.0
 79
     0
146
0.0
 60
     3
 61
     5
292
     1
282
     1
141
0.0
142
0.0
 63
   250
361
3F
  0
ENDTAB
  0
TABLE
  2
LTYPE
  5
5
330
0
100
AcDbSymbolTable
 70
     1
  0
LTYPE
  5
14
330
5
100
AcDbSymbolTableRecord
100
AcDbLinetypeTableRecord
  2
ByBlock
 70
     0
  3

 72
    65
 73
     0
 40
0.0
  0
LTYPE
  5
15
330
5
100
AcDbSymbolTableRecord
100
AcDbLinetypeTableRecord
  2
ByLayer
 70
     0
  3

 72
    65
 73
     0
 40
0.0
  0
LTYPE
  5
16
330
5
100
AcDbSymbolTableRecord
100
AcDbLinetypeTableRecord
  2
Continuous
 70
     0
  3
Solid line
 72
    65
 73
     0
 40
0.0
  0
ENDTAB
  0
TABLE
  2
LAYER
  5
2
330
0
100
AcDbSymbolTable
 70
     2
  0
LAYER
  5
10
330
2
100
AcDbSymbolTableRecord
100
AcDbLayerTableRecord
  2
0
 70
     0
 62
     7
  6
Continuous
370
    -3
390
F
347
3E
  0
LAYER
  5
40
330
2
100
AcDbSymbolTableRecord
100
AcDbLayerTableRecord
  2
_U+30EC_U+30A4_U+30E4_U+30FC 1
 70
     0
 62
     7
  6
Continuous
370
    -3
390
F
347
3E
  0
ENDTAB
  0
TABLE
  2
STYLE
  5
3
330
0
100
AcDbSymbolTable
 70
     1
  0
STYLE
  5
11
330
3
100
AcDbSymbolTableRecord
100
AcDbTextStyleTableRecord
  2
Standard
 70
     0
 40
0.0
 41
1.0
 50
0.0
 71
     0
 42
0.2
  3
txt
  4

  0
ENDTAB
  0
TABLE
  2
VIEW
  5
6
330
0
100
AcDbSymbolTable
 70
     0
  0
ENDTAB
  0
TABLE
  2
UCS
  5
7
330
0
100
AcDbSymbolTable
 70
     0
  0
ENDTAB
  0
TABLE
  2
APPID
  5
9
330
0
100
AcDbSymbolTable
 70
     1
  0
APPID
  5
12
330
9
100
AcDbSymbolTableRecord
100
AcDbRegAppTableRecord
  2
ACAD
 70
     0
  0
ENDTAB
  0
TABLE
  2
DIMSTYLE
  5
A
330
0
100
AcDbSymbolTable
 70
     1
100
AcDbDimStyleTable
  0
DIMSTYLE
105
27
330
A
100
AcDbSymbolTableRecord
100
AcDbDimStyleTableRecord
  2
Standard
 70
     0
178
     0
340
11
  0
ENDTAB
  0
TABLE
  2
BLOCK_RECORD
  5
1
330
0
100
AcDbSymbolTable
 70
     7
  0
BLOCK_RECORD
  5
1F
330
1
100
AcDbSymbolTableRecord
100
AcDbBlockTableRecord
  2
*Model_Space
340
22
 70
     0
280
     1
281
     0
  0
BLOCK_RECORD
  5
1B
330
1
100
AcDbSymbolTableRecord
100
AcDbBlockTableRecord
  2
*Paper_Space
340
1E
 70
     0
280
     1
281
     0
  0
BLOCK_RECORD
  5
23
330
1
100
AcDbSymbolTableRecord
100
AcDbBlockTableRecord
  2
*Paper_Space0
340
26
 70
     0
280
     1
281
     0
  0
BLOCK_RECORD
  5
85
330
1
100
AcDbSymbolTableRecord
100
AcDbBlockTableRecord
  2
block 2
340
0
102
{BLKREFS
331
86
102
}
 70
     0
280
     1
281
     0
  0
BLOCK_RECORD
  5
9A
330
1
100
AcDbSymbolTableRecord
100
AcDbBlockTableRecord
  2
block 3
340
0
102
{BLKREFS
331
9B
102
}
 70
     0
280
     1
281
     0
  0
BLOCK_RECORD
  5
AB
330
1
100
AcDbSymbolTableRecord
100
AcDbBlockTableRecord
  2
block 4
340
0
102
{BLKREFS
331
AC
102
}
 70
     0
280
     1
281
     0
  0
BLOCK_RECORD
  5
BD
330
1
100
AcDbSymbolTableRecord
100
AcDbBlockTableRecord
  2
block 5
340
0
102
{BLKREFS
331
BE
102
}
 70
     0
280
     1
281
     0
  0
BLOCK_RECORD
  5
D1
330
1
100
AcDbSymbolTableRecord
100
AcDbBlockTableRecord
  2
block 6
340
0
102
{BLKREFS
331
D2
102
}
 70
     0
280
     1
281
     0
  0
BLOCK_RECORD
  5
EF
330
1
100
AcDbSymbolTableRecord
100
AcDbBlockTableRecord
  2
block 7
340
0
102
{BLKREFS
331
F0
102
}
 70
     0
280
     1
281
     0
  0
ENDTAB
  0
ENDSEC
  0
SECTION
  2
BLOCKS
  0
BLOCK
  5
20
330
1F
100
AcDbEntity
  8
0
100
AcDbBlockBegin
  2
*Model_Space
 70
     0
 10
0.0
 20
0.0
 30
0.0
  3
*Model_Space
  1

  0
ENDBLK
  5
21
330
1F
100
AcDbEntity
  8
0
100
AcDbBlockEnd
  0
BLOCK
  5
1C
330
1B
100
AcDbEntity
 67
     1
  8
0
100
AcDbBlockBegin
  2
*Paper_Space
 70
     0
 10
0.0
 20
0.0
 30
0.0
  3
*Paper_Space
  1

  0
ENDBLK
  5
1D
330
1B
100
AcDbEntity
 67
     1
  8
0
100
AcDbBlockEnd
  0
BLOCK
  5
24
330
23
100
AcDbEntity
  8
0
100
AcDbBlockBegin
  2
*Paper_Space0
 70
     0
 10
0.0
 20
0.0
 30
0.0
  3
*Paper_Space0
  1

  0
ENDBLK
  5
25
330
23
100
AcDbEntity
  8
0
100
AcDbBlockEnd
  0
BLOCK
  5
87
330
85
100
AcDbEntity
  8
0
100
AcDbBlockBegin
  2
block 2
 70
     0
 10
0.0
 20
0.0
 30
0.0
  3
block 2
  1

  0
SPLINE
  5
89
330
85
100
AcDbEntity
  8
_U+30EC_U+30A4_U+30E4_U+30FC 1
370
     0
100
AcDbSpline
210
0.0
220
0.0
230
1.0
 70
    11
 71
     3
 72
    26
 73
    22
 74
     0
 42
0.0000000001
 43
0.0000000001
 12
1.0
 22
0.0
 32
0.0
 13
1.0
 23
0.0
 33
0.0
 40
0.0
 40
0.0
 40
0.0
 40
0.0
 40
1.0
 40
1.0
 40
1.0
 40
2.0
 40
2.0
 40
2.0
 40
3.0
 40
3.0
 40
3.0
 40
4.0
 40
4.0
 40
4.0
 40
5.0
 40
5.0
 40
5.0
 40
6.0
 40
6.0
 40
6.0
 40
7.0
 40
7.0
 40
7.0
 40
7.0
 10
74.07317028313102
 20
-142.553917065056
 30
0.0
 10
74.07317028313102
 20
-142.553917065056
 30
0.0
 10
74.07317028313102
 20
-141.4497639620334
 30
0.0
 10
74.07317028313102
 20
-141.4497639620334
 30
0.0
 10
74.07317028313102
 20
-141.4497639620334
 30
0.0
 10
73.72039250544144
 20
-141.4497639620334
 30
0.0
 10
73.72039250544144
 20
-141.4497639620334
 30
0.0
 10
73.72039250544144
 20
-141.4497639620334
 30
0.0
 10
73.72039250544144
 20
-141.3016248561676
 30
0.0
 10
73.72039250544144
 20
-141.3016248561676
 30
0.0
 10
74.07540959519643
 20
-141.2868109455811
 30
0.0
 10
74.12519122495829
 20
-141.1238579291288
 30
0.0
 10
74.15671384864832
 20
-141.0094807590185
 30
0.0
 10
74.15671384864832
 20
-141.0094807590185
 30
0.0
 10
74.31277667413015
 20
-141.0094807590185
 30
0.0
 10
74.31277667413015
 20
-141.0094807590185
 30
0.0
 10
74.31277667413015
 20
-141.0094807590185
 30
0.0
 10
74.31277667413015
 20
-142.553917065056
 30
0.0
 10
74.31277667413015
 20
-142.553917065056
 30
0.0
 10
74.31277667413015
 20
-142.553917065056
 30
0.0
 10
74.07317028313102
 20
-142.553917065056
 30
0.0
 10
74.07317028313102
 20
-142.553917065056
 30
0.0
  0
HATCH
  5
8A
330
85
100
AcDbEntity
  8
_U+30EC_U+30A4_U+30E4_U+30FC 1
 62
   179
420
  2234388
100
AcDbHatch
 10
0.0
 20
0.0
 30
0.0
210
0.0
220
0.0
230
1.0
  2
SOLID
 70
     1
 71
     0
 91
        1
 92
        1
 93
        1
 72
     4
 94
        3
 73
     0
 74
     1
 95
       26
 96
       22
 40
0.0
 40
0.0
 40
0.0
 40
0.0
 40
1.0
 40
1.0
 40
1.0
 40
2.0
 40
2.0
 40
2.0
 40
3.0
 40
3.0
 40
3.0
 40
4.0
 40
4.0
 40
4.0
 40
5.0
 40
5.0
 40
5.0
 40
6.0
 40
6.0
 40
6.0
 40
7.0
 40
7.0
 40
7.0
 40
7.0
 10
74.07317028313102
 20
-142.553917065056
 10
74.07317028313102
 20
-142.553917065056
 10
74.07317028313102
 20
-141.4497639620334
 10
74.07317028313102
 20
-141.4497639620334
 10
74.07317028313102
 20
-141.4497639620334
 10
73.72039250544144
 20
-141.4497639620334
 10
73.72039250544144
 20
-141.4497639620334
 10
73.72039250544144
 20
-141.4497639620334
 10
73.72039250544144
 20
-141.3016248561676
 10
73.72039250544144
 20
-141.3016248561676
 10
74.07540959519643
 20
-141.2868109455811
 10
74.12519122495829
 20
-141.1238579291288
 10
74.15671384864832
 20
-141.0094807590185
 10
74.15671384864832
 20
-141.0094807590185
 10
74.31277667413015
 20
-141.0094807590185
 10
74.31277667413015
 20
-141.0094807590185
 10
74.31277667413015
 20
-141.0094807590185
 10
74.31277667413015
 20
-142.553917065056
 10
74.31277667413015
 20
-142.553917065056
 10
74.31277667413015
 20
-142.553917065056
 10
74.07317028313102
 20
-142.553917065056
 10
74.07317028313102
 20
-142.553917065056
 97
        0
 97
        0
 75
     2
 76
     1
 98
        0
  0
SPLINE
  5
8B
330
85
100
AcDbEntity
  8
_U+30EC_U+30A4_U+30E4_U+30FC 1
370
     0
100
AcDbSpline
210
0.0
220
0.0
230
1.0
 70
    11
 71
     3
 72
    44
 73
    40
 74
     0
 42
0.0000000001
 43
0.0000000001
 12
1.0
 22
0.0
 32
0.0
 13
1.0
 23
0.0
 33
0.0
 40
0.0
 40
0.0
 40
0.0
 40
0.0
 40
1.0
 40
1.0
 40
1.0
 40
2.0
 40
2.0
 40
2.0
 40
3.0
 40
3.0
 40
3.0
 40
4.0
 40
4.0
 40
4.0
 40
5.0
 40
5.0
 40
5.0
 40
6.0
 40
6.0
 40
6.0
 40
7.0
 40
7.0
 40
7.0
 40
8.0
 40
8.0
 40
8.0
 40
9.0
 40
9.0
 40
9.0
 40
10.0
 40
10.0
 40
10.0
 40
11.0
 40
11.0
 40
11.0
 40
12.0
 40
12.0
 40
12.0
 40
13.0
 40
13.0
 40
13.0
 40
13.0
 10
75.93231606174609
 20
-142.553917065056
 30
0.0
 10
75.9075113742523
 20
-142.5094753332963
 30
0.0
 10
75.88477374404964
 20
-142.4567653723719
 30
0.0
 10
75.88253443198423
 20
-142.2259439748602
 30
0.0
 10
75.8780558078534
 20
-141.9827202336016
 30
0.0
 10
75.81483830569907
 20
-141.912784795251
 30
0.0
 10
75.62484128968754
 20
-141.912784795251
 30
0.0
 10
75.62484128968754
 20
-141.912784795251
 30
0.0
 10
75.18851994648065
 20
-141.912784795251
 30
0.0
 10
75.18851994648065
 20
-141.912784795251
 30
0.0
 10
75.18851994648065
 20
-141.912784795251
 30
0.0
 10
75.18851994648065
 20
-142.553917065056
 30
0.0
 10
75.18851994648065
 20
-142.553917065056
 30
0.0
 10
75.18851994648065
 20
-142.553917065056
 30
0.0
 10
74.9375447403802
 20
-142.553917065056
 30
0.0
 10
74.9375447403802
 20
-142.553917065056
 30
0.0
 10
74.9375447403802
 20
-142.553917065056
 30
0.0
 10
74.9375447403802
 20
-141.0094807590185
 30
0.0
 10
74.9375447403802
 20
-141.0094807590185
 30
0.0
 10
74.9375447403802
 20
-141.0094807590185
 30
0.0
 10
75.65877548021726
 20
-141.0094807590185
 30
0.0
 10
75.65877548021726
 20
-141.0094807590185
 30
0.0
 10
75.98657631563877
 20
-141.0094807590185
 30
0.0
 10
76.16520451654898
 20
-141.1810465141839
 30
0.0
 10
76.16520451654898
 20
-141.437017108738
 30
0.0
 10
76.16520451654898
 20
-141.4876600123712
 30
0.0
 10
76.15624726828733
 20
-141.5703423040171
 30
0.0
 10
76.10870495059088
 20
-141.6506130288235
 30
0.0
 10
76.04531519366229
 20
-141.7543104029295
 30
0.0
 10
75.97537975531172
 20
-141.7732584280984
 30
0.0
 10
75.90975068631771
 20
-141.7901393959761
 30
0.0
 10
76.05668400876361
 20
-141.8325140704447
 30
0.0
 10
76.12903101395386
 20
-141.8810899167867
 30
0.0
 10
76.13350963808467
 20
-142.196316153687
 30
0.0
 10
76.1379882622155
 20
-142.4671006588277
 30
0.0
 10
76.1765733316503
 20
-142.498795537292
 30
0.0
 10
76.24892033684056
 20
-142.553917065056
 30
0.0
 10
76.24892033684056
 20
-142.553917065056
 30
0.0
 10
75.93231606174609
 20
-142.553917065056
 30
0.0
 10
75.93231606174609
 20
-142.553917065056
 30
0.0
  0
SPLINE
  5
8C
330
85
100
AcDbEntity
  8
_U+30EC_U+30A4_U+30E4_U+30FC 1
370
     0
100
AcDbSpline
210
0.0
220
0.0
230
1.0
 70
    11
 71
     3
 72
    20
 73
    16
 74
     0
 42
0.0000000001
 43
0.0000000001
 12
1.0
 22
0.0
 32
0.0
 13
1.0
 23
0.0
 33
0.0
 40
0.0
 40
0.0
 40
0.0
 40
0.0
 40
1.0
 40
1.0
 40
1.0
 40
2.0
 40
2.0
 40
2.0
 40
3.0
 40
3.0
 40
3.0
 40
4.0
 40
4.0
 40
4.0
 40
5.0
 40
5.0
 40
5.0
 40
5.0
 10
75.66325410434808
 20
-141.2210096218128
 30
0.0
 10
75.66325410434808
 20
-141.2210096218128
 30
0.0
 10
75.18851994648065
 20
-141.2210096218128
 30
0.0
 10
75.18851994648065
 20
-141.2210096218128
 30
0.0
 10
75.18851994648065
 20
-141.2210096218128
 30
0.0
 10
75.18851994648065
 20
-141.7012559324566
 30
0.0
 10
75.18851994648065
 20
-141.7012559324566
 30
0.0
 10
75.18851994648065
 20
-141.7012559324566
 30
0.0
 10
75.66101479228267
 20
-141.7012559324566
 30
0.0
 10
75.66101479228267
 20
-141.7012559324566
 30
0.0
 10
75.76729598800263
 20
-141.7012559324566
 30
0.0
 10
75.91198999838312
 20
-141.6251193222326
 30
0.0
 10
75.91198999838312
 20
-141.4538980766157
 30
0.0
 10
75.91198999838312
 20
-141.3756944091005
 30
0.0
 10
75.87581649578799
 20
-141.2210096218128
 30
0.0
 10
75.66325410434808
 20
-141.2210096218128
 30
0.0
  0
HATCH
  5
8D
330
85
100
AcDbEntity
  8
_U+30EC_U+30A4_U+30E4_U+30FC 1
 62
   179
420
  2234388
100
AcDbHatch
 10
0.0
 20
0.0
 30
0.0
210
0.0
220
0.0
230
1.0
  2
SOLID
 70
     1
 71
     0
 91
        2
 92
        1
 93
        1
 72
     4
 94
        3
 73
     0
 74
     1
 95
       44
 96
       40
 40
0.0
 40
0.0
 40
0.0
 40
0.0
 40
1.0
 40
1.0
 40
1.0
 40
2.0
 40
2.0
 40
2.0
 40
3.0
 40
3.0
 40
3.0
 40
4.0
 40
4.0
 40
4.0
 40
5.0
 40
5.0
 40
5.0
 40
6.0
 40
6.0
 40
6.0
 40
7.0
 40
7.0
 40
7.0
 40
8.0
 40
8.0
 40
8.0
 40
9.0
 40
9.0
 40
9.0
 40
10.0
 40
10.0
 40
10.0
 40
11.0
 40
11.0
 40
11.0
 40
12.0
 40
12.0
 40
12.0
 40
13.0
 40
13.0
 40
13.0
 40
13.0
 10
75.93231606174609
 20
-142.553917065056
 10
75.9075113742523
 20
-142.5094753332963
 10
75.88477374404964
 20
-142.4567653723719
 10
75.88253443198423
 20
-142.2259439748602
 10
75.8780558078534
 20
-141.9827202336016
 10
75.81483830569907
 20
-141.912784795251
 10
75.62484128968754
 20
-141.912784795251
 10
75.62484128968754
 20
-141.912784795251
 10
75.18851994648065
 20
-141.912784795251
 10
75.18851994648065
 20
-141.912784795251
 10
75.18851994648065
 20
-141.912784795251
 10
75.18851994648065
 20
-142.553917065056
 10
75.18851994648065
 20
-142.553917065056
 10
75.18851994648065
 20
-142.553917065056
 10
74.9375447403802
 20
-142.553917065056
 10
74.9375447403802
 20
-142.553917065056
 10
74.9375447403802
 20
-142.553917065056
 10
74.9375447403802
 20
-141.0094807590185
 10
74.9375447403802
 20
-141.0094807590185
 10
74.9375447403802
 20
-141.0094807590185
 10
75.65877548021726
 20
-141.0094807590185
 10
75.65877548021726
 20
-141.0094807590185
 10
75.98657631563877
 20
-141.0094807590185
 10
76.16520451654898
 20
-141.1810465141839
 10
76.16520451654898
 20
-141.437017108738
 10
76.16520451654898
 20
-141.4876600123712
 10
76.15624726828733
 20
-141.5703423040171
 10
76.10870495059088
 20
-141.6506130288235
 10
76.04531519366229
 20
-141.7543104029295
 10
75.97537975531172
 20
-141.7732584280984
 10
75.90975068631771
 20
-141.7901393959761
 10
76.05668400876361
 20
-141.8325140704447
 10
76.12903101395386
 20
-141.8810899167867
 10
76.13350963808467
 20
-142.196316153687
 10
76.1379882622155
 20
-142.4671006588277
 10
76.1765733316503
 20
-142.498795537292
 10
76.24892033684056
 20
-142.553917065056
 10
76.24892033684056
 20
-142.553917065056
 10
75.93231606174609
 20
-142.553917065056
 10
75.93231606174609
 20
-142.553917065056
 97
        0
 97
        0
 92
        1
 93
        1
 72
     4
 94
        3
 73
     0
 74
     1
 95
       20
 96
       16
 40
0.0
 40
0.0
 40
0.0
 40
0.0
 40
1.0
 40
1.0
 40
1.0
 40
2.0
 40
2.0
 40
2.0
 40
3.0
 40
3.0
 40
3.0
 40
4.0
 40
4.0
 40
4.0
 40
5.0
 40
5.0
 40
5.0
 40
5.0
 10
75.66325410434808
 20
-141.2210096218128
 10
75.66325410434808
 20
-141.2210096218128
 10
75.18851994648065
 20
-141.2210096218128
 10
75.18851994648065
 20
-141.2210096218128
 10
75.18851994648065
 20
-141.2210096218128
 10
75.18851994648065
 20
-141.7012559324566
 10
75.18851994648065
 20
-141.7012559324566
 10
75.18851994648065
 20
-141.7012559324566
 10
75.66101479228267
 20
-141.7012559324566
 10
75.66101479228267
 20
-141.7012559324566
 10
75.76729598800263
 20
-141.7012559324566
 10
75.91198999838312
 20
-141.6251193222326
 10
75.91198999838312
 20
-141.4538980766157
 10
75.91198999838312
 20
-141.3756944091005
 10
75.87581649578799
 20
-141.2210096218128
 10
75.66325410434808
 20
-141.2210096218128
 97
        0
 97
        0
 75
     2
 76
     1
 98
        0
  0
ENDBLK
  5
88
330
85
100
AcDbEntity
  8
0
100
AcDbBlockEnd
  0
BLOCK
  5
9C
330
9A
100
AcDbEntity
  8
0
100
AcDbBlockBegin
  2
block 3
 70
     0
 10
0.0
 20
0.0
 30
0.0
  3
block 3
  1

  0
SPLINE
  5
9E
330
9A
100
AcDbEntity
  8
_U+30EC_U+30A4_U+30E4_U+30FC 1
370
     0
100
AcDbSpline
210
0.0
220
0.0
230
1.0
 70
    11
 71
     3
 72
    44
 73
    40
 74
     0
 42
0.0000000001
 43
0.0000000001
 12
1.0
 22
0.0
 32
0.0
 13
1.0
 23
0.0
 33
0.0
 40
0.0
 40
0.0
 40
0.0
 40
0.0
 40
1.0
 40
1.0
 40
1.0
 40
2.0
 40
2.0
 40
2.0
 40
3.0
 40
3.0
 40
3.0
 40
4.0
 40
4.0
 40
4.0
 40
5.0
 40
5.0
 40
5.0
 40
6.0
 40
6.0
 40
6.0
 40
7.0
 40
7.0
 40
7.0
 40
8.0
 40
8.0
 40
8.0
 40
9.0
 40
9.0
 40
9.0
 40
10.0
 40
10.0
 40
10.0
 40
11.0
 40
11.0
 40
11.0
 40
12.0
 40
12.0
 40
12.0
 40
13.0
 40
13.0
 40
13.0
 40
13.0
 10
95.03640405610201
 20
-113.5229586847269
 30
0.0
 10
94.80351560129913
 20
-113.6816053318227
 30
0.0
 10
94.7039523417754
 20
-113.7556748847555
 30
0.0
 10
94.65227590949665
 20
-113.8993353664904
 30
0.0
 10
94.65227590949665
 20
-113.8993353664904
 30
0.0
 10
95.48392195963596
 20
-113.8993353664904
 30
0.0
 10
95.48392195963596
 20
-113.8993353664904
 30
0.0
 10
95.48392195963596
 20
-113.8993353664904
 30
0.0
 10
95.48392195963596
 20
-114.1046630574113
 30
0.0
 10
95.48392195963596
 20
-114.1046630574113
 30
0.0
 10
95.48392195963596
 20
-114.1046630574113
 30
0.0
 10
94.3852810093898
 20
-114.1046630574113
 30
0.0
 10
94.3852810093898
 20
-114.1046630574113
 30
0.0
 10
94.41938745469376
 20
-113.7470621460424
 30
0.0
 10
94.48932289304435
 20
-113.6688584785272
 30
0.0
 10
94.90066729398318
 20
-113.3705132095046
 30
0.0
 10
95.17420787551201
 20
-113.1717312000057
 30
0.0
 10
95.2444878234111
 20
-113.1040350737205
 30
0.0
 10
95.2444878234111
 20
-112.9665757638591
 30
0.0
 10
95.2444878234111
 20
-112.8480644791665
 30
0.0
 10
95.16766219409003
 20
-112.7169785959527
 30
0.0
 10
94.95716685994127
 20
-112.7169785959527
 30
0.0
 10
94.6791476542816
 20
-112.7169785959527
 30
0.0
 10
94.67019040601996
 20
-112.9474554839159
 30
0.0
 10
94.66571178188913
 20
-113.0638997113174
 30
0.0
 10
94.66571178188913
 20
-113.0638997113174
 30
0.0
 10
94.42593313611575
 20
-113.0638997113174
 30
0.0
 10
94.42593313611575
 20
-113.0638997113174
 30
0.0
 10
94.43523489392592
 20
-112.9369479426859
 30
0.0
 10
94.44625919947872
 20
-112.824810084641
 30
0.0
 10
94.53238658660996
 20
-112.7062987999484
 30
0.0
 10
94.64986434265698
 20
-112.5455850955615
 30
0.0
 10
94.8486463521559
 20
-112.5116509050318
 30
0.0
 10
94.97301429917341
 20
-112.5116509050318
 30
0.0
 10
95.2692925109049
 20
-112.5116509050318
 30
0.0
 10
95.49081215060647
 20
-112.6957912587184
 30
0.0
 10
95.49081215060647
 20
-112.9686428211502
 30
0.0
 10
95.49081215060647
 20
-113.1970526518223
 30
0.0
 10
95.36644420358896
 20
-113.296615911346
 30
0.0
 10
95.03640405610201
 20
-113.5229586847269
 30
0.0
  0
HATCH
  5
9F
330
9A
100
AcDbEntity
  8
_U+30EC_U+30A4_U+30E4_U+30FC 1
 62
   179
420
  2234388
100
AcDbHatch
 10
0.0
 20
0.0
 30
0.0
210
0.0
220
0.0
230
1.0
  2
SOLID
 70
     1
 71
     0
 91
        1
 92
        1
 93
        1
 72
     4
 94
        3
 73
     0
 74
     1
 95
       44
 96
       40
 40
0.0
 40
0.0
 40
0.0
 40
0.0
 40
1.0
 40
1.0
 40
1.0
 40
2.0
 40
2.0
 40
2.0
 40
3.0
 40
3.0
 40
3.0
 40
4.0
 40
4.0
 40
4.0
 40
5.0
 40
5.0
 40
5.0
 40
6.0
 40
6.0
 40
6.0
 40
7.0
 40
7.0
 40
7.0
 40
8.0
 40
8.0
 40
8.0
 40
9.0
 40
9.0
 40
9.0
 40
10.0
 40
10.0
 40
10.0
 40
11.0
 40
11.0
 40
11.0
 40
12.0
 40
12.0
 40
12.0
 40
13.0
 40
13.0
 40
13.0
 40
13.0
 10
95.03640405610201
 20
-113.5229586847269
 10
94.80351560129913
 20
-113.6816053318227
 10
94.7039523417754
 20
-113.7556748847555
 10
94.65227590949665
 20
-113.8993353664904
 10
94.65227590949665
 20
-113.8993353664904
 10
95.48392195963596
 20
-113.8993353664904
 10
95.48392195963596
 20
-113.8993353664904
 10
95.48392195963596
 20
-113.8993353664904
 10
95.48392195963596
 20
-114.1046630574113
 10
95.48392195963596
 20
-114.1046630574113
 10
95.48392195963596
 20
-114.1046630574113
 10
94.3852810093898
 20
-114.1046630574113
 10
94.3852810093898
 20
-114.1046630574113
 10
94.41938745469376
 20
-113.7470621460424
 10
94.48932289304435
 20
-113.6688584785272
 10
94.90066729398318
 20
-113.3705132095046
 10
95.17420787551201
 20
-113.1717312000057
 10
95.2444878234111
 20
-113.1040350737205
 10
95.2444878234111
 20
-112.9665757638591
 10
95.2444878234111
 20
-112.8480644791665
 10
95.16766219409003
 20
-112.7169785959527
 10
94.95716685994127
 20
-112.7169785959527
 10
94.6791476542816
 20
-112.7169785959527
 10
94.67019040601996
 20
-112.9474554839159
 10
94.66571178188913
 20
-113.0638997113174
 10
94.66571178188913
 20
-113.0638997113174
 10
94.42593313611575
 20
-113.0638997113174
 10
94.42593313611575
 20
-113.0638997113174
 10
94.43523489392592
 20
-112.9369479426859
 10
94.44625919947872
 20
-112.824810084641
 10
94.53238658660996
 20
-112.7062987999484
 10
94.64986434265698
 20
-112.5455850955615
 10
94.8486463521559
 20
-112.5116509050318
 10
94.97301429917341
 20
-112.5116509050318
 10
95.2692925109049
 20
-112.5116509050318
 10
95.49081215060647
 20
-112.6957912587184
 10
95.49081215060647
 20
-112.9686428211502
 10
95.49081215060647
 20
-113.1970526518223
 10
95.36644420358896
 20
-113.296615911346
 10
95.03640405610201
 20
-113.5229586847269
 97
        0
 97
        0
 75
     2
 76
     1
 98
        0
  0
SPLINE
  5
A0
330
9A
100
AcDbEntity
  8
_U+30EC_U+30A4_U+30E4_U+30FC 1
370
     0
100
AcDbSpline
210
0.0
220
0.0
230
1.0
 70
    11
 71
     3
 72
    32
 73
    28
 74
     0
 42
0.0000000001
 43
0.0000000001
 12
1.0
 22
0.0
 32
0.0
 13
1.0
 23
0.0
 33
0.0
 40
0.0
 40
0.0
 40
0.0
 40
0.0
 40
1.0
 40
1.0
 40
1.0
 40
2.0
 40
2.0
 40
2.0
 40
3.0
 40
3.0
 40
3.0
 40
4.0
 40
4.0
 40
4.0
 40
5.0
 40
5.0
 40
5.0
 40
6.0
 40
6.0
 40
6.0
 40
7.0
 40
7.0
 40
7.0
 40
8.0
 40
8.0
 40
8.0
 40
9.0
 40
9.0
 40
9.0
 40
9.0
 10
96.19912378237383
 20
-114.1553059610445
 30
0.0
 10
95.64756399518534
 20
-114.1553059610445
 30
0.0
 10
95.63860674692368
 20
-113.6011623522421
 30
0.0
 10
95.63860674692368
 20
-113.3875664321566
 30
0.0
 10
95.63860674692368
 20
-113.1569172894191
 30
0.0
 10
95.65893281028666
 20
-112.5095838477407
 30
0.0
 10
96.2401204186483
 20
-112.5095838477407
 30
0.0
 10
96.42546655575475
 20
-112.5095838477407
 30
0.0
 10
96.68763832218227
 20
-112.579347031317
 30
0.0
 10
96.72829044890821
 20
-112.9114542360951
 30
0.0
 10
96.72829044890821
 20
-112.9114542360951
 30
0.0
 10
96.49988061823615
 20
-112.9114542360951
 30
0.0
 10
96.49988061823615
 20
-112.9114542360951
 30
0.0
 10
96.48851180313483
 20
-112.8544379058142
 30
0.0
 10
96.45474986737938
 20
-112.7062987999484
 30
0.0
 10
96.23770885180863
 20
-112.7062987999484
 30
0.0
 10
95.925583200845
 20
-112.7062987999484
 30
0.0
 10
95.8828640168279
 20
-113.0342718901442
 30
0.0
 10
95.8690836348869
 20
-113.2394273262908
 30
0.0
 10
95.96864689441063
 20
-113.1612236587757
 30
0.0
 10
96.04099389960086
 20
-113.1019680164294
 30
0.0
 10
96.23564179451748
 20
-113.1019680164294
 30
0.0
 10
96.4275336130459
 20
-113.1019680164294
 30
0.0
 10
96.75102807911085
 20
-113.2097995051177
 30
0.0
 10
96.75102807911085
 20
-113.6159762628287
 30
0.0
 10
96.75102807911085
 20
-113.9355088690856
 30
0.0
 10
96.53846568767095
 20
-114.1553059610445
 30
0.0
 10
96.19912378237383
 20
-114.1553059610445
 30
0.0
  0
SPLINE
  5
A1
330
9A
100
AcDbEntity
  8
_U+30EC_U+30A4_U+30E4_U+30FC 1
370
     0
100
AcDbSpline
210
0.0
220
0.0
230
1.0
 70
    11
 71
     3
 72
    17
 73
    13
 74
     0
 42
0.0000000001
 43
0.0000000001
 12
1.0
 22
0.0
 32
0.0
 13
1.0
 23
0.0
 33
0.0
 40
0.0
 40
0.0
 40
0.0
 40
0.0
 40
1.0
 40
1.0
 40
1.0
 40
2.0
 40
2.0
 40
2.0
 40
3.0
 40
3.0
 40
3.0
 40
4.0
 40
4.0
 40
4.0
 40
4.0
 10
96.21738278844566
 20
-113.296615911346
 30
0.0
 10
95.93695201594632
 20
-113.296615911346
 30
0.0
 10
95.89629988922037
 20
-113.5081447741403
 30
0.0
 10
95.89629988922037
 20
-113.6244167467675
 30
0.0
 10
95.89629988922037
 20
-113.8001166165153
 30
0.0
 10
95.99793020603525
 20
-113.9630696329676
 30
0.0
 10
96.194645158243
 20
-113.9630696329676
 30
0.0
 10
96.32349172939135
 20
-113.9630696329676
 30
0.0
 10
96.51124943333747
 20
-113.9038139906213
 30
0.0
 10
96.51124943333747
 20
-113.6180433201198
 30
0.0
 10
96.51124943333747
 20
-113.3939398588043
 30
0.0
 10
96.36207679882615
 20
-113.296615911346
 30
0.0
 10
96.21738278844566
 20
-113.296615911346
 30
0.0
  0
HATCH
  5
A2
330
9A
100
AcDbEntity
  8
_U+30EC_U+30A4_U+30E4_U+30FC 1
 62
   179
420
  2234388
100
AcDbHatch
 10
0.0
 20
0.0
 30
0.0
210
0.0
220
0.0
230
1.0
  2
SOLID
 70
     1
 71
     0
 91
        2
 92
        1
 93
        1
 72
     4
 94
        3
 73
     0
 74
     1
 95
       32
 96
       28
 40
0.0
 40
0.0
 40
0.0
 40
0.0
 40
1.0
 40
1.0
 40
1.0
 40
2.0
 40
2.0
 40
2.0
 40
3.0
 40
3.0
 40
3.0
 40
4.0
 40
4.0
 40
4.0
 40
5.0
 40
5.0
 40
5.0
 40
6.0
 40
6.0
 40
6.0
 40
7.0
 40
7.0
 40
7.0
 40
8.0
 40
8.0
 40
8.0
 40
9.0
 40
9.0
 40
9.0
 40
9.0
 10
96.19912378237383
 20
-114.1553059610445
 10
95.64756399518534
 20
-114.1553059610445
 10
95.63860674692368
 20
-113.6011623522421
 10
95.63860674692368
 20
-113.3875664321566
 10
95.63860674692368
 20
-113.1569172894191
 10
95.65893281028666
 20
-112.5095838477407
 10
96.2401204186483
 20
-112.5095838477407
 10
96.42546655575475
 20
-112.5095838477407
 10
96.68763832218227
 20
-112.579347031317
 10
96.72829044890821
 20
-112.9114542360951
 10
96.72829044890821
 20
-112.9114542360951
 10
96.49988061823615
 20
-112.9114542360951
 10
96.49988061823615
 20
-112.9114542360951
 10
96.48851180313483
 20
-112.8544379058142
 10
96.45474986737938
 20
-112.7062987999484
 10
96.23770885180863
 20
-112.7062987999484
 10
95.925583200845
 20
-112.7062987999484
 10
95.8828640168279
 20
-113.0342718901442
 10
95.8690836348869
 20
-113.2394273262908
 10
95.96864689441063
 20
-113.1612236587757
 10
96.04099389960086
 20
-113.1019680164294
 10
96.23564179451748
 20
-113.1019680164294
 10
96.4275336130459
 20
-113.1019680164294
 10
96.75102807911085
 20
-113.2097995051177
 10
96.75102807911085
 20
-113.6159762628287
 10
96.75102807911085
 20
-113.9355088690856
 10
96.53846568767095
 20
-114.1553059610445
 10
96.19912378237383
 20
-114.1553059610445
 97
        0
 97
        0
 92
        1
 93
        1
 72
     4
 94
        3
 73
     0
 74
     1
 95
       17
 96
       13
 40
0.0
 40
0.0
 40
0.0
 40
0.0
 40
1.0
 40
1.0
 40
1.0
 40
2.0
 40
2.0
 40
2.0
 40
3.0
 40
3.0
 40
3.0
 40
4.0
 40
4.0
 40
4.0
 40
4.0
 10
96.21738278844566
 20
-113.296615911346
 10
95.93695201594632
 20
-113.296615911346
 10
95.89629988922037
 20
-113.5081447741403
 10
95.89629988922037
 20
-113.6244167467675
 10
95.89629988922037
 20
-113.8001166165153
 10
95.99793020603525
 20
-113.9630696329676
 10
96.194645158243
 20
-113.9630696329676
 10
96.32349172939135
 20
-113.9630696329676
 10
96.51124943333747
 20
-113.9038139906213
 10
96.51124943333747
 20
-113.6180433201198
 10
96.51124943333747
 20
-113.3939398588043
 10
96.36207679882615
 20
-113.296615911346
 10
96.21738278844566
 20
-113.296615911346
 97
        0
 97
        0
 75
     2
 76
     1
 98
        0
  0
ENDBLK
  5
9D
330
9A
100
AcDbEntity
  8
0
100
AcDbBlockEnd
  0
BLOCK
  5
AD
330
AB
100
AcDbEntity
  8
0
100
AcDbBlockBegin
  2
block 4
 70
     0
 10
0.0
 20
0.0
 30
0.0
  3
block 4
  1

  0
SPLINE
  5
AF
330
AB
100
AcDbEntity
  8
_U+30EC_U+30A4_U+30E4_U+30FC 1
370
     0
100
AcDbSpline
210
0.0
220
0.0
230
1.0
 70
    11
 71
     3
 72
    26
 73
    22
 74
     0
 42
0.0000000001
 43
0.0000000001
 12
1.0
 22
0.0
 32
0.0
 13
1.0
 23
0.0
 33
0.0
 40
0.0
 40
0.0
 40
0.0
 40
0.0
 40
1.0
 40
1.0
 40
1.0
 40
2.0
 40
2.0
 40
2.0
 40
3.0
 40
3.0
 40
3.0
 40
4.0
 40
4.0
 40
4.0
 40
5.0
 40
5.0
 40
5.0
 40
6.0
 40
6.0
 40
6.0
 40
7.0
 40
7.0
 40
7.0
 40
7.0
 10
83.79299043044064
 20
-120.722519229802
 30
0.0
 10
83.79299043044064
 20
-120.722519229802
 30
0.0
 10
83.79299043044064
 20
-119.6181938720052
 30
0.0
 10
83.79299043044064
 20
-119.6181938720052
 30
0.0
 10
83.79299043044064
 20
-119.6181938720052
 30
0.0
 10
83.44021265275106
 20
-119.6181938720052
 30
0.0
 10
83.44021265275106
 20
-119.6181938720052
 30
0.0
 10
83.44021265275106
 20
-119.6181938720052
 30
0.0
 10
83.44021265275106
 20
-119.4700547661394
 30
0.0
 10
83.44021265275106
 20
-119.4700547661394
 30
0.0
 10
83.79522974250605
 20
-119.4554131103271
 30
0.0
 10
83.84501137226792
 20
-119.2924600938748
 30
0.0
 10
83.87670625073221
 20
-119.1782551785388
 30
0.0
 10
83.87670625073221
 20
-119.1782551785388
 30
0.0
 10
84.03259682143977
 20
-119.1782551785388
 30
0.0
 10
84.03259682143977
 20
-119.1782551785388
 30
0.0
 10
84.03259682143977
 20
-119.1782551785388
 30
0.0
 10
84.03259682143977
 20
-120.722519229802
 30
0.0
 10
84.03259682143977
 20
-120.722519229802
 30
0.0
 10
84.03259682143977
 20
-120.722519229802
 30
0.0
 10
83.79299043044064
 20
-120.722519229802
 30
0.0
 10
83.79299043044064
 20
-120.722519229802
 30
0.0
  0
HATCH
  5
B0
330
AB
100
AcDbEntity
  8
_U+30EC_U+30A4_U+30E4_U+30FC 1
 62
   179
420
  2234388
100
AcDbHatch
 10
0.0
 20
0.0
 30
0.0
210
0.0
220
0.0
230
1.0
  2
SOLID
 70
     1
 71
     0
 91
        1
 92
        1
 93
        1
 72
     4
 94
        3
 73
     0
 74
     1
 95
       26
 96
       22
 40
0.0
 40
0.0
 40
0.0
 40
0.0
 40
1.0
 40
1.0
 40
1.0
 40
2.0
 40
2.0
 40
2.0
 40
3.0
 40
3.0
 40
3.0
 40
4.0
 40
4.0
 40
4.0
 40
5.0
 40
5.0
 40
5.0
 40
6.0
 40
6.0
 40
6.0
 40
7.0
 40
7.0
 40
7.0
 40
7.0
 10
83.79299043044064
 20
-120.722519229802
 10
83.79299043044064
 20
-120.722519229802
 10
83.79299043044064
 20
-119.6181938720052
 10
83.79299043044064
 20
-119.6181938720052
 10
83.79299043044064
 20
-119.6181938720052
 10
83.44021265275106
 20
-119.6181938720052
 10
83.44021265275106
 20
-119.6181938720052
 10
83.44021265275106
 20
-119.6181938720052
 10
83.44021265275106
 20
-119.4700547661394
 10
83.44021265275106
 20
-119.4700547661394
 10
83.79522974250605
 20
-119.4554131103271
 10
83.84501137226792
 20
-119.2924600938748
 10
83.87670625073221
 20
-119.1782551785388
 10
83.87670625073221
 20
-119.1782551785388
 10
84.03259682143977
 20
-119.1782551785388
 10
84.03259682143977
 20
-119.1782551785388
 10
84.03259682143977
 20
-119.1782551785388
 10
84.03259682143977
 20
-120.722519229802
 10
84.03259682143977
 20
-120.722519229802
 10
84.03259682143977
 20
-120.722519229802
 10
83.79299043044064
 20
-120.722519229802
 10
83.79299043044064
 20
-120.722519229802
 97
        0
 97
        0
 75
     2
 76
     1
 98
        0
  0
ENDBLK
  5
AE
330
AB
100
AcDbEntity
  8
0
100
AcDbBlockEnd
  0
BLOCK
  5
BF
330
BD
100
AcDbEntity
  8
0
100
AcDbBlockBegin
  2
block 5
 70
     0
 10
0.0
 20
0.0
 30
0.0
  3
block 5
  1

  0
SPLINE
  5
C1
330
BD
100
AcDbEntity
  8
_U+30EC_U+30A4_U+30E4_U+30FC 1
370
     0
100
AcDbSpline
210
0.0
220
0.0
230
1.0
 70
    11
 71
     3
 72
    44
 73
    40
 74
     0
 42
0.0000000001
 43
0.0000000001
 12
1.0
 22
0.0
 32
0.0
 13
1.0
 23
0.0
 33
0.0
 40
0.0
 40
0.0
 40
0.0
 40
0.0
 40
1.0
 40
1.0
 40
1.0
 40
2.0
 40
2.0
 40
2.0
 40
3.0
 40
3.0
 40
3.0
 40
4.0
 40
4.0
 40
4.0
 40
5.0
 40
5.0
 40
5.0
 40
6.0
 40
6.0
 40
6.0
 40
7.0
 40
7.0
 40
7.0
 40
8.0
 40
8.0
 40
8.0
 40
9.0
 40
9.0
 40
9.0
 40
10.0
 40
10.0
 40
10.0
 40
11.0
 40
11.0
 40
11.0
 40
12.0
 40
12.0
 40
12.0
 40
13.0
 40
13.0
 40
13.0
 40
13.0
 10
91.53618704308818
 20
-142.5222221865917
 30
0.0
 10
91.30347084305956
 20
-142.6810410884617
 30
0.0
 10
91.20390758353584
 20
-142.7551106413946
 30
0.0
 10
91.15188664170856
 20
-142.8987711231295
 30
0.0
 10
91.15188664170856
 20
-142.8987711231295
 30
0.0
 10
91.98404945617065
 20
-142.8987711231295
 30
0.0
 10
91.98404945617065
 20
-142.8987711231295
 30
0.0
 10
91.98404945617065
 20
-142.8987711231295
 30
0.0
 10
91.98404945617065
 20
-143.1040988140504
 30
0.0
 10
91.98404945617065
 20
-143.1040988140504
 30
0.0
 10
91.98404945617065
 20
-143.1040988140504
 30
0.0
 10
90.88523625115022
 20
-143.1040988140504
 30
0.0
 10
90.88523625115022
 20
-143.1040988140504
 30
0.0
 10
90.9193426964542
 20
-142.7464979026814
 30
0.0
 10
90.98927813480476
 20
-142.6682942351663
 30
0.0
 10
91.40045028096934
 20
-142.3699489661436
 30
0.0
 10
91.67399086249817
 20
-142.1711669566447
 30
0.0
 10
91.74427081039727
 20
-142.1032985755853
 30
0.0
 10
91.74427081039727
 20
-141.9658392657238
 30
0.0
 10
91.74427081039727
 20
-141.8473279810312
 30
0.0
 10
91.6674451810762
 20
-141.7164143525917
 30
0.0
 10
91.45694984692743
 20
-141.7164143525917
 30
0.0
 10
91.17910289604204
 20
-141.7164143525917
 30
0.0
 10
91.17014564778039
 20
-141.9468912405549
 30
0.0
 10
91.16566702364956
 20
-142.0633354679564
 30
0.0
 10
91.16566702364956
 20
-142.0633354679564
 30
0.0
 10
90.92588837787618
 20
-142.0633354679564
 30
0.0
 10
90.92588837787618
 20
-142.0633354679564
 30
0.0
 10
90.93484562613781
 20
-141.9362114445507
 30
0.0
 10
90.94621444123915
 20
-141.8242458412801
 30
0.0
 10
91.03234182837039
 20
-141.7057345565875
 30
0.0
 10
91.14981958441741
 20
-141.5448485974263
 30
0.0
 10
91.34860159391633
 20
-141.5110866616708
 30
0.0
 10
91.47279728615958
 20
-141.5110866616708
 30
0.0
 10
91.76907549789107
 20
-141.5110866616708
 30
0.0
 10
91.99059513759263
 20
-141.6950547605832
 30
0.0
 10
91.99059513759263
 20
-141.967906323015
 30
0.0
 10
91.99059513759263
 20
-142.1966606632356
 30
0.0
 10
91.86622719057512
 20
-142.2958794132108
 30
0.0
 10
91.53618704308818
 20
-142.5222221865917
 30
0.0
  0
HATCH
  5
C2
330
BD
100
AcDbEntity
  8
_U+30EC_U+30A4_U+30E4_U+30FC 1
 62
   179
420
  2234388
100
AcDbHatch
 10
0.0
 20
0.0
 30
0.0
210
0.0
220
0.0
230
1.0
  2
SOLID
 70
     1
 71
     0
 91
        1
 92
        1
 93
        1
 72
     4
 94
        3
 73
     0
 74
     1
 95
       44
 96
       40
 40
0.0
 40
0.0
 40
0.0
 40
0.0
 40
1.0
 40
1.0
 40
1.0
 40
2.0
 40
2.0
 40
2.0
 40
3.0
 40
3.0
 40
3.0
 40
4.0
 40
4.0
 40
4.0
 40
5.0
 40
5.0
 40
5.0
 40
6.0
 40
6.0
 40
6.0
 40
7.0
 40
7.0
 40
7.0
 40
8.0
 40
8.0
 40
8.0
 40
9.0
 40
9.0
 40
9.0
 40
10.0
 40
10.0
 40
10.0
 40
11.0
 40
11.0
 40
11.0
 40
12.0
 40
12.0
 40
12.0
 40
13.0
 40
13.0
 40
13.0
 40
13.0
 10
91.53618704308818
 20
-142.5222221865917
 10
91.30347084305956
 20
-142.6810410884617
 10
91.20390758353584
 20
-142.7551106413946
 10
91.15188664170856
 20
-142.8987711231295
 10
91.15188664170856
 20
-142.8987711231295
 10
91.98404945617065
 20
-142.8987711231295
 10
91.98404945617065
 20
-142.8987711231295
 10
91.98404945617065
 20
-142.8987711231295
 10
91.98404945617065
 20
-143.1040988140504
 10
91.98404945617065
 20
-143.1040988140504
 10
91.98404945617065
 20
-143.1040988140504
 10
90.88523625115022
 20
-143.1040988140504
 10
90.88523625115022
 20
-143.1040988140504
 10
90.9193426964542
 20
-142.7464979026814
 10
90.98927813480476
 20
-142.6682942351663
 10
91.40045028096934
 20
-142.3699489661436
 10
91.67399086249817
 20
-142.1711669566447
 10
91.74427081039727
 20
-142.1032985755853
 10
91.74427081039727
 20
-141.9658392657238
 10
91.74427081039727
 20
-141.8473279810312
 10
91.6674451810762
 20
-141.7164143525917
 10
91.45694984692743
 20
-141.7164143525917
 10
91.17910289604204
 20
-141.7164143525917
 10
91.17014564778039
 20
-141.9468912405549
 10
91.16566702364956
 20
-142.0633354679564
 10
91.16566702364956
 20
-142.0633354679564
 10
90.92588837787618
 20
-142.0633354679564
 10
90.92588837787618
 20
-142.0633354679564
 10
90.93484562613781
 20
-141.9362114445507
 10
90.94621444123915
 20
-141.8242458412801
 10
91.03234182837039
 20
-141.7057345565875
 10
91.14981958441741
 20
-141.5448485974263
 10
91.34860159391633
 20
-141.5110866616708
 10
91.47279728615958
 20
-141.5110866616708
 10
91.76907549789107
 20
-141.5110866616708
 10
91.99059513759263
 20
-141.6950547605832
 10
91.99059513759263
 20
-141.967906323015
 10
91.99059513759263
 20
-142.1966606632356
 10
91.86622719057512
 20
-142.2958794132108
 10
91.53618704308818
 20
-142.5222221865917
 97
        0
 97
        0
 75
     2
 76
     1
 98
        0
  0
SPLINE
  5
C3
330
BD
100
AcDbEntity
  8
_U+30EC_U+30A4_U+30E4_U+30FC 1
370
     0
100
AcDbSpline
210
0.0
220
0.0
230
1.0
 70
    11
 71
     3
 72
    26
 73
    22
 74
     0
 42
0.0000000001
 43
0.0000000001
 12
1.0
 22
0.0
 32
0.0
 13
1.0
 23
0.0
 33
0.0
 40
0.0
 40
0.0
 40
0.0
 40
0.0
 40
1.0
 40
1.0
 40
1.0
 40
2.0
 40
2.0
 40
2.0
 40
3.0
 40
3.0
 40
3.0
 40
4.0
 40
4.0
 40
4.0
 40
5.0
 40
5.0
 40
5.0
 40
6.0
 40
6.0
 40
6.0
 40
7.0
 40
7.0
 40
7.0
 40
7.0
 10
92.6424072034019
 20
-143.1040988140504
 30
0.0
 10
92.6424072034019
 20
-143.1040988140504
 30
0.0
 10
92.6424072034019
 20
-141.9999457110278
 30
0.0
 10
92.6424072034019
 20
-141.9999457110278
 30
0.0
 10
92.6424072034019
 20
-141.9999457110278
 30
0.0
 10
92.28997393526085
 20
-141.9999457110278
 30
0.0
 10
92.28997393526085
 20
-141.9999457110278
 30
0.0
 10
92.28997393526085
 20
-141.9999457110278
 30
0.0
 10
92.28997393526085
 20
-141.8518066051621
 30
0.0
 10
92.28997393526085
 20
-141.8518066051621
 30
0.0
 10
92.64481877024157
 20
-141.8369926945755
 30
0.0
 10
92.69442814522918
 20
-141.6740396781232
 30
0.0
 10
92.72612302369348
 20
-141.5596625080129
 30
0.0
 10
92.72612302369348
 20
-141.5596625080129
 30
0.0
 10
92.88218584917529
 20
-141.5596625080129
 30
0.0
 10
92.88218584917529
 20
-141.5596625080129
 30
0.0
 10
92.88218584917529
 20
-141.5596625080129
 30
0.0
 10
92.88218584917529
 20
-143.1040988140504
 30
0.0
 10
92.88218584917529
 20
-143.1040988140504
 30
0.0
 10
92.88218584917529
 20
-143.1040988140504
 30
0.0
 10
92.6424072034019
 20
-143.1040988140504
 30
0.0
 10
92.6424072034019
 20
-143.1040988140504
 30
0.0
  0
HATCH
  5
C4
330
BD
100
AcDbEntity
  8
_U+30EC_U+30A4_U+30E4_U+30FC 1
 62
   179
420
  2234388
100
AcDbHatch
 10
0.0
 20
0.0
 30
0.0
210
0.0
220
0.0
230
1.0
  2
SOLID
 70
     1
 71
     0
 91
        1
 92
        1
 93
        1
 72
     4
 94
        3
 73
     0
 74
     1
 95
       26
 96
       22
 40
0.0
 40
0.0
 40
0.0
 40
0.0
 40
1.0
 40
1.0
 40
1.0
 40
2.0
 40
2.0
 40
2.0
 40
3.0
 40
3.0
 40
3.0
 40
4.0
 40
4.0
 40
4.0
 40
5.0
 40
5.0
 40
5.0
 40
6.0
 40
6.0
 40
6.0
 40
7.0
 40
7.0
 40
7.0
 40
7.0
 10
92.6424072034019
 20
-143.1040988140504
 10
92.6424072034019
 20
-143.1040988140504
 10
92.6424072034019
 20
-141.9999457110278
 10
92.6424072034019
 20
-141.9999457110278
 10
92.6424072034019
 20
-141.9999457110278
 10
92.28997393526085
 20
-141.9999457110278
 10
92.28997393526085
 20
-141.9999457110278
 10
92.28997393526085
 20
-141.9999457110278
 10
92.28997393526085
 20
-141.8518066051621
 10
92.28997393526085
 20
-141.8518066051621
 10
92.64481877024157
 20
-141.8369926945755
 10
92.69442814522918
 20
-141.6740396781232
 10
92.72612302369348
 20
-141.5596625080129
 10
92.72612302369348
 20
-141.5596625080129
 10
92.88218584917529
 20
-141.5596625080129
 10
92.88218584917529
 20
-141.5596625080129
 10
92.88218584917529
 20
-141.5596625080129
 10
92.88218584917529
 20
-143.1040988140504
 10
92.88218584917529
 20
-143.1040988140504
 10
92.88218584917529
 20
-143.1040988140504
 10
92.6424072034019
 20
-143.1040988140504
 10
92.6424072034019
 20
-143.1040988140504
 97
        0
 97
        0
 75
     2
 76
     1
 98
        0
  0
ENDBLK
  5
C0
330
BD
100
AcDbEntity
  8
0
100
AcDbBlockEnd
  0
BLOCK
  5
D3
330
D1
100
AcDbEntity
  8
0
100
AcDbBlockBegin
  2
block 6
 70
     0
 10
0.0
 20
0.0
 30
0.0
  3
block 6
  1

  0
SPLINE
  5
D5
330
D1
100
AcDbEntity
  8
_U+30EC_U+30A4_U+30E4_U+30FC 1
370
     0
100
AcDbSpline
210
0.0
220
0.0
230
1.0
 70
    11
 71
     3
 72
    26
 73
    22
 74
     0
 42
0.0000000001
 43
0.0000000001
 12
1.0
 22
0.0
 32
0.0
 13
1.0
 23
0.0
 33
0.0
 40
0.0
 40
0.0
 40
0.0
 40
0.0
 40
1.0
 40
1.0
 40
1.0
 40
2.0
 40
2.0
 40
2.0
 40
3.0
 40
3.0
 40
3.0
 40
4.0
 40
4.0
 40
4.0
 40
5.0
 40
5.0
 40
5.0
 40
6.0
 40
6.0
 40
6.0
 40
7.0
 40
7.0
 40
7.0
 40
7.0
 10
103.9343966754053
 20
-132.5538384000213
 30
0.0
 10
103.9343966754053
 20
-132.5538384000213
 30
0.0
 10
102.8302435723827
 20
-132.5538384000213
 30
0.0
 10
102.8302435723827
 20
-132.5538384000213
 30
0.0
 10
102.8302435723827
 20
-132.5538384000213
 30
0.0
 10
102.8302435723827
 20
-132.9062716681623
 30
0.0
 10
102.8302435723827
 20
-132.9062716681623
 30
0.0
 10
102.8302435723827
 20
-132.9062716681623
 30
0.0
 10
102.682104466517
 20
-132.9062716681623
 30
0.0
 10
102.682104466517
 20
-132.9062716681623
 30
0.0
 10
102.6672905559304
 20
-132.5514268331816
 30
0.0
 10
102.5043375394781
 20
-132.501817458194
 30
0.0
 10
102.3899603693678
 20
-132.4701225797297
 30
0.0
 10
102.3899603693678
 20
-132.4701225797297
 30
0.0
 10
102.3899603693678
 20
-132.3140597542479
 30
0.0
 10
102.3899603693678
 20
-132.3140597542479
 30
0.0
 10
102.3899603693678
 20
-132.3140597542479
 30
0.0
 10
103.9343966754053
 20
-132.3140597542479
 30
0.0
 10
103.9343966754053
 20
-132.3140597542479
 30
0.0
 10
103.9343966754053
 20
-132.3140597542479
 30
0.0
 10
103.9343966754053
 20
-132.5538384000213
 30
0.0
 10
103.9343966754053
 20
-132.5538384000213
 30
0.0
  0
HATCH
  5
D6
330
D1
100
AcDbEntity
  8
_U+30EC_U+30A4_U+30E4_U+30FC 1
 62
   179
420
  2234388
100
AcDbHatch
 10
0.0
 20
0.0
 30
0.0
210
0.0
220
0.0
230
1.0
  2
SOLID
 70
     1
 71
     0
 91
        1
 92
        1
 93
        1
 72
     4
 94
        3
 73
     0
 74
     1
 95
       26
 96
       22
 40
0.0
 40
0.0
 40
0.0
 40
0.0
 40
1.0
 40
1.0
 40
1.0
 40
2.0
 40
2.0
 40
2.0
 40
3.0
 40
3.0
 40
3.0
 40
4.0
 40
4.0
 40
4.0
 40
5.0
 40
5.0
 40
5.0
 40
6.0
 40
6.0
 40
6.0
 40
7.0
 40
7.0
 40
7.0
 40
7.0
 10
103.9343966754053
 20
-132.5538384000213
 10
103.9343966754053
 20
-132.5538384000213
 10
102.8302435723827
 20
-132.5538384000213
 10
102.8302435723827
 20
-132.5538384000213
 10
102.8302435723827
 20
-132.5538384000213
 10
102.8302435723827
 20
-132.9062716681623
 10
102.8302435723827
 20
-132.9062716681623
 10
102.8302435723827
 20
-132.9062716681623
 10
102.682104466517
 20
-132.9062716681623
 10
102.682104466517
 20
-132.9062716681623
 10
102.6672905559304
 20
-132.5514268331816
 10
102.5043375394781
 20
-132.501817458194
 10
102.3899603693678
 20
-132.4701225797297
 10
102.3899603693678
 20
-132.4701225797297
 10
102.3899603693678
 20
-132.3140597542479
 10
102.3899603693678
 20
-132.3140597542479
 10
102.3899603693678
 20
-132.3140597542479
 10
103.9343966754053
 20
-132.3140597542479
 10
103.9343966754053
 20
-132.3140597542479
 10
103.9343966754053
 20
-132.3140597542479
 10
103.9343966754053
 20
-132.5538384000213
 10
103.9343966754053
 20
-132.5538384000213
 97
        0
 97
        0
 75
     2
 76
     1
 98
        0
  0
SPLINE
  5
D7
330
D1
100
AcDbEntity
  8
_U+30EC_U+30A4_U+30E4_U+30FC 1
370
     0
100
AcDbSpline
210
0.0
220
0.0
230
1.0
 70
    11
 71
     3
 72
    53
 73
    49
 74
     0
 42
0.0000000001
 43
0.0000000001
 12
1.0
 22
0.0
 32
0.0
 13
1.0
 23
0.0
 33
0.0
 40
0.0
 40
0.0
 40
0.0
 40
0.0
 40
1.0
 40
1.0
 40
1.0
 40
2.0
 40
2.0
 40
2.0
 40
3.0
 40
3.0
 40
3.0
 40
4.0
 40
4.0
 40
4.0
 40
5.0
 40
5.0
 40
5.0
 40
6.0
 40
6.0
 40
6.0
 40
7.0
 40
7.0
 40
7.0
 40
8.0
 40
8.0
 40
8.0
 40
9.0
 40
9.0
 40
9.0
 40
10.0
 40
10.0
 40
10.0
 40
11.0
 40
11.0
 40
11.0
 40
12.0
 40
12.0
 40
12.0
 40
13.0
 40
13.0
 40
13.0
 40
14.0
 40
14.0
 40
14.0
 40
15.0
 40
15.0
 40
15.0
 40
16.0
 40
16.0
 40
16.0
 40
16.0
 10
103.9850395790385
 20
-131.2643391598922
 30
0.0
 10
103.9850395790385
 20
-131.3477104706353
 30
0.0
 10
103.9681586111607
 20
-131.4565754879692
 30
0.0
 10
103.9047688542321
 20
-131.564751486206
 30
0.0
 10
103.7948703082527
 20
-131.750442132861
 30
0.0
 10
103.6636121702647
 20
-131.7728352535151
 30
0.0
 10
103.5557806815763
 20
-131.7931613168781
 30
0.0
 10
103.5557806815763
 20
-131.7931613168781
 30
0.0
 10
103.5557806815763
 20
-131.5557942379444
 30
0.0
 10
103.5557806815763
 20
-131.5557942379444
 30
0.0
 10
103.7545626910753
 20
-131.4972276146951
 30
0.0
 10
103.7841905122484
 20
-131.3614908525763
 30
0.0
 10
103.7841905122484
 20
-131.2619275930526
 30
0.0
 10
103.7841905122484
 20
-131.1127549585413
 30
0.0
 10
103.6846272527247
 20
-130.9501464516375
 30
0.0
 10
103.4520833074703
 20
-130.9501464516375
 30
0.0
 10
103.1961127129163
 20
-130.9501464516375
 30
0.0
 10
103.1261772745657
 20
-131.1420382701659
 30
0.0
 10
103.1261772745657
 20
-131.2708848413142
 30
0.0
 10
103.1261772745657
 20
-131.3049912866182
 30
0.0
 10
103.1261772745657
 20
-131.4565754879692
 30
0.0
 10
103.2553683552625
 20
-131.5513156138136
 30
0.0
 10
103.2553683552625
 20
-131.5513156138136
 30
0.0
 10
103.2364203300937
 20
-131.7390733177597
 30
0.0
 10
103.2364203300937
 20
-131.7390733177597
 30
0.0
 10
103.2364203300937
 20
-131.7390733177597
 30
0.0
 10
102.3899603693678
 20
-131.6102267466113
 30
0.0
 10
102.3899603693678
 20
-131.6102267466113
 30
0.0
 10
102.3899603693678
 20
-131.6102267466113
 30
0.0
 10
102.3899603693678
 20
-130.7782361869235
 30
0.0
 10
102.3899603693678
 20
-130.7782361869235
 30
0.0
 10
102.3899603693678
 20
-130.7782361869235
 30
0.0
 10
102.5846082642844
 20
-130.7782361869235
 30
0.0
 10
102.5846082642844
 20
-130.7782361869235
 30
0.0
 10
102.5846082642844
 20
-130.7782361869235
 30
0.0
 10
102.5846082642844
 20
-131.4359049150577
 30
0.0
 10
102.5846082642844
 20
-131.4359049150577
 30
0.0
 10
102.5846082642844
 20
-131.4359049150577
 30
0.0
 10
103.0076659898731
 20
-131.5061848629568
 30
0.0
 10
103.0076659898731
 20
-131.5061848629568
 30
0.0
 10
102.9739040541176
 20
-131.440728048737
 30
0.0
 10
102.9335964369402
 20
-131.3525336043147
 30
0.0
 10
102.9335964369402
 20
-131.2257540904575
 30
0.0
 10
102.9335964369402
 20
-130.9546250757683
 30
0.0
 10
103.1199761026922
 20
-130.7014105576024
 30
0.0
 10
103.4331352823014
 20
-130.7014105576024
 30
0.0
 10
103.750428576493
 20
-130.7014105576024
 30
0.0
 10
103.9850395790385
 20
-130.9408446938273
 30
0.0
 10
103.9850395790385
 20
-131.2643391598922
 30
0.0
  0
HATCH
  5
D8
330
D1
100
AcDbEntity
  8
_U+30EC_U+30A4_U+30E4_U+30FC 1
 62
   179
420
  2234388
100
AcDbHatch
 10
0.0
 20
0.0
 30
0.0
210
0.0
220
0.0
230
1.0
  2
SOLID
 70
     1
 71
     0
 91
        1
 92
        1
 93
        1
 72
     4
 94
        3
 73
     0
 74
     1
 95
       53
 96
       49
 40
0.0
 40
0.0
 40
0.0
 40
0.0
 40
1.0
 40
1.0
 40
1.0
 40
2.0
 40
2.0
 40
2.0
 40
3.0
 40
3.0
 40
3.0
 40
4.0
 40
4.0
 40
4.0
 40
5.0
 40
5.0
 40
5.0
 40
6.0
 40
6.0
 40
6.0
 40
7.0
 40
7.0
 40
7.0
 40
8.0
 40
8.0
 40
8.0
 40
9.0
 40
9.0
 40
9.0
 40
10.0
 40
10.0
 40
10.0
 40
11.0
 40
11.0
 40
11.0
 40
12.0
 40
12.0
 40
12.0
 40
13.0
 40
13.0
 40
13.0
 40
14.0
 40
14.0
 40
14.0
 40
15.0
 40
15.0
 40
15.0
 40
16.0
 40
16.0
 40
16.0
 40
16.0
 10
103.9850395790385
 20
-131.2643391598922
 10
103.9850395790385
 20
-131.3477104706353
 10
103.9681586111607
 20
-131.4565754879692
 10
103.9047688542321
 20
-131.564751486206
 10
103.7948703082527
 20
-131.750442132861
 10
103.6636121702647
 20
-131.7728352535151
 10
103.5557806815763
 20
-131.7931613168781
 10
103.5557806815763
 20
-131.7931613168781
 10
103.5557806815763
 20
-131.5557942379444
 10
103.5557806815763
 20
-131.5557942379444
 10
103.7545626910753
 20
-131.4972276146951
 10
103.7841905122484
 20
-131.3614908525763
 10
103.7841905122484
 20
-131.2619275930526
 10
103.7841905122484
 20
-131.1127549585413
 10
103.6846272527247
 20
-130.9501464516375
 10
103.4520833074703
 20
-130.9501464516375
 10
103.1961127129163
 20
-130.9501464516375
 10
103.1261772745657
 20
-131.1420382701659
 10
103.1261772745657
 20
-131.2708848413142
 10
103.1261772745657
 20
-131.3049912866182
 10
103.1261772745657
 20
-131.4565754879692
 10
103.2553683552625
 20
-131.5513156138136
 10
103.2553683552625
 20
-131.5513156138136
 10
103.2364203300937
 20
-131.7390733177597
 10
103.2364203300937
 20
-131.7390733177597
 10
103.2364203300937
 20
-131.7390733177597
 10
102.3899603693678
 20
-131.6102267466113
 10
102.3899603693678
 20
-131.6102267466113
 10
102.3899603693678
 20
-131.6102267466113
 10
102.3899603693678
 20
-130.7782361869235
 10
102.3899603693678
 20
-130.7782361869235
 10
102.3899603693678
 20
-130.7782361869235
 10
102.5846082642844
 20
-130.7782361869235
 10
102.5846082642844
 20
-130.7782361869235
 10
102.5846082642844
 20
-130.7782361869235
 10
102.5846082642844
 20
-131.4359049150577
 10
102.5846082642844
 20
-131.4359049150577
 10
102.5846082642844
 20
-131.4359049150577
 10
103.0076659898731
 20
-131.5061848629568
 10
103.0076659898731
 20
-131.5061848629568
 10
102.9739040541176
 20
-131.440728048737
 10
102.9335964369402
 20
-131.3525336043147
 10
102.9335964369402
 20
-131.2257540904575
 10
102.9335964369402
 20
-130.9546250757683
 10
103.1199761026922
 20
-130.7014105576024
 10
103.4331352823014
 20
-130.7014105576024
 10
103.750428576493
 20
-130.7014105576024
 10
103.9850395790385
 20
-130.9408446938273
 10
103.9850395790385
 20
-131.2643391598922
 97
        0
 97
        0
 75
     2
 76
     1
 98
        0
  0
POLYLINE
  5
D9
330
D1
100
AcDbEntity
  8
_U+30EC_U+30A4_U+30E4_U+30FC 1
370
     0
100
AcDb2dPolyline
 66
     1
 10
0.0
 20
0.0
 30
0.0
  0
VERTEX
  5
DA
330
D9
100
AcDbEntity
  8
_U+30EC_U+30A4_U+30E4_U+30FC 1
370
     0
100
AcDbVertex
100
AcDb2dVertex
 10
103.9343966754053
 20
-130.4564642686012
 30
0.0
  0
VERTEX
  5
DB
330
D9
100
AcDbEntity
  8
_U+30EC_U+30A4_U+30E4_U+30FC 1
370
     0
100
AcDbVertex
100
AcDb2dVertex
 10
103.6825601954335
 20
-130.4564642686012
 30
0.0
  0
VERTEX
  5
DC
330
D9
100
AcDbEntity
  8
_U+30EC_U+30A4_U+30E4_U+30FC 1
370
     0
100
AcDbVertex
100
AcDb2dVertex
 10
103.6825601954335
 20
-130.1874023112032
 30
0.0
  0
VERTEX
  5
DD
330
D9
100
AcDbEntity
  8
_U+30EC_U+30A4_U+30E4_U+30FC 1
370
     0
100
AcDbVertex
100
AcDb2dVertex
 10
103.9343966754053
 20
-130.1874023112032
 30
0.0
  0
VERTEX
  5
DE
330
D9
100
AcDbEntity
  8
_U+30EC_U+30A4_U+30E4_U+30FC 1
370
     0
100
AcDbVertex
100
AcDb2dVertex
 10
103.9343966754053
 20
-130.4564642686012
 30
0.0
  0
SEQEND
  5
DF
330
D9
100
AcDbEntity
  8
_U+30EC_U+30A4_U+30E4_U+30FC 1
370
     0
  0
HATCH
  5
E0
330
D1
100
AcDbEntity
  8
_U+30EC_U+30A4_U+30E4_U+30FC 1
 62
   179
420
  2234388
100
AcDbHatch
 10
0.0
 20
0.0
 30
0.0
210
0.0
220
0.0
230
1.0
  2
SOLID
 70
     1
 71
     0
 91
        1
 92
        1
 93
        4
 72
     1
 10
103.9343966754053
 20
-130.4564642686012
 11
103.6825601954335
 21
-130.4564642686012
 72
     1
 10
103.6825601954335
 20
-130.4564642686012
 11
103.6825601954335
 21
-130.1874023112032
 72
     1
 10
103.6825601954335
 20
-130.1874023112032
 11
103.9343966754053
 21
-130.1874023112032
 72
     1
 10
103.9343966754053
 20
-130.1874023112032
 11
103.9343966754053
 21
-130.4564642686012
 97
        0
 75
     2
 76
     1
 98
        0
  0
SPLINE
  5
E1
330
D1
100
AcDbEntity
  8
_U+30EC_U+30A4_U+30E4_U+30FC 1
370
     0
100
AcDbSpline
210
0.0
220
0.0
230
1.0
 70
    11
 71
     3
 72
    53
 73
    49
 74
     0
 42
0.0000000001
 43
0.0000000001
 12
1.0
 22
0.0
 32
0.0
 13
1.0
 23
0.0
 33
0.0
 40
0.0
 40
0.0
 40
0.0
 40
0.0
 40
1.0
 40
1.0
 40
1.0
 40
2.0
 40
2.0
 40
2.0
 40
3.0
 40
3.0
 40
3.0
 40
4.0
 40
4.0
 40
4.0
 40
5.0
 40
5.0
 40
5.0
 40
6.0
 40
6.0
 40
6.0
 40
7.0
 40
7.0
 40
7.0
 40
8.0
 40
8.0
 40
8.0
 40
9.0
 40
9.0
 40
9.0
 40
10.0
 40
10.0
 40
10.0
 40
11.0
 40
11.0
 40
11.0
 40
12.0
 40
12.0
 40
12.0
 40
13.0
 40
13.0
 40
13.0
 40
14.0
 40
14.0
 40
14.0
 40
15.0
 40
15.0
 40
15.0
 40
16.0
 40
16.0
 40
16.0
 40
16.0
 10
103.9850395790385
 20
-129.4205240561865
 30
0.0
 10
103.9850395790385
 20
-129.5038953669296
 30
0.0
 10
103.9681586111607
 20
-129.6127603842635
 30
0.0
 10
103.9047688542321
 20
-129.7209363825003
 30
0.0
 10
103.7948703082527
 20
-129.9066270291553
 30
0.0
 10
103.6636121702647
 20
-129.9290201498094
 30
0.0
 10
103.5557806815763
 20
-129.9493462131724
 30
0.0
 10
103.5557806815763
 20
-129.9493462131724
 30
0.0
 10
103.5557806815763
 20
-129.7119791342387
 30
0.0
 10
103.5557806815763
 20
-129.7119791342387
 30
0.0
 10
103.7545626910753
 20
-129.6534125109894
 30
0.0
 10
103.7841905122484
 20
-129.5176757488706
 30
0.0
 10
103.7841905122484
 20
-129.4181124893469
 30
0.0
 10
103.7841905122484
 20
-129.2689398548355
 30
0.0
 10
103.6846272527247
 20
-129.1063313479318
 30
0.0
 10
103.4520833074703
 20
-129.1063313479318
 30
0.0
 10
103.1961127129163
 20
-129.1063313479318
 30
0.0
 10
103.1261772745657
 20
-129.2982231664602
 30
0.0
 10
103.1261772745657
 20
-129.4270697376085
 30
0.0
 10
103.1261772745657
 20
-129.4611761829125
 30
0.0
 10
103.1261772745657
 20
-129.6127603842635
 30
0.0
 10
103.2553683552625
 20
-129.7075005101078
 30
0.0
 10
103.2553683552625
 20
-129.7075005101078
 30
0.0
 10
103.2364203300937
 20
-129.895258214054
 30
0.0
 10
103.2364203300937
 20
-129.895258214054
 30
0.0
 10
103.2364203300937
 20
-129.895258214054
 30
0.0
 10
102.3899603693678
 20
-129.7664116429056
 30
0.0
 10
102.3899603693678
 20
-129.7664116429056
 30
0.0
 10
102.3899603693678
 20
-129.7664116429056
 30
0.0
 10
102.3899603693678
 20
-128.9344210832178
 30
0.0
 10
102.3899603693678
 20
-128.9344210832178
 30
0.0
 10
102.3899603693678
 20
-128.9344210832178
 30
0.0
 10
102.5846082642844
 20
-128.9344210832178
 30
0.0
 10
102.5846082642844
 20
-128.9344210832178
 30
0.0
 10
102.5846082642844
 20
-128.9344210832178
 30
0.0
 10
102.5846082642844
 20
-129.592089811352
 30
0.0
 10
102.5846082642844
 20
-129.592089811352
 30
0.0
 10
102.5846082642844
 20
-129.592089811352
 30
0.0
 10
103.0076659898731
 20
-129.6623697592511
 30
0.0
 10
103.0076659898731
 20
-129.6623697592511
 30
0.0
 10
102.9739040541176
 20
-129.5969129450313
 30
0.0
 10
102.9335964369402
 20
-129.5087185006089
 30
0.0
 10
102.9335964369402
 20
-129.3819389867517
 30
0.0
 10
102.9335964369402
 20
-129.1108099720626
 30
0.0
 10
103.1199761026922
 20
-128.8575954538967
 30
0.0
 10
103.4331352823014
 20
-128.8575954538967
 30
0.0
 10
103.750428576493
 20
-128.8575954538967
 30
0.0
 10
103.9850395790385
 20
-129.0970295901216
 30
0.0
 10
103.9850395790385
 20
-129.4205240561865
 30
0.0
  0
HATCH
  5
E2
330
D1
100
AcDbEntity
  8
_U+30EC_U+30A4_U+30E4_U+30FC 1
 62
   179
420
  2234388
100
AcDbHatch
 10
0.0
 20
0.0
 30
0.0
210
0.0
220
0.0
230
1.0
  2
SOLID
 70
     1
 71
     0
 91
        1
 92
        1
 93
        1
 72
     4
 94
        3
 73
     0
 74
     1
 95
       53
 96
       49
 40
0.0
 40
0.0
 40
0.0
 40
0.0
 40
1.0
 40
1.0
 40
1.0
 40
2.0
 40
2.0
 40
2.0
 40
3.0
 40
3.0
 40
3.0
 40
4.0
 40
4.0
 40
4.0
 40
5.0
 40
5.0
 40
5.0
 40
6.0
 40
6.0
 40
6.0
 40
7.0
 40
7.0
 40
7.0
 40
8.0
 40
8.0
 40
8.0
 40
9.0
 40
9.0
 40
9.0
 40
10.0
 40
10.0
 40
10.0
 40
11.0
 40
11.0
 40
11.0
 40
12.0
 40
12.0
 40
12.0
 40
13.0
 40
13.0
 40
13.0
 40
14.0
 40
14.0
 40
14.0
 40
15.0
 40
15.0
 40
15.0
 40
16.0
 40
16.0
 40
16.0
 40
16.0
 10
103.9850395790385
 20
-129.4205240561865
 10
103.9850395790385
 20
-129.5038953669296
 10
103.9681586111607
 20
-129.6127603842635
 10
103.9047688542321
 20
-129.7209363825003
 10
103.7948703082527
 20
-129.9066270291553
 10
103.6636121702647
 20
-129.9290201498094
 10
103.5557806815763
 20
-129.9493462131724
 10
103.5557806815763
 20
-129.9493462131724
 10
103.5557806815763
 20
-129.7119791342387
 10
103.5557806815763
 20
-129.7119791342387
 10
103.7545626910753
 20
-129.6534125109894
 10
103.7841905122484
 20
-129.5176757488706
 10
103.7841905122484
 20
-129.4181124893469
 10
103.7841905122484
 20
-129.2689398548355
 10
103.6846272527247
 20
-129.1063313479318
 10
103.4520833074703
 20
-129.1063313479318
 10
103.1961127129163
 20
-129.1063313479318
 10
103.1261772745657
 20
-129.2982231664602
 10
103.1261772745657
 20
-129.4270697376085
 10
103.1261772745657
 20
-129.4611761829125
 10
103.1261772745657
 20
-129.6127603842635
 10
103.2553683552625
 20
-129.7075005101078
 10
103.2553683552625
 20
-129.7075005101078
 10
103.2364203300937
 20
-129.895258214054
 10
103.2364203300937
 20
-129.895258214054
 10
103.2364203300937
 20
-129.895258214054
 10
102.3899603693678
 20
-129.7664116429056
 10
102.3899603693678
 20
-129.7664116429056
 10
102.3899603693678
 20
-129.7664116429056
 10
102.3899603693678
 20
-128.9344210832178
 10
102.3899603693678
 20
-128.9344210832178
 10
102.3899603693678
 20
-128.9344210832178
 10
102.5846082642844
 20
-128.9344210832178
 10
102.5846082642844
 20
-128.9344210832178
 10
102.5846082642844
 20
-128.9344210832178
 10
102.5846082642844
 20
-129.592089811352
 10
102.5846082642844
 20
-129.592089811352
 10
102.5846082642844
 20
-129.592089811352
 10
103.0076659898731
 20
-129.6623697592511
 10
103.0076659898731
 20
-129.6623697592511
 10
102.9739040541176
 20
-129.5969129450313
 10
102.9335964369402
 20
-129.5087185006089
 10
102.9335964369402
 20
-129.3819389867517
 10
102.9335964369402
 20
-129.1108099720626
 10
103.1199761026922
 20
-128.8575954538967
 10
103.4331352823014
 20
-128.8575954538967
 10
103.750428576493
 20
-128.8575954538967
 10
103.9850395790385
 20
-129.0970295901216
 10
103.9850395790385
 20
-129.4205240561865
 97
        0
 97
        0
 75
     2
 76
     1
 98
        0
  0
ENDBLK
  5
D4
330
D1
100
AcDbEntity
  8
0
100
AcDbBlockEnd
  0
BLOCK
  5
F1
330
EF
100
AcDbEntity
  8
0
100
AcDbBlockBegin
  2
block 7
 70
     0
 10
0.0
 20
0.0
 30
0.0
  3
block 7
  1

  0
SPLINE
  5
F3
330
EF
100
AcDbEntity
  8
_U+30EC_U+30A4_U+30E4_U+30FC 1
370
     0
100
AcDbSpline
210
0.0
220
0.0
230
1.0
 70
    11
 71
     3
 72
    44
 73
    40
 74
     0
 42
0.0000000001
 43
0.0000000001
 12
1.0
 22
0.0
 32
0.0
 13
1.0
 23
0.0
 33
0.0
 40
0.0
 40
0.0
 40
0.0
 40
0.0
 40
1.0
 40
1.0
 40
1.0
 40
2.0
 40
2.0
 40
2.0
 40
3.0
 40
3.0
 40
3.0
 40
4.0
 40
4.0
 40
4.0
 40
5.0
 40
5.0
 40
5.0
 40
6.0
 40
6.0
 40
6.0
 40
7.0
 40
7.0
 40
7.0
 40
8.0
 40
8.0
 40
8.0
 40
9.0
 40
9.0
 40
9.0
 40
10.0
 40
10.0
 40
10.0
 40
11.0
 40
11.0
 40
11.0
 40
12.0
 40
12.0
 40
12.0
 40
13.0
 40
13.0
 40
13.0
 40
13.0
 10
76.38792993967039
 20
-130.0795708225148
 30
0.0
 10
76.54657658676614
 20
-130.3124592773177
 30
0.0
 10
76.620646139699
 20
-130.4120225368414
 30
0.0
 10
76.76447887620819
 20
-130.4636989691202
 30
0.0
 10
76.76447887620819
 20
-130.4636989691202
 30
0.0
 10
76.76447887620819
 20
-129.6320529189809
 30
0.0
 10
76.76447887620819
 20
-129.6320529189809
 30
0.0
 10
76.76447887620819
 20
-129.6320529189809
 30
0.0
 10
76.96963431235481
 20
-129.6320529189809
 30
0.0
 10
76.96963431235481
 20
-129.6320529189809
 30
0.0
 10
76.96963431235481
 20
-129.6320529189809
 30
0.0
 10
76.96963431235481
 20
-130.7306938692271
 30
0.0
 10
76.96963431235481
 20
-130.7306938692271
 30
0.0
 10
76.61203340098588
 20
-130.6965874239231
 30
0.0
 10
76.53382973347071
 20
-130.6266519855725
 30
0.0
 10
76.23548446444808
 20
-130.2153075846337
 30
0.0
 10
76.03670245494916
 20
-129.9417670031048
 30
0.0
 10
75.96900632866401
 20
-129.8714870552057
 30
0.0
 10
75.83154701880254
 20
-129.8714870552057
 30
0.0
 10
75.71303573410994
 20
-129.8714870552057
 30
0.0
 10
75.58177759612192
 20
-129.9483126845268
 30
0.0
 10
75.58177759612192
 20
-130.1588080186756
 30
0.0
 10
75.58177759612192
 20
-130.4368272243352
 30
0.0
 10
75.8124267388594
 20
-130.4457844725969
 30
0.0
 10
75.92887096626085
 20
-130.4502630967277
 30
0.0
 10
75.92887096626085
 20
-130.4502630967277
 30
0.0
 10
75.92887096626085
 20
-130.6900417425011
 30
0.0
 10
75.92887096626085
 20
-130.6900417425011
 30
0.0
 10
75.80191919762939
 20
-130.6807399846909
 30
0.0
 10
75.6897813395845
 20
-130.6697156791381
 30
0.0
 10
75.57127005489191
 20
-130.5835882920069
 30
0.0
 10
75.410556350505
 20
-130.4661105359599
 30
0.0
 10
75.3766221599753
 20
-130.2673285264609
 30
0.0
 10
75.3766221599753
 20
-130.1429605794434
 30
0.0
 10
75.3766221599753
 20
-129.8466823677119
 30
0.0
 10
75.5607625136619
 20
-129.6251627280104
 30
0.0
 10
75.83361407609368
 20
-129.6251627280104
 30
0.0
 10
76.06202390676575
 20
-129.6251627280104
 30
0.0
 10
76.16158716628946
 20
-129.7495306750279
 30
0.0
 10
76.38792993967039
 20
-130.0795708225148
 30
0.0
  0
HATCH
  5
F4
330
EF
100
AcDbEntity
  8
_U+30EC_U+30A4_U+30E4_U+30FC 1
 62
   179
420
  2234388
100
AcDbHatch
 10
0.0
 20
0.0
 30
0.0
210
0.0
220
0.0
230
1.0
  2
SOLID
 70
     1
 71
     0
 91
        1
 92
        1
 93
        1
 72
     4
 94
        3
 73
     0
 74
     1
 95
       44
 96
       40
 40
0.0
 40
0.0
 40
0.0
 40
0.0
 40
1.0
 40
1.0
 40
1.0
 40
2.0
 40
2.0
 40
2.0
 40
3.0
 40
3.0
 40
3.0
 40
4.0
 40
4.0
 40
4.0
 40
5.0
 40
5.0
 40
5.0
 40
6.0
 40
6.0
 40
6.0
 40
7.0
 40
7.0
 40
7.0
 40
8.0
 40
8.0
 40
8.0
 40
9.0
 40
9.0
 40
9.0
 40
10.0
 40
10.0
 40
10.0
 40
11.0
 40
11.0
 40
11.0
 40
12.0
 40
12.0
 40
12.0
 40
13.0
 40
13.0
 40
13.0
 40
13.0
 10
76.38792993967039
 20
-130.0795708225148
 10
76.54657658676614
 20
-130.3124592773177
 10
76.620646139699
 20
-130.4120225368414
 10
76.76447887620819
 20
-130.4636989691202
 10
76.76447887620819
 20
-130.4636989691202
 10
76.76447887620819
 20
-129.6320529189809
 10
76.76447887620819
 20
-129.6320529189809
 10
76.76447887620819
 20
-129.6320529189809
 10
76.96963431235481
 20
-129.6320529189809
 10
76.96963431235481
 20
-129.6320529189809
 10
76.96963431235481
 20
-129.6320529189809
 10
76.96963431235481
 20
-130.7306938692271
 10
76.96963431235481
 20
-130.7306938692271
 10
76.61203340098588
 20
-130.6965874239231
 10
76.53382973347071
 20
-130.6266519855725
 10
76.23548446444808
 20
-130.2153075846337
 10
76.03670245494916
 20
-129.9417670031048
 10
75.96900632866401
 20
-129.8714870552057
 10
75.83154701880254
 20
-129.8714870552057
 10
75.71303573410994
 20
-129.8714870552057
 10
75.58177759612192
 20
-129.9483126845268
 10
75.58177759612192
 20
-130.1588080186756
 10
75.58177759612192
 20
-130.4368272243352
 10
75.8124267388594
 20
-130.4457844725969
 10
75.92887096626085
 20
-130.4502630967277
 10
75.92887096626085
 20
-130.4502630967277
 10
75.92887096626085
 20
-130.6900417425011
 10
75.92887096626085
 20
-130.6900417425011
 10
75.80191919762939
 20
-130.6807399846909
 10
75.6897813395845
 20
-130.6697156791381
 10
75.57127005489191
 20
-130.5835882920069
 10
75.410556350505
 20
-130.4661105359599
 10
75.3766221599753
 20
-130.2673285264609
 10
75.3766221599753
 20
-130.1429605794434
 10
75.3766221599753
 20
-129.8466823677119
 10
75.5607625136619
 20
-129.6251627280104
 10
75.83361407609368
 20
-129.6251627280104
 10
76.06202390676575
 20
-129.6251627280104
 10
76.16158716628946
 20
-129.7495306750279
 10
76.38792993967039
 20
-130.0795708225148
 97
        0
 97
        0
 75
     2
 76
     1
 98
        0
  0
SPLINE
  5
F5
330
EF
100
AcDbEntity
  8
_U+30EC_U+30A4_U+30E4_U+30FC 1
370
     0
100
AcDbSpline
210
0.0
220
0.0
230
1.0
 70
    11
 71
     3
 72
    26
 73
    22
 74
     0
 42
0.0000000001
 43
0.0000000001
 12
1.0
 22
0.0
 32
0.0
 13
1.0
 23
0.0
 33
0.0
 40
0.0
 40
0.0
 40
0.0
 40
0.0
 40
1.0
 40
1.0
 40
1.0
 40
2.0
 40
2.0
 40
2.0
 40
3.0
 40
3.0
 40
3.0
 40
4.0
 40
4.0
 40
4.0
 40
5.0
 40
5.0
 40
5.0
 40
6.0
 40
6.0
 40
6.0
 40
7.0
 40
7.0
 40
7.0
 40
7.0
 10
76.96963431235481
 20
-128.9733506622011
 30
0.0
 10
76.96963431235481
 20
-128.9733506622011
 30
0.0
 10
75.86530895455799
 20
-128.9733506622011
 30
0.0
 10
75.86530895455799
 20
-128.9733506622011
 30
0.0
 10
75.86530895455799
 20
-128.9733506622011
 30
0.0
 10
75.86530895455799
 20
-129.3257839303422
 30
0.0
 10
75.86530895455799
 20
-129.3257839303422
 30
0.0
 10
75.86530895455799
 20
-129.3257839303422
 30
0.0
 10
75.71716984869224
 20
-129.3257839303422
 30
0.0
 10
75.71716984869224
 20
-129.3257839303422
 30
0.0
 10
75.70252819287992
 20
-128.9709390953614
 30
0.0
 10
75.5395751764276
 20
-128.9213297203738
 30
0.0
 10
75.42537026109157
 20
-128.8896348419096
 30
0.0
 10
75.42537026109157
 20
-128.8896348419096
 30
0.0
 10
75.42537026109157
 20
-128.7335720164277
 30
0.0
 10
75.42537026109157
 20
-128.7335720164277
 30
0.0
 10
75.42537026109157
 20
-128.7335720164277
 30
0.0
 10
76.96963431235481
 20
-128.7335720164277
 30
0.0
 10
76.96963431235481
 20
-128.7335720164277
 30
0.0
 10
76.96963431235481
 20
-128.7335720164277
 30
0.0
 10
76.96963431235481
 20
-128.9733506622011
 30
0.0
 10
76.96963431235481
 20
-128.9733506622011
 30
0.0
  0
HATCH
  5
F6
330
EF
100
AcDbEntity
  8
_U+30EC_U+30A4_U+30E4_U+30FC 1
 62
   179
420
  2234388
100
AcDbHatch
 10
0.0
 20
0.0
 30
0.0
210
0.0
220
0.0
230
1.0
  2
SOLID
 70
     1
 71
     0
 91
        1
 92
        1
 93
        1
 72
     4
 94
        3
 73
     0
 74
     1
 95
       26
 96
       22
 40
0.0
 40
0.0
 40
0.0
 40
0.0
 40
1.0
 40
1.0
 40
1.0
 40
2.0
 40
2.0
 40
2.0
 40
3.0
 40
3.0
 40
3.0
 40
4.0
 40
4.0
 40
4.0
 40
5.0
 40
5.0
 40
5.0
 40
6.0
 40
6.0
 40
6.0
 40
7.0
 40
7.0
 40
7.0
 40
7.0
 10
76.96963431235481
 20
-128.9733506622011
 10
76.96963431235481
 20
-128.9733506622011
 10
75.86530895455799
 20
-128.9733506622011
 10
75.86530895455799
 20
-128.9733506622011
 10
75.86530895455799
 20
-128.9733506622011
 10
75.86530895455799
 20
-129.3257839303422
 10
75.86530895455799
 20
-129.3257839303422
 10
75.86530895455799
 20
-129.3257839303422
 10
75.71716984869224
 20
-129.3257839303422
 10
75.71716984869224
 20
-129.3257839303422
 10
75.70252819287992
 20
-128.9709390953614
 10
75.5395751764276
 20
-128.9213297203738
 10
75.42537026109157
 20
-128.8896348419096
 10
75.42537026109157
 20
-128.8896348419096
 10
75.42537026109157
 20
-128.7335720164277
 10
75.42537026109157
 20
-128.7335720164277
 10
75.42537026109157
 20
-128.7335720164277
 10
76.96963431235481
 20
-128.7335720164277
 10
76.96963431235481
 20
-128.7335720164277
 10
76.96963431235481
 20
-128.7335720164277
 10
76.96963431235481
 20
-128.9733506622011
 10
76.96963431235481
 20
-128.9733506622011
 97
        0
 97
        0
 75
     2
 76
     1
 98
        0
  0
ENDBLK
  5
F2
330
EF
100
AcDbEntity
  8
0
100
AcDbBlockEnd
  0
ENDSEC
  0
SECTION
  2
ENTITIES
  0
SPLINE
  5
41
330
1F
100
AcDbEntity
  8
_U+30EC_U+30A4_U+30E4_U+30FC 1
 62
   253
420
 11711154
370
     9
100
AcDbSpline
210
0.0
220
0.0
230
1.0
 70
    11
 71
     3
 72
    44
 73
    40
 74
     0
 42
0.0000000001
 43
0.0000000001
 12
1.0
 22
0.0
 32
0.0
 13
1.0
 23
0.0
 33
0.0
 40
0.0
 40
0.0
 40
0.0
 40
0.0
 40
1.0
 40
1.0
 40
1.0
 40
2.0
 40
2.0
 40
2.0
 40
3.0
 40
3.0
 40
3.0
 40
4.0
 40
4.0
 40
4.0
 40
5.0
 40
5.0
 40
5.0
 40
6.0
 40
6.0
 40
6.0
 40
7.0
 40
7.0
 40
7.0
 40
8.0
 40
8.0
 40
8.0
 40
9.0
 40
9.0
 40
9.0
 40
10.0
 40
10.0
 40
10.0
 40
11.0
 40
11.0
 40
11.0
 40
12.0
 40
12.0
 40
12.0
 40
13.0
 40
13.0
 40
13.0
 40
13.0
 10
81.5903718073451
 20
-119.5232983034525
 30
0.0
 10
81.5903718073451
 20
-119.5232983034525
 30
0.0
 10
81.5903718073451
 20
-138.5441588542526
 30
0.0
 10
81.5903718073451
 20
-138.5441588542526
 30
0.0
 10
81.5903718073451
 20
-138.5441588542526
 30
0.0
 10
81.50182458738189
 20
-139.6321255206476
 30
0.0
 10
82.70726622329518
 20
-139.7492477428406
 30
0.0
 10
82.70726622329518
 20
-139.7492477428406
 30
0.0
 10
101.6103337965933
 20
-139.7196496872926
 30
0.0
 10
101.6103337965933
 20
-139.7196496872926
 30
0.0
 10
101.6103337965933
 20
-139.7196496872926
 30
0.0
 10
102.4337171089204
 20
-139.7492477428406
 30
0.0
 10
102.5219115511148
 20
-138.7791088541943
 30
0.0
 10
102.5219115511148
 20
-138.7791088541943
 30
0.0
 10
82.53087733890635
 20
-138.632353298675
 30
0.0
 10
82.53087733890635
 20
-138.632353298675
 30
0.0
 10
82.53087733890635
 20
-138.632353298675
 30
0.0
 10
82.53087733890635
 20
-123.1690449692076
 30
0.0
 10
82.53087733890635
 20
-123.1690449692076
 30
0.0
 10
82.53087733890635
 20
-123.1690449692076
 30
0.0
 10
102.5804726607319
 20
-123.1983255247561
 30
0.0
 10
102.5804726607319
 20
-123.1983255247561
 30
0.0
 10
102.5804726607319
 20
-123.1983255247561
 30
0.0
 10
103.0510782042813
 20
-122.9337421914889
 30
0.0
 10
103.0510782042813
 20
-122.9337421914889
 30
0.0
 10
103.0510782042813
 20
-122.9337421914889
 30
0.0
 10
107.8721391923969
 20
-122.9337421914889
 30
0.0
 10
107.8721391923969
 20
-122.9337421914889
 30
0.0
 10
107.8721391923969
 20
-122.9337421914889
 30
0.0
 10
108.4895002877578
 20
-122.7866338581922
 30
0.0
 10
108.5191336203351
 20
-122.2281866361097
 30
0.0
 10
108.5191336203351
 20
-122.2281866361097
 30
0.0
 10
82.56051067148367
 20
-122.2574671916578
 30
0.0
 10
82.56051067148367
 20
-122.2574671916578
 30
0.0
 10
82.56051067148367
 20
-122.2574671916578
 30
0.0
 10
82.56051067148367
 20
-118.7295483036509
 30
0.0
 10
82.56051067148367
 20
-118.7295483036509
 30
0.0
 10
82.56051067148367
 20
-118.7295483036509
 30
0.0
 10
81.62000513992241
 20
-118.9059371924957
 30
0.0
 10
81.5903718073451
 20
-119.5232983034525
 30
0.0
  0
HATCH
  5
42
330
1F
100
AcDbEntity
  8
_U+30EC_U+30A4_U+30E4_U+30FC 1
 62
   253
420
 11711154
100
AcDbHatch
 10
0.0
 20
0.0
 30
0.0
210
0.0
220
0.0
230
1.0
  2
SOLID
 70
     1
 71
     0
 91
        1
 92
        1
 93
        1
 72
     4
 94
        3
 73
     0
 74
     1
 95
       44
 96
       40
 40
0.0
 40
0.0
 40
0.0
 40
0.0
 40
1.0
 40
1.0
 40
1.0
 40
2.0
 40
2.0
 40
2.0
 40
3.0
 40
3.0
 40
3.0
 40
4.0
 40
4.0
 40
4.0
 40
5.0
 40
5.0
 40
5.0
 40
6.0
 40
6.0
 40
6.0
 40
7.0
 40
7.0
 40
7.0
 40
8.0
 40
8.0
 40
8.0
 40
9.0
 40
9.0
 40
9.0
 40
10.0
 40
10.0
 40
10.0
 40
11.0
 40
11.0
 40
11.0
 40
12.0
 40
12.0
 40
12.0
 40
13.0
 40
13.0
 40
13.0
 40
13.0
 10
81.5903718073451
 20
-119.5232983034525
 10
81.5903718073451
 20
-119.5232983034525
 10
81.5903718073451
 20
-138.5441588542526
 10
81.5903718073451
 20
-138.5441588542526
 10
81.5903718073451
 20
-138.5441588542526
 10
81.50182458738189
 20
-139.6321255206476
 10
82.70726622329518
 20
-139.7492477428406
 10
82.70726622329518
 20
-139.7492477428406
 10
101.6103337965933
 20
-139.7196496872926
 10
101.6103337965933
 20
-139.7196496872926
 10
101.6103337965933
 20
-139.7196496872926
 10
102.4337171089204
 20
-139.7492477428406
 10
102.5219115511148
 20
-138.7791088541943
 10
102.5219115511148
 20
-138.7791088541943
 10
82.53087733890635
 20
-138.632353298675
 10
82.53087733890635
 20
-138.632353298675
 10
82.53087733890635
 20
-138.632353298675
 10
82.53087733890635
 20
-123.1690449692076
 10
82.53087733890635
 20
-123.1690449692076
 10
82.53087733890635
 20
-123.1690449692076
 10
102.5804726607319
 20
-123.1983255247561
 10
102.5804726607319
 20
-123.1983255247561
 10
102.5804726607319
 20
-123.1983255247561
 10
103.0510782042813
 20
-122.9337421914889
 10
103.0510782042813
 20
-122.9337421914889
 10
103.0510782042813
 20
-122.9337421914889
 10
107.8721391923969
 20
-122.9337421914889
 10
107.8721391923969
 20
-122.9337421914889
 10
107.8721391923969
 20
-122.9337421914889
 10
108.4895002877578
 20
-122.7866338581922
 10
108.5191336203351
 20
-122.2281866361097
 10
108.5191336203351
 20
-122.2281866361097
 10
82.56051067148367
 20
-122.2574671916578
 10
82.56051067148367
 20
-122.2574671916578
 10
82.56051067148367
 20
-122.2574671916578
 10
82.56051067148367
 20
-118.7295483036509
 10
82.56051067148367
 20
-118.7295483036509
 10
82.56051067148367
 20
-118.7295483036509
 10
81.62000513992241
 20
-118.9059371924957
 10
81.5903718073451
 20
-119.5232983034525
 97
        0
 97
        0
 75
     2
 76
     1
 98
        0
  0
POLYLINE
  5
43
330
1F
100
AcDbEntity
  8
_U+30EC_U+30A4_U+30E4_U+30FC 1
 62
   179
420
  2234388
370
    25
100
AcDb2dPolyline
 66
     1
 10
0.0
 20
0.0
 30
0.0
  0
VERTEX
  5
44
330
43
100
AcDbEntity
  8
_U+30EC_U+30A4_U+30E4_U+30FC 1
 62
   179
420
  2234388
370
    25
100
AcDbVertex
100
AcDb2dVertex
 10
82.56636678244539
 20
-138.7005805208802
 30
0.0
  0
VERTEX
  5
45
330
43
100
AcDbEntity
  8
_U+30EC_U+30A4_U+30E4_U+30FC 1
 62
   179
420
  2234388
370
    25
100
AcDbVertex
100
AcDb2dVertex
 10
102.5666790499727
 20
-138.7005805208802
 30
0.0
  0
SEQEND
  5
46
330
43
100
AcDbEntity
  8
_U+30EC_U+30A4_U+30E4_U+30FC 1
 62
   179
420
  2234388
370
    25
  0
POLYLINE
  5
47
330
1F
100
AcDbEntity
  8
_U+30EC_U+30A4_U+30E4_U+30FC 1
 62
   179
420
  2234388
370
    25
100
AcDb2dPolyline
 66
     1
 10
0.0
 20
0.0
 30
0.0
  0
VERTEX
  5
48
330
47
100
AcDbEntity
  8
_U+30EC_U+30A4_U+30E4_U+30FC 1
 62
   179
420
  2234388
370
    25
100
AcDbVertex
100
AcDb2dVertex
 10
82.56636678244539
 20
-123.2010771914218
 30
0.0
  0
VERTEX
  5
49
330
47
100
AcDbEntity
  8
_U+30EC_U+30A4_U+30E4_U+30FC 1
 62
   179
420
  2234388
370
    25
100
AcDbVertex
100
AcDb2dVertex
 10
102.4909023852392
 20
-123.2010771914218
 30
0.0
  0
SEQEND
  5
4A
330
47
100
AcDbEntity
  8
_U+30EC_U+30A4_U+30E4_U+30FC 1
 62
   179
420
  2234388
370
    25
  0
POLYLINE
  5
4B
330
1F
100
AcDbEntity
  8
_U+30EC_U+30A4_U+30E4_U+30FC 1
 62
   179
420
  2234388
370
    25
100
AcDb2dPolyline
 66
     1
 10
0.0
 20
0.0
 30
0.0
  0
VERTEX
  5
4C
330
4B
100
AcDbEntity
  8
_U+30EC_U+30A4_U+30E4_U+30FC 1
 62
   179
420
  2234388
370
    25
100
AcDbVertex
100
AcDb2dVertex
 10
82.56636678244539
 20
-139.7010230206301
 30
0.0
  0
VERTEX
  5
4D
330
4B
100
AcDbEntity
  8
_U+30EC_U+30A4_U+30E4_U+30FC 1
 62
   179
420
  2234388
370
    25
100
AcDbVertex
100
AcDb2dVertex
 10
101.5662365754961
 20
-139.7010230206301
 30
0.0
  0
SEQEND
  5
4E
330
4B
100
AcDbEntity
  8
_U+30EC_U+30A4_U+30E4_U+30FC 1
 62
   179
420
  2234388
370
    25
  0
POLYLINE
  5
4F
330
1F
100
AcDbEntity
  8
_U+30EC_U+30A4_U+30E4_U+30FC 1
 62
   179
420
  2234388
370
    25
100
AcDb2dPolyline
 66
     1
 10
0.0
 20
0.0
 30
0.0
  0
VERTEX
  5
50
330
4F
100
AcDbEntity
  8
_U+30EC_U+30A4_U+30E4_U+30FC 1
 62
   179
420
  2234388
370
    25
100
AcDbVertex
100
AcDb2dVertex
 10
81.5662418079607
 20
-119.7008866367413
 30
0.0
  0
VERTEX
  5
51
330
4F
100
AcDbEntity
  8
_U+30EC_U+30A4_U+30E4_U+30FC 1
 62
   179
420
  2234388
370
    25
100
AcDbVertex
100
AcDb2dVertex
 10
81.5662418079607
 20
-138.7005805208802
 30
0.0
  0
SEQEND
  5
52
330
4F
100
AcDbEntity
  8
_U+30EC_U+30A4_U+30E4_U+30FC 1
 62
   179
420
  2234388
370
    25
  0
POLYLINE
  5
53
330
1F
100
AcDbEntity
  8
_U+30EC_U+30A4_U+30E4_U+30FC 1
 62
   179
420
  2234388
370
    25
100
AcDb2dPolyline
 66
     1
 10
0.0
 20
0.0
 30
0.0
  0
VERTEX
  5
54
330
53
100
AcDbEntity
  8
_U+30EC_U+30A4_U+30E4_U+30FC 1
 62
   179
420
  2234388
370
    25
100
AcDbVertex
100
AcDb2dVertex
 10
82.56636678244539
 20
-118.7005852481028
 30
0.0
  0
VERTEX
  5
55
330
53
100
AcDbEntity
  8
_U+30EC_U+30A4_U+30E4_U+30FC 1
 62
   179
420
  2234388
370
    25
100
AcDbVertex
100
AcDb2dVertex
 10
82.56636678244539
 20
-122.2006346916719
 30
0.0
  0
SEQEND
  5
56
330
53
100
AcDbEntity
  8
_U+30EC_U+30A4_U+30E4_U+30FC 1
 62
   179
420
  2234388
370
    25
  0
POLYLINE
  5
57
330
1F
100
AcDbEntity
  8
_U+30EC_U+30A4_U+30E4_U+30FC 1
 62
   179
420
  2234388
370
    25
100
AcDb2dPolyline
 66
     1
 10
0.0
 20
0.0
 30
0.0
  0
VERTEX
  5
58
330
57
100
AcDbEntity
  8
_U+30EC_U+30A4_U+30E4_U+30FC 1
 62
   179
420
  2234388
370
    25
100
AcDbVertex
100
AcDb2dVertex
 10
82.56636678244539
 20
-122.2006346916719
 30
0.0
  0
VERTEX
  5
59
330
57
100
AcDbEntity
  8
_U+30EC_U+30A4_U+30E4_U+30FC 1
 62
   179
420
  2234388
370
    25
100
AcDbVertex
100
AcDb2dVertex
 10
108.5666555284137
 20
-122.2006346916719
 30
0.0
  0
SEQEND
  5
5A
330
57
100
AcDbEntity
  8
_U+30EC_U+30A4_U+30E4_U+30FC 1
 62
   179
420
  2234388
370
    25
  0
POLYLINE
  5
5B
330
1F
100
AcDbEntity
  8
_U+30EC_U+30A4_U+30E4_U+30FC 1
 62
   179
420
  2234388
370
    25
100
AcDb2dPolyline
 66
     1
 10
0.0
 20
0.0
 30
0.0
  0
VERTEX
  5
5C
330
5B
100
AcDbEntity
  8
_U+30EC_U+30A4_U+30E4_U+30FC 1
 62
   179
420
  2234388
370
    25
100
AcDbVertex
100
AcDb2dVertex
 10
82.56636678244539
 20
-123.2010771914218
 30
0.0
  0
VERTEX
  5
5D
330
5B
100
AcDbEntity
  8
_U+30EC_U+30A4_U+30E4_U+30FC 1
 62
   179
420
  2234388
370
    25
100
AcDbVertex
100
AcDb2dVertex
 10
82.56636678244539
 20
-138.7005805208802
 30
0.0
  0
SEQEND
  5
5E
330
5B
100
AcDbEntity
  8
_U+30EC_U+30A4_U+30E4_U+30FC 1
 62
   179
420
  2234388
370
    25
  0
POLYLINE
  5
5F
330
1F
100
AcDbEntity
  8
_U+30EC_U+30A4_U+30E4_U+30FC 1
 62
   179
420
  2234388
370
    25
100
AcDb2dPolyline
 66
     1
 10
0.0
 20
0.0
 30
0.0
  0
VERTEX
  5
60
330
5F
100
AcDbEntity
  8
_U+30EC_U+30A4_U+30E4_U+30FC 1
 62
   179
420
  2234388
370
    25
100
AcDbVertex
100
AcDb2dVertex
 10
103.0862148700515
 20
-122.9006869137192
 30
0.0
  0
VERTEX
  5
61
330
5F
100
AcDbEntity
  8
_U+30EC_U+30A4_U+30E4_U+30FC 1
 62
   179
420
  2234388
370
    25
100
AcDbVertex
100
AcDb2dVertex
 10
107.866635859204
 20
-122.9006869137192
 30
0.0
  0
SEQEND
  5
62
330
5F
100
AcDbEntity
  8
_U+30EC_U+30A4_U+30E4_U+30FC 1
 62
   179
420
  2234388
370
    25
  0
POLYLINE
  5
63
330
1F
100
AcDbEntity
  8
_U+30EC_U+30A4_U+30E4_U+30FC 1
 62
   179
420
  2234388
370
    25
100
AcDb2dPolyline
 66
     1
 10
0.0
 20
0.0
 30
0.0
  0
VERTEX
  5
64
330
63
100
AcDbEntity
  8
_U+30EC_U+30A4_U+30E4_U+30FC 1
 62
   179
420
  2234388
370
    25
100
AcDbVertex
100
AcDb2dVertex
 10
102.5666790499727
 20
-123.2010771914218
 30
0.0
  0
VERTEX
  5
65
330
63
100
AcDbEntity
  8
_U+30EC_U+30A4_U+30E4_U+30FC 1
 62
   179
420
  2234388
370
    25
100
AcDbVertex
100
AcDb2dVertex
 10
103.0862148700515
 20
-122.9006869137192
 30
0.0
  0
SEQEND
  5
66
330
63
100
AcDbEntity
  8
_U+30EC_U+30A4_U+30E4_U+30FC 1
 62
   179
420
  2234388
370
    25
  0
POLYLINE
  5
67
330
1F
100
AcDbEntity
  8
_U+30EC_U+30A4_U+30E4_U+30FC 1
 62
   179
420
  2234388
370
     9
100
AcDb2dPolyline
 66
     1
 10
0.0
 20
0.0
 30
0.0
  0
VERTEX
  5
68
330
67
100
AcDbEntity
  8
_U+30EC_U+30A4_U+30E4_U+30FC 1
 62
   179
420
  2234388
370
     9
100
AcDbVertex
100
AcDb2dVertex
 10
81.85908263382304
 20
-139.4082174651478
 30
0.0
  0
VERTEX
  5
69
330
67
100
AcDbEntity
  8
_U+30EC_U+30A4_U+30E4_U+30FC 1
 62
   179
420
  2234388
370
     9
100
AcDbVertex
100
AcDb2dVertex
 10
77.56648274333638
 20
-143.700782186297
 30
0.0
  0
SEQEND
  5
6A
330
67
100
AcDbEntity
  8
_U+30EC_U+30A4_U+30E4_U+30FC 1
 62
   179
420
  2234388
370
     9
  0
POLYLINE
  5
6B
330
1F
100
AcDbEntity
  8
_U+30EC_U+30A4_U+30E4_U+30FC 1
 62
   179
420
  2234388
370
     9
100
AcDb2dPolyline
 66
     1
 10
0.0
 20
0.0
 30
0.0
  0
VERTEX
  5
6C
330
6B
100
AcDbEntity
  8
_U+30EC_U+30A4_U+30E4_U+30FC 1
 62
   179
420
  2234388
370
     9
100
AcDbVertex
100
AcDb2dVertex
 10
73.35417507302353
 20
-143.700782186297
 30
0.0
  0
VERTEX
  5
6D
330
6B
100
AcDbEntity
  8
_U+30EC_U+30A4_U+30E4_U+30FC 1
 62
   179
420
  2234388
370
     9
100
AcDbVertex
100
AcDb2dVertex
 10
77.56648274333638
 20
-143.700782186297
 30
0.0
  0
SEQEND
  5
6E
330
6B
100
AcDbEntity
  8
_U+30EC_U+30A4_U+30E4_U+30FC 1
 62
   179
420
  2234388
370
     9
  0
POLYLINE
  5
6F
330
1F
100
AcDbEntity
  8
_U+30EC_U+30A4_U+30E4_U+30FC 1
 62
   179
420
  2234388
370
     9
100
AcDb2dPolyline
 66
     1
 10
0.0
 20
0.0
 30
0.0
  0
VERTEX
  5
70
330
6F
100
AcDbEntity
  8
_U+30EC_U+30A4_U+30E4_U+30FC 1
 62
   179
420
  2234388
370
     9
100
AcDbVertex
100
AcDb2dVertex
 10
81.85908263382304
 20
-139.4447299651391
 30
0.0
  0
VERTEX
  5
71
330
6F
100
AcDbEntity
  8
_U+30EC_U+30A4_U+30E4_U+30FC 1
 62
   179
420
  2234388
370
     9
100
AcDbVertex
100
AcDb2dVertex
 10
80.56029600029117
 20
-140.1943827427294
 30
0.0
  0
SEQEND
  5
72
330
6F
100
AcDbEntity
  8
_U+30EC_U+30A4_U+30E4_U+30FC 1
 62
   179
420
  2234388
370
     9
  0
POLYLINE
  5
73
330
1F
100
AcDbEntity
  8
_U+30EC_U+30A4_U+30E4_U+30FC 1
 62
   179
420
  2234388
370
     9
100
AcDb2dPolyline
 66
     1
 10
0.0
 20
0.0
 30
0.0
  0
VERTEX
  5
74
330
73
100
AcDbEntity
  8
_U+30EC_U+30A4_U+30E4_U+30FC 1
 62
   179
420
  2234388
370
     9
100
AcDbVertex
100
AcDb2dVertex
 10
81.85908263382304
 20
-139.4082174651478
 30
0.0
  0
VERTEX
  5
75
330
73
100
AcDbEntity
  8
_U+30EC_U+30A4_U+30E4_U+30FC 1
 62
   179
420
  2234388
370
     9
100
AcDbVertex
100
AcDb2dVertex
 10
81.10942987517049
 20
-140.7070041314897
 30
0.0
  0
SEQEND
  5
76
330
73
100
AcDbEntity
  8
_U+30EC_U+30A4_U+30E4_U+30FC 1
 62
   179
420
  2234388
370
     9
  0
SPLINE
  5
77
330
1F
100
AcDbEntity
  8
_U+30EC_U+30A4_U+30E4_U+30FC 1
 62
   179
420
  2234388
370
    25
100
AcDbSpline
210
0.0
220
0.0
230
1.0
 70
     8
 71
     3
 72
     8
 73
     4
 74
     0
 42
0.0000000001
 43
0.0000000001
 12
1.0
 22
0.0
 32
0.0
 13
1.0
 23
0.0
 33
0.0
 40
0.0
 40
0.0
 40
0.0
 40
0.0
 40
1.0
 40
1.0
 40
1.0
 40
1.0
 10
81.5662418079607
 20
-138.7005805208802
 30
0.0
 10
81.5662418079607
 20
-139.2531716318531
 30
0.0
 10
82.01413053505195
 20
-139.7010230206301
 30
0.0
 10
82.56636678244539
 20
-139.7010230206301
 30
0.0
  0
SPLINE
  5
78
330
1F
100
AcDbEntity
  8
_U+30EC_U+30A4_U+30E4_U+30FC 1
 62
   179
420
  2234388
370
    25
100
AcDbSpline
210
0.0
220
0.0
230
1.0
 70
     8
 71
     3
 72
     8
 73
     4
 74
     0
 42
0.0000000001
 43
0.0000000001
 12
1.0
 22
0.0
 32
0.0
 13
1.0
 23
0.0
 33
0.0
 40
0.0
 40
0.0
 40
0.0
 40
0.0
 40
1.0
 40
1.0
 40
1.0
 40
1.0
 10
82.56636678244539
 20
-118.7005852481028
 30
0.0
 10
82.01413053505195
 20
-118.7005852481028
 30
0.0
 10
81.5662418079607
 20
-119.1484719146573
 30
0.0
 10
81.5662418079607
 20
-119.7008866367413
 30
0.0
  0
SPLINE
  5
79
330
1F
100
AcDbEntity
  8
_U+30EC_U+30A4_U+30E4_U+30FC 1
 62
   179
420
  2234388
370
    25
100
AcDbSpline
210
0.0
220
0.0
230
1.0
 70
     8
 71
     3
 72
     8
 73
     4
 74
     0
 42
0.0000000001
 43
0.0000000001
 12
1.0
 22
0.0
 32
0.0
 13
1.0
 23
0.0
 33
0.0
 40
0.0
 40
0.0
 40
0.0
 40
0.0
 40
1.0
 40
1.0
 40
1.0
 40
1.0
 10
101.5655310199585
 20
-139.7010230206301
 30
0.0
 10
102.1181573947488
 20
-139.7010230206301
 30
0.0
 10
102.566008772212
 20
-139.2531716318531
 30
0.0
 10
102.566008772212
 20
-138.7005805208802
 30
0.0
  0
SPLINE
  5
7A
330
1F
100
AcDbEntity
  8
_U+30EC_U+30A4_U+30E4_U+30FC 1
 62
   179
420
  2234388
370
    25
100
AcDbSpline
210
0.0
220
0.0
230
1.0
 70
     8
 71
     3
 72
     8
 73
     4
 74
     0
 42
0.0000000001
 43
0.0000000001
 12
1.0
 22
0.0
 32
0.0
 13
1.0
 23
0.0
 33
0.0
 40
0.0
 40
0.0
 40
0.0
 40
0.0
 40
1.0
 40
1.0
 40
1.0
 40
1.0
 10
107.866635859204
 20
-122.9006869137192
 30
0.0
 10
108.2531744604536
 20
-122.9006869137192
 30
0.0
 10
108.5666555284137
 20
-122.5878788582419
 30
0.0
 10
108.5666555284137
 20
-122.2006346916719
 30
0.0
  0
SPLINE
  5
7B
330
1F
100
AcDbEntity
  8
_U+30EC_U+30A4_U+30E4_U+30FC 1
 62
   179
420
  2234388
370
     9
100
AcDbSpline
210
0.0
220
0.0
230
1.0
 70
    11
 71
     3
 72
    17
 73
    13
 74
     0
 42
0.0000000001
 43
0.0000000001
 12
1.0
 22
0.0
 32
0.0
 13
1.0
 23
0.0
 33
0.0
 40
0.0
 40
0.0
 40
0.0
 40
0.0
 40
1.0
 40
1.0
 40
1.0
 40
2.0
 40
2.0
 40
2.0
 40
3.0
 40
3.0
 40
3.0
 40
4.0
 40
4.0
 40
4.0
 40
4.0
 10
108.5659825080288
 20
-114.7008260824359
 30
0.0
 10
108.5659825080288
 20
-114.6457221935606
 30
0.0
 10
108.5211797313941
 20
-114.6009194157942
 30
0.0
 10
108.466075843911
 20
-114.6009194157942
 30
0.0
 10
108.410936678651
 20
-114.6009194157942
 30
0.0
 10
108.3661691797931
 20
-114.6457221935606
 30
0.0
 10
108.3661691797931
 20
-114.7008260824359
 30
0.0
 10
108.3661691797931
 20
-114.7559652490886
 30
0.0
 10
108.410936678651
 20
-114.8007327490775
 30
0.0
 10
108.466075843911
 20
-114.8007327490775
 30
0.0
 10
108.5211797313941
 20
-114.8007327490775
 30
0.0
 10
108.5659825080288
 20
-114.7559652490886
 30
0.0
 10
108.5659825080288
 20
-114.7008260824359
 30
0.0
  0
SPLINE
  5
7C
330
1F
100
AcDbEntity
  8
_U+30EC_U+30A4_U+30E4_U+30FC 1
 62
   179
420
  2234388
370
     9
100
AcDbSpline
210
0.0
220
0.0
230
1.0
 70
    11
 71
     3
 72
    17
 73
    13
 74
     0
 42
0.0000000001
 43
0.0000000001
 12
1.0
 22
0.0
 32
0.0
 13
1.0
 23
0.0
 33
0.0
 40
0.0
 40
0.0
 40
0.0
 40
0.0
 40
1.0
 40
1.0
 40
1.0
 40
2.0
 40
2.0
 40
2.0
 40
3.0
 40
3.0
 40
3.0
 40
4.0
 40
4.0
 40
4.0
 40
4.0
 10
82.66627344656322
 20
-114.7008260824359
 30
0.0
 10
82.66627344656322
 20
-114.6457221935606
 30
0.0
 10
82.62147066992846
 20
-114.6009194157942
 30
0.0
 10
82.56636678244539
 20
-114.6009194157942
 30
0.0
 10
82.51122761718544
 20
-114.6009194157942
 30
0.0
 10
82.46646011832755
 20
-114.6457221935606
 30
0.0
 10
82.46646011832755
 20
-114.7008260824359
 30
0.0
 10
82.46646011832755
 20
-114.7559652490886
 30
0.0
 10
82.51122761718544
 20
-114.8007327490775
 30
0.0
 10
82.56636678244539
 20
-114.8007327490775
 30
0.0
 10
82.62147066992846
 20
-114.8007327490775
 30
0.0
 10
82.66627344656322
 20
-114.7559652490886
 30
0.0
 10
82.66627344656322
 20
-114.7008260824359
 30
0.0
  0
SPLINE
  5
7D
330
1F
100
AcDbEntity
  8
_U+30EC_U+30A4_U+30E4_U+30FC 1
 62
   179
420
  2234388
370
     9
100
AcDbSpline
210
0.0
220
0.0
230
1.0
 70
    11
 71
     3
 72
    17
 73
    13
 74
     0
 42
0.0000000001
 43
0.0000000001
 12
1.0
 22
0.0
 32
0.0
 13
1.0
 23
0.0
 33
0.0
 40
0.0
 40
0.0
 40
0.0
 40
0.0
 40
1.0
 40
1.0
 40
1.0
 40
2.0
 40
2.0
 40
2.0
 40
3.0
 40
3.0
 40
3.0
 40
4.0
 40
4.0
 40
4.0
 40
4.0
 10
81.66614847207853
 20
-121.3190430252257
 30
0.0
 10
81.66614847207853
 20
-121.263903858573
 30
0.0
 10
81.62138097322065
 20
-121.2191363585841
 30
0.0
 10
81.5662418079607
 20
-121.2191363585841
 30
0.0
 10
81.51113792047762
 20
-121.2191363585841
 30
0.0
 10
81.46633514384285
 20
-121.263903858573
 30
0.0
 10
81.46633514384285
 20
-121.3190430252257
 30
0.0
 10
81.46633514384285
 20
-121.374146914101
 30
0.0
 10
81.51113792047762
 20
-121.4189496918674
 30
0.0
 10
81.5662418079607
 20
-121.4189496918674
 30
0.0
 10
81.62138097322065
 20
-121.4189496918674
 30
0.0
 10
81.66614847207853
 20
-121.374146914101
 30
0.0
 10
81.66614847207853
 20
-121.3190430252257
 30
0.0
  0
SPLINE
  5
7E
330
1F
100
AcDbEntity
  8
_U+30EC_U+30A4_U+30E4_U+30FC 1
 62
   179
420
  2234388
370
     9
100
AcDbSpline
210
0.0
220
0.0
230
1.0
 70
    11
 71
     3
 72
    17
 73
    13
 74
     0
 42
0.0000000001
 43
0.0000000001
 12
1.0
 22
0.0
 32
0.0
 13
1.0
 23
0.0
 33
0.0
 40
0.0
 40
0.0
 40
0.0
 40
0.0
 40
1.0
 40
1.0
 40
1.0
 40
2.0
 40
2.0
 40
2.0
 40
3.0
 40
3.0
 40
3.0
 40
4.0
 40
4.0
 40
4.0
 40
4.0
 10
82.66627344656322
 20
-121.3190430252257
 30
0.0
 10
82.66627344656322
 20
-121.263903858573
 30
0.0
 10
82.62147066992846
 20
-121.2191363585841
 30
0.0
 10
82.56636678244539
 20
-121.2191363585841
 30
0.0
 10
82.51091011719353
 20
-121.2191363585841
 30
0.0
 10
82.46610734055876
 20
-121.263903858573
 30
0.0
 10
82.46610734055876
 20
-121.3190430252257
 30
0.0
 10
82.46610734055876
 20
-121.374146914101
 30
0.0
 10
82.51091011719353
 20
-121.4189496918674
 30
0.0
 10
82.56636678244539
 20
-121.4189496918674
 30
0.0
 10
82.62147066992846
 20
-121.4189496918674
 30
0.0
 10
82.66627344656322
 20
-121.374146914101
 30
0.0
 10
82.66627344656322
 20
-121.3190430252257
 30
0.0
  0
SPLINE
  5
7F
330
1F
100
AcDbEntity
  8
_U+30EC_U+30A4_U+30E4_U+30FC 1
 62
   179
420
  2234388
370
     9
100
AcDbSpline
210
0.0
220
0.0
230
1.0
 70
    11
 71
     3
 72
    17
 73
    13
 74
     0
 42
0.0000000001
 43
0.0000000001
 12
1.0
 22
0.0
 32
0.0
 13
1.0
 23
0.0
 33
0.0
 40
0.0
 40
0.0
 40
0.0
 40
0.0
 40
1.0
 40
1.0
 40
1.0
 40
2.0
 40
2.0
 40
2.0
 40
3.0
 40
3.0
 40
3.0
 40
4.0
 40
4.0
 40
4.0
 40
4.0
 10
77.66638940745422
 20
-140.2990871871477
 30
0.0
 10
77.66638940745422
 20
-140.2432777427173
 30
0.0
 10
77.62162190859634
 20
-140.1985102427281
 30
0.0
 10
77.56648274333638
 20
-140.1985102427281
 30
0.0
 10
77.51102607808454
 20
-140.1985102427281
 30
0.0
 10
77.46625857922665
 20
-140.2432777427173
 30
0.0
 10
77.46625857922665
 20
-140.2990871871477
 30
0.0
 10
77.46625857922665
 20
-140.3542263538002
 30
0.0
 10
77.51102607808454
 20
-140.3989938537894
 30
0.0
 10
77.56648274333638
 20
-140.3989938537894
 30
0.0
 10
77.62162190859634
 20
-140.3989938537894
 30
0.0
 10
77.66638940745422
 20
-140.3542263538002
 30
0.0
 10
77.66638940745422
 20
-140.2990871871477
 30
0.0
  0
SPLINE
  5
80
330
1F
100
AcDbEntity
  8
_U+30EC_U+30A4_U+30E4_U+30FC 1
 62
   179
420
  2234388
370
     9
100
AcDbSpline
210
0.0
220
0.0
230
1.0
 70
    11
 71
     3
 72
    17
 73
    13
 74
     0
 42
0.0000000001
 43
0.0000000001
 12
1.0
 22
0.0
 32
0.0
 13
1.0
 23
0.0
 33
0.0
 40
0.0
 40
0.0
 40
0.0
 40
0.0
 40
1.0
 40
1.0
 40
1.0
 40
2.0
 40
2.0
 40
2.0
 40
3.0
 40
3.0
 40
3.0
 40
4.0
 40
4.0
 40
4.0
 40
4.0
 10
77.66638940745422
 20
-118.7005852481028
 30
0.0
 10
77.66638940745422
 20
-118.6454813592275
 30
0.0
 10
77.62162190859634
 20
-118.6006785814608
 30
0.0
 10
77.56648274333638
 20
-118.6006785814608
 30
0.0
 10
77.51102607808454
 20
-118.6006785814608
 30
0.0
 10
77.46625857922665
 20
-118.6454813592275
 30
0.0
 10
77.46625857922665
 20
-118.7005852481028
 30
0.0
 10
77.46625857922665
 20
-118.7560419147554
 30
0.0
 10
77.51102607808454
 20
-118.8008446925222
 30
0.0
 10
77.56648274333638
 20
-118.8008446925222
 30
0.0
 10
77.62162190859634
 20
-118.8008446925222
 30
0.0
 10
77.66638940745422
 20
-118.7560419147554
 30
0.0
 10
77.66638940745422
 20
-118.7005852481028
 30
0.0
  0
SPLINE
  5
81
330
1F
100
AcDbEntity
  8
_U+30EC_U+30A4_U+30E4_U+30FC 1
 62
   179
420
  2234388
370
     9
100
AcDbSpline
210
0.0
220
0.0
230
1.0
 70
    11
 71
     3
 72
    17
 73
    13
 74
     0
 42
0.0000000001
 43
0.0000000001
 12
1.0
 22
0.0
 32
0.0
 13
1.0
 23
0.0
 33
0.0
 40
0.0
 40
0.0
 40
0.0
 40
0.0
 40
1.0
 40
1.0
 40
1.0
 40
2.0
 40
2.0
 40
2.0
 40
3.0
 40
3.0
 40
3.0
 40
4.0
 40
4.0
 40
4.0
 40
4.0
 10
102.6659154363298
 20
-143.700782186297
 30
0.0
 10
102.6659154363298
 20
-143.6456782974221
 30
0.0
 10
102.6211126596951
 20
-143.6008755196554
 30
0.0
 10
102.566008772212
 20
-143.6008755196554
 30
0.0
 10
102.5108721965946
 20
-143.6008755196554
 30
0.0
 10
102.4661021080942
 20
-143.6456782974221
 30
0.0
 10
102.4661021080942
 20
-143.700782186297
 30
0.0
 10
102.4661021080942
 20
-143.7559213529501
 30
0.0
 10
102.5108721965946
 20
-143.8006888529387
 30
0.0
 10
102.566008772212
 20
-143.8006888529387
 30
0.0
 10
102.6211126596951
 20
-143.8006888529387
 30
0.0
 10
102.6659154363298
 20
-143.7559213529501
 30
0.0
 10
102.6659154363298
 20
-143.700782186297
 30
0.0
  0
SPLINE
  5
82
330
1F
100
AcDbEntity
  8
_U+30EC_U+30A4_U+30E4_U+30FC 1
 62
   179
420
  2234388
370
     9
100
AcDbSpline
210
0.0
220
0.0
230
1.0
 70
    11
 71
     3
 72
    17
 73
    13
 74
     0
 42
0.0000000001
 43
0.0000000001
 12
1.0
 22
0.0
 32
0.0
 13
1.0
 23
0.0
 33
0.0
 40
0.0
 40
0.0
 40
0.0
 40
0.0
 40
1.0
 40
1.0
 40
1.0
 40
2.0
 40
2.0
 40
2.0
 40
3.0
 40
3.0
 40
3.0
 40
4.0
 40
4.0
 40
4.0
 40
4.0
 10
81.66614847207853
 20
-143.700782186297
 30
0.0
 10
81.66614847207853
 20
-143.6456782974221
 30
0.0
 10
81.62138097322065
 20
-143.6008755196554
 30
0.0
 10
81.5662418079607
 20
-143.6008755196554
 30
0.0
 10
81.51113792047762
 20
-143.6008755196554
 30
0.0
 10
81.46633514384285
 20
-143.6456782974221
 30
0.0
 10
81.46633514384285
 20
-143.700782186297
 30
0.0
 10
81.46633514384285
 20
-143.7559213529501
 30
0.0
 10
81.51113792047762
 20
-143.8006888529387
 30
0.0
 10
81.5662418079607
 20
-143.8006888529387
 30
0.0
 10
81.62138097322065
 20
-143.8006888529387
 30
0.0
 10
81.66614847207853
 20
-143.7559213529501
 30
0.0
 10
81.66614847207853
 20
-143.700782186297
 30
0.0
  0
SPLINE
  5
83
330
1F
100
AcDbEntity
  8
_U+30EC_U+30A4_U+30E4_U+30FC 1
 62
   179
420
  2234388
370
     9
100
AcDbSpline
210
0.0
220
0.0
230
1.0
 70
    11
 71
     3
 72
    17
 73
    13
 74
     0
 42
0.0000000001
 43
0.0000000001
 12
1.0
 22
0.0
 32
0.0
 13
1.0
 23
0.0
 33
0.0
 40
0.0
 40
0.0
 40
0.0
 40
0.0
 40
1.0
 40
1.0
 40
1.0
 40
2.0
 40
2.0
 40
2.0
 40
3.0
 40
3.0
 40
3.0
 40
4.0
 40
4.0
 40
4.0
 40
4.0
 10
104.6302878862145
 20
-123.2010771914218
 30
0.0
 10
104.6302878862145
 20
-123.1459733025469
 30
0.0
 10
104.5855203873566
 20
-123.1011705247802
 30
0.0
 10
104.5303812220967
 20
-123.1011705247802
 30
0.0
 10
104.4752773346136
 20
-123.1011705247802
 30
0.0
 10
104.4304745579789
 20
-123.1459733025469
 30
0.0
 10
104.4304745579789
 20
-123.2010771914218
 30
0.0
 10
104.4304745579789
 20
-123.2562163580749
 30
0.0
 10
104.4752773346136
 20
-123.3009838580638
 30
0.0
 10
104.5303812220967
 20
-123.3009838580638
 30
0.0
 10
104.5855203873566
 20
-123.3009838580638
 30
0.0
 10
104.6302878862145
 20
-123.2562163580749
 30
0.0
 10
104.6302878862145
 20
-123.2010771914218
 30
0.0
  0
SPLINE
  5
84
330
1F
100
AcDbEntity
  8
_U+30EC_U+30A4_U+30E4_U+30FC 1
 62
   179
420
  2234388
370
     9
100
AcDbSpline
210
0.0
220
0.0
230
1.0
 70
    11
 71
     3
 72
    17
 73
    13
 74
     0
 42
0.0000000001
 43
0.0000000001
 12
1.0
 22
0.0
 32
0.0
 13
1.0
 23
0.0
 33
0.0
 40
0.0
 40
0.0
 40
0.0
 40
0.0
 40
1.0
 40
1.0
 40
1.0
 40
2.0
 40
2.0
 40
2.0
 40
3.0
 40
3.0
 40
3.0
 40
4.0
 40
4.0
 40
4.0
 40
4.0
 10
104.6302878862145
 20
-138.4532127431645
 30
0.0
 10
104.6302878862145
 20
-138.3981088542895
 30
0.0
 10
104.5855203873566
 20
-138.3533060765228
 30
0.0
 10
104.5303812220967
 20
-138.3533060765228
 30
0.0
 10
104.4752773346136
 20
-138.3533060765228
 30
0.0
 10
104.4304745579789
 20
-138.3981088542895
 30
0.0
 10
104.4304745579789
 20
-138.4532127431645
 30
0.0
 10
104.4304745579789
 20
-138.5090221875949
 30
0.0
 10
104.4752773346136
 20
-138.5538249653616
 30
0.0
 10
104.5303812220967
 20
-138.5538249653616
 30
0.0
 10
104.5855203873566
 20
-138.5538249653616
 30
0.0
 10
104.6302878862145
 20
-138.5090221875949
 30
0.0
 10
104.6302878862145
 20
-138.4532127431645
 30
0.0
  0
INSERT
  5
86
330
1F
100
AcDbEntity
  8
_U+30EC_U+30A4_U+30E4_U+30FC 1
100
AcDbBlockReference
  2
block 2
 10
0.0
 20
0.0
 30
0.0
  0
POLYLINE
  5
8E
330
1F
100
AcDbEntity
  8
_U+30EC_U+30A4_U+30E4_U+30FC 1
 62
   179
420
  2234388
370
     9
100
AcDb2dPolyline
 66
     1
 10
0.0
 20
0.0
 30
0.0
  0
VERTEX
  5
8F
330
8E
100
AcDbEntity
  8
_U+30EC_U+30A4_U+30E4_U+30FC 1
 62
   179
420
  2234388
370
     9
100
AcDbVertex
100
AcDb2dVertex
 10
82.56636678244539
 20
-114.7008260824359
 30
0.0
  0
VERTEX
  5
90
330
8E
100
AcDbEntity
  8
_U+30EC_U+30A4_U+30E4_U+30FC 1
 62
   179
420
  2234388
370
     9
100
AcDbVertex
100
AcDb2dVertex
 10
108.5659825080288
 20
-114.7008260824359
 30
0.0
  0
SEQEND
  5
91
330
8E
100
AcDbEntity
  8
_U+30EC_U+30A4_U+30E4_U+30FC 1
 62
   179
420
  2234388
370
     9
  0
POLYLINE
  5
92
330
1F
100
AcDbEntity
  8
_U+30EC_U+30A4_U+30E4_U+30FC 1
 62
   179
420
  2234388
370
     9
100
AcDb2dPolyline
 66
     1
 10
0.0
 20
0.0
 30
0.0
  0
VERTEX
  5
93
330
92
100
AcDbEntity
  8
_U+30EC_U+30A4_U+30E4_U+30FC 1
 62
   179
420
  2234388
370
     9
100
AcDbVertex
100
AcDb2dVertex
 10
82.56636678244539
 20
-117.1606396929321
 30
0.0
  0
VERTEX
  5
94
330
92
100
AcDbEntity
  8
_U+30EC_U+30A4_U+30E4_U+30FC 1
 62
   179
420
  2234388
370
     9
100
AcDbVertex
100
AcDb2dVertex
 10
82.56636678244539
 20
-113.7007363604637
 30
0.0
  0
SEQEND
  5
95
330
92
100
AcDbEntity
  8
_U+30EC_U+30A4_U+30E4_U+30FC 1
 62
   179
420
  2234388
370
     9
  0
POLYLINE
  5
96
330
1F
100
AcDbEntity
  8
_U+30EC_U+30A4_U+30E4_U+30FC 1
 62
   179
420
  2234388
370
     9
100
AcDb2dPolyline
 66
     1
 10
0.0
 20
0.0
 30
0.0
  0
VERTEX
  5
97
330
96
100
AcDbEntity
  8
_U+30EC_U+30A4_U+30E4_U+30FC 1
 62
   179
420
  2234388
370
     9
100
AcDbVertex
100
AcDb2dVertex
 10
108.466075843911
 20
-120.6610419142791
 30
0.0
  0
VERTEX
  5
98
330
96
100
AcDbEntity
  8
_U+30EC_U+30A4_U+30E4_U+30FC 1
 62
   179
420
  2234388
370
     9
100
AcDbVertex
100
AcDb2dVertex
 10
108.466075843911
 20
-113.7007363604637
 30
0.0
  0
SEQEND
  5
99
330
96
100
AcDbEntity
  8
_U+30EC_U+30A4_U+30E4_U+30FC 1
 62
   179
420
  2234388
370
     9
  0
INSERT
  5
9B
330
1F
100
AcDbEntity
  8
_U+30EC_U+30A4_U+30E4_U+30FC 1
100
AcDbBlockReference
  2
block 3
 10
0.0
 20
0.0
 30
0.0
  0
POLYLINE
  5
A3
330
1F
100
AcDbEntity
  8
_U+30EC_U+30A4_U+30E4_U+30FC 1
 62
   179
420
  2234388
370
     9
100
AcDb2dPolyline
 66
     1
 10
0.0
 20
0.0
 30
0.0
  0
VERTEX
  5
A4
330
A3
100
AcDbEntity
  8
_U+30EC_U+30A4_U+30E4_U+30FC 1
 62
   179
420
  2234388
370
     9
100
AcDbVertex
100
AcDb2dVertex
 10
82.56636678244539
 20
-121.3190430252257
 30
0.0
  0
VERTEX
  5
A5
330
A3
100
AcDbEntity
  8
_U+30EC_U+30A4_U+30E4_U+30FC 1
 62
   179
420
  2234388
370
     9
100
AcDbVertex
100
AcDb2dVertex
 10
86.3366791862567
 20
-121.3190430252257
 30
0.0
  0
SEQEND
  5
A6
330
A3
100
AcDbEntity
  8
_U+30EC_U+30A4_U+30E4_U+30FC 1
 62
   179
420
  2234388
370
     9
  0
POLYLINE
  5
A7
330
1F
100
AcDbEntity
  8
_U+30EC_U+30A4_U+30E4_U+30FC 1
 62
   179
420
  2234388
370
     9
100
AcDb2dPolyline
 66
     1
 10
0.0
 20
0.0
 30
0.0
  0
VERTEX
  5
A8
330
A7
100
AcDbEntity
  8
_U+30EC_U+30A4_U+30E4_U+30FC 1
 62
   179
420
  2234388
370
     9
100
AcDbVertex
100
AcDb2dVertex
 10
80.56646961124478
 20
-121.3190430252257
 30
0.0
  0
VERTEX
  5
A9
330
A7
100
AcDbEntity
  8
_U+30EC_U+30A4_U+30E4_U+30FC 1
 62
   179
420
  2234388
370
     9
100
AcDbVertex
100
AcDb2dVertex
 10
82.56636678244539
 20
-121.3190430252257
 30
0.0
  0
SEQEND
  5
AA
330
A7
100
AcDbEntity
  8
_U+30EC_U+30A4_U+30E4_U+30FC 1
 62
   179
420
  2234388
370
     9
  0
INSERT
  5
AC
330
1F
100
AcDbEntity
  8
_U+30EC_U+30A4_U+30E4_U+30FC 1
100
AcDbBlockReference
  2
block 4
 10
0.0
 20
0.0
 30
0.0
  0
POLYLINE
  5
B1
330
1F
100
AcDbEntity
  8
_U+30EC_U+30A4_U+30E4_U+30FC 1
 62
   179
420
  2234388
370
     9
100
AcDb2dPolyline
 66
     1
 10
0.0
 20
0.0
 30
0.0
  0
VERTEX
  5
B2
330
B1
100
AcDbEntity
  8
_U+30EC_U+30A4_U+30E4_U+30FC 1
 62
   179
420
  2234388
370
     9
100
AcDbVertex
100
AcDb2dVertex
 10
81.5662418079607
 20
-143.700782186297
 30
0.0
  0
VERTEX
  5
B3
330
B1
100
AcDbEntity
  8
_U+30EC_U+30A4_U+30E4_U+30FC 1
 62
   179
420
  2234388
370
     9
100
AcDbVertex
100
AcDb2dVertex
 10
102.566008772212
 20
-143.700782186297
 30
0.0
  0
SEQEND
  5
B4
330
B1
100
AcDbEntity
  8
_U+30EC_U+30A4_U+30E4_U+30FC 1
 62
   179
420
  2234388
370
     9
  0
POLYLINE
  5
B5
330
1F
100
AcDbEntity
  8
_U+30EC_U+30A4_U+30E4_U+30FC 1
 62
   179
420
  2234388
370
     9
100
AcDb2dPolyline
 66
     1
 10
0.0
 20
0.0
 30
0.0
  0
VERTEX
  5
B6
330
B5
100
AcDbEntity
  8
_U+30EC_U+30A4_U+30E4_U+30FC 1
 62
   179
420
  2234388
370
     9
100
AcDbVertex
100
AcDb2dVertex
 10
81.5662418079607
 20
-141.2410038535789
 30
0.0
  0
VERTEX
  5
B7
330
B5
100
AcDbEntity
  8
_U+30EC_U+30A4_U+30E4_U+30FC 1
 62
   179
420
  2234388
370
     9
100
AcDbVertex
100
AcDb2dVertex
 10
81.5662418079607
 20
-144.7012599638244
 30
0.0
  0
SEQEND
  5
B8
330
B5
100
AcDbEntity
  8
_U+30EC_U+30A4_U+30E4_U+30FC 1
 62
   179
420
  2234388
370
     9
  0
POLYLINE
  5
B9
330
1F
100
AcDbEntity
  8
_U+30EC_U+30A4_U+30E4_U+30FC 1
 62
   179
420
  2234388
370
     9
100
AcDb2dPolyline
 66
     1
 10
0.0
 20
0.0
 30
0.0
  0
VERTEX
  5
BA
330
B9
100
AcDbEntity
  8
_U+30EC_U+30A4_U+30E4_U+30FC 1
 62
   179
420
  2234388
370
     9
100
AcDbVertex
100
AcDb2dVertex
 10
102.566008772212
 20
-141.2410038535789
 30
0.0
  0
VERTEX
  5
BB
330
B9
100
AcDbEntity
  8
_U+30EC_U+30A4_U+30E4_U+30FC 1
 62
   179
420
  2234388
370
     9
100
AcDbVertex
100
AcDb2dVertex
 10
102.566008772212
 20
-144.7012599638244
 30
0.0
  0
SEQEND
  5
BC
330
B9
100
AcDbEntity
  8
_U+30EC_U+30A4_U+30E4_U+30FC 1
 62
   179
420
  2234388
370
     9
  0
INSERT
  5
BE
330
1F
100
AcDbEntity
  8
_U+30EC_U+30A4_U+30E4_U+30FC 1
100
AcDbBlockReference
  2
block 5
 10
0.0
 20
0.0
 30
0.0
  0
POLYLINE
  5
C5
330
1F
100
AcDbEntity
  8
_U+30EC_U+30A4_U+30E4_U+30FC 1
 62
   179
420
  2234388
370
     9
100
AcDb2dPolyline
 66
     1
 10
0.0
 20
0.0
 30
0.0
  0
VERTEX
  5
C6
330
C5
100
AcDbEntity
  8
_U+30EC_U+30A4_U+30E4_U+30FC 1
 62
   179
420
  2234388
370
     9
100
AcDbVertex
100
AcDb2dVertex
 10
104.5303812220967
 20
-138.4029066320662
 30
0.0
  0
VERTEX
  5
C7
330
C5
100
AcDbEntity
  8
_U+30EC_U+30A4_U+30E4_U+30FC 1
 62
   179
420
  2234388
370
     9
100
AcDbVertex
100
AcDb2dVertex
 10
104.5303812220967
 20
-123.2010771914218
 30
0.0
  0
SEQEND
  5
C8
330
C5
100
AcDbEntity
  8
_U+30EC_U+30A4_U+30E4_U+30FC 1
 62
   179
420
  2234388
370
     9
  0
POLYLINE
  5
C9
330
1F
100
AcDbEntity
  8
_U+30EC_U+30A4_U+30E4_U+30FC 1
 62
   179
420
  2234388
370
     9
100
AcDb2dPolyline
 66
     1
 10
0.0
 20
0.0
 30
0.0
  0
VERTEX
  5
CA
330
C9
100
AcDbEntity
  8
_U+30EC_U+30A4_U+30E4_U+30FC 1
 62
   179
420
  2234388
370
     9
100
AcDbVertex
100
AcDb2dVertex
 10
103.0703777520101
 20
-138.4532127431645
 30
0.0
  0
VERTEX
  5
CB
330
C9
100
AcDbEntity
  8
_U+30EC_U+30A4_U+30E4_U+30FC 1
 62
   179
420
  2234388
370
     9
100
AcDbVertex
100
AcDb2dVertex
 10
105.5301534188126
 20
-138.4532127431645
 30
0.0
  0
SEQEND
  5
CC
330
C9
100
AcDbEntity
  8
_U+30EC_U+30A4_U+30E4_U+30FC 1
 62
   179
420
  2234388
370
     9
  0
POLYLINE
  5
CD
330
1F
100
AcDbEntity
  8
_U+30EC_U+30A4_U+30E4_U+30FC 1
 62
   179
420
  2234388
370
     9
100
AcDb2dPolyline
 66
     1
 10
0.0
 20
0.0
 30
0.0
  0
VERTEX
  5
CE
330
CD
100
AcDbEntity
  8
_U+30EC_U+30A4_U+30E4_U+30FC 1
 62
   179
420
  2234388
370
     9
100
AcDbVertex
100
AcDb2dVertex
 10
103.0703777520101
 20
-123.2010771914218
 30
0.0
  0
VERTEX
  5
CF
330
CD
100
AcDbEntity
  8
_U+30EC_U+30A4_U+30E4_U+30FC 1
 62
   179
420
  2234388
370
     9
100
AcDbVertex
100
AcDb2dVertex
 10
105.5301534188126
 20
-123.2010771914218
 30
0.0
  0
SEQEND
  5
D0
330
CD
100
AcDbEntity
  8
_U+30EC_U+30A4_U+30E4_U+30FC 1
 62
   179
420
  2234388
370
     9
  0
INSERT
  5
D2
330
1F
100
AcDbEntity
  8
_U+30EC_U+30A4_U+30E4_U+30FC 1
100
AcDbBlockReference
  2
block 6
 10
0.0
 20
0.0
 30
0.0
  0
POLYLINE
  5
E3
330
1F
100
AcDbEntity
  8
_U+30EC_U+30A4_U+30E4_U+30FC 1
 62
   179
420
  2234388
370
     9
100
AcDb2dPolyline
 66
     1
 10
0.0
 20
0.0
 30
0.0
  0
VERTEX
  5
E4
330
E3
100
AcDbEntity
  8
_U+30EC_U+30A4_U+30E4_U+30FC 1
 62
   179
420
  2234388
370
     9
100
AcDbVertex
100
AcDb2dVertex
 10
77.56648274333638
 20
-140.3989938537894
 30
0.0
  0
VERTEX
  5
E5
330
E3
100
AcDbEntity
  8
_U+30EC_U+30A4_U+30E4_U+30FC 1
 62
   179
420
  2234388
370
     9
100
AcDbVertex
100
AcDb2dVertex
 10
77.56648274333638
 20
-118.7005852481028
 30
0.0
  0
SEQEND
  5
E6
330
E3
100
AcDbEntity
  8
_U+30EC_U+30A4_U+30E4_U+30FC 1
 62
   179
420
  2234388
370
     9
  0
POLYLINE
  5
E7
330
1F
100
AcDbEntity
  8
_U+30EC_U+30A4_U+30E4_U+30FC 1
 62
   179
420
  2234388
370
     9
100
AcDb2dPolyline
 66
     1
 10
0.0
 20
0.0
 30
0.0
  0
VERTEX
  5
E8
330
E7
100
AcDbEntity
  8
_U+30EC_U+30A4_U+30E4_U+30FC 1
 62
   179
420
  2234388
370
     9
100
AcDbVertex
100
AcDb2dVertex
 10
80.02629629169242
 20
-140.2990871871477
 30
0.0
  0
VERTEX
  5
E9
330
E7
100
AcDbEntity
  8
_U+30EC_U+30A4_U+30E4_U+30FC 1
 62
   179
420
  2234388
370
     9
100
AcDbVertex
100
AcDb2dVertex
 10
76.56639304662858
 20
-140.2990871871477
 30
0.0
  0
SEQEND
  5
EA
330
E7
100
AcDbEntity
  8
_U+30EC_U+30A4_U+30E4_U+30FC 1
 62
   179
420
  2234388
370
     9
  0
POLYLINE
  5
EB
330
1F
100
AcDbEntity
  8
_U+30EC_U+30A4_U+30E4_U+30FC 1
 62
   179
420
  2234388
370
     9
100
AcDb2dPolyline
 66
     1
 10
0.0
 20
0.0
 30
0.0
  0
VERTEX
  5
EC
330
EB
100
AcDbEntity
  8
_U+30EC_U+30A4_U+30E4_U+30FC 1
 62
   179
420
  2234388
370
     9
100
AcDbVertex
100
AcDb2dVertex
 10
80.02629629169242
 20
-118.7005852481028
 30
0.0
  0
VERTEX
  5
ED
330
EB
100
AcDbEntity
  8
_U+30EC_U+30A4_U+30E4_U+30FC 1
 62
   179
420
  2234388
370
     9
100
AcDbVertex
100
AcDb2dVertex
 10
76.56639304662858
 20
-118.7005852481028
 30
0.0
  0
SEQEND
  5
EE
330
EB
100
AcDbEntity
  8
_U+30EC_U+30A4_U+30E4_U+30FC 1
 62
   179
420
  2234388
370
     9
  0
INSERT
  5
F0
330
1F
100
AcDbEntity
  8
_U+30EC_U+30A4_U+30E4_U+30FC 1
100
AcDbBlockReference
  2
block 7
 10
0.0
 20
0.0
 30
0.0
  0
ENDSEC
  0
SECTION
  2
OBJECTS
  0
DICTIONARY
  5
C
330
0
100
AcDbDictionary
281
     1
  3
ACAD_GROUP
350
D
  3
ACAD_LAYOUT
350
1A
  3
ACAD_MATERIAL
350
3B
  3
ACAD_MLEADERSTYLE
350
F8
  3
ACAD_MLINESTYLE
350
17
  3
ACAD_PLOTSETTINGS
350
19
  3
ACAD_PLOTSTYLENAME
350
E
  3
ACAD_TABLESTYLE
350
F7
  3
ACAD_VISUALSTYLE
350
2A
  0
SUN
  5
3F
330
29
100
AcDbSun
 90
        1
290
     0
 63
     7
421
 16777215
 40
1.0
291
     1
 91
  2455826
 92
 54000000
292
     0
 70
     2
 71
   256
280
     1
  0
DICTIONARY
  5
D
102
{ACAD_REACTORS
330
C
102
}
330
C
100
AcDbDictionary
281
     1
  0
DICTIONARY
  5
1A
102
{ACAD_REACTORS
330
C
102
}
330
C
100
AcDbDictionary
281
     1
  3
Layout1
350
1E
  3
Layout2
350
26
  3
Model
350
22
  0
DICTIONARY
  5
3B
102
{ACAD_REACTORS
330
C
102
}
330
C
100
AcDbDictionary
281
     1
  3
ByBlock
350
3D
  3
ByLayer
350
3C
  3
Global
350
3E
  0
DICTIONARY
  5
F8
102
{ACAD_REACTORS
330
C
102
}
330
C
100
AcDbDictionary
281
     1
  0
DICTIONARY
  5
17
102
{ACAD_REACTORS
330
C
102
}
330
C
100
AcDbDictionary
281
     1
  3
Standard
350
18
  0
DICTIONARY
  5
19
102
{ACAD_REACTORS
330
C
102
}
330
C
100
AcDbDictionary
281
     1
  0
ACDBDICTIONARYWDFLT
  5
E
102
{ACAD_REACTORS
330
C
102
}
330
C
100
AcDbDictionary
281
     1
  3
Normal
350
F
100
AcDbDictionaryWithDefault
340
F
  0
DICTIONARY
  5
F7
102
{ACAD_REACTORS
330
C
102
}
330
C
100
AcDbDictionary
281
     1
  0
DICTIONARY
  5
2A
102
{ACAD_REACTORS
330
C
102
}
330
C
100
AcDbDictionary
281
     1
  3
2dWireframe
350
2F
  3
3D Hidden
350
31
  3
3dWireframe
350
30
  3
Basic
350
32
  3
Brighten
350
36
  3
ColorChange
350
3A
  3
Conceptual
350
34
  3
Dim
350
35
  3
Facepattern
350
39
  3
Flat
350
2B
  3
FlatWithEdges
350
2C
  3
Gouraud
350
2D
  3
GouraudWithEdges
350
2E
  3
Linepattern
350
38
  3
Realistic
350
33
  3
Thicken
350
37
  0
LAYOUT
  5
1E
102
{ACAD_REACTORS
330
1A
102
}
330
1A
100
AcDbPlotSettings
  1

  2
none_device
  4

  6

 40
0.0
 41
0.0
 42
0.0
 43
0.0
 44
0.0
 45
0.0
 46
0.0
 47
0.0
 48
0.0
 49
0.0
140
0.0
141
0.0
142
1.0
143
1.0
 70
   688
 72
     0
 73
     0
 74
     5
  7

 75
    16
 76
     0
 77
     2
 78
   300
147
1.0
148
0.0
149
0.0
100
AcDbLayout
  1
Layout1
 70
     1
 71
     1
 10
0.0
 20
0.0
 11
12.0
 21
9.0
 12
0.0
 22
0.0
 32
0.0
 14
1.000000000000000E+20
 24
1.000000000000000E+20
 34
1.000000000000000E+20
 15
-1.000000000000000E+20
 25
-1.000000000000000E+20
 35
-1.000000000000000E+20
146
0.0
 13
0.0
 23
0.0
 33
0.0
 16
1.0
 26
0.0
 36
0.0
 17
0.0
 27
1.0
 37
0.0
 76
     0
330
1B
  0
LAYOUT
  5
26
102
{ACAD_REACTORS
330
1A
102
}
330
1A
100
AcDbPlotSettings
  1

  2
none_device
  4

  6

 40
0.0
 41
0.0
 42
0.0
 43
0.0
 44
0.0
 45
0.0
 46
0.0
 47
0.0
 48
0.0
 49
0.0
140
0.0
141
0.0
142
1.0
143
1.0
 70
   688
 72
     0
 73
     0
 74
     5
  7

 75
    16
 76
     0
 77
     2
 78
   300
147
1.0
148
0.0
149
0.0
100
AcDbLayout
  1
Layout2
 70
     1
 71
     2
 10
0.0
 20
0.0
 11
0.0
 21
0.0
 12
0.0
 22
0.0
 32
0.0
 14
0.0
 24
0.0
 34
0.0
 15
0.0
 25
0.0
 35
0.0
146
0.0
 13
0.0
 23
0.0
 33
0.0
 16
1.0
 26
0.0
 36
0.0
 17
0.0
 27
1.0
 37
0.0
 76
     0
330
23
  0
LAYOUT
  5
22
102
{ACAD_REACTORS
330
1A
102
}
330
1A
100
AcDbPlotSettings
  1

  2
none_device
  4

  6

 40
0.0
 41
0.0
 42
0.0
 43
0.0
 44
0.0
 45
0.0
 46
0.0
 47
0.0
 48
0.0
 49
0.0
140
0.0
141
0.0
142
1.0
143
1.0
 70
  1712
 72
     0
 73
     0
 74
     0
  7

 75
     0
 76
     0
 77
     2
 78
   300
147
1.0
148
0.0
149
0.0
100
AcDbLayout
  1
Model
 70
     1
 71
     0
 10
0.0
 20
0.0
 11
12.0
 21
9.0
 12
0.0
 22
0.0
 32
0.0
 14
1.000000000000000E+20
 24
1.000000000000000E+20
 34
1.000000000000000E+20
 15
-1.000000000000000E+20
 25
-1.000000000000000E+20
 35
-1.000000000000000E+20
146
0.0
 13
0.0
 23
0.0
 33
0.0
 16
1.0
 26
0.0
 36
0.0
 17
0.0
 27
1.0
 37
0.0
 76
     0
330
1F
331
29
  0
MATERIAL
  5
3D
102
{ACAD_REACTORS
330
3B
102
}
330
3B
100
AcDbMaterial
  1
ByBlock
 72
     1
 94
      127
  0
MATERIAL
  5
3C
102
{ACAD_REACTORS
330
3B
102
}
330
3B
100
AcDbMaterial
  1
ByLayer
 72
     1
 94
      127
  0
MATERIAL
  5
3E
102
{ACAD_REACTORS
330
3B
102
}
330
3B
100
AcDbMaterial
  1
Global
 72
     1
 94
      127
  0
MLINESTYLE
  5
18
102
{ACAD_REACTORS
330
17
102
}
330
17
100
AcDbMlineStyle
  2
Standard
 70
     0
  3

 62
   256
 51
90.0
 52
90.0
 71
     2
 49
0.5
 62
   256
  6
BYLAYER
 49
-0.5
 62
   256
  6
BYLAYER
  0
ACDBPLACEHOLDER
  5
F
102
{ACAD_REACTORS
330
E
102
}
330
E
  0
VISUALSTYLE
  5
2F
102
{ACAD_REACTORS
330
2A
102
}
330
2A
100
AcDbVisualStyle
  2
2dWireframe
 70
     4
177
     2
291
     0
 71
     0
176
     1
 72
     2
176
     1
 73
     0
176
     1
 90
        0
176
     1
 40
-0.6
176
     1
 41
-30.0
176
     1
 62
     5
 63
     7
421
 16777215
176
     1
 74
     1
176
     1
 91
        4
176
     1
 64
     7
176
     1
 65
   257
176
     1
 75
     1
176
     1
175
     1
176
     1
 42
1.0
176
     1
 92
        0
176
     1
 66
   257
176
     1
 43
1.0
176
     1
 76
     1
176
     1
 77
     6
176
     1
 78
     2
176
     1
 67
     7
176
     1
 79
     5
176
     1
170
     0
176
     1
171
     0
176
     1
290
     0
176
     1
 93
        1
176
     1
 44
0.0
176
     1
173
     0
176
     1
  0
VISUALSTYLE
  5
31
102
{ACAD_REACTORS
330
2A
102
}
330
2A
100
AcDbVisualStyle
  2
3D Hidden
 70
     6
177
     2
291
     0
 71
     1
176
     1
 72
     2
176
     1
 73
     2
176
     1
 90
        0
176
     1
 40
-0.6
176
     1
 41
-30.0
176
     1
 62
     5
 63
     7
421
 16777215
176
     1
 74
     2
176
     1
 91
        2
176
     1
 64
     7
176
     1
 65
   257
176
     1
 75
     2
176
     1
175
     1
176
     1
 42
40.0
176
     1
 92
        0
176
     1
 66
   257
176
     1
 43
1.0
176
     1
 76
     1
176
     1
 77
     6
176
     1
 78
     2
176
     1
 67
     7
176
     1
 79
     3
176
     1
170
     0
176
     1
171
     0
176
     1
290
     0
176
     1
 93
        1
176
     1
 44
0.0
176
     1
173
     0
176
     1
  0
VISUALSTYLE
  5
30
102
{ACAD_REACTORS
330
2A
102
}
330
2A
100
AcDbVisualStyle
  2
3dWireframe
 70
     5
177
     2
291
     0
 71
     0
176
     1
 72
     2
176
     1
 73
     0
176
     1
 90
        0
176
     1
 40
-0.6
176
     1
 41
-30.0
176
     1
 62
     5
 63
     7
421
 16777215
176
     1
 74
     1
176
     1
 91
        4
176
     1
 64
     7
176
     1
 65
   257
176
     1
 75
     1
176
     1
175
     1
176
     1
 42
1.0
176
     1
 92
        0
176
     1
 66
   257
176
     1
 43
1.0
176
     1
 76
     1
176
     1
 77
     6
176
     1
 78
     2
176
     1
 67
     7
176
     1
 79
     5
176
     1
170
     0
176
     1
171
     0
176
     1
290
     0
176
     1
 93
        1
176
     1
 44
0.0
176
     1
173
     0
176
     1
  0
VISUALSTYLE
  5
32
102
{ACAD_REACTORS
330
2A
102
}
330
2A
100
AcDbVisualStyle
  2
Basic
 70
     7
177
     2
291
     1
 71
     1
176
     1
 72
     0
176
     1
 73
     1
176
     1
 90
        0
176
     1
 40
-0.6
176
     1
 41
-30.0
176
     1
 62
     5
 63
     7
421
 16777215
176
     1
 74
     0
176
     1
 91
        4
176
     1
 64
     7
176
     1
 65
   257
176
     1
 75
     1
176
     1
175
     1
176
     1
 42
1.0
176
     1
 92
        8
176
     1
 66
     7
176
     1
 43
1.0
176
     1
 76
     1
176
     1
 77
     6
176
     1
 78
     2
176
     1
 67
     7
176
     1
 79
     5
176
     1
170
     0
176
     1
171
     0
176
     1
290
     0
176
     1
 93
        1
176
     1
 44
0.0
176
     1
173
     0
176
     1
  0
VISUALSTYLE
  5
36
102
{ACAD_REACTORS
330
2A
102
}
330
2A
100
AcDbVisualStyle
  2
Brighten
 70
    12
177
     2
291
     1
 71
     2
176
     1
 72
     2
176
     1
 73
     0
176
     1
 90
        0
176
     1
 40
-0.6
176
     1
 41
-30.0
176
     1
 62
     5
 63
     7
421
 16777215
176
     1
 74
     1
176
     1
 91
        4
176
     1
 64
     7
176
     1
 65
   257
176
     1
 75
     1
176
     1
175
     1
176
     1
 42
1.0
176
     1
 92
        8
176
     1
 66
     7
176
     1
 43
1.0
176
     1
 76
     1
176
     1
 77
     6
176
     1
 78
     2
176
     1
 67
     7
176
     1
 79
     5
176
     1
170
     0
176
     1
171
     0
176
     1
290
     0
176
     1
 93
        1
176
     1
 44
50.0
176
     1
173
     0
176
     1
  0
VISUALSTYLE
  5
3A
102
{ACAD_REACTORS
330
2A
102
}
330
2A
100
AcDbVisualStyle
  2
ColorChange
 70
    16
177
     2
291
     1
 71
     2
176
     1
 72
     2
176
     1
 73
     3
176
     1
 90
        0
176
     1
 40
-0.6
176
     1
 41
-30.0
176
     1
 62
     5
 63
     8
421
  8421504
176
     1
 74
     1
176
     1
 91
        4
176
     1
 64
     7
176
     1
 65
   257
176
     1
 75
     1
176
     1
175
     1
176
     1
 42
1.0
176
     1
 92
        8
176
     1
 66
     8
424
  8421504
176
     1
 43
1.0
176
     1
 76
     1
176
     1
 77
     6
176
     1
 78
     2
176
     1
 67
     7
176
     1
 79
     5
176
     1
170
     0
176
     1
171
     0
176
     1
290
     0
176
     1
 93
        1
176
     1
 44
0.0
176
     1
173
     0
176
     1
  0
VISUALSTYLE
  5
34
102
{ACAD_REACTORS
330
2A
102
}
330
2A
100
AcDbVisualStyle
  2
Conceptual
 70
     9
177
     2
291
     0
 71
     3
176
     1
 72
     2
176
     1
 73
     0
176
     1
 90
        0
176
     1
 40
-0.6
176
     1
 41
-30.0
176
     1
 62
     5
 63
     7
421
 16777215
176
     1
 74
     2
176
     1
 91
        2
176
     1
 64
     7
176
     1
 65
   257
176
     1
 75
     1
176
     1
175
     1
176
     1
 42
40.0
176
     1
 92
        8
176
     1
 66
     7
176
     1
 43
1.0
176
     1
 76
     1
176
     1
 77
     6
176
     1
 78
     2
176
     1
 67
     7
176
     1
 79
     3
176
     1
170
     0
176
     1
171
     0
176
     1
290
     0
176
     1
 93
        1
176
     1
 44
0.0
176
     1
173
     0
176
     1
  0
VISUALSTYLE
  5
35
102
{ACAD_REACTORS
330
2A
102
}
330
2A
100
AcDbVisualStyle
  2
Dim
 70
    11
177
     2
291
     1
 71
     2
176
     1
 72
     2
176
     1
 73
     0
176
     1
 90
        0
176
     1
 40
-0.6
176
     1
 41
-30.0
176
     1
 62
     5
 63
     7
421
 16777215
176
     1
 74
     1
176
     1
 91
        4
176
     1
 64
     7
176
     1
 65
   257
176
     1
 75
     1
176
     1
175
     1
176
     1
 42
1.0
176
     1
 92
        8
176
     1
 66
     7
176
     1
 43
1.0
176
     1
 76
     1
176
     1
 77
     6
176
     1
 78
     2
176
     1
 67
     7
176
     1
 79
     5
176
     1
170
     0
176
     1
171
     0
176
     1
290
     0
176
     1
 93
        1
176
     1
 44
-50.0
176
     1
173
     0
176
     1
  0
VISUALSTYLE
  5
39
102
{ACAD_REACTORS
330
2A
102
}
330
2A
100
AcDbVisualStyle
  2
Facepattern
 70
    15
177
     2
291
     1
 71
     2
176
     1
 72
     2
176
     1
 73
     0
176
     1
 90
        0
176
     1
 40
-0.6
176
     1
 41
-30.0
176
     1
 62
     5
 63
     7
421
 16777215
176
     1
 74
     1
176
     1
 91
        4
176
     1
 64
     7
176
     1
 65
   257
176
     1
 75
     1
176
     1
175
     1
176
     1
 42
1.0
176
     1
 92
        8
176
     1
 66
     7
176
     1
 43
1.0
176
     1
 76
     1
176
     1
 77
     6
176
     1
 78
     2
176
     1
 67
     7
176
     1
 79
     5
176
     1
170
     0
176
     1
171
     0
176
     1
290
     0
176
     1
 93
        1
176
     1
 44
0.0
176
     1
173
     0
176
     1
  0
VISUALSTYLE
  5
2B
102
{ACAD_REACTORS
330
2A
102
}
330
2A
100
AcDbVisualStyle
  2
Flat
 70
     0
177
     2
291
     1
 71
     2
176
     1
 72
     1
176
     1
 73
     1
176
     1
 90
        2
176
     1
 40
-0.6
176
     1
 41
30.0
176
     1
 62
     5
 63
     7
421
 16777215
176
     1
 74
     0
176
     1
 91
        4
176
     1
 64
     7
176
     1
 65
   257
176
     1
 75
     1
176
     1
175
     1
176
     1
 42
1.0
176
     1
 92
        8
176
     1
 66
     7
176
     1
 43
1.0
176
     1
 76
     1
176
     1
 77
     6
176
     1
 78
     2
176
     1
 67
     7
176
     1
 79
     5
176
     1
170
     0
176
     1
171
     0
176
     1
290
     0
176
     1
 93
       13
176
     1
 44
0.0
176
     1
173
     0
176
     1
  0
VISUALSTYLE
  5
2C
102
{ACAD_REACTORS
330
2A
102
}
330
2A
100
AcDbVisualStyle
  2
FlatWithEdges
 70
     1
177
     2
291
     1
 71
     2
176
     1
 72
     1
176
     1
 73
     1
176
     1
 90
        2
176
     1
 40
-0.6
176
     1
 41
30.0
176
     1
 62
     5
 63
     7
421
 16777215
176
     1
 74
     1
176
     1
 91
        4
176
     1
 64
     7
176
     1
 65
   257
176
     1
 75
     1
176
     1
175
     1
176
     1
 42
1.0
176
     1
 92
        0
176
     1
 66
   257
176
     1
 43
1.0
176
     1
 76
     1
176
     1
 77
     6
176
     1
 78
     2
176
     1
 67
     7
176
     1
 79
     5
176
     1
170
     0
176
     1
171
     0
176
     1
290
     0
176
     1
 93
       13
176
     1
 44
0.0
176
     1
173
     0
176
     1
  0
VISUALSTYLE
  5
2D
102
{ACAD_REACTORS
330
2A
102
}
330
2A
100
AcDbVisualStyle
  2
Gouraud
 70
     2
177
     2
291
     1
 71
     2
176
     1
 72
     2
176
     1
 73
     1
176
     1
 90
        2
176
     1
 40
-0.6
176
     1
 41
30.0
176
     1
 62
     5
 63
     7
421
 16777215
176
     1
 74
     0
176
     1
 91
        4
176
     1
 64
     7
176
     1
 65
   257
176
     1
 75
     1
176
     1
175
     1
176
     1
 42
1.0
176
     1
 92
        0
176
     1
 66
     7
176
     1
 43
1.0
176
     1
 76
     1
176
     1
 77
     6
176
     1
 78
     2
176
     1
 67
     7
176
     1
 79
     5
176
     1
170
     0
176
     1
171
     0
176
     1
290
     0
176
     1
 93
       13
176
     1
 44
0.0
176
     1
173
     0
176
     1
  0
VISUALSTYLE
  5
2E
102
{ACAD_REACTORS
330
2A
102
}
330
2A
100
AcDbVisualStyle
  2
GouraudWithEdges
 70
     3
177
     2
291
     1
 71
     2
176
     1
 72
     2
176
     1
 73
     1
176
     1
 90
        2
176
     1
 40
-0.6
176
     1
 41
30.0
176
     1
 62
     5
 63
     7
421
 16777215
176
     1
 74
     1
176
     1
 91
        4
176
     1
 64
     7
176
     1
 65
   257
176
     1
 75
     1
176
     1
175
     1
176
     1
 42
1.0
176
     1
 92
        0
176
     1
 66
   257
176
     1
 43
1.0
176
     1
 76
     1
176
     1
 77
     6
176
     1
 78
     2
176
     1
 67
     7
176
     1
 79
     5
176
     1
170
     0
176
     1
171
     0
176
     1
290
     0
176
     1
 93
       13
176
     1
 44
0.0
176
     1
173
     0
176
     1
  0
VISUALSTYLE
  5
38
102
{ACAD_REACTORS
330
2A
102
}
330
2A
100
AcDbVisualStyle
  2
Linepattern
 70
    14
177
     2
291
     1
 71
     2
176
     1
 72
     2
176
     1
 73
     0
176
     1
 90
        0
176
     1
 40
-0.6
176
     1
 41
-30.0
176
     1
 62
     5
 63
     7
421
 16777215
176
     1
 74
     1
176
     1
 91
        4
176
     1
 64
     7
176
     1
 65
   257
176
     1
 75
     7
176
     1
175
     7
176
     1
 42
1.0
176
     1
 92
        8
176
     1
 66
     7
176
     1
 43
1.0
176
     1
 76
     1
176
     1
 77
     6
176
     1
 78
     2
176
     1
 67
     7
176
     1
 79
     5
176
     1
170
     0
176
     1
171
     0
176
     1
290
     0
176
     1
 93
        1
176
     1
 44
0.0
176
     1
173
     0
176
     1
  0
VISUALSTYLE
  5
33
102
{ACAD_REACTORS
330
2A
102
}
330
2A
100
AcDbVisualStyle
  2
Realistic
 70
     8
177
     2
291
     0
 71
     2
176
     1
 72
     2
176
     1
 73
     0
176
     1
 90
        0
176
     1
 40
-0.6
176
     1
 41
-30.0
176
     1
 62
     5
 63
     7
421
 16777215
176
     1
 74
     1
176
     1
 91
        0
176
     1
 64
     7
176
     1
 65
   257
176
     1
 75
     1
176
     1
175
     1
176
     1
 42
1.0
176
     1
 92
        8
176
     1
 66
     8
424
  7895160
176
     1
 43
1.0
176
     1
 76
     1
176
     1
 77
     6
176
     1
 78
     2
176
     1
 67
     7
176
     1
 79
     5
176
     1
170
     0
176
     1
171
     0
176
     1
290
     0
176
     1
 93
       13
176
     1
 44
0.0
176
     1
173
     0
176
     1
  0
VISUALSTYLE
  5
37
102
{ACAD_REACTORS
330
2A
102
}
330
2A
100
AcDbVisualStyle
  2
Thicken
 70
    13
177
     2
291
     1
 71
     2
176
     1
 72
     2
176
     1
 73
     0
176
     1
 90
        0
176
     1
 40
-0.6
176
     1
 41
-30.0
176
     1
 62
     5
 63
     7
421
 16777215
176
     1
 74
     1
176
     1
 91
        4
176
     1
 64
     7
176
     1
 65
   257
176
     1
 75
     1
176
     1
175
     1
176
     1
 42
1.0
176
     1
 92
       12
176
     1
 66
     7
176
     1
 43
1.0
176
     1
 76
     1
176
     1
 77
     6
176
     1
 78
     2
176
     1
 67
     7
176
     1
 79
     5
176
     1
170
     0
176
     1
171
     0
176
     1
290
     0
176
     1
 93
        1
176
     1
 44
0.0
176
     1
173
     0
176
     1
  0
ENDSEC
  0
EOF
