  0
SECTION
  2
HEADER
  9
$ACADVER
  1
AC1024
  9
$ACADMAINTVER
 70
     6
  9
$DWGCODEPAGE
  3
UNDEFINED
  9
$INSBASE
 10
0.0
 20
0.0
 30
0.0
  9
$EXTMIN
 10
1.000000000000000E+20
 20
1.000000000000000E+20
 30
1.000000000000000E+20
  9
$EXTMAX
 10
-1.000000000000000E+20
 20
-1.000000000000000E+20
 30
-1.000000000000000E+20
  9
$LIMMIN
 10
0.0
 20
0.0
  9
$LIMMAX
 10
12.0
 20
9.0
  9
$ORTHOMODE
 70
     0
  9
$REGENMODE
 70
     1
  9
$FILLMODE
 70
     1
  9
$QTEXTMODE
 70
     0
  9
$MIRRTEXT
 70
     1
  9
$LTSCALE
 40
1.0
  9
$ATTMODE
 70
     1
  9
$TEXTSIZE
 40
0.2
  9
$TRACEWID
 40
0.05
  9
$TEXTSTYLE
  7
Standard
  9
$CLAYER
  8
0
  9
$CELTYPE
  6
ByLayer
  9
$CECOLOR
 62
   256
  9
$CELTSCALE
 40
1.0
  9
$DISPSILH
 70
     0
  9
$DIMSCALE
 40
1.0
  9
$DIMASZ
 40
0.18
  9
$DIMEXO
 40
0.0625
  9
$DIMDLI
 40
0.38
  9
$DIMRND
 40
0.0
  9
$DIMDLE
 40
0.0
  9
$DIMEXE
 40
0.18
  9
$DIMTP
 40
0.0
  9
$DIMTM
 40
0.0
  9
$DIMTXT
 40
0.18
  9
$DIMCEN
 40
0.09
  9
$DIMTSZ
 40
0.0
  9
$DIMTOL
 70
     0
  9
$DIMLIM
 70
     0
  9
$DIMTIH
 70
     1
  9
$DIMTOH
 70
     1
  9
$DIMSE1
 70
     0
  9
$DIMSE2
 70
     0
  9
$DIMTAD
 70
     0
  9
$DIMZIN
 70
     0
  9
$DIMBLK
  1

  9
$DIMASO
 70
     1
  9
$DIMSHO
 70
     1
  9
$DIMPOST
  1

  9
$DIMAPOST
  1

  9
$DIMALT
 70
     0
  9
$DIMALTD
 70
     2
  9
$DIMALTF
 40
25.4
  9
$DIMLFAC
 40
1.0
  9
$DIMTOFL
 70
     0
  9
$DIMTVP
 40
0.0
  9
$DIMTIX
 70
     0
  9
$DIMSOXD
 70
     0
  9
$DIMSAH
 70
     0
  9
$DIMBLK1
  1

  9
$DIMBLK2
  1

  9
$DIMSTYLE
  2
Standard
  9
$DIMCLRD
 70
     0
  9
$DIMCLRE
 70
     0
  9
$DIMCLRT
 70
     0
  9
$DIMTFAC
 40
1.0
  9
$DIMGAP
 40
0.09
  9
$DIMJUST
 70
     0
  9
$DIMSD1
 70
     0
  9
$DIMSD2
 70
     0
  9
$DIMTOLJ
 70
     1
  9
$DIMTZIN
 70
     0
  9
$DIMALTZ
 70
     0
  9
$DIMALTTZ
 70
     0
  9
$DIMUPT
 70
     0
  9
$DIMDEC
 70
     4
  9
$DIMTDEC
 70
     4
  9
$DIMALTU
 70
     2
  9
$DIMALTTD
 70
     2
  9
$DIMTXSTY
  7
Standard
  9
$DIMAUNIT
 70
     0
  9
$DIMADEC
 70
     0
  9
$DIMALTRND
 40
0.0
  9
$DIMAZIN
 70
     0
  9
$DIMDSEP
 70
    46
  9
$DIMATFIT
 70
     3
  9
$DIMFRAC
 70
     0
  9
$DIMLDRBLK
  1

  9
$DIMLUNIT
 70
     2
  9
$DIMLWD
 70
    -2
  9
$DIMLWE
 70
    -2
  9
$DIMTMOVE
 70
     0
  9
$DIMFXL
 40
1.0
  9
$DIMFXLON
 70
     0
  9
$DIMJOGANG
 40
0.7853981633974483
  9
$DIMTFILL
 70
     0
  9
$DIMTFILLCLR
 70
     0
  9
$DIMARCSYM
 70
     0
  9
$DIMLTYPE
  6

  9
$DIMLTEX1
  6

  9
$DIMLTEX2
  6

  9
$DIMTXTDIRECTION
 70
     0
  9
$LUNITS
 70
     2
  9
$LUPREC
 70
     4
  9
$SKETCHINC
 40
0.1
  9
$FILLETRAD
 40
0.5
  9
$AUNITS
 70
     0
  9
$AUPREC
 70
     0
  9
$MENU
  1
.
  9
$ELEVATION
 40
0.0
  9
$PELEVATION
 40
0.0
  9
$THICKNESS
 40
0.0
  9
$LIMCHECK
 70
     0
  9
$CHAMFERA
 40
0.5
  9
$CHAMFERB
 40
0.5
  9
$CHAMFERC
 40
1.0
  9
$CHAMFERD
 40
0.0
  9
$SKPOLY
 70
     0
  9
$TDCREATE
 40
2457917.618784722
  9
$TDUCREATE
 40
2457917.243784722
  9
$TDUPDATE
 40
2457917.618784722
  9
$TDUUPDATE
 40
2457917.243784722
  9
$TDINDWG
 40
0.0000000116
  9
$TDUSRTIMER
 40
0.0000000116
  9
$USRTIMER
 70
     1
  9
$ANGBASE
 50
0.0
  9
$ANGDIR
 70
     0
  9
$PDMODE
 70
     0
  9
$PDSIZE
 40
0.0
  9
$PLINEWID
 40
0.0
  9
$SPLFRAME
 70
     0
  9
$SPLINETYPE
 70
     6
  9
$SPLINESEGS
 70
     8
  9
$HANDSEED
  5
F8
  9
$SURFTAB1
 70
     6
  9
$SURFTAB2
 70
     6
  9
$SURFTYPE
 70
     6
  9
$SURFU
 70
     6
  9
$SURFV
 70
     6
  9
$UCSBASE
  2

  9
$UCSNAME
  2

  9
$UCSORG
 10
0.0
 20
0.0
 30
0.0
  9
$UCSXDIR
 10
1.0
 20
0.0
 30
0.0
  9
$UCSYDIR
 10
0.0
 20
1.0
 30
0.0
  9
$UCSORTHOREF
  2

  9
$UCSORTHOVIEW
 70
     0
  9
$UCSORGTOP
 10
0.0
 20
0.0
 30
0.0
  9
$UCSORGBOTTOM
 10
0.0
 20
0.0
 30
0.0
  9
$UCSORGLEFT
 10
0.0
 20
0.0
 30
0.0
  9
$UCSORGRIGHT
 10
0.0
 20
0.0
 30
0.0
  9
$UCSORGFRONT
 10
0.0
 20
0.0
 30
0.0
  9
$UCSORGBACK
 10
0.0
 20
0.0
 30
0.0
  9
$PUCSBASE
  2

  9
$PUCSNAME
  2

  9
$PUCSORG
 10
0.0
 20
0.0
 30
0.0
  9
$PUCSXDIR
 10
1.0
 20
0.0
 30
0.0
  9
$PUCSYDIR
 10
0.0
 20
1.0
 30
0.0
  9
$PUCSORTHOREF
  2

  9
$PUCSORTHOVIEW
 70
     0
  9
$PUCSORGTOP
 10
0.0
 20
0.0
 30
0.0
  9
$PUCSORGBOTTOM
 10
0.0
 20
0.0
 30
0.0
  9
$PUCSORGLEFT
 10
0.0
 20
0.0
 30
0.0
  9
$PUCSORGRIGHT
 10
0.0
 20
0.0
 30
0.0
  9
$PUCSORGFRONT
 10
0.0
 20
0.0
 30
0.0
  9
$PUCSORGBACK
 10
0.0
 20
0.0
 30
0.0
  9
$USERI1
 70
     0
  9
$USERI2
 70
     0
  9
$USERI3
 70
     0
  9
$USERI4
 70
     0
  9
$USERI5
 70
     0
  9
$USERR1
 40
0.0
  9
$USERR2
 40
0.0
  9
$USERR3
 40
0.0
  9
$USERR4
 40
0.0
  9
$USERR5
 40
0.0
  9
$WORLDVIEW
 70
     1
  9
$SHADEDGE
 70
     3
  9
$SHADEDIF
 70
    70
  9
$TILEMODE
 70
     1
  9
$MAXACTVP
 70
    64
  9
$PINSBASE
 10
0.0
 20
0.0
 30
0.0
  9
$PLIMCHECK
 70
     0
  9
$PEXTMIN
 10
1.000000000000000E+20
 20
1.000000000000000E+20
 30
1.000000000000000E+20
  9
$PEXTMAX
 10
-1.000000000000000E+20
 20
-1.000000000000000E+20
 30
-1.000000000000000E+20
  9
$PLIMMIN
 10
0.0
 20
0.0
  9
$PLIMMAX
 10
12.0
 20
9.0
  9
$UNITMODE
 70
     0
  9
$VISRETAIN
 70
     1
  9
$PLINEGEN
 70
     0
  9
$PSLTSCALE
 70
     1
  9
$TREEDEPTH
 70
  3020
  9
$CMLSTYLE
  2
Standard
  9
$CMLJUST
 70
     0
  9
$CMLSCALE
 40
1.0
  9
$PROXYGRAPHICS
 70
     1
  9
$MEASUREMENT
 70
     0
  9
$CELWEIGHT
370
    -1
  9
$ENDCAPS
280
     0
  9
$JOINSTYLE
280
     0
  9
$LWDISPLAY
290
     1
  9
$INSUNITS
 70
     1
  9
$HYPERLINKBASE
  1

  9
$STYLESHEET
  1

  9
$XEDIT
290
     1
  9
$CEPSNTYPE
380
     0
  9
$PSTYLEMODE
290
     1
  9
$FINGERPRINTGUID
  2
{39F134B0-F26D-9903-9606-A3E623353EBD}
  9
$VERSIONGUID
  2
{FAEB1C32-E019-11D5-929B-00C0DF256EC4}
  9
$EXTNAMES
290
     1
  9
$PSVPSCALE
 40
0.0
  9
$OLESTARTUP
290
     0
  9
$SORTENTS
280
   127
  9
$INDEXCTL
280
     0
  9
$HIDETEXT
280
     1
  9
$XCLIPFRAME
280
     2
  9
$HALOGAP
280
     0
  9
$OBSCOLOR
 70
   257
  9
$OBSLTYPE
280
     0
  9
$INTERSECTIONDISPLAY
280
     0
  9
$INTERSECTIONCOLOR
 70
   257
  9
$DIMASSOC
280
     2
  9
$PROJECTNAME
  1

  9
$CAMERADISPLAY
290
     0
  9
$LENSLENGTH
 40
50.0
  9
$CAMERAHEIGHT
 40
0.0
  9
$STEPSPERSEC
 40
2.0
  9
$STEPSIZE
 40
6.0
  9
$3DDWFPREC
 40
2.0
  9
$PSOLWIDTH
 40
0.25
  9
$PSOLHEIGHT
 40
4.0
  9
$LOFTANG1
 40
1.570796326794897
  9
$LOFTANG2
 40
1.570796326794897
  9
$LOFTMAG1
 40
0.0
  9
$LOFTMAG2
 40
0.0
  9
$LOFTPARAM
 70
     7
  9
$LOFTNORMALS
280
     1
  9
$LATITUDE
 40
37.795
  9
$LONGITUDE
 40
-122.394
  9
$NORTHDIRECTION
 40
0.0
  9
$TIMEZONE
 70
 -8000
  9
$LIGHTGLYPHDISPLAY
280
     1
  9
$TILEMODELIGHTSYNCH
280
     1
  9
$CMATERIAL
347
3C
  9
$SOLIDHIST
280
     1
  9
$SHOWHIST
280
     1
  9
$DWFFRAME
280
     2
  9
$DGNFRAME
280
     2
  9
$REALWORLDSCALE
290
     1
  9
$INTERFERECOLOR
 62
   256
  9
$CSHADOW
280
     0
  9
$SHADOWPLANELOCATION
 40
0.0
  0
ENDSEC
  0
SECTION
  2
CLASSES
  0
CLASS
  1
ACDBDICTIONARYWDFLT
  2
AcDbDictionaryWithDefault
  3
ObjectDBX Classes
 90
        0
 91
        4
280
     0
281
     0
  0
CLASS
  1
VISUALSTYLE
  2
AcDbVisualStyle
  3
ObjectDBX Classes
 90
     4095
 91
        4
280
     0
281
     0
  0
CLASS
  1
MATERIAL
  2
AcDbMaterial
  3
ObjectDBX Classes
 90
     1153
 91
        4
280
     0
281
     0
  0
CLASS
  1
SUN
  2
AcDbSun
  3
SCENEOE
 90
     1024
 91
        4
280
     0
281
     0
  0
ENDSEC
  0
SECTION
  2
TABLES
  0
TABLE
  2
VPORT
  5
8
330
0
100
AcDbSymbolTable
 70
     1
  0
VPORT
  5
29
330
8
100
AcDbSymbolTableRecord
100
AcDbViewportTableRecord
  2
*Active
 70
     0
 10
0.0
 20
0.0
 11
1.0
 21
1.0
 12
0.0
 22
0.0
 13
0.0
 23
0.0
 14
0.5
 24
0.5
 15
0.5
 25
0.5
 16
0.0
 26
0.0
 36
1.0
 17
91.00082462281999
 27
-128.4993055234307
 37
0.0
 40
256.9986110468615
 41
0.7081814508812795
 42
50.0
 43
0.0
 44
0.0
 50
0.0
 51
0.0
 71
     0
 72
   100
 73
     1
 74
     3
 75
     0
 76
     0
 77
     0
 78
     0
281
     0
 65
     1
110
0.0
120
0.0
130
0.0
111
1.0
121
0.0
131
0.0
112
0.0
122
1.0
132
0.0
 79
     0
146
0.0
 60
     3
 61
     5
292
     1
282
     1
141
0.0
142
0.0
 63
   250
361
3F
  0
ENDTAB
  0
TABLE
  2
LTYPE
  5
5
330
0
100
AcDbSymbolTable
 70
     1
  0
LTYPE
  5
14
330
5
100
AcDbSymbolTableRecord
100
AcDbLinetypeTableRecord
  2
ByBlock
 70
     0
  3

 72
    65
 73
     0
 40
0.0
  0
LTYPE
  5
15
330
5
100
AcDbSymbolTableRecord
100
AcDbLinetypeTableRecord
  2
ByLayer
 70
     0
  3

 72
    65
 73
     0
 40
0.0
  0
LTYPE
  5
16
330
5
100
AcDbSymbolTableRecord
100
AcDbLinetypeTableRecord
  2
Continuous
 70
     0
  3
Solid line
 72
    65
 73
     0
 40
0.0
  0
ENDTAB
  0
TABLE
  2
LAYER
  5
2
330
0
100
AcDbSymbolTable
 70
     2
  0
LAYER
  5
10
330
2
100
AcDbSymbolTableRecord
100
AcDbLayerTableRecord
  2
0
 70
     0
 62
     7
  6
Continuous
370
    -3
390
F
347
3E
  0
LAYER
  5
40
330
2
100
AcDbSymbolTableRecord
100
AcDbLayerTableRecord
  2
_U+30EC_U+30A4_U+30E4_U+30FC 1
 70
     0
 62
     7
  6
Continuous
370
    -3
390
F
347
3E
  0
ENDTAB
  0
TABLE
  2
STYLE
  5
3
330
0
100
AcDbSymbolTable
 70
     1
  0
STYLE
  5
11
330
3
100
AcDbSymbolTableRecord
100
AcDbTextStyleTableRecord
  2
Standard
 70
     0
 40
0.0
 41
1.0
 50
0.0
 71
     0
 42
0.2
  3
txt
  4

  0
ENDTAB
  0
TABLE
  2
VIEW
  5
6
330
0
100
AcDbSymbolTable
 70
     0
  0
ENDTAB
  0
TABLE
  2
UCS
  5
7
330
0
100
AcDbSymbolTable
 70
     0
  0
ENDTAB
  0
TABLE
  2
APPID
  5
9
330
0
100
AcDbSymbolTable
 70
     1
  0
APPID
  5
12
330
9
100
AcDbSymbolTableRecord
100
AcDbRegAppTableRecord
  2
ACAD
 70
     0
  0
ENDTAB
  0
TABLE
  2
DIMSTYLE
  5
A
330
0
100
AcDbSymbolTable
 70
     1
100
AcDbDimStyleTable
  0
DIMSTYLE
105
27
330
A
100
AcDbSymbolTableRecord
100
AcDbDimStyleTableRecord
  2
Standard
 70
     0
178
     0
340
11
  0
ENDTAB
  0
TABLE
  2
BLOCK_RECORD
  5
1
330
0
100
AcDbSymbolTable
 70
     7
  0
BLOCK_RECORD
  5
1F
330
1
100
AcDbSymbolTableRecord
100
AcDbBlockTableRecord
  2
*Model_Space
340
22
 70
     0
280
     1
281
     0
  0
BLOCK_RECORD
  5
1B
330
1
100
AcDbSymbolTableRecord
100
AcDbBlockTableRecord
  2
*Paper_Space
340
1E
 70
     0
280
     1
281
     0
  0
BLOCK_RECORD
  5
23
330
1
100
AcDbSymbolTableRecord
100
AcDbBlockTableRecord
  2
*Paper_Space0
340
26
 70
     0
280
     1
281
     0
  0
BLOCK_RECORD
  5
85
330
1
100
AcDbSymbolTableRecord
100
AcDbBlockTableRecord
  2
block 2
340
0
102
{BLKREFS
331
86
102
}
 70
     0
280
     1
281
     0
  0
BLOCK_RECORD
  5
9A
330
1
100
AcDbSymbolTableRecord
100
AcDbBlockTableRecord
  2
block 3
340
0
102
{BLKREFS
331
9B
102
}
 70
     0
280
     1
281
     0
  0
BLOCK_RECORD
  5
AC
330
1
100
AcDbSymbolTableRecord
100
AcDbBlockTableRecord
  2
block 4
340
0
102
{BLKREFS
331
AD
102
}
 70
     0
280
     1
281
     0
  0
BLOCK_RECORD
  5
BE
330
1
100
AcDbSymbolTableRecord
100
AcDbBlockTableRecord
  2
block 5
340
0
102
{BLKREFS
331
BF
102
}
 70
     0
280
     1
281
     0
  0
BLOCK_RECORD
  5
D2
330
1
100
AcDbSymbolTableRecord
100
AcDbBlockTableRecord
  2
block 6
340
0
102
{BLKREFS
331
D3
102
}
 70
     0
280
     1
281
     0
  0
BLOCK_RECORD
  5
EE
330
1
100
AcDbSymbolTableRecord
100
AcDbBlockTableRecord
  2
block 7
340
0
102
{BLKREFS
331
EF
102
}
 70
     0
280
     1
281
     0
  0
ENDTAB
  0
ENDSEC
  0
SECTION
  2
BLOCKS
  0
BLOCK
  5
20
330
1F
100
AcDbEntity
  8
0
100
AcDbBlockBegin
  2
*Model_Space
 70
     0
 10
0.0
 20
0.0
 30
0.0
  3
*Model_Space
  1

  0
ENDBLK
  5
21
330
1F
100
AcDbEntity
  8
0
100
AcDbBlockEnd
  0
BLOCK
  5
1C
330
1B
100
AcDbEntity
 67
     1
  8
0
100
AcDbBlockBegin
  2
*Paper_Space
 70
     0
 10
0.0
 20
0.0
 30
0.0
  3
*Paper_Space
  1

  0
ENDBLK
  5
1D
330
1B
100
AcDbEntity
 67
     1
  8
0
100
AcDbBlockEnd
  0
BLOCK
  5
24
330
23
100
AcDbEntity
  8
0
100
AcDbBlockBegin
  2
*Paper_Space0
 70
     0
 10
0.0
 20
0.0
 30
0.0
  3
*Paper_Space0
  1

  0
ENDBLK
  5
25
330
23
100
AcDbEntity
  8
0
100
AcDbBlockEnd
  0
BLOCK
  5
87
330
85
100
AcDbEntity
  8
0
100
AcDbBlockBegin
  2
block 2
 70
     0
 10
0.0
 20
0.0
 30
0.0
  3
block 2
  1

  0
SPLINE
  5
89
330
85
100
AcDbEntity
  8
_U+30EC_U+30A4_U+30E4_U+30FC 1
370
     0
100
AcDbSpline
210
0.0
220
0.0
230
1.0
 70
    11
 71
     3
 72
    26
 73
    22
 74
     0
 42
0.0000000001
 43
0.0000000001
 12
1.0
 22
0.0
 32
0.0
 13
1.0
 23
0.0
 33
0.0
 40
0.0
 40
0.0
 40
0.0
 40
0.0
 40
1.0
 40
1.0
 40
1.0
 40
2.0
 40
2.0
 40
2.0
 40
3.0
 40
3.0
 40
3.0
 40
4.0
 40
4.0
 40
4.0
 40
5.0
 40
5.0
 40
5.0
 40
6.0
 40
6.0
 40
6.0
 40
7.0
 40
7.0
 40
7.0
 40
7.0
 10
77.97646346791909
 20
-138.7973849479395
 30
0.0
 10
77.97646346791909
 20
-138.7973849479395
 30
0.0
 10
77.97646346791909
 20
-137.693231844917
 30
0.0
 10
77.97646346791909
 20
-137.693231844917
 30
0.0
 10
77.97646346791909
 20
-137.693231844917
 30
0.0
 10
77.6236856902295
 20
-137.693231844917
 30
0.0
 10
77.6236856902295
 20
-137.693231844917
 30
0.0
 10
77.6236856902295
 20
-137.693231844917
 30
0.0
 10
77.6236856902295
 20
-137.5450927390512
 30
0.0
 10
77.6236856902295
 20
-137.5450927390512
 30
0.0
 10
77.97870277998449
 20
-137.5302788284646
 30
0.0
 10
78.02848440974635
 20
-137.3673258120124
 30
0.0
 10
78.06000703343639
 20
-137.252948641902
 30
0.0
 10
78.06000703343639
 20
-137.252948641902
 30
0.0
 10
78.2160698589182
 20
-137.252948641902
 30
0.0
 10
78.2160698589182
 20
-137.252948641902
 30
0.0
 10
78.2160698589182
 20
-137.252948641902
 30
0.0
 10
78.2160698589182
 20
-138.7973849479395
 30
0.0
 10
78.2160698589182
 20
-138.7973849479395
 30
0.0
 10
78.2160698589182
 20
-138.7973849479395
 30
0.0
 10
77.97646346791909
 20
-138.7973849479395
 30
0.0
 10
77.97646346791909
 20
-138.7973849479395
 30
0.0
  0
HATCH
  5
8A
330
85
100
AcDbEntity
  8
_U+30EC_U+30A4_U+30E4_U+30FC 1
 62
   179
420
  2234388
100
AcDbHatch
 10
0.0
 20
0.0
 30
0.0
210
0.0
220
0.0
230
1.0
  2
SOLID
 70
     1
 71
     0
 91
        1
 92
        1
 93
        1
 72
     4
 94
        3
 73
     0
 74
     1
 95
       26
 96
       22
 40
0.0
 40
0.0
 40
0.0
 40
0.0
 40
1.0
 40
1.0
 40
1.0
 40
2.0
 40
2.0
 40
2.0
 40
3.0
 40
3.0
 40
3.0
 40
4.0
 40
4.0
 40
4.0
 40
5.0
 40
5.0
 40
5.0
 40
6.0
 40
6.0
 40
6.0
 40
7.0
 40
7.0
 40
7.0
 40
7.0
 10
77.97646346791909
 20
-138.7973849479395
 10
77.97646346791909
 20
-138.7973849479395
 10
77.97646346791909
 20
-137.693231844917
 10
77.97646346791909
 20
-137.693231844917
 10
77.97646346791909
 20
-137.693231844917
 10
77.6236856902295
 20
-137.693231844917
 10
77.6236856902295
 20
-137.693231844917
 10
77.6236856902295
 20
-137.693231844917
 10
77.6236856902295
 20
-137.5450927390512
 10
77.6236856902295
 20
-137.5450927390512
 10
77.97870277998449
 20
-137.5302788284646
 10
78.02848440974635
 20
-137.3673258120124
 10
78.06000703343639
 20
-137.252948641902
 10
78.06000703343639
 20
-137.252948641902
 10
78.2160698589182
 20
-137.252948641902
 10
78.2160698589182
 20
-137.252948641902
 10
78.2160698589182
 20
-137.252948641902
 10
78.2160698589182
 20
-138.7973849479395
 10
78.2160698589182
 20
-138.7973849479395
 10
78.2160698589182
 20
-138.7973849479395
 10
77.97646346791909
 20
-138.7973849479395
 10
77.97646346791909
 20
-138.7973849479395
 97
        0
 97
        0
 75
     2
 76
     1
 98
        0
  0
SPLINE
  5
8B
330
85
100
AcDbEntity
  8
_U+30EC_U+30A4_U+30E4_U+30FC 1
370
     0
100
AcDbSpline
210
0.0
220
0.0
230
1.0
 70
    11
 71
     3
 72
    44
 73
    40
 74
     0
 42
0.0000000001
 43
0.0000000001
 12
1.0
 22
0.0
 32
0.0
 13
1.0
 23
0.0
 33
0.0
 40
0.0
 40
0.0
 40
0.0
 40
0.0
 40
1.0
 40
1.0
 40
1.0
 40
2.0
 40
2.0
 40
2.0
 40
3.0
 40
3.0
 40
3.0
 40
4.0
 40
4.0
 40
4.0
 40
5.0
 40
5.0
 40
5.0
 40
6.0
 40
6.0
 40
6.0
 40
7.0
 40
7.0
 40
7.0
 40
8.0
 40
8.0
 40
8.0
 40
9.0
 40
9.0
 40
9.0
 40
10.0
 40
10.0
 40
10.0
 40
11.0
 40
11.0
 40
11.0
 40
12.0
 40
12.0
 40
12.0
 40
13.0
 40
13.0
 40
13.0
 40
13.0
 10
79.83560924653416
 20
-138.7973849479395
 30
0.0
 10
79.81080455904036
 20
-138.7529432161798
 30
0.0
 10
79.78806692883771
 20
-138.7002332552555
 30
0.0
 10
79.7858276167723
 20
-138.4694118577438
 30
0.0
 10
79.78134899264147
 20
-138.2261881164851
 30
0.0
 10
79.71813149048714
 20
-138.1562526781346
 30
0.0
 10
79.5281344744756
 20
-138.1562526781346
 30
0.0
 10
79.5281344744756
 20
-138.1562526781346
 30
0.0
 10
79.09181313126872
 20
-138.1562526781346
 30
0.0
 10
79.09181313126872
 20
-138.1562526781346
 30
0.0
 10
79.09181313126872
 20
-138.1562526781346
 30
0.0
 10
79.09181313126872
 20
-138.7973849479395
 30
0.0
 10
79.09181313126872
 20
-138.7973849479395
 30
0.0
 10
79.09181313126872
 20
-138.7973849479395
 30
0.0
 10
78.84083792516827
 20
-138.7973849479395
 30
0.0
 10
78.84083792516827
 20
-138.7973849479395
 30
0.0
 10
78.84083792516827
 20
-138.7973849479395
 30
0.0
 10
78.84083792516827
 20
-137.252948641902
 30
0.0
 10
78.84083792516827
 20
-137.252948641902
 30
0.0
 10
78.84083792516827
 20
-137.252948641902
 30
0.0
 10
79.56206866500531
 20
-137.252948641902
 30
0.0
 10
79.56206866500531
 20
-137.252948641902
 30
0.0
 10
79.88986950042684
 20
-137.252948641902
 30
0.0
 10
80.06849770133705
 20
-137.4245143970675
 30
0.0
 10
80.06849770133705
 20
-137.6804849916215
 30
0.0
 10
80.06849770133705
 20
-137.7311278952547
 30
0.0
 10
80.0595404530754
 20
-137.8138101869007
 30
0.0
 10
80.01199813537895
 20
-137.8940809117071
 30
0.0
 10
79.94860837845034
 20
-137.9977782858131
 30
0.0
 10
79.87867294009978
 20
-138.0167263109819
 30
0.0
 10
79.81304387110578
 20
-138.0336072788596
 30
0.0
 10
79.95997719355168
 20
-138.0759819533282
 30
0.0
 10
80.03232419874192
 20
-138.1245577996702
 30
0.0
 10
80.03680282287274
 20
-138.4397840365706
 30
0.0
 10
80.04128144700357
 20
-138.7105685417112
 30
0.0
 10
80.07986651643837
 20
-138.7422634201756
 30
0.0
 10
80.15221352162861
 20
-138.7973849479395
 30
0.0
 10
80.15221352162861
 20
-138.7973849479395
 30
0.0
 10
79.83560924653416
 20
-138.7973849479395
 30
0.0
 10
79.83560924653416
 20
-138.7973849479395
 30
0.0
  0
SPLINE
  5
8C
330
85
100
AcDbEntity
  8
_U+30EC_U+30A4_U+30E4_U+30FC 1
370
     0
100
AcDbSpline
210
0.0
220
0.0
230
1.0
 70
    11
 71
     3
 72
    20
 73
    16
 74
     0
 42
0.0000000001
 43
0.0000000001
 12
1.0
 22
0.0
 32
0.0
 13
1.0
 23
0.0
 33
0.0
 40
0.0
 40
0.0
 40
0.0
 40
0.0
 40
1.0
 40
1.0
 40
1.0
 40
2.0
 40
2.0
 40
2.0
 40
3.0
 40
3.0
 40
3.0
 40
4.0
 40
4.0
 40
4.0
 40
5.0
 40
5.0
 40
5.0
 40
5.0
 10
79.56654728913614
 20
-137.4644775046964
 30
0.0
 10
79.56654728913614
 20
-137.4644775046964
 30
0.0
 10
79.09181313126872
 20
-137.4644775046964
 30
0.0
 10
79.09181313126872
 20
-137.4644775046964
 30
0.0
 10
79.09181313126872
 20
-137.4644775046964
 30
0.0
 10
79.09181313126872
 20
-137.9447238153402
 30
0.0
 10
79.09181313126872
 20
-137.9447238153402
 30
0.0
 10
79.09181313126872
 20
-137.9447238153402
 30
0.0
 10
79.56430797707073
 20
-137.9447238153402
 30
0.0
 10
79.56430797707073
 20
-137.9447238153402
 30
0.0
 10
79.67058917279068
 20
-137.9447238153402
 30
0.0
 10
79.81528318317119
 20
-137.8685872051162
 30
0.0
 10
79.81528318317119
 20
-137.6973659594993
 30
0.0
 10
79.81528318317119
 20
-137.6191622919841
 30
0.0
 10
79.77910968057606
 20
-137.4644775046964
 30
0.0
 10
79.56654728913614
 20
-137.4644775046964
 30
0.0
  0
HATCH
  5
8D
330
85
100
AcDbEntity
  8
_U+30EC_U+30A4_U+30E4_U+30FC 1
 62
   179
420
  2234388
100
AcDbHatch
 10
0.0
 20
0.0
 30
0.0
210
0.0
220
0.0
230
1.0
  2
SOLID
 70
     1
 71
     0
 91
        2
 92
        1
 93
        1
 72
     4
 94
        3
 73
     0
 74
     1
 95
       44
 96
       40
 40
0.0
 40
0.0
 40
0.0
 40
0.0
 40
1.0
 40
1.0
 40
1.0
 40
2.0
 40
2.0
 40
2.0
 40
3.0
 40
3.0
 40
3.0
 40
4.0
 40
4.0
 40
4.0
 40
5.0
 40
5.0
 40
5.0
 40
6.0
 40
6.0
 40
6.0
 40
7.0
 40
7.0
 40
7.0
 40
8.0
 40
8.0
 40
8.0
 40
9.0
 40
9.0
 40
9.0
 40
10.0
 40
10.0
 40
10.0
 40
11.0
 40
11.0
 40
11.0
 40
12.0
 40
12.0
 40
12.0
 40
13.0
 40
13.0
 40
13.0
 40
13.0
 10
79.83560924653416
 20
-138.7973849479395
 10
79.81080455904036
 20
-138.7529432161798
 10
79.78806692883771
 20
-138.7002332552555
 10
79.7858276167723
 20
-138.4694118577438
 10
79.78134899264147
 20
-138.2261881164851
 10
79.71813149048714
 20
-138.1562526781346
 10
79.5281344744756
 20
-138.1562526781346
 10
79.5281344744756
 20
-138.1562526781346
 10
79.09181313126872
 20
-138.1562526781346
 10
79.09181313126872
 20
-138.1562526781346
 10
79.09181313126872
 20
-138.1562526781346
 10
79.09181313126872
 20
-138.7973849479395
 10
79.09181313126872
 20
-138.7973849479395
 10
79.09181313126872
 20
-138.7973849479395
 10
78.84083792516827
 20
-138.7973849479395
 10
78.84083792516827
 20
-138.7973849479395
 10
78.84083792516827
 20
-138.7973849479395
 10
78.84083792516827
 20
-137.252948641902
 10
78.84083792516827
 20
-137.252948641902
 10
78.84083792516827
 20
-137.252948641902
 10
79.56206866500531
 20
-137.252948641902
 10
79.56206866500531
 20
-137.252948641902
 10
79.88986950042684
 20
-137.252948641902
 10
80.06849770133705
 20
-137.4245143970675
 10
80.06849770133705
 20
-137.6804849916215
 10
80.06849770133705
 20
-137.7311278952547
 10
80.0595404530754
 20
-137.8138101869007
 10
80.01199813537895
 20
-137.8940809117071
 10
79.94860837845034
 20
-137.9977782858131
 10
79.87867294009978
 20
-138.0167263109819
 10
79.81304387110578
 20
-138.0336072788596
 10
79.95997719355168
 20
-138.0759819533282
 10
80.03232419874192
 20
-138.1245577996702
 10
80.03680282287274
 20
-138.4397840365706
 10
80.04128144700357
 20
-138.7105685417112
 10
80.07986651643837
 20
-138.7422634201756
 10
80.15221352162861
 20
-138.7973849479395
 10
80.15221352162861
 20
-138.7973849479395
 10
79.83560924653416
 20
-138.7973849479395
 10
79.83560924653416
 20
-138.7973849479395
 97
        0
 97
        0
 92
        1
 93
        1
 72
     4
 94
        3
 73
     0
 74
     1
 95
       20
 96
       16
 40
0.0
 40
0.0
 40
0.0
 40
0.0
 40
1.0
 40
1.0
 40
1.0
 40
2.0
 40
2.0
 40
2.0
 40
3.0
 40
3.0
 40
3.0
 40
4.0
 40
4.0
 40
4.0
 40
5.0
 40
5.0
 40
5.0
 40
5.0
 10
79.56654728913614
 20
-137.4644775046964
 10
79.56654728913614
 20
-137.4644775046964
 10
79.09181313126872
 20
-137.4644775046964
 10
79.09181313126872
 20
-137.4644775046964
 10
79.09181313126872
 20
-137.4644775046964
 10
79.09181313126872
 20
-137.9447238153402
 10
79.09181313126872
 20
-137.9447238153402
 10
79.09181313126872
 20
-137.9447238153402
 10
79.56430797707073
 20
-137.9447238153402
 10
79.56430797707073
 20
-137.9447238153402
 10
79.67058917279068
 20
-137.9447238153402
 10
79.81528318317119
 20
-137.8685872051162
 10
79.81528318317119
 20
-137.6973659594993
 10
79.81528318317119
 20
-137.6191622919841
 10
79.77910968057606
 20
-137.4644775046964
 10
79.56654728913614
 20
-137.4644775046964
 97
        0
 97
        0
 75
     2
 76
     1
 98
        0
  0
ENDBLK
  5
88
330
85
100
AcDbEntity
  8
0
100
AcDbBlockEnd
  0
BLOCK
  5
9C
330
9A
100
AcDbEntity
  8
0
100
AcDbBlockBegin
  2
block 3
 70
     0
 10
0.0
 20
0.0
 30
0.0
  3
block 3
  1

  0
SPLINE
  5
9E
330
9A
100
AcDbEntity
  8
_U+30EC_U+30A4_U+30E4_U+30FC 1
370
     0
100
AcDbSpline
210
0.0
220
0.0
230
1.0
 70
    11
 71
     3
 72
    26
 73
    22
 74
     0
 42
0.0000000001
 43
0.0000000001
 12
1.0
 22
0.0
 32
0.0
 13
1.0
 23
0.0
 33
0.0
 40
0.0
 40
0.0
 40
0.0
 40
0.0
 40
1.0
 40
1.0
 40
1.0
 40
2.0
 40
2.0
 40
2.0
 40
3.0
 40
3.0
 40
3.0
 40
4.0
 40
4.0
 40
4.0
 40
5.0
 40
5.0
 40
5.0
 40
6.0
 40
6.0
 40
6.0
 40
7.0
 40
7.0
 40
7.0
 40
7.0
 10
94.7935248243919
 20
-118.347642657045
 30
0.0
 10
94.7935248243919
 20
-118.347642657045
 30
0.0
 10
94.7935248243919
 20
-117.2433172992482
 30
0.0
 10
94.7935248243919
 20
-117.2433172992482
 30
0.0
 10
94.7935248243919
 20
-117.2433172992482
 30
0.0
 10
94.44109155625084
 20
-117.2433172992482
 30
0.0
 10
94.44109155625084
 20
-117.2433172992482
 30
0.0
 10
94.44109155625084
 20
-117.2433172992482
 30
0.0
 10
94.44109155625084
 20
-117.0953504481567
 30
0.0
 10
94.44109155625084
 20
-117.0953504481567
 30
0.0
 10
94.79593639123158
 20
-117.0805365375702
 30
0.0
 10
94.84554576621917
 20
-116.9175835211178
 30
0.0
 10
94.87724064468347
 20
-116.8033786057818
 30
0.0
 10
94.87724064468347
 20
-116.8033786057818
 30
0.0
 10
95.0333034701653
 20
-116.8033786057818
 30
0.0
 10
95.0333034701653
 20
-116.8033786057818
 30
0.0
 10
95.0333034701653
 20
-116.8033786057818
 30
0.0
 10
95.0333034701653
 20
-118.347642657045
 30
0.0
 10
95.0333034701653
 20
-118.347642657045
 30
0.0
 10
95.0333034701653
 20
-118.347642657045
 30
0.0
 10
94.7935248243919
 20
-118.347642657045
 30
0.0
 10
94.7935248243919
 20
-118.347642657045
 30
0.0
  0
HATCH
  5
9F
330
9A
100
AcDbEntity
  8
_U+30EC_U+30A4_U+30E4_U+30FC 1
 62
   179
420
  2234388
100
AcDbHatch
 10
0.0
 20
0.0
 30
0.0
210
0.0
220
0.0
230
1.0
  2
SOLID
 70
     1
 71
     0
 91
        1
 92
        1
 93
        1
 72
     4
 94
        3
 73
     0
 74
     1
 95
       26
 96
       22
 40
0.0
 40
0.0
 40
0.0
 40
0.0
 40
1.0
 40
1.0
 40
1.0
 40
2.0
 40
2.0
 40
2.0
 40
3.0
 40
3.0
 40
3.0
 40
4.0
 40
4.0
 40
4.0
 40
5.0
 40
5.0
 40
5.0
 40
6.0
 40
6.0
 40
6.0
 40
7.0
 40
7.0
 40
7.0
 40
7.0
 10
94.7935248243919
 20
-118.347642657045
 10
94.7935248243919
 20
-118.347642657045
 10
94.7935248243919
 20
-117.2433172992482
 10
94.7935248243919
 20
-117.2433172992482
 10
94.7935248243919
 20
-117.2433172992482
 10
94.44109155625084
 20
-117.2433172992482
 10
94.44109155625084
 20
-117.2433172992482
 10
94.44109155625084
 20
-117.2433172992482
 10
94.44109155625084
 20
-117.0953504481567
 10
94.44109155625084
 20
-117.0953504481567
 10
94.79593639123158
 20
-117.0805365375702
 10
94.84554576621917
 20
-116.9175835211178
 10
94.87724064468347
 20
-116.8033786057818
 10
94.87724064468347
 20
-116.8033786057818
 10
95.0333034701653
 20
-116.8033786057818
 10
95.0333034701653
 20
-116.8033786057818
 10
95.0333034701653
 20
-116.8033786057818
 10
95.0333034701653
 20
-118.347642657045
 10
95.0333034701653
 20
-118.347642657045
 10
95.0333034701653
 20
-118.347642657045
 10
94.7935248243919
 20
-118.347642657045
 10
94.7935248243919
 20
-118.347642657045
 97
        0
 97
        0
 75
     2
 76
     1
 98
        0
  0
SPLINE
  5
A0
330
9A
100
AcDbEntity
  8
_U+30EC_U+30A4_U+30E4_U+30FC 1
370
     0
100
AcDbSpline
210
0.0
220
0.0
230
1.0
 70
    11
 71
     3
 72
    29
 73
    25
 74
     0
 42
0.0000000001
 43
0.0000000001
 12
1.0
 22
0.0
 32
0.0
 13
1.0
 23
0.0
 33
0.0
 40
0.0
 40
0.0
 40
0.0
 40
0.0
 40
1.0
 40
1.0
 40
1.0
 40
2.0
 40
2.0
 40
2.0
 40
3.0
 40
3.0
 40
3.0
 40
4.0
 40
4.0
 40
4.0
 40
5.0
 40
5.0
 40
5.0
 40
6.0
 40
6.0
 40
6.0
 40
7.0
 40
7.0
 40
7.0
 40
8.0
 40
8.0
 40
8.0
 40
8.0
 10
96.10335012788389
 20
-118.3982855606782
 30
0.0
 10
95.81844073125373
 20
-118.3982855606782
 30
0.0
 10
95.54731171656456
 20
-118.2608262508167
 30
0.0
 10
95.54731171656456
 20
-117.9118380781609
 30
0.0
 10
95.54731171656456
 20
-117.6558674836069
 30
0.0
 10
95.69889591791556
 20
-117.5606105934397
 30
0.0
 10
95.81189504983175
 20
-117.4992878938023
 30
0.0
 10
95.67856985455258
 20
-117.440032251456
 30
0.0
 10
95.59692109155216
 20
-117.3258273361199
 30
0.0
 10
95.59692109155216
 20
-117.165113631733
 30
0.0
 10
95.59692109155216
 20
-116.8900227572358
 30
0.0
 10
95.80948348299208
 20
-116.7546305046655
 30
0.0
 10
96.10335012788389
 20
-116.7546305046655
 30
0.0
 10
96.40651853058587
 20
-116.7546305046655
 30
0.0
 10
96.60977916421561
 20
-116.8984632411747
 30
0.0
 10
96.60977916421561
 20
-117.165113631733
 30
0.0
 10
96.60977916421561
 20
-117.3258273361199
 30
0.0
 10
96.52640785347256
 20
-117.440032251456
 30
0.0
 10
96.39273814864488
 20
-117.4992878938023
 30
0.0
 10
96.48782278403777
 20
-117.5501030522097
 30
0.0
 10
96.65732148191206
 20
-117.6453599423769
 30
0.0
 10
96.65732148191206
 20
-117.9077039635786
 30
0.0
 10
96.65732148191206
 20
-118.2821858428253
 30
0.0
 10
96.35897621288943
 20
-118.3982855606782
 30
0.0
 10
96.10335012788389
 20
-118.3982855606782
 30
0.0
  0
SPLINE
  5
A1
330
9A
100
AcDbEntity
  8
_U+30EC_U+30A4_U+30E4_U+30FC 1
370
     0
100
AcDbSpline
210
0.0
220
0.0
230
1.0
 70
    11
 71
     3
 72
    17
 73
    13
 74
     0
 42
0.0000000001
 43
0.0000000001
 12
1.0
 22
0.0
 32
0.0
 13
1.0
 23
0.0
 33
0.0
 40
0.0
 40
0.0
 40
0.0
 40
0.0
 40
1.0
 40
1.0
 40
1.0
 40
2.0
 40
2.0
 40
2.0
 40
3.0
 40
3.0
 40
3.0
 40
4.0
 40
4.0
 40
4.0
 40
4.0
 10
96.10335012788389
 20
-117.6072916372649
 30
0.0
 10
95.94969886924174
 20
-117.6072916372649
 30
0.0
 10
95.78709036233795
 20
-117.6939357887189
 30
0.0
 10
95.78709036233795
 20
-117.8970241675744
 30
0.0
 10
95.78709036233795
 20
-118.1023518584953
 30
0.0
 10
95.92248261490828
 20
-118.2036376657616
 30
0.0
 10
96.10335012788389
 20
-118.2036376657616
 30
0.0
 10
96.30247664693132
 20
-118.2036376657616
 30
0.0
 10
96.41995440297835
 20
-118.0809922664867
 30
0.0
 10
96.41995440297835
 20
-117.9033975942221
 30
0.0
 10
96.41995440297835
 20
-117.6811889354235
 30
0.0
 10
96.24597708097323
 20
-117.6072916372649
 30
0.0
 10
96.10335012788389
 20
-117.6072916372649
 30
0.0
  0
SPLINE
  5
A2
330
9A
100
AcDbEntity
  8
_U+30EC_U+30A4_U+30E4_U+30FC 1
370
     0
100
AcDbSpline
210
0.0
220
0.0
230
1.0
 70
    11
 71
     3
 72
    17
 73
    13
 74
     0
 42
0.0000000001
 43
0.0000000001
 12
1.0
 22
0.0
 32
0.0
 13
1.0
 23
0.0
 33
0.0
 40
0.0
 40
0.0
 40
0.0
 40
0.0
 40
1.0
 40
1.0
 40
1.0
 40
2.0
 40
2.0
 40
2.0
 40
3.0
 40
3.0
 40
3.0
 40
4.0
 40
4.0
 40
4.0
 40
4.0
 10
96.10335012788389
 20
-116.947211342291
 30
0.0
 10
95.92730574858763
 20
-116.947211342291
 30
0.0
 10
95.83669973732555
 20
-117.0422959776839
 30
0.0
 10
95.83669973732555
 20
-117.1776882302542
 30
0.0
 10
95.83669973732555
 20
-117.3005058843033
 30
0.0
 10
95.91352536664662
 20
-117.4190171689959
 30
0.0
 10
96.10335012788389
 20
-117.4190171689959
 30
0.0
 10
96.29351939866967
 20
-117.4190171689959
 30
0.0
 10
96.37034502799075
 20
-117.3005058843033
 30
0.0
 10
96.37034502799075
 20
-117.1776882302542
 30
0.0
 10
96.37034502799075
 20
-117.0422959776839
 30
0.0
 10
96.27767195943753
 20
-116.947211342291
 30
0.0
 10
96.10335012788389
 20
-116.947211342291
 30
0.0
  0
HATCH
  5
A3
330
9A
100
AcDbEntity
  8
_U+30EC_U+30A4_U+30E4_U+30FC 1
 62
   179
420
  2234388
100
AcDbHatch
 10
0.0
 20
0.0
 30
0.0
210
0.0
220
0.0
230
1.0
  2
SOLID
 70
     1
 71
     0
 91
        3
 92
        1
 93
        1
 72
     4
 94
        3
 73
     0
 74
     1
 95
       29
 96
       25
 40
0.0
 40
0.0
 40
0.0
 40
0.0
 40
1.0
 40
1.0
 40
1.0
 40
2.0
 40
2.0
 40
2.0
 40
3.0
 40
3.0
 40
3.0
 40
4.0
 40
4.0
 40
4.0
 40
5.0
 40
5.0
 40
5.0
 40
6.0
 40
6.0
 40
6.0
 40
7.0
 40
7.0
 40
7.0
 40
8.0
 40
8.0
 40
8.0
 40
8.0
 10
96.10335012788389
 20
-118.3982855606782
 10
95.81844073125373
 20
-118.3982855606782
 10
95.54731171656456
 20
-118.2608262508167
 10
95.54731171656456
 20
-117.9118380781609
 10
95.54731171656456
 20
-117.6558674836069
 10
95.69889591791556
 20
-117.5606105934397
 10
95.81189504983175
 20
-117.4992878938023
 10
95.67856985455258
 20
-117.440032251456
 10
95.59692109155216
 20
-117.3258273361199
 10
95.59692109155216
 20
-117.165113631733
 10
95.59692109155216
 20
-116.8900227572358
 10
95.80948348299208
 20
-116.7546305046655
 10
96.10335012788389
 20
-116.7546305046655
 10
96.40651853058587
 20
-116.7546305046655
 10
96.60977916421561
 20
-116.8984632411747
 10
96.60977916421561
 20
-117.165113631733
 10
96.60977916421561
 20
-117.3258273361199
 10
96.52640785347256
 20
-117.440032251456
 10
96.39273814864488
 20
-117.4992878938023
 10
96.48782278403777
 20
-117.5501030522097
 10
96.65732148191206
 20
-117.6453599423769
 10
96.65732148191206
 20
-117.9077039635786
 10
96.65732148191206
 20
-118.2821858428253
 10
96.35897621288943
 20
-118.3982855606782
 10
96.10335012788389
 20
-118.3982855606782
 97
        0
 97
        0
 92
        1
 93
        1
 72
     4
 94
        3
 73
     0
 74
     1
 95
       17
 96
       13
 40
0.0
 40
0.0
 40
0.0
 40
0.0
 40
1.0
 40
1.0
 40
1.0
 40
2.0
 40
2.0
 40
2.0
 40
3.0
 40
3.0
 40
3.0
 40
4.0
 40
4.0
 40
4.0
 40
4.0
 10
96.10335012788389
 20
-117.6072916372649
 10
95.94969886924174
 20
-117.6072916372649
 10
95.78709036233795
 20
-117.6939357887189
 10
95.78709036233795
 20
-117.8970241675744
 10
95.78709036233795
 20
-118.1023518584953
 10
95.92248261490828
 20
-118.2036376657616
 10
96.10335012788389
 20
-118.2036376657616
 10
96.30247664693132
 20
-118.2036376657616
 10
96.41995440297835
 20
-118.0809922664867
 10
96.41995440297835
 20
-117.9033975942221
 10
96.41995440297835
 20
-117.6811889354235
 10
96.24597708097323
 20
-117.6072916372649
 10
96.10335012788389
 20
-117.6072916372649
 97
        0
 97
        0
 92
        1
 93
        1
 72
     4
 94
        3
 73
     0
 74
     1
 95
       17
 96
       13
 40
0.0
 40
0.0
 40
0.0
 40
0.0
 40
1.0
 40
1.0
 40
1.0
 40
2.0
 40
2.0
 40
2.0
 40
3.0
 40
3.0
 40
3.0
 40
4.0
 40
4.0
 40
4.0
 40
4.0
 10
96.10335012788389
 20
-116.947211342291
 10
95.92730574858763
 20
-116.947211342291
 10
95.83669973732555
 20
-117.0422959776839
 10
95.83669973732555
 20
-117.1776882302542
 10
95.83669973732555
 20
-117.3005058843033
 10
95.91352536664662
 20
-117.4190171689959
 10
96.10335012788389
 20
-117.4190171689959
 10
96.29351939866967
 20
-117.4190171689959
 10
96.37034502799075
 20
-117.3005058843033
 10
96.37034502799075
 20
-117.1776882302542
 10
96.37034502799075
 20
-117.0422959776839
 10
96.27767195943753
 20
-116.947211342291
 10
96.10335012788389
 20
-116.947211342291
 97
        0
 97
        0
 75
     2
 76
     1
 98
        0
  0
ENDBLK
  5
9D
330
9A
100
AcDbEntity
  8
0
100
AcDbBlockEnd
  0
BLOCK
  5
AE
330
AC
100
AcDbEntity
  8
0
100
AcDbBlockBegin
  2
block 4
 70
     0
 10
0.0
 20
0.0
 30
0.0
  3
block 4
  1

  0
SPLINE
  5
B0
330
AC
100
AcDbEntity
  8
_U+30EC_U+30A4_U+30E4_U+30FC 1
370
     0
100
AcDbSpline
210
0.0
220
0.0
230
1.0
 70
    11
 71
     3
 72
    26
 73
    22
 74
     0
 42
0.0000000001
 43
0.0000000001
 12
1.0
 22
0.0
 32
0.0
 13
1.0
 23
0.0
 33
0.0
 40
0.0
 40
0.0
 40
0.0
 40
0.0
 40
1.0
 40
1.0
 40
1.0
 40
2.0
 40
2.0
 40
2.0
 40
3.0
 40
3.0
 40
3.0
 40
4.0
 40
4.0
 40
4.0
 40
5.0
 40
5.0
 40
5.0
 40
6.0
 40
6.0
 40
6.0
 40
7.0
 40
7.0
 40
7.0
 40
7.0
 10
87.69628361522871
 20
-125.8477877832082
 30
0.0
 10
87.69628361522871
 20
-125.8477877832082
 30
0.0
 10
87.69628361522871
 20
-124.7434624254114
 30
0.0
 10
87.69628361522871
 20
-124.7434624254114
 30
0.0
 10
87.69628361522871
 20
-124.7434624254114
 30
0.0
 10
87.34350583753913
 20
-124.7434624254114
 30
0.0
 10
87.34350583753913
 20
-124.7434624254114
 30
0.0
 10
87.34350583753913
 20
-124.7434624254114
 30
0.0
 10
87.34350583753913
 20
-124.5953233195456
 30
0.0
 10
87.34350583753913
 20
-124.5953233195456
 30
0.0
 10
87.69852292729412
 20
-124.5806816637333
 30
0.0
 10
87.74830455705599
 20
-124.417728647281
 30
0.0
 10
87.77999943552028
 20
-124.303523731945
 30
0.0
 10
87.77999943552028
 20
-124.303523731945
 30
0.0
 10
87.93589000622784
 20
-124.303523731945
 30
0.0
 10
87.93589000622784
 20
-124.303523731945
 30
0.0
 10
87.93589000622784
 20
-124.303523731945
 30
0.0
 10
87.93589000622784
 20
-125.8477877832082
 30
0.0
 10
87.93589000622784
 20
-125.8477877832082
 30
0.0
 10
87.93589000622784
 20
-125.8477877832082
 30
0.0
 10
87.69628361522871
 20
-125.8477877832082
 30
0.0
 10
87.69628361522871
 20
-125.8477877832082
 30
0.0
  0
HATCH
  5
B1
330
AC
100
AcDbEntity
  8
_U+30EC_U+30A4_U+30E4_U+30FC 1
 62
   179
420
  2234388
100
AcDbHatch
 10
0.0
 20
0.0
 30
0.0
210
0.0
220
0.0
230
1.0
  2
SOLID
 70
     1
 71
     0
 91
        1
 92
        1
 93
        1
 72
     4
 94
        3
 73
     0
 74
     1
 95
       26
 96
       22
 40
0.0
 40
0.0
 40
0.0
 40
0.0
 40
1.0
 40
1.0
 40
1.0
 40
2.0
 40
2.0
 40
2.0
 40
3.0
 40
3.0
 40
3.0
 40
4.0
 40
4.0
 40
4.0
 40
5.0
 40
5.0
 40
5.0
 40
6.0
 40
6.0
 40
6.0
 40
7.0
 40
7.0
 40
7.0
 40
7.0
 10
87.69628361522871
 20
-125.8477877832082
 10
87.69628361522871
 20
-125.8477877832082
 10
87.69628361522871
 20
-124.7434624254114
 10
87.69628361522871
 20
-124.7434624254114
 10
87.69628361522871
 20
-124.7434624254114
 10
87.34350583753913
 20
-124.7434624254114
 10
87.34350583753913
 20
-124.7434624254114
 10
87.34350583753913
 20
-124.7434624254114
 10
87.34350583753913
 20
-124.5953233195456
 10
87.34350583753913
 20
-124.5953233195456
 10
87.69852292729412
 20
-124.5806816637333
 10
87.74830455705599
 20
-124.417728647281
 10
87.77999943552028
 20
-124.303523731945
 10
87.77999943552028
 20
-124.303523731945
 10
87.93589000622784
 20
-124.303523731945
 10
87.93589000622784
 20
-124.303523731945
 10
87.93589000622784
 20
-124.303523731945
 10
87.93589000622784
 20
-125.8477877832082
 10
87.93589000622784
 20
-125.8477877832082
 10
87.93589000622784
 20
-125.8477877832082
 10
87.69628361522871
 20
-125.8477877832082
 10
87.69628361522871
 20
-125.8477877832082
 97
        0
 97
        0
 75
     2
 76
     1
 98
        0
  0
ENDBLK
  5
AF
330
AC
100
AcDbEntity
  8
0
100
AcDbBlockEnd
  0
BLOCK
  5
C0
330
BE
100
AcDbEntity
  8
0
100
AcDbBlockBegin
  2
block 5
 70
     0
 10
0.0
 20
0.0
 30
0.0
  3
block 5
  1

  0
SPLINE
  5
C2
330
BE
100
AcDbEntity
  8
_U+30EC_U+30A4_U+30E4_U+30FC 1
370
     0
100
AcDbSpline
210
0.0
220
0.0
230
1.0
 70
    11
 71
     3
 72
    26
 73
    22
 74
     0
 42
0.0000000001
 43
0.0000000001
 12
1.0
 22
0.0
 32
0.0
 13
1.0
 23
0.0
 33
0.0
 40
0.0
 40
0.0
 40
0.0
 40
0.0
 40
1.0
 40
1.0
 40
1.0
 40
2.0
 40
2.0
 40
2.0
 40
3.0
 40
3.0
 40
3.0
 40
4.0
 40
4.0
 40
4.0
 40
5.0
 40
5.0
 40
5.0
 40
6.0
 40
6.0
 40
6.0
 40
7.0
 40
7.0
 40
7.0
 40
7.0
 10
91.2931355566038
 20
-139.3475666969339
 30
0.0
 10
91.2931355566038
 20
-139.3475666969339
 30
0.0
 10
91.2931355566038
 20
-138.2434135939114
 30
0.0
 10
91.2931355566038
 20
-138.2434135939114
 30
0.0
 10
91.2931355566038
 20
-138.2434135939114
 30
0.0
 10
90.94070228846275
 20
-138.2434135939114
 30
0.0
 10
90.94070228846275
 20
-138.2434135939114
 30
0.0
 10
90.94070228846275
 20
-138.2434135939114
 30
0.0
 10
90.94070228846275
 20
-138.0952744880456
 30
0.0
 10
90.94070228846275
 20
-138.0952744880456
 30
0.0
 10
91.29554712344348
 20
-138.0804605774591
 30
0.0
 10
91.34515649843108
 20
-137.9175075610067
 30
0.0
 10
91.37702363166964
 20
-137.8031303908965
 30
0.0
 10
91.37702363166964
 20
-137.8031303908965
 30
0.0
 10
91.53308645715146
 20
-137.8031303908965
 30
0.0
 10
91.53308645715146
 20
-137.8031303908965
 30
0.0
 10
91.53308645715146
 20
-137.8031303908965
 30
0.0
 10
91.53308645715146
 20
-139.3475666969339
 30
0.0
 10
91.53308645715146
 20
-139.3475666969339
 30
0.0
 10
91.53308645715146
 20
-139.3475666969339
 30
0.0
 10
91.2931355566038
 20
-139.3475666969339
 30
0.0
 10
91.2931355566038
 20
-139.3475666969339
 30
0.0
  0
HATCH
  5
C3
330
BE
100
AcDbEntity
  8
_U+30EC_U+30A4_U+30E4_U+30FC 1
 62
   179
420
  2234388
100
AcDbHatch
 10
0.0
 20
0.0
 30
0.0
210
0.0
220
0.0
230
1.0
  2
SOLID
 70
     1
 71
     0
 91
        1
 92
        1
 93
        1
 72
     4
 94
        3
 73
     0
 74
     1
 95
       26
 96
       22
 40
0.0
 40
0.0
 40
0.0
 40
0.0
 40
1.0
 40
1.0
 40
1.0
 40
2.0
 40
2.0
 40
2.0
 40
3.0
 40
3.0
 40
3.0
 40
4.0
 40
4.0
 40
4.0
 40
5.0
 40
5.0
 40
5.0
 40
6.0
 40
6.0
 40
6.0
 40
7.0
 40
7.0
 40
7.0
 40
7.0
 10
91.2931355566038
 20
-139.3475666969339
 10
91.2931355566038
 20
-139.3475666969339
 10
91.2931355566038
 20
-138.2434135939114
 10
91.2931355566038
 20
-138.2434135939114
 10
91.2931355566038
 20
-138.2434135939114
 10
90.94070228846275
 20
-138.2434135939114
 10
90.94070228846275
 20
-138.2434135939114
 10
90.94070228846275
 20
-138.2434135939114
 10
90.94070228846275
 20
-138.0952744880456
 10
90.94070228846275
 20
-138.0952744880456
 10
91.29554712344348
 20
-138.0804605774591
 10
91.34515649843108
 20
-137.9175075610067
 10
91.37702363166964
 20
-137.8031303908965
 10
91.37702363166964
 20
-137.8031303908965
 10
91.53308645715146
 20
-137.8031303908965
 10
91.53308645715146
 20
-137.8031303908965
 10
91.53308645715146
 20
-137.8031303908965
 10
91.53308645715146
 20
-139.3475666969339
 10
91.53308645715146
 20
-139.3475666969339
 10
91.53308645715146
 20
-139.3475666969339
 10
91.2931355566038
 20
-139.3475666969339
 10
91.2931355566038
 20
-139.3475666969339
 97
        0
 97
        0
 75
     2
 76
     1
 98
        0
  0
SPLINE
  5
C4
330
BE
100
AcDbEntity
  8
_U+30EC_U+30A4_U+30E4_U+30FC 1
370
     0
100
AcDbSpline
210
0.0
220
0.0
230
1.0
 70
    11
 71
     3
 72
    62
 73
    58
 74
     0
 42
0.0000000001
 43
0.0000000001
 12
1.0
 22
0.0
 32
0.0
 13
1.0
 23
0.0
 33
0.0
 40
0.0
 40
0.0
 40
0.0
 40
0.0
 40
1.0
 40
1.0
 40
1.0
 40
2.0
 40
2.0
 40
2.0
 40
3.0
 40
3.0
 40
3.0
 40
4.0
 40
4.0
 40
4.0
 40
5.0
 40
5.0
 40
5.0
 40
6.0
 40
6.0
 40
6.0
 40
7.0
 40
7.0
 40
7.0
 40
8.0
 40
8.0
 40
8.0
 40
9.0
 40
9.0
 40
9.0
 40
10.0
 40
10.0
 40
10.0
 40
11.0
 40
11.0
 40
11.0
 40
12.0
 40
12.0
 40
12.0
 40
13.0
 40
13.0
 40
13.0
 40
14.0
 40
14.0
 40
14.0
 40
15.0
 40
15.0
 40
15.0
 40
16.0
 40
16.0
 40
16.0
 40
17.0
 40
17.0
 40
17.0
 40
18.0
 40
18.0
 40
18.0
 40
19.0
 40
19.0
 40
19.0
 40
19.0
 10
92.59417586660841
 20
-139.3982096005671
 30
0.0
 10
92.49254554979353
 20
-139.3982096005671
 30
0.0
 10
92.25965709499064
 20
-139.3771945181071
 30
0.0
 10
92.12633189971147
 20
-139.1911593619036
 30
0.0
 10
92.04709470355073
 20
-139.0788492490845
 30
0.0
 10
92.0426160794199
 20
-138.9796304991093
 30
0.0
 10
92.03813745528907
 20
-138.8948811501721
 30
0.0
 10
92.03813745528907
 20
-138.8948811501721
 30
0.0
 10
92.27309296738312
 20
-138.8948811501721
 30
0.0
 10
92.27309296738312
 20
-138.8948811501721
 30
0.0
 10
92.27550453422279
 20
-138.968950703105
 30
0.0
 10
92.28687334932413
 20
-139.2035617056505
 30
0.0
 10
92.58969724247758
 20
-139.2035617056505
 30
0.0
 10
92.73680281969774
 20
-139.2035617056505
 30
0.0
 10
92.89941132660154
 20
-139.1339707768485
 30
0.0
 10
92.89941132660154
 20
-138.9055609461764
 30
0.0
 10
92.89941132660154
 20
-138.7891167187749
 30
0.0
 10
92.85875919987559
 20
-138.7405408724329
 30
0.0
 10
92.82499726412014
 20
-138.7088459939686
 30
0.0
 10
92.7457600679594
 20
-138.6347764410358
 30
0.0
 10
92.62139212094188
 20
-138.6220295877403
 30
0.0
 10
92.5624809881441
 20
-138.6220295877403
 30
0.0
 10
92.54215492478113
 20
-138.6220295877403
 30
0.0
 10
92.50391436489485
 20
-138.6240966450315
 30
0.0
 10
92.4742865437217
 20
-138.6282307596138
 30
0.0
 10
92.4742865437217
 20
-138.6282307596138
 30
0.0
 10
92.4742865437217
 20
-138.4335828646972
 30
0.0
 10
92.4742865437217
 20
-138.4335828646972
 30
0.0
 10
92.51493867044766
 20
-138.4401285461192
 30
0.0
 10
92.56041393085296
 20
-138.4421956034103
 30
0.0
 10
92.56695961227493
 20
-138.4421956034103
 30
0.0
 10
92.63723956017402
 20
-138.4421956034103
 30
0.0
 10
92.84980195161394
 20
-138.4208360114017
 30
0.0
 10
92.84980195161394
 20
-138.1841579515651
 30
0.0
 10
92.84980195161394
 20
-138.0063910245262
 30
0.0
 10
92.70958656536428
 20
-137.9512694967622
 30
0.0
 10
92.59210880931725
 20
-137.9512694967622
 30
0.0
 10
92.30926646997824
 20
-137.9512694967622
 30
0.0
 10
92.30030922171659
 20
-138.1841579515651
 30
0.0
 10
92.29583059758576
 20
-138.2558159376583
 30
0.0
 10
92.29583059758576
 20
-138.2558159376583
 30
0.0
 10
92.07878958201503
 20
-138.2558159376583
 30
0.0
 10
92.07878958201503
 20
-138.2558159376583
 30
0.0
 10
92.08774683027667
 20
-138.1311034810922
 30
0.0
 10
92.1170301419013
 20
-137.7545545445544
 30
0.0
 10
92.60554468170973
 20
-137.7545545445544
 30
0.0
 10
92.84532332748311
 20
-137.7545545445544
 30
0.0
 10
93.1030164697798
 20
-137.8816785679601
 30
0.0
 10
93.1030164697798
 20
-138.1776122701431
 30
0.0
 10
93.1030164697798
 20
-138.3639919358951
 30
0.0
 10
93.00104164341641
 20
-138.4463297179926
 30
0.0
 10
92.89493270247071
 20
-138.50765241763
 30
0.0
 10
92.96038951669047
 20
-138.535213181512
 30
0.0
 10
93.15503741160708
 20
-138.6154839063184
 30
0.0
 10
93.15503741160708
 20
-138.892814092881
 30
0.0
 10
93.15503741160708
 20
-139.2311224695325
 30
0.0
 10
92.89045407833989
 20
-139.3982096005671
 30
0.0
 10
92.59417586660841
 20
-139.3982096005671
 30
0.0
  0
HATCH
  5
C5
330
BE
100
AcDbEntity
  8
_U+30EC_U+30A4_U+30E4_U+30FC 1
 62
   179
420
  2234388
100
AcDbHatch
 10
0.0
 20
0.0
 30
0.0
210
0.0
220
0.0
230
1.0
  2
SOLID
 70
     1
 71
     0
 91
        1
 92
        1
 93
        1
 72
     4
 94
        3
 73
     0
 74
     1
 95
       62
 96
       58
 40
0.0
 40
0.0
 40
0.0
 40
0.0
 40
1.0
 40
1.0
 40
1.0
 40
2.0
 40
2.0
 40
2.0
 40
3.0
 40
3.0
 40
3.0
 40
4.0
 40
4.0
 40
4.0
 40
5.0
 40
5.0
 40
5.0
 40
6.0
 40
6.0
 40
6.0
 40
7.0
 40
7.0
 40
7.0
 40
8.0
 40
8.0
 40
8.0
 40
9.0
 40
9.0
 40
9.0
 40
10.0
 40
10.0
 40
10.0
 40
11.0
 40
11.0
 40
11.0
 40
12.0
 40
12.0
 40
12.0
 40
13.0
 40
13.0
 40
13.0
 40
14.0
 40
14.0
 40
14.0
 40
15.0
 40
15.0
 40
15.0
 40
16.0
 40
16.0
 40
16.0
 40
17.0
 40
17.0
 40
17.0
 40
18.0
 40
18.0
 40
18.0
 40
19.0
 40
19.0
 40
19.0
 40
19.0
 10
92.59417586660841
 20
-139.3982096005671
 10
92.49254554979353
 20
-139.3982096005671
 10
92.25965709499064
 20
-139.3771945181071
 10
92.12633189971147
 20
-139.1911593619036
 10
92.04709470355073
 20
-139.0788492490845
 10
92.0426160794199
 20
-138.9796304991093
 10
92.03813745528907
 20
-138.8948811501721
 10
92.03813745528907
 20
-138.8948811501721
 10
92.27309296738312
 20
-138.8948811501721
 10
92.27309296738312
 20
-138.8948811501721
 10
92.27550453422279
 20
-138.968950703105
 10
92.28687334932413
 20
-139.2035617056505
 10
92.58969724247758
 20
-139.2035617056505
 10
92.73680281969774
 20
-139.2035617056505
 10
92.89941132660154
 20
-139.1339707768485
 10
92.89941132660154
 20
-138.9055609461764
 10
92.89941132660154
 20
-138.7891167187749
 10
92.85875919987559
 20
-138.7405408724329
 10
92.82499726412014
 20
-138.7088459939686
 10
92.7457600679594
 20
-138.6347764410358
 10
92.62139212094188
 20
-138.6220295877403
 10
92.5624809881441
 20
-138.6220295877403
 10
92.54215492478113
 20
-138.6220295877403
 10
92.50391436489485
 20
-138.6240966450315
 10
92.4742865437217
 20
-138.6282307596138
 10
92.4742865437217
 20
-138.6282307596138
 10
92.4742865437217
 20
-138.4335828646972
 10
92.4742865437217
 20
-138.4335828646972
 10
92.51493867044766
 20
-138.4401285461192
 10
92.56041393085296
 20
-138.4421956034103
 10
92.56695961227493
 20
-138.4421956034103
 10
92.63723956017402
 20
-138.4421956034103
 10
92.84980195161394
 20
-138.4208360114017
 10
92.84980195161394
 20
-138.1841579515651
 10
92.84980195161394
 20
-138.0063910245262
 10
92.70958656536428
 20
-137.9512694967622
 10
92.59210880931725
 20
-137.9512694967622
 10
92.30926646997824
 20
-137.9512694967622
 10
92.30030922171659
 20
-138.1841579515651
 10
92.29583059758576
 20
-138.2558159376583
 10
92.29583059758576
 20
-138.2558159376583
 10
92.07878958201503
 20
-138.2558159376583
 10
92.07878958201503
 20
-138.2558159376583
 10
92.08774683027667
 20
-138.1311034810922
 10
92.1170301419013
 20
-137.7545545445544
 10
92.60554468170973
 20
-137.7545545445544
 10
92.84532332748311
 20
-137.7545545445544
 10
93.1030164697798
 20
-137.8816785679601
 10
93.1030164697798
 20
-138.1776122701431
 10
93.1030164697798
 20
-138.3639919358951
 10
93.00104164341641
 20
-138.4463297179926
 10
92.89493270247071
 20
-138.50765241763
 10
92.96038951669047
 20
-138.535213181512
 10
93.15503741160708
 20
-138.6154839063184
 10
93.15503741160708
 20
-138.892814092881
 10
93.15503741160708
 20
-139.2311224695325
 10
92.89045407833989
 20
-139.3982096005671
 10
92.59417586660841
 20
-139.3982096005671
 97
        0
 97
        0
 75
     2
 76
     1
 98
        0
  0
ENDBLK
  5
C1
330
BE
100
AcDbEntity
  8
0
100
AcDbBlockEnd
  0
BLOCK
  5
D4
330
D2
100
AcDbEntity
  8
0
100
AcDbBlockBegin
  2
block 6
 70
     0
 10
0.0
 20
0.0
 30
0.0
  3
block 6
  1

  0
SPLINE
  5
D6
330
D2
100
AcDbEntity
  8
_U+30EC_U+30A4_U+30E4_U+30FC 1
370
     0
100
AcDbSpline
210
0.0
220
0.0
230
1.0
 70
    11
 71
     3
 72
    62
 73
    58
 74
     0
 42
0.0000000001
 43
0.0000000001
 12
1.0
 22
0.0
 32
0.0
 13
1.0
 23
0.0
 33
0.0
 40
0.0
 40
0.0
 40
0.0
 40
0.0
 40
1.0
 40
1.0
 40
1.0
 40
2.0
 40
2.0
 40
2.0
 40
3.0
 40
3.0
 40
3.0
 40
4.0
 40
4.0
 40
4.0
 40
5.0
 40
5.0
 40
5.0
 40
6.0
 40
6.0
 40
6.0
 40
7.0
 40
7.0
 40
7.0
 40
8.0
 40
8.0
 40
8.0
 40
9.0
 40
9.0
 40
9.0
 40
10.0
 40
10.0
 40
10.0
 40
11.0
 40
11.0
 40
11.0
 40
12.0
 40
12.0
 40
12.0
 40
13.0
 40
13.0
 40
13.0
 40
14.0
 40
14.0
 40
14.0
 40
15.0
 40
15.0
 40
15.0
 40
16.0
 40
16.0
 40
16.0
 40
17.0
 40
17.0
 40
17.0
 40
18.0
 40
18.0
 40
18.0
 40
19.0
 40
19.0
 40
19.0
 40
19.0
 10
101.924183459762
 20
-134.0555555220417
 30
0.0
 10
101.924183459762
 20
-134.1571858388565
 30
0.0
 10
101.903168377302
 20
-134.3900742936594
 30
0.0
 10
101.7171332210985
 20
-134.5233994889386
 30
0.0
 10
101.6048231082793
 20
-134.6026366850994
 30
0.0
 10
101.5056043583042
 20
-134.6071153092302
 30
0.0
 10
101.420855009367
 20
-134.611593933361
 30
0.0
 10
101.420855009367
 20
-134.611593933361
 30
0.0
 10
101.420855009367
 20
-134.376638421267
 30
0.0
 10
101.420855009367
 20
-134.376638421267
 30
0.0
 10
101.4949245622999
 20
-134.3742268544273
 30
0.0
 10
101.7295355648454
 20
-134.362858039326
 30
0.0
 10
101.7295355648454
 20
-134.0600341461725
 30
0.0
 10
101.7295355648454
 20
-133.9129285689523
 30
0.0
 10
101.6599446360433
 20
-133.7503200620485
 30
0.0
 10
101.4315348053713
 20
-133.7503200620485
 30
0.0
 10
101.3150905779698
 20
-133.7503200620485
 30
0.0
 10
101.2665147316278
 20
-133.7909721887745
 30
0.0
 10
101.2348198531635
 20
-133.8247341245299
 30
0.0
 10
101.1607503002306
 20
-133.9039713206907
 30
0.0
 10
101.1480034469352
 20
-134.0283392677082
 30
0.0
 10
101.1480034469352
 20
-134.087250400506
 30
0.0
 10
101.1480034469352
 20
-134.107576463869
 30
0.0
 10
101.1500705042264
 20
-134.1458170237552
 30
0.0
 10
101.1542046188087
 20
-134.1754448449284
 30
0.0
 10
101.1542046188087
 20
-134.1754448449284
 30
0.0
 10
100.9595567238921
 20
-134.1754448449284
 30
0.0
 10
100.9595567238921
 20
-134.1754448449284
 30
0.0
 10
100.966102405314
 20
-134.1347927182024
 30
0.0
 10
100.9681694626052
 20
-134.0893174577971
 30
0.0
 10
100.9681694626052
 20
-134.0827717763752
 30
0.0
 10
100.9681694626052
 20
-134.012491828476
 30
0.0
 10
100.9468098705966
 20
-133.7999294370361
 30
0.0
 10
100.71013181076
 20
-133.7999294370361
 30
0.0
 10
100.5323648837211
 20
-133.7999294370361
 30
0.0
 10
100.4772433559571
 20
-133.9401448232858
 30
0.0
 10
100.4772433559571
 20
-134.0576225793328
 30
0.0
 10
100.4772433559571
 20
-134.3404649186718
 30
0.0
 10
100.71013181076
 20
-134.3494221669335
 30
0.0
 10
100.7817897968532
 20
-134.3539007910643
 30
0.0
 10
100.7817897968532
 20
-134.3539007910643
 30
0.0
 10
100.7817897968532
 20
-134.5709418066351
 30
0.0
 10
100.7817897968532
 20
-134.5709418066351
 30
0.0
 10
100.6570773402871
 20
-134.5619845583734
 30
0.0
 10
100.2805284037493
 20
-134.5327012467488
 30
0.0
 10
100.2805284037493
 20
-134.0441867069403
 30
0.0
 10
100.2805284037493
 20
-133.804408061167
 30
0.0
 10
100.407652427155
 20
-133.5467149188703
 30
0.0
 10
100.703586129338
 20
-133.5467149188703
 30
0.0
 10
100.88996579509
 20
-133.5467149188703
 30
0.0
 10
100.9723035771875
 20
-133.6486897452337
 30
0.0
 10
101.0336262768249
 20
-133.7547986861794
 30
0.0
 10
101.0611870407069
 20
-133.6893418719596
 30
0.0
 10
101.1414577655133
 20
-133.494693977043
 30
0.0
 10
101.4187879520759
 20
-133.494693977043
 30
0.0
 10
101.7570963287274
 20
-133.494693977043
 30
0.0
 10
101.924183459762
 20
-133.7592773103102
 30
0.0
 10
101.924183459762
 20
-134.0555555220417
 30
0.0
  0
HATCH
  5
D7
330
D2
100
AcDbEntity
  8
_U+30EC_U+30A4_U+30E4_U+30FC 1
 62
   179
420
  2234388
100
AcDbHatch
 10
0.0
 20
0.0
 30
0.0
210
0.0
220
0.0
230
1.0
  2
SOLID
 70
     1
 71
     0
 91
        1
 92
        1
 93
        1
 72
     4
 94
        3
 73
     0
 74
     1
 95
       62
 96
       58
 40
0.0
 40
0.0
 40
0.0
 40
0.0
 40
1.0
 40
1.0
 40
1.0
 40
2.0
 40
2.0
 40
2.0
 40
3.0
 40
3.0
 40
3.0
 40
4.0
 40
4.0
 40
4.0
 40
5.0
 40
5.0
 40
5.0
 40
6.0
 40
6.0
 40
6.0
 40
7.0
 40
7.0
 40
7.0
 40
8.0
 40
8.0
 40
8.0
 40
9.0
 40
9.0
 40
9.0
 40
10.0
 40
10.0
 40
10.0
 40
11.0
 40
11.0
 40
11.0
 40
12.0
 40
12.0
 40
12.0
 40
13.0
 40
13.0
 40
13.0
 40
14.0
 40
14.0
 40
14.0
 40
15.0
 40
15.0
 40
15.0
 40
16.0
 40
16.0
 40
16.0
 40
17.0
 40
17.0
 40
17.0
 40
18.0
 40
18.0
 40
18.0
 40
19.0
 40
19.0
 40
19.0
 40
19.0
 10
101.924183459762
 20
-134.0555555220417
 10
101.924183459762
 20
-134.1571858388565
 10
101.903168377302
 20
-134.3900742936594
 10
101.7171332210985
 20
-134.5233994889386
 10
101.6048231082793
 20
-134.6026366850994
 10
101.5056043583042
 20
-134.6071153092302
 10
101.420855009367
 20
-134.611593933361
 10
101.420855009367
 20
-134.611593933361
 10
101.420855009367
 20
-134.376638421267
 10
101.420855009367
 20
-134.376638421267
 10
101.4949245622999
 20
-134.3742268544273
 10
101.7295355648454
 20
-134.362858039326
 10
101.7295355648454
 20
-134.0600341461725
 10
101.7295355648454
 20
-133.9129285689523
 10
101.6599446360433
 20
-133.7503200620485
 10
101.4315348053713
 20
-133.7503200620485
 10
101.3150905779698
 20
-133.7503200620485
 10
101.2665147316278
 20
-133.7909721887745
 10
101.2348198531635
 20
-133.8247341245299
 10
101.1607503002306
 20
-133.9039713206907
 10
101.1480034469352
 20
-134.0283392677082
 10
101.1480034469352
 20
-134.087250400506
 10
101.1480034469352
 20
-134.107576463869
 10
101.1500705042264
 20
-134.1458170237552
 10
101.1542046188087
 20
-134.1754448449284
 10
101.1542046188087
 20
-134.1754448449284
 10
100.9595567238921
 20
-134.1754448449284
 10
100.9595567238921
 20
-134.1754448449284
 10
100.966102405314
 20
-134.1347927182024
 10
100.9681694626052
 20
-134.0893174577971
 10
100.9681694626052
 20
-134.0827717763752
 10
100.9681694626052
 20
-134.012491828476
 10
100.9468098705966
 20
-133.7999294370361
 10
100.71013181076
 20
-133.7999294370361
 10
100.5323648837211
 20
-133.7999294370361
 10
100.4772433559571
 20
-133.9401448232858
 10
100.4772433559571
 20
-134.0576225793328
 10
100.4772433559571
 20
-134.3404649186718
 10
100.71013181076
 20
-134.3494221669335
 10
100.7817897968532
 20
-134.3539007910643
 10
100.7817897968532
 20
-134.3539007910643
 10
100.7817897968532
 20
-134.5709418066351
 10
100.7817897968532
 20
-134.5709418066351
 10
100.6570773402871
 20
-134.5619845583734
 10
100.2805284037493
 20
-134.5327012467488
 10
100.2805284037493
 20
-134.0441867069403
 10
100.2805284037493
 20
-133.804408061167
 10
100.407652427155
 20
-133.5467149188703
 10
100.703586129338
 20
-133.5467149188703
 10
100.88996579509
 20
-133.5467149188703
 10
100.9723035771875
 20
-133.6486897452337
 10
101.0336262768249
 20
-133.7547986861794
 10
101.0611870407069
 20
-133.6893418719596
 10
101.1414577655133
 20
-133.494693977043
 10
101.4187879520759
 20
-133.494693977043
 10
101.7570963287274
 20
-133.494693977043
 10
101.924183459762
 20
-133.7592773103102
 10
101.924183459762
 20
-134.0555555220417
 97
        0
 97
        0
 75
     2
 76
     1
 98
        0
  0
POLYLINE
  5
D8
330
D2
100
AcDbEntity
  8
_U+30EC_U+30A4_U+30E4_U+30FC 1
370
     0
100
AcDb2dPolyline
 66
     1
 10
0.0
 20
0.0
 30
0.0
  0
VERTEX
  5
D9
330
D8
100
AcDbEntity
  8
_U+30EC_U+30A4_U+30E4_U+30FC 1
370
     0
100
AcDbVertex
100
AcDb2dVertex
 10
101.8735405561288
 20
-133.2590494458519
 30
0.0
  0
VERTEX
  5
DA
330
D8
100
AcDbEntity
  8
_U+30EC_U+30A4_U+30E4_U+30FC 1
370
     0
100
AcDbVertex
100
AcDb2dVertex
 10
101.6217040761571
 20
-133.2590494458519
 30
0.0
  0
VERTEX
  5
DB
330
D8
100
AcDbEntity
  8
_U+30EC_U+30A4_U+30E4_U+30FC 1
370
     0
100
AcDbVertex
100
AcDb2dVertex
 10
101.6217040761571
 20
-132.9899874884539
 30
0.0
  0
VERTEX
  5
DC
330
D8
100
AcDbEntity
  8
_U+30EC_U+30A4_U+30E4_U+30FC 1
370
     0
100
AcDbVertex
100
AcDb2dVertex
 10
101.8735405561288
 20
-132.9899874884539
 30
0.0
  0
VERTEX
  5
DD
330
D8
100
AcDbEntity
  8
_U+30EC_U+30A4_U+30E4_U+30FC 1
370
     0
100
AcDbVertex
100
AcDb2dVertex
 10
101.8735405561288
 20
-133.2590494458519
 30
0.0
  0
SEQEND
  5
DE
330
D8
100
AcDbEntity
  8
_U+30EC_U+30A4_U+30E4_U+30FC 1
370
     0
  0
HATCH
  5
DF
330
D2
100
AcDbEntity
  8
_U+30EC_U+30A4_U+30E4_U+30FC 1
 62
   179
420
  2234388
100
AcDbHatch
 10
0.0
 20
0.0
 30
0.0
210
0.0
220
0.0
230
1.0
  2
SOLID
 70
     1
 71
     0
 91
        1
 92
        1
 93
        4
 72
     1
 10
101.8735405561288
 20
-133.2590494458519
 11
101.6217040761571
 21
-133.2590494458519
 72
     1
 10
101.6217040761571
 20
-133.2590494458519
 11
101.6217040761571
 21
-132.9899874884539
 72
     1
 10
101.6217040761571
 20
-132.9899874884539
 11
101.8735405561288
 21
-132.9899874884539
 72
     1
 10
101.8735405561288
 20
-132.9899874884539
 11
101.8735405561288
 21
-133.2590494458519
 97
        0
 75
     2
 76
     1
 98
        0
  0
SPLINE
  5
E0
330
D2
100
AcDbEntity
  8
_U+30EC_U+30A4_U+30E4_U+30FC 1
370
     0
100
AcDbSpline
210
0.0
220
0.0
230
1.0
 70
    11
 71
     3
 72
    53
 73
    49
 74
     0
 42
0.0000000001
 43
0.0000000001
 12
1.0
 22
0.0
 32
0.0
 13
1.0
 23
0.0
 33
0.0
 40
0.0
 40
0.0
 40
0.0
 40
0.0
 40
1.0
 40
1.0
 40
1.0
 40
2.0
 40
2.0
 40
2.0
 40
3.0
 40
3.0
 40
3.0
 40
4.0
 40
4.0
 40
4.0
 40
5.0
 40
5.0
 40
5.0
 40
6.0
 40
6.0
 40
6.0
 40
7.0
 40
7.0
 40
7.0
 40
8.0
 40
8.0
 40
8.0
 40
9.0
 40
9.0
 40
9.0
 40
10.0
 40
10.0
 40
10.0
 40
11.0
 40
11.0
 40
11.0
 40
12.0
 40
12.0
 40
12.0
 40
13.0
 40
13.0
 40
13.0
 40
14.0
 40
14.0
 40
14.0
 40
15.0
 40
15.0
 40
15.0
 40
16.0
 40
16.0
 40
16.0
 40
16.0
 10
101.924183459762
 20
-132.2231092334373
 30
0.0
 10
101.924183459762
 20
-132.3068250537289
 30
0.0
 10
101.9073024918843
 20
-132.4150010519657
 30
0.0
 10
101.8439127349557
 20
-132.5238660692996
 30
0.0
 10
101.7340141889762
 20
-132.7092122064061
 30
0.0
 10
101.6027560509882
 20
-132.7316053270602
 30
0.0
 10
101.4949245622999
 20
-132.7519313904231
 30
0.0
 10
101.4949245622999
 20
-132.7519313904231
 30
0.0
 10
101.4949245622999
 20
-132.5145643114894
 30
0.0
 10
101.4949245622999
 20
-132.5145643114894
 30
0.0
 10
101.6937065717988
 20
-132.4559976882402
 30
0.0
 10
101.7233343929719
 20
-132.3202609261213
 30
0.0
 10
101.7233343929719
 20
-132.2206976665976
 30
0.0
 10
101.7233343929719
 20
-132.0715250320863
 30
0.0
 10
101.6237711334482
 20
-131.908572015634
 30
0.0
 10
101.3912271881939
 20
-131.908572015634
 30
0.0
 10
101.1352565936398
 20
-131.908572015634
 30
0.0
 10
101.0653211552892
 20
-132.1008083437109
 30
0.0
 10
101.0653211552892
 20
-132.2296549148593
 30
0.0
 10
101.0653211552892
 20
-132.2637613601632
 30
0.0
 10
101.0653211552892
 20
-132.4150010519657
 30
0.0
 10
101.1945122359861
 20
-132.5100856873586
 30
0.0
 10
101.1945122359861
 20
-132.5100856873586
 30
0.0
 10
101.1755642108172
 20
-132.6978433913047
 30
0.0
 10
101.1755642108172
 20
-132.6978433913047
 30
0.0
 10
101.1755642108172
 20
-132.6978433913047
 30
0.0
 10
100.3291042500913
 20
-132.5689968201564
 30
0.0
 10
100.3291042500913
 20
-132.5689968201564
 30
0.0
 10
100.3291042500913
 20
-132.5689968201564
 30
0.0
 10
100.3291042500913
 20
-131.7370062604685
 30
0.0
 10
100.3291042500913
 20
-131.7370062604685
 30
0.0
 10
100.3291042500913
 20
-131.7370062604685
 30
0.0
 10
100.523752145008
 20
-131.7370062604685
 30
0.0
 10
100.523752145008
 20
-131.7370062604685
 30
0.0
 10
100.523752145008
 20
-131.7370062604685
 30
0.0
 10
100.523752145008
 20
-132.3946749886027
 30
0.0
 10
100.523752145008
 20
-132.3946749886027
 30
0.0
 10
100.523752145008
 20
-132.3946749886027
 30
0.0
 10
100.9468098705966
 20
-132.4649549365018
 30
0.0
 10
100.9468098705966
 20
-132.4649549365018
 30
0.0
 10
100.9130479348412
 20
-132.3994981222821
 30
0.0
 10
100.8727403176638
 20
-132.3113036778597
 30
0.0
 10
100.8727403176638
 20
-132.1845241640025
 30
0.0
 10
100.8727403176638
 20
-131.9133951493133
 30
0.0
 10
101.0591199834158
 20
-131.6601806311475
 30
0.0
 10
101.372279163025
 20
-131.6601806311475
 30
0.0
 10
101.6895724572165
 20
-131.6601806311475
 30
0.0
 10
101.924183459762
 20
-131.8996147673723
 30
0.0
 10
101.924183459762
 20
-132.2231092334373
 30
0.0
  0
HATCH
  5
E1
330
D2
100
AcDbEntity
  8
_U+30EC_U+30A4_U+30E4_U+30FC 1
 62
   179
420
  2234388
100
AcDbHatch
 10
0.0
 20
0.0
 30
0.0
210
0.0
220
0.0
230
1.0
  2
SOLID
 70
     1
 71
     0
 91
        1
 92
        1
 93
        1
 72
     4
 94
        3
 73
     0
 74
     1
 95
       53
 96
       49
 40
0.0
 40
0.0
 40
0.0
 40
0.0
 40
1.0
 40
1.0
 40
1.0
 40
2.0
 40
2.0
 40
2.0
 40
3.0
 40
3.0
 40
3.0
 40
4.0
 40
4.0
 40
4.0
 40
5.0
 40
5.0
 40
5.0
 40
6.0
 40
6.0
 40
6.0
 40
7.0
 40
7.0
 40
7.0
 40
8.0
 40
8.0
 40
8.0
 40
9.0
 40
9.0
 40
9.0
 40
10.0
 40
10.0
 40
10.0
 40
11.0
 40
11.0
 40
11.0
 40
12.0
 40
12.0
 40
12.0
 40
13.0
 40
13.0
 40
13.0
 40
14.0
 40
14.0
 40
14.0
 40
15.0
 40
15.0
 40
15.0
 40
16.0
 40
16.0
 40
16.0
 40
16.0
 10
101.924183459762
 20
-132.2231092334373
 10
101.924183459762
 20
-132.3068250537289
 10
101.9073024918843
 20
-132.4150010519657
 10
101.8439127349557
 20
-132.5238660692996
 10
101.7340141889762
 20
-132.7092122064061
 10
101.6027560509882
 20
-132.7316053270602
 10
101.4949245622999
 20
-132.7519313904231
 10
101.4949245622999
 20
-132.7519313904231
 10
101.4949245622999
 20
-132.5145643114894
 10
101.4949245622999
 20
-132.5145643114894
 10
101.6937065717988
 20
-132.4559976882402
 10
101.7233343929719
 20
-132.3202609261213
 10
101.7233343929719
 20
-132.2206976665976
 10
101.7233343929719
 20
-132.0715250320863
 10
101.6237711334482
 20
-131.908572015634
 10
101.3912271881939
 20
-131.908572015634
 10
101.1352565936398
 20
-131.908572015634
 10
101.0653211552892
 20
-132.1008083437109
 10
101.0653211552892
 20
-132.2296549148593
 10
101.0653211552892
 20
-132.2637613601632
 10
101.0653211552892
 20
-132.4150010519657
 10
101.1945122359861
 20
-132.5100856873586
 10
101.1945122359861
 20
-132.5100856873586
 10
101.1755642108172
 20
-132.6978433913047
 10
101.1755642108172
 20
-132.6978433913047
 10
101.1755642108172
 20
-132.6978433913047
 10
100.3291042500913
 20
-132.5689968201564
 10
100.3291042500913
 20
-132.5689968201564
 10
100.3291042500913
 20
-132.5689968201564
 10
100.3291042500913
 20
-131.7370062604685
 10
100.3291042500913
 20
-131.7370062604685
 10
100.3291042500913
 20
-131.7370062604685
 10
100.523752145008
 20
-131.7370062604685
 10
100.523752145008
 20
-131.7370062604685
 10
100.523752145008
 20
-131.7370062604685
 10
100.523752145008
 20
-132.3946749886027
 10
100.523752145008
 20
-132.3946749886027
 10
100.523752145008
 20
-132.3946749886027
 10
100.9468098705966
 20
-132.4649549365018
 10
100.9468098705966
 20
-132.4649549365018
 10
100.9130479348412
 20
-132.3994981222821
 10
100.8727403176638
 20
-132.3113036778597
 10
100.8727403176638
 20
-132.1845241640025
 10
100.8727403176638
 20
-131.9133951493133
 10
101.0591199834158
 20
-131.6601806311475
 10
101.372279163025
 20
-131.6601806311475
 10
101.6895724572165
 20
-131.6601806311475
 10
101.924183459762
 20
-131.8996147673723
 10
101.924183459762
 20
-132.2231092334373
 97
        0
 97
        0
 75
     2
 76
     1
 98
        0
  0
ENDBLK
  5
D5
330
D2
100
AcDbEntity
  8
0
100
AcDbBlockEnd
  0
BLOCK
  5
F0
330
EE
100
AcDbEntity
  8
0
100
AcDbBlockBegin
  2
block 7
 70
     0
 10
0.0
 20
0.0
 30
0.0
  3
block 7
  1

  0
SPLINE
  5
F2
330
EE
100
AcDbEntity
  8
_U+30EC_U+30A4_U+30E4_U+30FC 1
370
     0
100
AcDbSpline
210
0.0
220
0.0
230
1.0
 70
    11
 71
     3
 72
    26
 73
    22
 74
     0
 42
0.0000000001
 43
0.0000000001
 12
1.0
 22
0.0
 32
0.0
 13
1.0
 23
0.0
 33
0.0
 40
0.0
 40
0.0
 40
0.0
 40
0.0
 40
1.0
 40
1.0
 40
1.0
 40
2.0
 40
2.0
 40
2.0
 40
3.0
 40
3.0
 40
3.0
 40
4.0
 40
4.0
 40
4.0
 40
5.0
 40
5.0
 40
5.0
 40
6.0
 40
6.0
 40
6.0
 40
7.0
 40
7.0
 40
7.0
 40
7.0
 10
80.87292749714288
 20
-130.1202229492408
 30
0.0
 10
80.87292749714288
 20
-130.1202229492408
 30
0.0
 10
79.76860213934604
 20
-130.1202229492408
 30
0.0
 10
79.76860213934604
 20
-130.1202229492408
 30
0.0
 10
79.76860213934604
 20
-130.1202229492408
 30
0.0
 10
79.76860213934604
 20
-130.4726562173819
 30
0.0
 10
79.76860213934604
 20
-130.4726562173819
 30
0.0
 10
79.76860213934604
 20
-130.4726562173819
 30
0.0
 10
79.6204630334803
 20
-130.4726562173819
 30
0.0
 10
79.6204630334803
 20
-130.4726562173819
 30
0.0
 10
79.605821377668
 20
-130.1178113824011
 30
0.0
 10
79.44286836121567
 20
-130.0682020074135
 30
0.0
 10
79.32866344587964
 20
-130.0365071289492
 30
0.0
 10
79.32866344587964
 20
-130.0365071289492
 30
0.0
 10
79.32866344587964
 20
-129.8804443034674
 30
0.0
 10
79.32866344587964
 20
-129.8804443034674
 30
0.0
 10
79.32866344587964
 20
-129.8804443034674
 30
0.0
 10
80.87292749714288
 20
-129.8804443034674
 30
0.0
 10
80.87292749714288
 20
-129.8804443034674
 30
0.0
 10
80.87292749714288
 20
-129.8804443034674
 30
0.0
 10
80.87292749714288
 20
-130.1202229492408
 30
0.0
 10
80.87292749714288
 20
-130.1202229492408
 30
0.0
  0
HATCH
  5
F3
330
EE
100
AcDbEntity
  8
_U+30EC_U+30A4_U+30E4_U+30FC 1
 62
   179
420
  2234388
100
AcDbHatch
 10
0.0
 20
0.0
 30
0.0
210
0.0
220
0.0
230
1.0
  2
SOLID
 70
     1
 71
     0
 91
        1
 92
        1
 93
        1
 72
     4
 94
        3
 73
     0
 74
     1
 95
       26
 96
       22
 40
0.0
 40
0.0
 40
0.0
 40
0.0
 40
1.0
 40
1.0
 40
1.0
 40
2.0
 40
2.0
 40
2.0
 40
3.0
 40
3.0
 40
3.0
 40
4.0
 40
4.0
 40
4.0
 40
5.0
 40
5.0
 40
5.0
 40
6.0
 40
6.0
 40
6.0
 40
7.0
 40
7.0
 40
7.0
 40
7.0
 10
80.87292749714288
 20
-130.1202229492408
 10
80.87292749714288
 20
-130.1202229492408
 10
79.76860213934604
 20
-130.1202229492408
 10
79.76860213934604
 20
-130.1202229492408
 10
79.76860213934604
 20
-130.1202229492408
 10
79.76860213934604
 20
-130.4726562173819
 10
79.76860213934604
 20
-130.4726562173819
 10
79.76860213934604
 20
-130.4726562173819
 10
79.6204630334803
 20
-130.4726562173819
 10
79.6204630334803
 20
-130.4726562173819
 10
79.605821377668
 20
-130.1178113824011
 10
79.44286836121567
 20
-130.0682020074135
 10
79.32866344587964
 20
-130.0365071289492
 10
79.32866344587964
 20
-130.0365071289492
 10
79.32866344587964
 20
-129.8804443034674
 10
79.32866344587964
 20
-129.8804443034674
 10
79.32866344587964
 20
-129.8804443034674
 10
80.87292749714288
 20
-129.8804443034674
 10
80.87292749714288
 20
-129.8804443034674
 10
80.87292749714288
 20
-129.8804443034674
 10
80.87292749714288
 20
-130.1202229492408
 10
80.87292749714288
 20
-130.1202229492408
 97
        0
 97
        0
 75
     2
 76
     1
 98
        0
  0
SPLINE
  5
F4
330
EE
100
AcDbEntity
  8
_U+30EC_U+30A4_U+30E4_U+30FC 1
370
     0
100
AcDbSpline
210
0.0
220
0.0
230
1.0
 70
    11
 71
     3
 72
    62
 73
    58
 74
     0
 42
0.0000000001
 43
0.0000000001
 12
1.0
 22
0.0
 32
0.0
 13
1.0
 23
0.0
 33
0.0
 40
0.0
 40
0.0
 40
0.0
 40
0.0
 40
1.0
 40
1.0
 40
1.0
 40
2.0
 40
2.0
 40
2.0
 40
3.0
 40
3.0
 40
3.0
 40
4.0
 40
4.0
 40
4.0
 40
5.0
 40
5.0
 40
5.0
 40
6.0
 40
6.0
 40
6.0
 40
7.0
 40
7.0
 40
7.0
 40
8.0
 40
8.0
 40
8.0
 40
9.0
 40
9.0
 40
9.0
 40
10.0
 40
10.0
 40
10.0
 40
11.0
 40
11.0
 40
11.0
 40
12.0
 40
12.0
 40
12.0
 40
13.0
 40
13.0
 40
13.0
 40
14.0
 40
14.0
 40
14.0
 40
15.0
 40
15.0
 40
15.0
 40
16.0
 40
16.0
 40
16.0
 40
17.0
 40
17.0
 40
17.0
 40
18.0
 40
18.0
 40
18.0
 40
19.0
 40
19.0
 40
19.0
 40
19.0
 10
80.92374265555031
 20
-128.8193548940104
 30
0.0
 10
80.92374265555031
 20
-128.9209852108253
 30
0.0
 10
80.90255531831603
 20
-129.1538736656282
 30
0.0
 10
80.71634790733827
 20
-129.2871988609074
 30
0.0
 10
80.6042100492934
 20
-129.3664360570681
 30
0.0
 10
80.50481904454394
 20
-129.3709146811989
 30
0.0
 10
80.42024195038105
 20
-129.3753933053298
 30
0.0
 10
80.42024195038105
 20
-129.3753933053298
 30
0.0
 10
80.42024195038105
 20
-129.1404377932357
 30
0.0
 10
80.42024195038105
 20
-129.1404377932357
 30
0.0
 10
80.49431150331392
 20
-129.1380262263961
 30
0.0
 10
80.7290947606337
 20
-129.1266574112947
 30
0.0
 10
80.7290947606337
 20
-128.8238335181413
 30
0.0
 10
80.7290947606337
 20
-128.6767279409211
 30
0.0
 10
80.65933157705739
 20
-128.5141194340173
 30
0.0
 10
80.43074949161107
 20
-128.5141194340173
 30
0.0
 10
80.31447751898388
 20
-128.5141194340173
 30
0.0
 10
80.2657294178676
 20
-128.5547715607433
 30
0.0
 10
80.2340345394033
 20
-128.5888780060472
 30
0.0
 10
80.15996498647043
 20
-128.6677706926594
 30
0.0
 10
80.14739038794927
 20
-128.792138639677
 30
0.0
 10
80.14739038794927
 20
-128.8510497724747
 30
0.0
 10
80.14739038794927
 20
-128.8713758358377
 30
0.0
 10
80.14945744524042
 20
-128.909616395724
 30
0.0
 10
80.15359155982271
 20
-128.9392442168972
 30
0.0
 10
80.15359155982271
 20
-128.9392442168972
 30
0.0
 10
79.95911591968036
 20
-128.9392442168972
 30
0.0
 10
79.95911591968036
 20
-128.9392442168972
 30
0.0
 10
79.96531709155381
 20
-128.8985920901712
 30
0.0
 10
79.96755640361923
 20
-128.8531168297659
 30
0.0
 10
79.96755640361923
 20
-128.8465711483439
 30
0.0
 10
79.96755640361923
 20
-128.7762912004448
 30
0.0
 10
79.94636906638495
 20
-128.5637288090049
 30
0.0
 10
79.70934649699976
 20
-128.5637288090049
 30
0.0
 10
79.53175182473512
 20
-128.5637288090049
 30
0.0
 10
79.47663029697112
 20
-128.7039441952546
 30
0.0
 10
79.47663029697112
 20
-128.8214219513016
 30
0.0
 10
79.47663029697112
 20
-129.1042642906406
 30
0.0
 10
79.70934649699976
 20
-129.1132215389023
 30
0.0
 10
79.78134899264147
 20
-129.1177001630331
 30
0.0
 10
79.78134899264147
 20
-129.1177001630331
 30
0.0
 10
79.78134899264147
 20
-129.3347411786038
 30
0.0
 10
79.78134899264147
 20
-129.3347411786038
 30
0.0
 10
79.65646428130117
 20
-129.3257839303422
 30
0.0
 10
79.27991534476335
 20
-129.2965006187175
 30
0.0
 10
79.27991534476335
 20
-128.8079860789091
 30
0.0
 10
79.27991534476335
 20
-128.5682074331357
 30
0.0
 10
79.40686711339481
 20
-128.3105142908391
 30
0.0
 10
79.70297307035204
 20
-128.3105142908391
 30
0.0
 10
79.88918048132979
 20
-128.3105142908391
 30
0.0
 10
79.97169051820153
 20
-128.4124891172024
 30
0.0
 10
80.03301321783897
 20
-128.5185980581481
 30
0.0
 10
80.06057398172098
 20
-128.4531412439284
 30
0.0
 10
80.14101696130156
 20
-128.2584933490118
 30
0.0
 10
80.4181748930899
 20
-128.2584933490118
 30
0.0
 10
80.75665552451571
 20
-128.2584933490118
 30
0.0
 10
80.92374265555031
 20
-128.523076682279
 30
0.0
 10
80.92374265555031
 20
-128.8193548940104
 30
0.0
  0
HATCH
  5
F5
330
EE
100
AcDbEntity
  8
_U+30EC_U+30A4_U+30E4_U+30FC 1
 62
   179
420
  2234388
100
AcDbHatch
 10
0.0
 20
0.0
 30
0.0
210
0.0
220
0.0
230
1.0
  2
SOLID
 70
     1
 71
     0
 91
        1
 92
        1
 93
        1
 72
     4
 94
        3
 73
     0
 74
     1
 95
       62
 96
       58
 40
0.0
 40
0.0
 40
0.0
 40
0.0
 40
1.0
 40
1.0
 40
1.0
 40
2.0
 40
2.0
 40
2.0
 40
3.0
 40
3.0
 40
3.0
 40
4.0
 40
4.0
 40
4.0
 40
5.0
 40
5.0
 40
5.0
 40
6.0
 40
6.0
 40
6.0
 40
7.0
 40
7.0
 40
7.0
 40
8.0
 40
8.0
 40
8.0
 40
9.0
 40
9.0
 40
9.0
 40
10.0
 40
10.0
 40
10.0
 40
11.0
 40
11.0
 40
11.0
 40
12.0
 40
12.0
 40
12.0
 40
13.0
 40
13.0
 40
13.0
 40
14.0
 40
14.0
 40
14.0
 40
15.0
 40
15.0
 40
15.0
 40
16.0
 40
16.0
 40
16.0
 40
17.0
 40
17.0
 40
17.0
 40
18.0
 40
18.0
 40
18.0
 40
19.0
 40
19.0
 40
19.0
 40
19.0
 10
80.92374265555031
 20
-128.8193548940104
 10
80.92374265555031
 20
-128.9209852108253
 10
80.90255531831603
 20
-129.1538736656282
 10
80.71634790733827
 20
-129.2871988609074
 10
80.6042100492934
 20
-129.3664360570681
 10
80.50481904454394
 20
-129.3709146811989
 10
80.42024195038105
 20
-129.3753933053298
 10
80.42024195038105
 20
-129.3753933053298
 10
80.42024195038105
 20
-129.1404377932357
 10
80.42024195038105
 20
-129.1404377932357
 10
80.49431150331392
 20
-129.1380262263961
 10
80.7290947606337
 20
-129.1266574112947
 10
80.7290947606337
 20
-128.8238335181413
 10
80.7290947606337
 20
-128.6767279409211
 10
80.65933157705739
 20
-128.5141194340173
 10
80.43074949161107
 20
-128.5141194340173
 10
80.31447751898388
 20
-128.5141194340173
 10
80.2657294178676
 20
-128.5547715607433
 10
80.2340345394033
 20
-128.5888780060472
 10
80.15996498647043
 20
-128.6677706926594
 10
80.14739038794927
 20
-128.792138639677
 10
80.14739038794927
 20
-128.8510497724747
 10
80.14739038794927
 20
-128.8713758358377
 10
80.14945744524042
 20
-128.909616395724
 10
80.15359155982271
 20
-128.9392442168972
 10
80.15359155982271
 20
-128.9392442168972
 10
79.95911591968036
 20
-128.9392442168972
 10
79.95911591968036
 20
-128.9392442168972
 10
79.96531709155381
 20
-128.8985920901712
 10
79.96755640361923
 20
-128.8531168297659
 10
79.96755640361923
 20
-128.8465711483439
 10
79.96755640361923
 20
-128.7762912004448
 10
79.94636906638495
 20
-128.5637288090049
 10
79.70934649699976
 20
-128.5637288090049
 10
79.53175182473512
 20
-128.5637288090049
 10
79.47663029697112
 20
-128.7039441952546
 10
79.47663029697112
 20
-128.8214219513016
 10
79.47663029697112
 20
-129.1042642906406
 10
79.70934649699976
 20
-129.1132215389023
 10
79.78134899264147
 20
-129.1177001630331
 10
79.78134899264147
 20
-129.1177001630331
 10
79.78134899264147
 20
-129.3347411786038
 10
79.78134899264147
 20
-129.3347411786038
 10
79.65646428130117
 20
-129.3257839303422
 10
79.27991534476335
 20
-129.2965006187175
 10
79.27991534476335
 20
-128.8079860789091
 10
79.27991534476335
 20
-128.5682074331357
 10
79.40686711339481
 20
-128.3105142908391
 10
79.70297307035204
 20
-128.3105142908391
 10
79.88918048132979
 20
-128.3105142908391
 10
79.97169051820153
 20
-128.4124891172024
 10
80.03301321783897
 20
-128.5185980581481
 10
80.06057398172098
 20
-128.4531412439284
 10
80.14101696130156
 20
-128.2584933490118
 10
80.4181748930899
 20
-128.2584933490118
 10
80.75665552451571
 20
-128.2584933490118
 10
80.92374265555031
 20
-128.523076682279
 10
80.92374265555031
 20
-128.8193548940104
 97
        0
 97
        0
 75
     2
 76
     1
 98
        0
  0
ENDBLK
  5
F1
330
EE
100
AcDbEntity
  8
0
100
AcDbBlockEnd
  0
ENDSEC
  0
SECTION
  2
ENTITIES
  0
SPLINE
  5
41
330
1F
100
AcDbEntity
  8
_U+30EC_U+30A4_U+30E4_U+30FC 1
370
     0
100
AcDbSpline
210
0.0
220
0.0
230
1.0
 70
    11
 71
     3
 72
    44
 73
    40
 74
     0
 42
0.0000000001
 43
0.0000000001
 12
1.0
 22
0.0
 32
0.0
 13
1.0
 23
0.0
 33
0.0
 40
0.0
 40
0.0
 40
0.0
 40
0.0
 40
1.0
 40
1.0
 40
1.0
 40
2.0
 40
2.0
 40
2.0
 40
3.0
 40
3.0
 40
3.0
 40
4.0
 40
4.0
 40
4.0
 40
5.0
 40
5.0
 40
5.0
 40
6.0
 40
6.0
 40
6.0
 40
7.0
 40
7.0
 40
7.0
 40
8.0
 40
8.0
 40
8.0
 40
9.0
 40
9.0
 40
9.0
 40
10.0
 40
10.0
 40
10.0
 40
11.0
 40
11.0
 40
11.0
 40
12.0
 40
12.0
 40
12.0
 40
13.0
 40
13.0
 40
13.0
 40
13.0
 10
86.469641127309
 20
-122.9439021914864
 30
0.0
 10
85.91740280806444
 20
-122.9439021914864
 30
0.0
 10
85.4695514306012
 20
-123.3917888580409
 30
0.0
 10
85.4695514306012
 20
-123.9440271912363
 30
0.0
 10
85.4695514306012
 20
-123.9440271912363
 30
0.0
 10
85.4695514306012
 20
-134.9437088551527
 30
0.0
 10
85.4695514306012
 20
-134.9437088551527
 30
0.0
 10
85.4695514306012
 20
-135.4962999661262
 30
0.0
 10
85.91740280806444
 20
-135.9441513549026
 30
0.0
 10
86.469641127309
 20
-135.9441513549026
 30
0.0
 10
86.469641127309
 20
-135.9441513549026
 30
0.0
 10
97.46932497563242
 20
-135.9441513549026
 30
0.0
 10
97.46932497563242
 20
-135.9441513549026
 30
0.0
 10
98.02191361036375
 20
-135.9441513549026
 30
0.0
 10
98.46980275316048
 20
-135.4962999661262
 30
0.0
 10
98.46980275316048
 20
-134.9437088551527
 30
0.0
 10
98.46980275316048
 20
-134.9437088551527
 30
0.0
 10
86.469641127309
 20
-134.9437088551527
 30
0.0
 10
86.469641127309
 20
-134.9437088551527
 30
0.0
 10
86.469641127309
 20
-134.9437088551527
 30
0.0
 10
86.469641127309
 20
-131.4441885782502
 30
0.0
 10
86.469641127309
 20
-131.4441885782502
 30
0.0
 10
86.469641127309
 20
-131.4441885782502
 30
0.0
 10
98.46980275316048
 20
-131.4441885782502
 30
0.0
 10
98.46980275316048
 20
-131.4441885782502
 30
0.0
 10
98.46980275316048
 20
-131.4441885782502
 30
0.0
 10
98.98930080790588
 20
-131.1437630227697
 30
0.0
 10
98.98930080790588
 20
-131.1437630227697
 30
0.0
 10
98.98930080790588
 20
-131.1437630227697
 30
0.0
 10
103.7697217970583
 20
-131.1437630227697
 30
0.0
 10
103.7697217970583
 20
-131.1437630227697
 30
0.0
 10
104.156260398308
 20
-131.1437630227697
 30
0.0
 10
104.4697740014207
 20
-130.8309549672921
 30
0.0
 10
104.4697740014207
 20
-130.4437108007221
 30
0.0
 10
104.4697740014207
 20
-130.4437108007221
 30
0.0
 10
86.469641127309
 20
-130.4437108007221
 30
0.0
 10
86.469641127309
 20
-130.4437108007221
 30
0.0
 10
86.469641127309
 20
-130.4437108007221
 30
0.0
 10
86.469641127309
 20
-122.9439021914864
 30
0.0
 10
86.469641127309
 20
-122.9439021914864
 30
0.0
  0
HATCH
  5
42
330
1F
100
AcDbEntity
  8
_U+30EC_U+30A4_U+30E4_U+30FC 1
 62
   253
420
 11711154
100
AcDbHatch
 10
0.0
 20
0.0
 30
0.0
210
0.0
220
0.0
230
1.0
  2
SOLID
 70
     1
 71
     0
 91
        1
 92
        1
 93
        1
 72
     4
 94
        3
 73
     0
 74
     1
 95
       44
 96
       40
 40
0.0
 40
0.0
 40
0.0
 40
0.0
 40
1.0
 40
1.0
 40
1.0
 40
2.0
 40
2.0
 40
2.0
 40
3.0
 40
3.0
 40
3.0
 40
4.0
 40
4.0
 40
4.0
 40
5.0
 40
5.0
 40
5.0
 40
6.0
 40
6.0
 40
6.0
 40
7.0
 40
7.0
 40
7.0
 40
8.0
 40
8.0
 40
8.0
 40
9.0
 40
9.0
 40
9.0
 40
10.0
 40
10.0
 40
10.0
 40
11.0
 40
11.0
 40
11.0
 40
12.0
 40
12.0
 40
12.0
 40
13.0
 40
13.0
 40
13.0
 40
13.0
 10
86.469641127309
 20
-122.9439021914864
 10
85.91740280806444
 20
-122.9439021914864
 10
85.4695514306012
 20
-123.3917888580409
 10
85.4695514306012
 20
-123.9440271912363
 10
85.4695514306012
 20
-123.9440271912363
 10
85.4695514306012
 20
-134.9437088551527
 10
85.4695514306012
 20
-134.9437088551527
 10
85.4695514306012
 20
-135.4962999661262
 10
85.91740280806444
 20
-135.9441513549026
 10
86.469641127309
 20
-135.9441513549026
 10
86.469641127309
 20
-135.9441513549026
 10
97.46932497563242
 20
-135.9441513549026
 10
97.46932497563242
 20
-135.9441513549026
 10
98.02191361036375
 20
-135.9441513549026
 10
98.46980275316048
 20
-135.4962999661262
 10
98.46980275316048
 20
-134.9437088551527
 10
98.46980275316048
 20
-134.9437088551527
 10
86.469641127309
 20
-134.9437088551527
 10
86.469641127309
 20
-134.9437088551527
 10
86.469641127309
 20
-134.9437088551527
 10
86.469641127309
 20
-131.4441885782502
 10
86.469641127309
 20
-131.4441885782502
 10
86.469641127309
 20
-131.4441885782502
 10
98.46980275316048
 20
-131.4441885782502
 10
98.46980275316048
 20
-131.4441885782502
 10
98.46980275316048
 20
-131.4441885782502
 10
98.98930080790588
 20
-131.1437630227697
 10
98.98930080790588
 20
-131.1437630227697
 10
98.98930080790588
 20
-131.1437630227697
 10
103.7697217970583
 20
-131.1437630227697
 10
103.7697217970583
 20
-131.1437630227697
 10
104.156260398308
 20
-131.1437630227697
 10
104.4697740014207
 20
-130.8309549672921
 10
104.4697740014207
 20
-130.4437108007221
 10
104.4697740014207
 20
-130.4437108007221
 10
86.469641127309
 20
-130.4437108007221
 10
86.469641127309
 20
-130.4437108007221
 10
86.469641127309
 20
-130.4437108007221
 10
86.469641127309
 20
-122.9439021914864
 10
86.469641127309
 20
-122.9439021914864
 97
        0
 97
        0
 75
     2
 76
     1
 98
        0
  0
POLYLINE
  5
43
330
1F
100
AcDbEntity
  8
_U+30EC_U+30A4_U+30E4_U+30FC 1
 62
   179
420
  2234388
370
    25
100
AcDb2dPolyline
 66
     1
 10
0.0
 20
0.0
 30
0.0
  0
VERTEX
  5
44
330
43
100
AcDbEntity
  8
_U+30EC_U+30A4_U+30E4_U+30FC 1
 62
   179
420
  2234388
370
    25
100
AcDbVertex
100
AcDb2dVertex
 10
86.469641127309
 20
-134.9437088551527
 30
0.0
  0
VERTEX
  5
45
330
43
100
AcDbEntity
  8
_U+30EC_U+30A4_U+30E4_U+30FC 1
 62
   179
420
  2234388
370
    25
100
AcDbVertex
100
AcDb2dVertex
 10
98.46980275316048
 20
-134.9437088551527
 30
0.0
  0
SEQEND
  5
46
330
43
100
AcDbEntity
  8
_U+30EC_U+30A4_U+30E4_U+30FC 1
 62
   179
420
  2234388
370
    25
  0
POLYLINE
  5
47
330
1F
100
AcDbEntity
  8
_U+30EC_U+30A4_U+30E4_U+30FC 1
 62
   179
420
  2234388
370
    25
100
AcDb2dPolyline
 66
     1
 10
0.0
 20
0.0
 30
0.0
  0
VERTEX
  5
48
330
47
100
AcDbEntity
  8
_U+30EC_U+30A4_U+30E4_U+30FC 1
 62
   179
420
  2234388
370
    25
100
AcDbVertex
100
AcDb2dVertex
 10
86.469641127309
 20
-131.4441885782502
 30
0.0
  0
VERTEX
  5
49
330
47
100
AcDbEntity
  8
_U+30EC_U+30A4_U+30E4_U+30FC 1
 62
   179
420
  2234388
370
    25
100
AcDbVertex
100
AcDb2dVertex
 10
98.46980275316048
 20
-131.4441885782502
 30
0.0
  0
SEQEND
  5
4A
330
47
100
AcDbEntity
  8
_U+30EC_U+30A4_U+30E4_U+30FC 1
 62
   179
420
  2234388
370
    25
  0
POLYLINE
  5
4B
330
1F
100
AcDbEntity
  8
_U+30EC_U+30A4_U+30E4_U+30FC 1
 62
   179
420
  2234388
370
    25
100
AcDb2dPolyline
 66
     1
 10
0.0
 20
0.0
 30
0.0
  0
VERTEX
  5
4C
330
4B
100
AcDbEntity
  8
_U+30EC_U+30A4_U+30E4_U+30FC 1
 62
   179
420
  2234388
370
    25
100
AcDbVertex
100
AcDb2dVertex
 10
86.469641127309
 20
-135.9441513549026
 30
0.0
  0
VERTEX
  5
4D
330
4B
100
AcDbEntity
  8
_U+30EC_U+30A4_U+30E4_U+30FC 1
 62
   179
420
  2234388
370
    25
100
AcDbVertex
100
AcDb2dVertex
 10
97.46932497563242
 20
-135.9441513549026
 30
0.0
  0
SEQEND
  5
4E
330
4B
100
AcDbEntity
  8
_U+30EC_U+30A4_U+30E4_U+30FC 1
 62
   179
420
  2234388
370
    25
  0
POLYLINE
  5
4F
330
1F
100
AcDbEntity
  8
_U+30EC_U+30A4_U+30E4_U+30FC 1
 62
   179
420
  2234388
370
    25
100
AcDb2dPolyline
 66
     1
 10
0.0
 20
0.0
 30
0.0
  0
VERTEX
  5
50
330
4F
100
AcDbEntity
  8
_U+30EC_U+30A4_U+30E4_U+30FC 1
 62
   179
420
  2234388
370
    25
100
AcDbVertex
100
AcDb2dVertex
 10
85.4695514306012
 20
-123.9440271912363
 30
0.0
  0
VERTEX
  5
51
330
4F
100
AcDbEntity
  8
_U+30EC_U+30A4_U+30E4_U+30FC 1
 62
   179
420
  2234388
370
    25
100
AcDbVertex
100
AcDb2dVertex
 10
85.4695514306012
 20
-134.9437088551527
 30
0.0
  0
SEQEND
  5
52
330
4F
100
AcDbEntity
  8
_U+30EC_U+30A4_U+30E4_U+30FC 1
 62
   179
420
  2234388
370
    25
  0
POLYLINE
  5
53
330
1F
100
AcDbEntity
  8
_U+30EC_U+30A4_U+30E4_U+30FC 1
 62
   179
420
  2234388
370
    25
100
AcDb2dPolyline
 66
     1
 10
0.0
 20
0.0
 30
0.0
  0
VERTEX
  5
54
330
53
100
AcDbEntity
  8
_U+30EC_U+30A4_U+30E4_U+30FC 1
 62
   179
420
  2234388
370
    25
100
AcDbVertex
100
AcDb2dVertex
 10
86.469641127309
 20
-122.9439021914864
 30
0.0
  0
VERTEX
  5
55
330
53
100
AcDbEntity
  8
_U+30EC_U+30A4_U+30E4_U+30FC 1
 62
   179
420
  2234388
370
    25
100
AcDbVertex
100
AcDb2dVertex
 10
86.469641127309
 20
-130.4437108007221
 30
0.0
  0
SEQEND
  5
56
330
53
100
AcDbEntity
  8
_U+30EC_U+30A4_U+30E4_U+30FC 1
 62
   179
420
  2234388
370
    25
  0
POLYLINE
  5
57
330
1F
100
AcDbEntity
  8
_U+30EC_U+30A4_U+30E4_U+30FC 1
 62
   179
420
  2234388
370
    25
100
AcDb2dPolyline
 66
     1
 10
0.0
 20
0.0
 30
0.0
  0
VERTEX
  5
58
330
57
100
AcDbEntity
  8
_U+30EC_U+30A4_U+30E4_U+30FC 1
 62
   179
420
  2234388
370
    25
100
AcDbVertex
100
AcDb2dVertex
 10
86.469641127309
 20
-130.4437108007221
 30
0.0
  0
VERTEX
  5
59
330
57
100
AcDbEntity
  8
_U+30EC_U+30A4_U+30E4_U+30FC 1
 62
   179
420
  2234388
370
    25
100
AcDbVertex
100
AcDb2dVertex
 10
104.4697740014207
 20
-130.4437108007221
 30
0.0
  0
SEQEND
  5
5A
330
57
100
AcDbEntity
  8
_U+30EC_U+30A4_U+30E4_U+30FC 1
 62
   179
420
  2234388
370
    25
  0
POLYLINE
  5
5B
330
1F
100
AcDbEntity
  8
_U+30EC_U+30A4_U+30E4_U+30FC 1
 62
   179
420
  2234388
370
    25
100
AcDb2dPolyline
 66
     1
 10
0.0
 20
0.0
 30
0.0
  0
VERTEX
  5
5C
330
5B
100
AcDbEntity
  8
_U+30EC_U+30A4_U+30E4_U+30FC 1
 62
   179
420
  2234388
370
    25
100
AcDbVertex
100
AcDb2dVertex
 10
86.469641127309
 20
-131.4441885782502
 30
0.0
  0
VERTEX
  5
5D
330
5B
100
AcDbEntity
  8
_U+30EC_U+30A4_U+30E4_U+30FC 1
 62
   179
420
  2234388
370
    25
100
AcDbVertex
100
AcDb2dVertex
 10
86.469641127309
 20
-134.9437088551527
 30
0.0
  0
SEQEND
  5
5E
330
5B
100
AcDbEntity
  8
_U+30EC_U+30A4_U+30E4_U+30FC 1
 62
   179
420
  2234388
370
    25
  0
POLYLINE
  5
5F
330
1F
100
AcDbEntity
  8
_U+30EC_U+30A4_U+30E4_U+30FC 1
 62
   179
420
  2234388
370
    25
100
AcDb2dPolyline
 66
     1
 10
0.0
 20
0.0
 30
0.0
  0
VERTEX
  5
60
330
5F
100
AcDbEntity
  8
_U+30EC_U+30A4_U+30E4_U+30FC 1
 62
   179
420
  2234388
370
    25
100
AcDbVertex
100
AcDb2dVertex
 10
98.98930080790588
 20
-131.1437630227697
 30
0.0
  0
VERTEX
  5
61
330
5F
100
AcDbEntity
  8
_U+30EC_U+30A4_U+30E4_U+30FC 1
 62
   179
420
  2234388
370
    25
100
AcDbVertex
100
AcDb2dVertex
 10
103.7697217970583
 20
-131.1437630227697
 30
0.0
  0
SEQEND
  5
62
330
5F
100
AcDbEntity
  8
_U+30EC_U+30A4_U+30E4_U+30FC 1
 62
   179
420
  2234388
370
    25
  0
POLYLINE
  5
63
330
1F
100
AcDbEntity
  8
_U+30EC_U+30A4_U+30E4_U+30FC 1
 62
   179
420
  2234388
370
    25
100
AcDb2dPolyline
 66
     1
 10
0.0
 20
0.0
 30
0.0
  0
VERTEX
  5
64
330
63
100
AcDbEntity
  8
_U+30EC_U+30A4_U+30E4_U+30FC 1
 62
   179
420
  2234388
370
    25
100
AcDbVertex
100
AcDb2dVertex
 10
98.46980275316048
 20
-131.4441885782502
 30
0.0
  0
VERTEX
  5
65
330
63
100
AcDbEntity
  8
_U+30EC_U+30A4_U+30E4_U+30FC 1
 62
   179
420
  2234388
370
    25
100
AcDbVertex
100
AcDb2dVertex
 10
98.98930080790588
 20
-131.1437630227697
 30
0.0
  0
SEQEND
  5
66
330
63
100
AcDbEntity
  8
_U+30EC_U+30A4_U+30E4_U+30FC 1
 62
   179
420
  2234388
370
    25
  0
POLYLINE
  5
67
330
1F
100
AcDbEntity
  8
_U+30EC_U+30A4_U+30E4_U+30FC 1
 62
   179
420
  2234388
370
     9
100
AcDb2dPolyline
 66
     1
 10
0.0
 20
0.0
 30
0.0
  0
VERTEX
  5
68
330
67
100
AcDbEntity
  8
_U+30EC_U+30A4_U+30E4_U+30FC 1
 62
   179
420
  2234388
370
     9
100
AcDbVertex
100
AcDb2dVertex
 10
85.76239442300377
 20
-135.6513105216428
 30
0.0
  0
VERTEX
  5
69
330
67
100
AcDbEntity
  8
_U+30EC_U+30A4_U+30E4_U+30FC 1
 62
   179
420
  2234388
370
     9
100
AcDbVertex
100
AcDb2dVertex
 10
81.46979442407704
 20
-139.9439105205695
 30
0.0
  0
SEQEND
  5
6A
330
67
100
AcDbEntity
  8
_U+30EC_U+30A4_U+30E4_U+30FC 1
 62
   179
420
  2234388
370
     9
  0
POLYLINE
  5
6B
330
1F
100
AcDbEntity
  8
_U+30EC_U+30A4_U+30E4_U+30FC 1
 62
   179
420
  2234388
370
     9
100
AcDb2dPolyline
 66
     1
 10
0.0
 20
0.0
 30
0.0
  0
VERTEX
  5
6C
330
6B
100
AcDbEntity
  8
_U+30EC_U+30A4_U+30E4_U+30FC 1
 62
   179
420
  2234388
370
     9
100
AcDbVertex
100
AcDb2dVertex
 10
77.25748469566403
 20
-139.9439105205695
 30
0.0
  0
VERTEX
  5
6D
330
6B
100
AcDbEntity
  8
_U+30EC_U+30A4_U+30E4_U+30FC 1
 62
   179
420
  2234388
370
     9
100
AcDbVertex
100
AcDb2dVertex
 10
81.46979442407704
 20
-139.9439105205695
 30
0.0
  0
SEQEND
  5
6E
330
6B
100
AcDbEntity
  8
_U+30EC_U+30A4_U+30E4_U+30FC 1
 62
   179
420
  2234388
370
     9
  0
POLYLINE
  5
6F
330
1F
100
AcDbEntity
  8
_U+30EC_U+30A4_U+30E4_U+30FC 1
 62
   179
420
  2234388
370
     9
100
AcDb2dPolyline
 66
     1
 10
0.0
 20
0.0
 30
0.0
  0
VERTEX
  5
70
330
6F
100
AcDbEntity
  8
_U+30EC_U+30A4_U+30E4_U+30FC 1
 62
   179
420
  2234388
370
     9
100
AcDbVertex
100
AcDb2dVertex
 10
85.76239442300377
 20
-135.6513105216428
 30
0.0
  0
VERTEX
  5
71
330
6F
100
AcDbEntity
  8
_U+30EC_U+30A4_U+30E4_U+30FC 1
 62
   179
420
  2234388
370
     9
100
AcDbVertex
100
AcDb2dVertex
 10
84.46357034515479
 20
-136.4009632992331
 30
0.0
  0
SEQEND
  5
72
330
6F
100
AcDbEntity
  8
_U+30EC_U+30A4_U+30E4_U+30FC 1
 62
   179
420
  2234388
370
     9
  0
POLYLINE
  5
73
330
1F
100
AcDbEntity
  8
_U+30EC_U+30A4_U+30E4_U+30FC 1
 62
   179
420
  2234388
370
     9
100
AcDb2dPolyline
 66
     1
 10
0.0
 20
0.0
 30
0.0
  0
VERTEX
  5
74
330
73
100
AcDbEntity
  8
_U+30EC_U+30A4_U+30E4_U+30FC 1
 62
   179
420
  2234388
370
     9
100
AcDbVertex
100
AcDb2dVertex
 10
85.76239442300377
 20
-135.6513105216428
 30
0.0
  0
VERTEX
  5
75
330
73
100
AcDbEntity
  8
_U+30EC_U+30A4_U+30E4_U+30FC 1
 62
   179
420
  2234388
370
     9
100
AcDbVertex
100
AcDb2dVertex
 10
85.0127416454134
 20
-136.9501324657622
 30
0.0
  0
SEQEND
  5
76
330
73
100
AcDbEntity
  8
_U+30EC_U+30A4_U+30E4_U+30FC 1
 62
   179
420
  2234388
370
     9
  0
SPLINE
  5
77
330
1F
100
AcDbEntity
  8
_U+30EC_U+30A4_U+30E4_U+30FC 1
 62
   179
420
  2234388
370
    25
100
AcDbSpline
210
0.0
220
0.0
230
1.0
 70
     8
 71
     3
 72
     8
 73
     4
 74
     0
 42
0.0000000001
 43
0.0000000001
 12
1.0
 22
0.0
 32
0.0
 13
1.0
 23
0.0
 33
0.0
 40
0.0
 40
0.0
 40
0.0
 40
0.0
 40
1.0
 40
1.0
 40
1.0
 40
1.0
 10
85.4695514306012
 20
-134.9437088551527
 30
0.0
 10
85.4695514306012
 20
-135.4962999661262
 30
0.0
 10
85.91740280806444
 20
-135.9441513549026
 30
0.0
 10
86.469641127309
 20
-135.9441513549026
 30
0.0
  0
SPLINE
  5
78
330
1F
100
AcDbEntity
  8
_U+30EC_U+30A4_U+30E4_U+30FC 1
 62
   179
420
  2234388
370
    25
100
AcDbSpline
210
0.0
220
0.0
230
1.0
 70
     8
 71
     3
 72
     8
 73
     4
 74
     0
 42
0.0000000001
 43
0.0000000001
 12
1.0
 22
0.0
 32
0.0
 13
1.0
 23
0.0
 33
0.0
 40
0.0
 40
0.0
 40
0.0
 40
0.0
 40
1.0
 40
1.0
 40
1.0
 40
1.0
 10
86.469641127309
 20
-122.9439021914864
 30
0.0
 10
85.91740280806444
 20
-122.9439021914864
 30
0.0
 10
85.4695514306012
 20
-123.3917888580409
 30
0.0
 10
85.4695514306012
 20
-123.9440271912363
 30
0.0
  0
SPLINE
  5
79
330
1F
100
AcDbEntity
  8
_U+30EC_U+30A4_U+30E4_U+30FC 1
 62
   179
420
  2234388
370
    25
100
AcDbSpline
210
0.0
220
0.0
230
1.0
 70
     8
 71
     3
 72
     8
 73
     4
 74
     0
 42
0.0000000001
 43
0.0000000001
 12
1.0
 22
0.0
 32
0.0
 13
1.0
 23
0.0
 33
0.0
 40
0.0
 40
0.0
 40
0.0
 40
0.0
 40
1.0
 40
1.0
 40
1.0
 40
1.0
 10
97.46932497563242
 20
-135.9441513549026
 30
0.0
 10
98.02191361036375
 20
-135.9441513549026
 30
0.0
 10
98.46980275316048
 20
-135.4962999661262
 30
0.0
 10
98.46980275316048
 20
-134.9437088551527
 30
0.0
  0
SPLINE
  5
7A
330
1F
100
AcDbEntity
  8
_U+30EC_U+30A4_U+30E4_U+30FC 1
 62
   179
420
  2234388
370
    25
100
AcDbSpline
210
0.0
220
0.0
230
1.0
 70
     8
 71
     3
 72
     8
 73
     4
 74
     0
 42
0.0000000001
 43
0.0000000001
 12
1.0
 22
0.0
 32
0.0
 13
1.0
 23
0.0
 33
0.0
 40
0.0
 40
0.0
 40
0.0
 40
0.0
 40
1.0
 40
1.0
 40
1.0
 40
1.0
 10
103.7697217970583
 20
-131.1437630227697
 30
0.0
 10
104.156260398308
 20
-131.1437630227697
 30
0.0
 10
104.4697740014207
 20
-130.8309549672921
 30
0.0
 10
104.4697740014207
 20
-130.4437108007221
 30
0.0
  0
SPLINE
  5
7B
330
1F
100
AcDbEntity
  8
_U+30EC_U+30A4_U+30E4_U+30FC 1
 62
   179
420
  2234388
370
     9
100
AcDbSpline
210
0.0
220
0.0
230
1.0
 70
    11
 71
     3
 72
    17
 73
    13
 74
     0
 42
0.0000000001
 43
0.0000000001
 12
1.0
 22
0.0
 32
0.0
 13
1.0
 23
0.0
 33
0.0
 40
0.0
 40
0.0
 40
0.0
 40
0.0
 40
1.0
 40
1.0
 40
1.0
 40
2.0
 40
2.0
 40
2.0
 40
3.0
 40
3.0
 40
3.0
 40
4.0
 40
4.0
 40
4.0
 40
4.0
 10
104.5696833071908
 20
-118.9441783035973
 30
0.0
 10
104.5696833071908
 20
-118.8890391369446
 30
0.0
 10
104.5248805294241
 20
-118.8442363591778
 30
0.0
 10
104.4697740014207
 20
-118.8442363591778
 30
0.0
 10
104.4146348361607
 20
-118.8442363591778
 30
0.0
 10
104.3698673373028
 20
-118.8890391369446
 30
0.0
 10
104.3698673373028
 20
-118.9441783035973
 30
0.0
 10
104.3698673373028
 20
-118.9992821924725
 30
0.0
 10
104.4146348361607
 20
-119.044084970239
 30
0.0
 10
104.4697740014207
 20
-119.044084970239
 30
0.0
 10
104.5248805294241
 20
-119.044084970239
 30
0.0
 10
104.5696833071908
 20
-118.9992821924725
 30
0.0
 10
104.5696833071908
 20
-118.9441783035973
 30
0.0
  0
SPLINE
  5
7C
330
1F
100
AcDbEntity
  8
_U+30EC_U+30A4_U+30E4_U+30FC 1
 62
   179
420
  2234388
370
     9
100
AcDbSpline
210
0.0
220
0.0
230
1.0
 70
    11
 71
     3
 72
    17
 73
    13
 74
     0
 42
0.0000000001
 43
0.0000000001
 12
1.0
 22
0.0
 32
0.0
 13
1.0
 23
0.0
 33
0.0
 40
0.0
 40
0.0
 40
0.0
 40
0.0
 40
1.0
 40
1.0
 40
1.0
 40
2.0
 40
2.0
 40
2.0
 40
3.0
 40
3.0
 40
3.0
 40
4.0
 40
4.0
 40
4.0
 40
4.0
 10
86.56940668031933
 20
-118.9441783035973
 30
0.0
 10
86.56940668031933
 20
-118.8890391369446
 30
0.0
 10
86.52460390368456
 20
-118.8442363591778
 30
0.0
 10
86.4695000162015
 20
-118.8442363591778
 30
0.0
 10
86.41436085094155
 20
-118.8442363591778
 30
0.0
 10
86.36955807430678
 20
-118.8890391369446
 30
0.0
 10
86.36955807430678
 20
-118.9441783035973
 30
0.0
 10
86.36955807430678
 20
-118.9992821924725
 30
0.0
 10
86.41436085094155
 20
-119.044084970239
 30
0.0
 10
86.4695000162015
 20
-119.044084970239
 30
0.0
 10
86.52460390368456
 20
-119.044084970239
 30
0.0
 10
86.56940668031933
 20
-118.9992821924725
 30
0.0
 10
86.56940668031933
 20
-118.9441783035973
 30
0.0
  0
SPLINE
  5
7D
330
1F
100
AcDbEntity
  8
_U+30EC_U+30A4_U+30E4_U+30FC 1
 62
   179
420
  2234388
370
     9
100
AcDbSpline
210
0.0
220
0.0
230
1.0
 70
    11
 71
     3
 72
    17
 73
    13
 74
     0
 42
0.0000000001
 43
0.0000000001
 12
1.0
 22
0.0
 32
0.0
 13
1.0
 23
0.0
 33
0.0
 40
0.0
 40
0.0
 40
0.0
 40
0.0
 40
1.0
 40
1.0
 40
1.0
 40
2.0
 40
2.0
 40
2.0
 40
3.0
 40
3.0
 40
3.0
 40
4.0
 40
4.0
 40
4.0
 40
4.0
 10
85.56945809471902
 20
-126.4441280239444
 30
0.0
 10
85.56945809471902
 20
-126.3890241350695
 30
0.0
 10
85.52465531808427
 20
-126.3442213573028
 30
0.0
 10
85.4695514306012
 20
-126.3442213573028
 30
0.0
 10
85.41441226534124
 20
-126.3442213573028
 30
0.0
 10
85.36964476648336
 20
-126.3890241350695
 30
0.0
 10
85.36964476648336
 20
-126.4441280239444
 30
0.0
 10
85.36964476648336
 20
-126.4992671905975
 30
0.0
 10
85.41441226534124
 20
-126.5440346905864
 30
0.0
 10
85.4695514306012
 20
-126.5440346905864
 30
0.0
 10
85.52465531808427
 20
-126.5440346905864
 30
0.0
 10
85.56945809471902
 20
-126.4992671905975
 30
0.0
 10
85.56945809471902
 20
-126.4441280239444
 30
0.0
  0
SPLINE
  5
7E
330
1F
100
AcDbEntity
  8
_U+30EC_U+30A4_U+30E4_U+30FC 1
 62
   179
420
  2234388
370
     9
100
AcDbSpline
210
0.0
220
0.0
230
1.0
 70
    11
 71
     3
 72
    17
 73
    13
 74
     0
 42
0.0000000001
 43
0.0000000001
 12
1.0
 22
0.0
 32
0.0
 13
1.0
 23
0.0
 33
0.0
 40
0.0
 40
0.0
 40
0.0
 40
0.0
 40
1.0
 40
1.0
 40
1.0
 40
2.0
 40
2.0
 40
2.0
 40
3.0
 40
3.0
 40
3.0
 40
4.0
 40
4.0
 40
4.0
 40
4.0
 10
86.5695499783577
 20
-126.4441280239444
 30
0.0
 10
86.5695499783577
 20
-126.3890241350695
 30
0.0
 10
86.52478029256895
 20
-126.3442213573028
 30
0.0
 10
86.469641127309
 20
-126.3442213573028
 30
0.0
 10
86.41418446205715
 20
-126.3442213573028
 30
0.0
 10
86.36941696319927
 20
-126.3890241350695
 30
0.0
 10
86.36941696319927
 20
-126.4441280239444
 30
0.0
 10
86.36941696319927
 20
-126.4992671905975
 30
0.0
 10
86.41418446205715
 20
-126.5440346905864
 30
0.0
 10
86.469641127309
 20
-126.5440346905864
 30
0.0
 10
86.52478029256895
 20
-126.5440346905864
 30
0.0
 10
86.5695499783577
 20
-126.4992671905975
 30
0.0
 10
86.5695499783577
 20
-126.4441280239444
 30
0.0
  0
SPLINE
  5
7F
330
1F
100
AcDbEntity
  8
_U+30EC_U+30A4_U+30E4_U+30FC 1
 62
   179
420
  2234388
370
     9
100
AcDbSpline
210
0.0
220
0.0
230
1.0
 70
    11
 71
     3
 72
    17
 73
    13
 74
     0
 42
0.0000000001
 43
0.0000000001
 12
1.0
 22
0.0
 32
0.0
 13
1.0
 23
0.0
 33
0.0
 40
0.0
 40
0.0
 40
0.0
 40
0.0
 40
1.0
 40
1.0
 40
1.0
 40
2.0
 40
2.0
 40
2.0
 40
3.0
 40
3.0
 40
3.0
 40
4.0
 40
4.0
 40
4.0
 40
4.0
 10
81.56969903009471
 20
-135.9441513549026
 30
0.0
 10
81.56969903009471
 20
-135.8890474660277
 30
0.0
 10
81.52489625345996
 20
-135.844244688261
 30
0.0
 10
81.46979442407704
 20
-135.844244688261
 30
0.0
 10
81.41433570072503
 20
-135.844244688261
 30
0.0
 10
81.36953292409027
 20
-135.8890474660277
 30
0.0
 10
81.36953292409027
 20
-135.9441513549026
 30
0.0
 10
81.36953292409027
 20
-135.9992905215557
 30
0.0
 10
81.41433570072503
 20
-136.0440580215442
 30
0.0
 10
81.46979442407704
 20
-136.0440580215442
 30
0.0
 10
81.52489625345996
 20
-136.0440580215442
 30
0.0
 10
81.56969903009471
 20
-135.9992905215557
 30
0.0
 10
81.56969903009471
 20
-135.9441513549026
 30
0.0
  0
SPLINE
  5
80
330
1F
100
AcDbEntity
  8
_U+30EC_U+30A4_U+30E4_U+30FC 1
 62
   179
420
  2234388
370
     9
100
AcDbSpline
210
0.0
220
0.0
230
1.0
 70
    11
 71
     3
 72
    17
 73
    13
 74
     0
 42
0.0000000001
 43
0.0000000001
 12
1.0
 22
0.0
 32
0.0
 13
1.0
 23
0.0
 33
0.0
 40
0.0
 40
0.0
 40
0.0
 40
0.0
 40
1.0
 40
1.0
 40
1.0
 40
2.0
 40
2.0
 40
2.0
 40
3.0
 40
3.0
 40
3.0
 40
4.0
 40
4.0
 40
4.0
 40
4.0
 10
81.56969903009471
 20
-122.9439021914864
 30
0.0
 10
81.56969903009471
 20
-122.8887983026111
 30
0.0
 10
81.52489625345996
 20
-122.8439955248444
 30
0.0
 10
81.46979442407704
 20
-122.8439955248444
 30
0.0
 10
81.41433570072503
 20
-122.8439955248444
 30
0.0
 10
81.36953292409027
 20
-122.8887983026111
 30
0.0
 10
81.36953292409027
 20
-122.9439021914864
 30
0.0
 10
81.36953292409027
 20
-122.9993941359169
 30
0.0
 10
81.41433570072503
 20
-123.0441616359058
 30
0.0
 10
81.46979442407704
 20
-123.0441616359058
 30
0.0
 10
81.52489625345996
 20
-123.0441616359058
 30
0.0
 10
81.56969903009471
 20
-122.9993941359169
 30
0.0
 10
81.56969903009471
 20
-122.9439021914864
 30
0.0
  0
SPLINE
  5
81
330
1F
100
AcDbEntity
  8
_U+30EC_U+30A4_U+30E4_U+30FC 1
 62
   179
420
  2234388
370
     9
100
AcDbSpline
210
0.0
220
0.0
230
1.0
 70
    11
 71
     3
 72
    17
 73
    13
 74
     0
 42
0.0000000001
 43
0.0000000001
 12
1.0
 22
0.0
 32
0.0
 13
1.0
 23
0.0
 33
0.0
 40
0.0
 40
0.0
 40
0.0
 40
0.0
 40
1.0
 40
1.0
 40
1.0
 40
2.0
 40
2.0
 40
2.0
 40
3.0
 40
3.0
 40
3.0
 40
4.0
 40
4.0
 40
4.0
 40
4.0
 10
98.56970692972172
 20
-139.9439105205695
 30
0.0
 10
98.56970692972172
 20
-139.8888066316946
 30
0.0
 10
98.52490415308695
 20
-139.8440038539278
 30
0.0
 10
98.46980275316048
 20
-139.8440038539278
 30
0.0
 10
98.41466110034393
 20
-139.8440038539278
 30
0.0
 10
98.36989360148604
 20
-139.8888066316946
 30
0.0
 10
98.36989360148604
 20
-139.9439105205695
 30
0.0
 10
98.36989360148604
 20
-139.9990496872226
 30
0.0
 10
98.41466110034393
 20
-140.0438171872111
 30
0.0
 10
98.46980275316048
 20
-140.0438171872111
 30
0.0
 10
98.52490415308695
 20
-140.0438171872111
 30
0.0
 10
98.56970692972172
 20
-139.9990496872226
 30
0.0
 10
98.56970692972172
 20
-139.9439105205695
 30
0.0
  0
SPLINE
  5
82
330
1F
100
AcDbEntity
  8
_U+30EC_U+30A4_U+30E4_U+30FC 1
 62
   179
420
  2234388
370
     9
100
AcDbSpline
210
0.0
220
0.0
230
1.0
 70
    11
 71
     3
 72
    17
 73
    13
 74
     0
 42
0.0000000001
 43
0.0000000001
 12
1.0
 22
0.0
 32
0.0
 13
1.0
 23
0.0
 33
0.0
 40
0.0
 40
0.0
 40
0.0
 40
0.0
 40
1.0
 40
1.0
 40
1.0
 40
2.0
 40
2.0
 40
2.0
 40
3.0
 40
3.0
 40
3.0
 40
4.0
 40
4.0
 40
4.0
 40
4.0
 10
85.56945809471902
 20
-139.9439105205695
 30
0.0
 10
85.56945809471902
 20
-139.8888066316946
 30
0.0
 10
85.52465531808427
 20
-139.8440038539278
 30
0.0
 10
85.4695514306012
 20
-139.8440038539278
 30
0.0
 10
85.41441226534124
 20
-139.8440038539278
 30
0.0
 10
85.36964476648336
 20
-139.8888066316946
 30
0.0
 10
85.36964476648336
 20
-139.9439105205695
 30
0.0
 10
85.36964476648336
 20
-139.9990496872226
 30
0.0
 10
85.41441226534124
 20
-140.0438171872111
 30
0.0
 10
85.4695514306012
 20
-140.0438171872111
 30
0.0
 10
85.52465531808427
 20
-140.0438171872111
 30
0.0
 10
85.56945809471902
 20
-139.9990496872226
 30
0.0
 10
85.56945809471902
 20
-139.9439105205695
 30
0.0
  0
SPLINE
  5
83
330
1F
100
AcDbEntity
  8
_U+30EC_U+30A4_U+30E4_U+30FC 1
 62
   179
420
  2234388
370
     9
100
AcDbSpline
210
0.0
220
0.0
230
1.0
 70
    11
 71
     3
 72
    17
 73
    13
 74
     0
 42
0.0000000001
 43
0.0000000001
 12
1.0
 22
0.0
 32
0.0
 13
1.0
 23
0.0
 33
0.0
 40
0.0
 40
0.0
 40
0.0
 40
0.0
 40
1.0
 40
1.0
 40
1.0
 40
2.0
 40
2.0
 40
2.0
 40
3.0
 40
3.0
 40
3.0
 40
4.0
 40
4.0
 40
4.0
 40
4.0
 10
102.5694333076908
 20
-131.4441885782502
 30
0.0
 10
102.5694333076908
 20
-131.3890494115971
 30
0.0
 10
102.5246632177113
 20
-131.3442819116085
 30
0.0
 10
102.4695240524513
 20
-131.3442819116085
 30
0.0
 10
102.4144201649682
 20
-131.3442819116085
 30
0.0
 10
102.3696173883335
 20
-131.3890494115971
 30
0.0
 10
102.3696173883335
 20
-131.4441885782502
 30
0.0
 10
102.3696173883335
 20
-131.4992924671251
 30
0.0
 10
102.4144201649682
 20
-131.5440952448918
 30
0.0
 10
102.4695240524513
 20
-131.5440952448918
 30
0.0
 10
102.5246632177113
 20
-131.5440952448918
 30
0.0
 10
102.5694333076908
 20
-131.4992924671251
 30
0.0
 10
102.5694333076908
 20
-131.4441885782502
 30
0.0
  0
SPLINE
  5
84
330
1F
100
AcDbEntity
  8
_U+30EC_U+30A4_U+30E4_U+30FC 1
 62
   179
420
  2234388
370
     9
100
AcDbSpline
210
0.0
220
0.0
230
1.0
 70
    11
 71
     3
 72
    17
 73
    13
 74
     0
 42
0.0000000001
 43
0.0000000001
 12
1.0
 22
0.0
 32
0.0
 13
1.0
 23
0.0
 33
0.0
 40
0.0
 40
0.0
 40
0.0
 40
0.0
 40
1.0
 40
1.0
 40
1.0
 40
2.0
 40
2.0
 40
2.0
 40
3.0
 40
3.0
 40
3.0
 40
4.0
 40
4.0
 40
4.0
 40
4.0
 10
102.5694333076908
 20
-134.9437088551527
 30
0.0
 10
102.5694333076908
 20
-134.8885696885003
 30
0.0
 10
102.5246632177113
 20
-134.8438021885111
 30
0.0
 10
102.4695240524513
 20
-134.8438021885111
 30
0.0
 10
102.4144201649682
 20
-134.8438021885111
 30
0.0
 10
102.3696173883335
 20
-134.8885696885003
 30
0.0
 10
102.3696173883335
 20
-134.9437088551527
 30
0.0
 10
102.3696173883335
 20
-134.9995182995838
 30
0.0
 10
102.4144201649682
 20
-135.0442857995723
 30
0.0
 10
102.4695240524513
 20
-135.0442857995723
 30
0.0
 10
102.5246632177113
 20
-135.0442857995723
 30
0.0
 10
102.5694333076908
 20
-134.9995182995838
 30
0.0
 10
102.5694333076908
 20
-134.9437088551527
 30
0.0
  0
INSERT
  5
86
330
1F
100
AcDbEntity
  8
_U+30EC_U+30A4_U+30E4_U+30FC 1
100
AcDbBlockReference
  2
block 2
 10
0.0
 20
0.0
 30
0.0
  0
POLYLINE
  5
8E
330
1F
100
AcDbEntity
  8
_U+30EC_U+30A4_U+30E4_U+30FC 1
 62
   179
420
  2234388
370
     9
100
AcDb2dPolyline
 66
     1
 10
0.0
 20
0.0
 30
0.0
  0
VERTEX
  5
8F
330
8E
100
AcDbEntity
  8
_U+30EC_U+30A4_U+30E4_U+30FC 1
 62
   179
420
  2234388
370
     9
100
AcDbVertex
100
AcDb2dVertex
 10
86.4695000162015
 20
-118.9441783035973
 30
0.0
  0
VERTEX
  5
90
330
8E
100
AcDbEntity
  8
_U+30EC_U+30A4_U+30E4_U+30FC 1
 62
   179
420
  2234388
370
     9
100
AcDbVertex
100
AcDb2dVertex
 10
104.4697740014207
 20
-118.9441783035973
 30
0.0
  0
SEQEND
  5
91
330
8E
100
AcDbEntity
  8
_U+30EC_U+30A4_U+30E4_U+30FC 1
 62
   179
420
  2234388
370
     9
  0
POLYLINE
  5
92
330
1F
100
AcDbEntity
  8
_U+30EC_U+30A4_U+30E4_U+30FC 1
 62
   179
420
  2234388
370
     9
100
AcDb2dPolyline
 66
     1
 10
0.0
 20
0.0
 30
0.0
  0
VERTEX
  5
93
330
92
100
AcDbEntity
  8
_U+30EC_U+30A4_U+30E4_U+30FC 1
 62
   179
420
  2234388
370
     9
100
AcDbVertex
100
AcDb2dVertex
 10
86.4695000162015
 20
-121.4039566363157
 30
0.0
  0
VERTEX
  5
94
330
92
100
AcDbEntity
  8
_U+30EC_U+30A4_U+30E4_U+30FC 1
 62
   179
420
  2234388
370
     9
100
AcDbVertex
100
AcDb2dVertex
 10
86.4695000162015
 20
-117.9440533038473
 30
0.0
  0
SEQEND
  5
95
330
92
100
AcDbEntity
  8
_U+30EC_U+30A4_U+30E4_U+30FC 1
 62
   179
420
  2234388
370
     9
  0
POLYLINE
  5
96
330
1F
100
AcDbEntity
  8
_U+30EC_U+30A4_U+30E4_U+30FC 1
 62
   179
420
  2234388
370
     9
100
AcDb2dPolyline
 66
     1
 10
0.0
 20
0.0
 30
0.0
  0
VERTEX
  5
97
330
96
100
AcDbEntity
  8
_U+30EC_U+30A4_U+30E4_U+30FC 1
 62
   179
420
  2234388
370
     9
100
AcDbVertex
100
AcDb2dVertex
 10
104.4697740014207
 20
-124.9041824687741
 30
0.0
  0
VERTEX
  5
98
330
96
100
AcDbEntity
  8
_U+30EC_U+30A4_U+30E4_U+30FC 1
 62
   179
420
  2234388
370
     9
100
AcDbVertex
100
AcDb2dVertex
 10
104.4697740014207
 20
-117.9440533038473
 30
0.0
  0
SEQEND
  5
99
330
96
100
AcDbEntity
  8
_U+30EC_U+30A4_U+30E4_U+30FC 1
 62
   179
420
  2234388
370
     9
  0
INSERT
  5
9B
330
1F
100
AcDbEntity
  8
_U+30EC_U+30A4_U+30E4_U+30FC 1
100
AcDbBlockReference
  2
block 3
 10
0.0
 20
0.0
 30
0.0
  0
POLYLINE
  5
A4
330
1F
100
AcDbEntity
  8
_U+30EC_U+30A4_U+30E4_U+30FC 1
 62
   179
420
  2234388
370
     9
100
AcDb2dPolyline
 66
     1
 10
0.0
 20
0.0
 30
0.0
  0
VERTEX
  5
A5
330
A4
100
AcDbEntity
  8
_U+30EC_U+30A4_U+30E4_U+30FC 1
 62
   179
420
  2234388
370
     9
100
AcDbVertex
100
AcDb2dVertex
 10
86.469641127309
 20
-126.4441280239444
 30
0.0
  0
VERTEX
  5
A6
330
A4
100
AcDbEntity
  8
_U+30EC_U+30A4_U+30E4_U+30FC 1
 62
   179
420
  2234388
370
     9
100
AcDbVertex
100
AcDb2dVertex
 10
90.23995353112032
 20
-126.4441280239444
 30
0.0
  0
SEQEND
  5
A7
330
A4
100
AcDbEntity
  8
_U+30EC_U+30A4_U+30E4_U+30FC 1
 62
   179
420
  2234388
370
     9
  0
POLYLINE
  5
A8
330
1F
100
AcDbEntity
  8
_U+30EC_U+30A4_U+30E4_U+30FC 1
 62
   179
420
  2234388
370
     9
100
AcDb2dPolyline
 66
     1
 10
0.0
 20
0.0
 30
0.0
  0
VERTEX
  5
A9
330
A8
100
AcDbEntity
  8
_U+30EC_U+30A4_U+30E4_U+30FC 1
 62
   179
420
  2234388
370
     9
100
AcDbVertex
100
AcDb2dVertex
 10
84.46977923388529
 20
-126.4441280239444
 30
0.0
  0
VERTEX
  5
AA
330
A8
100
AcDbEntity
  8
_U+30EC_U+30A4_U+30E4_U+30FC 1
 62
   179
420
  2234388
370
     9
100
AcDbVertex
100
AcDb2dVertex
 10
86.469641127309
 20
-126.4441280239444
 30
0.0
  0
SEQEND
  5
AB
330
A8
100
AcDbEntity
  8
_U+30EC_U+30A4_U+30E4_U+30FC 1
 62
   179
420
  2234388
370
     9
  0
INSERT
  5
AD
330
1F
100
AcDbEntity
  8
_U+30EC_U+30A4_U+30E4_U+30FC 1
100
AcDbBlockReference
  2
block 4
 10
0.0
 20
0.0
 30
0.0
  0
POLYLINE
  5
B2
330
1F
100
AcDbEntity
  8
_U+30EC_U+30A4_U+30E4_U+30FC 1
 62
   179
420
  2234388
370
     9
100
AcDb2dPolyline
 66
     1
 10
0.0
 20
0.0
 30
0.0
  0
VERTEX
  5
B3
330
B2
100
AcDbEntity
  8
_U+30EC_U+30A4_U+30E4_U+30FC 1
 62
   179
420
  2234388
370
     9
100
AcDbVertex
100
AcDb2dVertex
 10
85.4695514306012
 20
-139.9439105205695
 30
0.0
  0
VERTEX
  5
B4
330
B2
100
AcDbEntity
  8
_U+30EC_U+30A4_U+30E4_U+30FC 1
 62
   179
420
  2234388
370
     9
100
AcDbVertex
100
AcDb2dVertex
 10
98.46980275316048
 20
-139.9439105205695
 30
0.0
  0
SEQEND
  5
B5
330
B2
100
AcDbEntity
  8
_U+30EC_U+30A4_U+30E4_U+30FC 1
 62
   179
420
  2234388
370
     9
  0
POLYLINE
  5
B6
330
1F
100
AcDbEntity
  8
_U+30EC_U+30A4_U+30E4_U+30FC 1
 62
   179
420
  2234388
370
     9
100
AcDb2dPolyline
 66
     1
 10
0.0
 20
0.0
 30
0.0
  0
VERTEX
  5
B7
330
B6
100
AcDbEntity
  8
_U+30EC_U+30A4_U+30E4_U+30FC 1
 62
   179
420
  2234388
370
     9
100
AcDbVertex
100
AcDb2dVertex
 10
85.4695514306012
 20
-137.4841321878514
 30
0.0
  0
VERTEX
  5
B8
330
B6
100
AcDbEntity
  8
_U+30EC_U+30A4_U+30E4_U+30FC 1
 62
   179
420
  2234388
370
     9
100
AcDbVertex
100
AcDb2dVertex
 10
85.4695514306012
 20
-140.9443530203194
 30
0.0
  0
SEQEND
  5
B9
330
B6
100
AcDbEntity
  8
_U+30EC_U+30A4_U+30E4_U+30FC 1
 62
   179
420
  2234388
370
     9
  0
POLYLINE
  5
BA
330
1F
100
AcDbEntity
  8
_U+30EC_U+30A4_U+30E4_U+30FC 1
 62
   179
420
  2234388
370
     9
100
AcDb2dPolyline
 66
     1
 10
0.0
 20
0.0
 30
0.0
  0
VERTEX
  5
BB
330
BA
100
AcDbEntity
  8
_U+30EC_U+30A4_U+30E4_U+30FC 1
 62
   179
420
  2234388
370
     9
100
AcDbVertex
100
AcDb2dVertex
 10
98.46980275316048
 20
-137.4841321878514
 30
0.0
  0
VERTEX
  5
BC
330
BA
100
AcDbEntity
  8
_U+30EC_U+30A4_U+30E4_U+30FC 1
 62
   179
420
  2234388
370
     9
100
AcDbVertex
100
AcDb2dVertex
 10
98.46980275316048
 20
-140.9443530203194
 30
0.0
  0
SEQEND
  5
BD
330
BA
100
AcDbEntity
  8
_U+30EC_U+30A4_U+30E4_U+30FC 1
 62
   179
420
  2234388
370
     9
  0
INSERT
  5
BF
330
1F
100
AcDbEntity
  8
_U+30EC_U+30A4_U+30E4_U+30FC 1
100
AcDbBlockReference
  2
block 5
 10
0.0
 20
0.0
 30
0.0
  0
POLYLINE
  5
C6
330
1F
100
AcDbEntity
  8
_U+30EC_U+30A4_U+30E4_U+30FC 1
 62
   179
420
  2234388
370
     9
100
AcDb2dPolyline
 66
     1
 10
0.0
 20
0.0
 30
0.0
  0
VERTEX
  5
C7
330
C6
100
AcDbEntity
  8
_U+30EC_U+30A4_U+30E4_U+30FC 1
 62
   179
420
  2234388
370
     9
100
AcDbVertex
100
AcDb2dVertex
 10
102.4695240524513
 20
-134.9437088551527
 30
0.0
  0
VERTEX
  5
C8
330
C6
100
AcDbEntity
  8
_U+30EC_U+30A4_U+30E4_U+30FC 1
 62
   179
420
  2234388
370
     9
100
AcDbVertex
100
AcDb2dVertex
 10
102.4695240524513
 20
-131.4441885782502
 30
0.0
  0
SEQEND
  5
C9
330
C6
100
AcDbEntity
  8
_U+30EC_U+30A4_U+30E4_U+30FC 1
 62
   179
420
  2234388
370
     9
  0
POLYLINE
  5
CA
330
1F
100
AcDbEntity
  8
_U+30EC_U+30A4_U+30E4_U+30FC 1
 62
   179
420
  2234388
370
     9
100
AcDb2dPolyline
 66
     1
 10
0.0
 20
0.0
 30
0.0
  0
VERTEX
  5
CB
330
CA
100
AcDbEntity
  8
_U+30EC_U+30A4_U+30E4_U+30FC 1
 62
   179
420
  2234388
370
     9
100
AcDbVertex
100
AcDb2dVertex
 10
101.0095179785881
 20
-134.9437088551527
 30
0.0
  0
VERTEX
  5
CC
330
CA
100
AcDbEntity
  8
_U+30EC_U+30A4_U+30E4_U+30FC 1
 62
   179
420
  2234388
370
     9
100
AcDbVertex
100
AcDb2dVertex
 10
103.4692962491672
 20
-134.9437088551527
 30
0.0
  0
SEQEND
  5
CD
330
CA
100
AcDbEntity
  8
_U+30EC_U+30A4_U+30E4_U+30FC 1
 62
   179
420
  2234388
370
     9
  0
POLYLINE
  5
CE
330
1F
100
AcDbEntity
  8
_U+30EC_U+30A4_U+30E4_U+30FC 1
 62
   179
420
  2234388
370
     9
100
AcDb2dPolyline
 66
     1
 10
0.0
 20
0.0
 30
0.0
  0
VERTEX
  5
CF
330
CE
100
AcDbEntity
  8
_U+30EC_U+30A4_U+30E4_U+30FC 1
 62
   179
420
  2234388
370
     9
100
AcDbVertex
100
AcDb2dVertex
 10
101.0095179785881
 20
-131.4441885782502
 30
0.0
  0
VERTEX
  5
D0
330
CE
100
AcDbEntity
  8
_U+30EC_U+30A4_U+30E4_U+30FC 1
 62
   179
420
  2234388
370
     9
100
AcDbVertex
100
AcDb2dVertex
 10
103.4692962491672
 20
-131.4441885782502
 30
0.0
  0
SEQEND
  5
D1
330
CE
100
AcDbEntity
  8
_U+30EC_U+30A4_U+30E4_U+30FC 1
 62
   179
420
  2234388
370
     9
  0
INSERT
  5
D3
330
1F
100
AcDbEntity
  8
_U+30EC_U+30A4_U+30E4_U+30FC 1
100
AcDbBlockReference
  2
block 6
 10
0.0
 20
0.0
 30
0.0
  0
POLYLINE
  5
E2
330
1F
100
AcDbEntity
  8
_U+30EC_U+30A4_U+30E4_U+30FC 1
 62
   179
420
  2234388
370
     9
100
AcDb2dPolyline
 66
     1
 10
0.0
 20
0.0
 30
0.0
  0
VERTEX
  5
E3
330
E2
100
AcDbEntity
  8
_U+30EC_U+30A4_U+30E4_U+30FC 1
 62
   179
420
  2234388
370
     9
100
AcDbVertex
100
AcDb2dVertex
 10
81.46979442407704
 20
-135.9441513549026
 30
0.0
  0
VERTEX
  5
E4
330
E2
100
AcDbEntity
  8
_U+30EC_U+30A4_U+30E4_U+30FC 1
 62
   179
420
  2234388
370
     9
100
AcDbVertex
100
AcDb2dVertex
 10
81.46979442407704
 20
-122.9439021914864
 30
0.0
  0
SEQEND
  5
E5
330
E2
100
AcDbEntity
  8
_U+30EC_U+30A4_U+30E4_U+30FC 1
 62
   179
420
  2234388
370
     9
  0
POLYLINE
  5
E6
330
1F
100
AcDbEntity
  8
_U+30EC_U+30A4_U+30E4_U+30FC 1
 62
   179
420
  2234388
370
     9
100
AcDb2dPolyline
 66
     1
 10
0.0
 20
0.0
 30
0.0
  0
VERTEX
  5
E7
330
E6
100
AcDbEntity
  8
_U+30EC_U+30A4_U+30E4_U+30FC 1
 62
   179
420
  2234388
370
     9
100
AcDbVertex
100
AcDb2dVertex
 10
83.92957063655605
 20
-135.9441513549026
 30
0.0
  0
VERTEX
  5
E8
330
E6
100
AcDbEntity
  8
_U+30EC_U+30A4_U+30E4_U+30FC 1
 62
   179
420
  2234388
370
     9
100
AcDbVertex
100
AcDb2dVertex
 10
80.46966942432705
 20
-135.9441513549026
 30
0.0
  0
SEQEND
  5
E9
330
E6
100
AcDbEntity
  8
_U+30EC_U+30A4_U+30E4_U+30FC 1
 62
   179
420
  2234388
370
     9
  0
POLYLINE
  5
EA
330
1F
100
AcDbEntity
  8
_U+30EC_U+30A4_U+30E4_U+30FC 1
 62
   179
420
  2234388
370
     9
100
AcDb2dPolyline
 66
     1
 10
0.0
 20
0.0
 30
0.0
  0
VERTEX
  5
EB
330
EA
100
AcDbEntity
  8
_U+30EC_U+30A4_U+30E4_U+30FC 1
 62
   179
420
  2234388
370
     9
100
AcDbVertex
100
AcDb2dVertex
 10
83.92957063655605
 20
-122.9439021914864
 30
0.0
  0
VERTEX
  5
EC
330
EA
100
AcDbEntity
  8
_U+30EC_U+30A4_U+30E4_U+30FC 1
 62
   179
420
  2234388
370
     9
100
AcDbVertex
100
AcDb2dVertex
 10
80.46966942432705
 20
-122.9439021914864
 30
0.0
  0
SEQEND
  5
ED
330
EA
100
AcDbEntity
  8
_U+30EC_U+30A4_U+30E4_U+30FC 1
 62
   179
420
  2234388
370
     9
  0
INSERT
  5
EF
330
1F
100
AcDbEntity
  8
_U+30EC_U+30A4_U+30E4_U+30FC 1
100
AcDbBlockReference
  2
block 7
 10
0.0
 20
0.0
 30
0.0
  0
ENDSEC
  0
SECTION
  2
OBJECTS
  0
DICTIONARY
  5
C
330
0
100
AcDbDictionary
281
     1
  3
ACAD_GROUP
350
D
  3
ACAD_LAYOUT
350
1A
  3
ACAD_MATERIAL
350
3B
  3
ACAD_MLEADERSTYLE
350
F7
  3
ACAD_MLINESTYLE
350
17
  3
ACAD_PLOTSETTINGS
350
19
  3
ACAD_PLOTSTYLENAME
350
E
  3
ACAD_TABLESTYLE
350
F6
  3
ACAD_VISUALSTYLE
350
2A
  0
SUN
  5
3F
330
29
100
AcDbSun
 90
        1
290
     0
 63
     7
421
 16777215
 40
1.0
291
     1
 91
  2455826
 92
 54000000
292
     0
 70
     2
 71
   256
280
     1
  0
DICTIONARY
  5
D
102
{ACAD_REACTORS
330
C
102
}
330
C
100
AcDbDictionary
281
     1
  0
DICTIONARY
  5
1A
102
{ACAD_REACTORS
330
C
102
}
330
C
100
AcDbDictionary
281
     1
  3
Layout1
350
1E
  3
Layout2
350
26
  3
Model
350
22
  0
DICTIONARY
  5
3B
102
{ACAD_REACTORS
330
C
102
}
330
C
100
AcDbDictionary
281
     1
  3
ByBlock
350
3D
  3
ByLayer
350
3C
  3
Global
350
3E
  0
DICTIONARY
  5
F7
102
{ACAD_REACTORS
330
C
102
}
330
C
100
AcDbDictionary
281
     1
  0
DICTIONARY
  5
17
102
{ACAD_REACTORS
330
C
102
}
330
C
100
AcDbDictionary
281
     1
  3
Standard
350
18
  0
DICTIONARY
  5
19
102
{ACAD_REACTORS
330
C
102
}
330
C
100
AcDbDictionary
281
     1
  0
ACDBDICTIONARYWDFLT
  5
E
102
{ACAD_REACTORS
330
C
102
}
330
C
100
AcDbDictionary
281
     1
  3
Normal
350
F
100
AcDbDictionaryWithDefault
340
F
  0
DICTIONARY
  5
F6
102
{ACAD_REACTORS
330
C
102
}
330
C
100
AcDbDictionary
281
     1
  0
DICTIONARY
  5
2A
102
{ACAD_REACTORS
330
C
102
}
330
C
100
AcDbDictionary
281
     1
  3
2dWireframe
350
2F
  3
3D Hidden
350
31
  3
3dWireframe
350
30
  3
Basic
350
32
  3
Brighten
350
36
  3
ColorChange
350
3A
  3
Conceptual
350
34
  3
Dim
350
35
  3
Facepattern
350
39
  3
Flat
350
2B
  3
FlatWithEdges
350
2C
  3
Gouraud
350
2D
  3
GouraudWithEdges
350
2E
  3
Linepattern
350
38
  3
Realistic
350
33
  3
Thicken
350
37
  0
LAYOUT
  5
1E
102
{ACAD_REACTORS
330
1A
102
}
330
1A
100
AcDbPlotSettings
  1

  2
none_device
  4

  6

 40
0.0
 41
0.0
 42
0.0
 43
0.0
 44
0.0
 45
0.0
 46
0.0
 47
0.0
 48
0.0
 49
0.0
140
0.0
141
0.0
142
1.0
143
1.0
 70
   688
 72
     0
 73
     0
 74
     5
  7

 75
    16
 76
     0
 77
     2
 78
   300
147
1.0
148
0.0
149
0.0
100
AcDbLayout
  1
Layout1
 70
     1
 71
     1
 10
0.0
 20
0.0
 11
12.0
 21
9.0
 12
0.0
 22
0.0
 32
0.0
 14
1.000000000000000E+20
 24
1.000000000000000E+20
 34
1.000000000000000E+20
 15
-1.000000000000000E+20
 25
-1.000000000000000E+20
 35
-1.000000000000000E+20
146
0.0
 13
0.0
 23
0.0
 33
0.0
 16
1.0
 26
0.0
 36
0.0
 17
0.0
 27
1.0
 37
0.0
 76
     0
330
1B
  0
LAYOUT
  5
26
102
{ACAD_REACTORS
330
1A
102
}
330
1A
100
AcDbPlotSettings
  1

  2
none_device
  4

  6

 40
0.0
 41
0.0
 42
0.0
 43
0.0
 44
0.0
 45
0.0
 46
0.0
 47
0.0
 48
0.0
 49
0.0
140
0.0
141
0.0
142
1.0
143
1.0
 70
   688
 72
     0
 73
     0
 74
     5
  7

 75
    16
 76
     0
 77
     2
 78
   300
147
1.0
148
0.0
149
0.0
100
AcDbLayout
  1
Layout2
 70
     1
 71
     2
 10
0.0
 20
0.0
 11
0.0
 21
0.0
 12
0.0
 22
0.0
 32
0.0
 14
0.0
 24
0.0
 34
0.0
 15
0.0
 25
0.0
 35
0.0
146
0.0
 13
0.0
 23
0.0
 33
0.0
 16
1.0
 26
0.0
 36
0.0
 17
0.0
 27
1.0
 37
0.0
 76
     0
330
23
  0
LAYOUT
  5
22
102
{ACAD_REACTORS
330
1A
102
}
330
1A
100
AcDbPlotSettings
  1

  2
none_device
  4

  6

 40
0.0
 41
0.0
 42
0.0
 43
0.0
 44
0.0
 45
0.0
 46
0.0
 47
0.0
 48
0.0
 49
0.0
140
0.0
141
0.0
142
1.0
143
1.0
 70
  1712
 72
     0
 73
     0
 74
     0
  7

 75
     0
 76
     0
 77
     2
 78
   300
147
1.0
148
0.0
149
0.0
100
AcDbLayout
  1
Model
 70
     1
 71
     0
 10
0.0
 20
0.0
 11
12.0
 21
9.0
 12
0.0
 22
0.0
 32
0.0
 14
1.000000000000000E+20
 24
1.000000000000000E+20
 34
1.000000000000000E+20
 15
-1.000000000000000E+20
 25
-1.000000000000000E+20
 35
-1.000000000000000E+20
146
0.0
 13
0.0
 23
0.0
 33
0.0
 16
1.0
 26
0.0
 36
0.0
 17
0.0
 27
1.0
 37
0.0
 76
     0
330
1F
331
29
  0
MATERIAL
  5
3D
102
{ACAD_REACTORS
330
3B
102
}
330
3B
100
AcDbMaterial
  1
ByBlock
 72
     1
 94
      127
  0
MATERIAL
  5
3C
102
{ACAD_REACTORS
330
3B
102
}
330
3B
100
AcDbMaterial
  1
ByLayer
 72
     1
 94
      127
  0
MATERIAL
  5
3E
102
{ACAD_REACTORS
330
3B
102
}
330
3B
100
AcDbMaterial
  1
Global
 72
     1
 94
      127
  0
MLINESTYLE
  5
18
102
{ACAD_REACTORS
330
17
102
}
330
17
100
AcDbMlineStyle
  2
Standard
 70
     0
  3

 62
   256
 51
90.0
 52
90.0
 71
     2
 49
0.5
 62
   256
  6
BYLAYER
 49
-0.5
 62
   256
  6
BYLAYER
  0
ACDBPLACEHOLDER
  5
F
102
{ACAD_REACTORS
330
E
102
}
330
E
  0
VISUALSTYLE
  5
2F
102
{ACAD_REACTORS
330
2A
102
}
330
2A
100
AcDbVisualStyle
  2
2dWireframe
 70
     4
177
     2
291
     0
 71
     0
176
     1
 72
     2
176
     1
 73
     0
176
     1
 90
        0
176
     1
 40
-0.6
176
     1
 41
-30.0
176
     1
 62
     5
 63
     7
421
 16777215
176
     1
 74
     1
176
     1
 91
        4
176
     1
 64
     7
176
     1
 65
   257
176
     1
 75
     1
176
     1
175
     1
176
     1
 42
1.0
176
     1
 92
        0
176
     1
 66
   257
176
     1
 43
1.0
176
     1
 76
     1
176
     1
 77
     6
176
     1
 78
     2
176
     1
 67
     7
176
     1
 79
     5
176
     1
170
     0
176
     1
171
     0
176
     1
290
     0
176
     1
 93
        1
176
     1
 44
0.0
176
     1
173
     0
176
     1
  0
VISUALSTYLE
  5
31
102
{ACAD_REACTORS
330
2A
102
}
330
2A
100
AcDbVisualStyle
  2
3D Hidden
 70
     6
177
     2
291
     0
 71
     1
176
     1
 72
     2
176
     1
 73
     2
176
     1
 90
        0
176
     1
 40
-0.6
176
     1
 41
-30.0
176
     1
 62
     5
 63
     7
421
 16777215
176
     1
 74
     2
176
     1
 91
        2
176
     1
 64
     7
176
     1
 65
   257
176
     1
 75
     2
176
     1
175
     1
176
     1
 42
40.0
176
     1
 92
        0
176
     1
 66
   257
176
     1
 43
1.0
176
     1
 76
     1
176
     1
 77
     6
176
     1
 78
     2
176
     1
 67
     7
176
     1
 79
     3
176
     1
170
     0
176
     1
171
     0
176
     1
290
     0
176
     1
 93
        1
176
     1
 44
0.0
176
     1
173
     0
176
     1
  0
VISUALSTYLE
  5
30
102
{ACAD_REACTORS
330
2A
102
}
330
2A
100
AcDbVisualStyle
  2
3dWireframe
 70
     5
177
     2
291
     0
 71
     0
176
     1
 72
     2
176
     1
 73
     0
176
     1
 90
        0
176
     1
 40
-0.6
176
     1
 41
-30.0
176
     1
 62
     5
 63
     7
421
 16777215
176
     1
 74
     1
176
     1
 91
        4
176
     1
 64
     7
176
     1
 65
   257
176
     1
 75
     1
176
     1
175
     1
176
     1
 42
1.0
176
     1
 92
        0
176
     1
 66
   257
176
     1
 43
1.0
176
     1
 76
     1
176
     1
 77
     6
176
     1
 78
     2
176
     1
 67
     7
176
     1
 79
     5
176
     1
170
     0
176
     1
171
     0
176
     1
290
     0
176
     1
 93
        1
176
     1
 44
0.0
176
     1
173
     0
176
     1
  0
VISUALSTYLE
  5
32
102
{ACAD_REACTORS
330
2A
102
}
330
2A
100
AcDbVisualStyle
  2
Basic
 70
     7
177
     2
291
     1
 71
     1
176
     1
 72
     0
176
     1
 73
     1
176
     1
 90
        0
176
     1
 40
-0.6
176
     1
 41
-30.0
176
     1
 62
     5
 63
     7
421
 16777215
176
     1
 74
     0
176
     1
 91
        4
176
     1
 64
     7
176
     1
 65
   257
176
     1
 75
     1
176
     1
175
     1
176
     1
 42
1.0
176
     1
 92
        8
176
     1
 66
     7
176
     1
 43
1.0
176
     1
 76
     1
176
     1
 77
     6
176
     1
 78
     2
176
     1
 67
     7
176
     1
 79
     5
176
     1
170
     0
176
     1
171
     0
176
     1
290
     0
176
     1
 93
        1
176
     1
 44
0.0
176
     1
173
     0
176
     1
  0
VISUALSTYLE
  5
36
102
{ACAD_REACTORS
330
2A
102
}
330
2A
100
AcDbVisualStyle
  2
Brighten
 70
    12
177
     2
291
     1
 71
     2
176
     1
 72
     2
176
     1
 73
     0
176
     1
 90
        0
176
     1
 40
-0.6
176
     1
 41
-30.0
176
     1
 62
     5
 63
     7
421
 16777215
176
     1
 74
     1
176
     1
 91
        4
176
     1
 64
     7
176
     1
 65
   257
176
     1
 75
     1
176
     1
175
     1
176
     1
 42
1.0
176
     1
 92
        8
176
     1
 66
     7
176
     1
 43
1.0
176
     1
 76
     1
176
     1
 77
     6
176
     1
 78
     2
176
     1
 67
     7
176
     1
 79
     5
176
     1
170
     0
176
     1
171
     0
176
     1
290
     0
176
     1
 93
        1
176
     1
 44
50.0
176
     1
173
     0
176
     1
  0
VISUALSTYLE
  5
3A
102
{ACAD_REACTORS
330
2A
102
}
330
2A
100
AcDbVisualStyle
  2
ColorChange
 70
    16
177
     2
291
     1
 71
     2
176
     1
 72
     2
176
     1
 73
     3
176
     1
 90
        0
176
     1
 40
-0.6
176
     1
 41
-30.0
176
     1
 62
     5
 63
     8
421
  8421504
176
     1
 74
     1
176
     1
 91
        4
176
     1
 64
     7
176
     1
 65
   257
176
     1
 75
     1
176
     1
175
     1
176
     1
 42
1.0
176
     1
 92
        8
176
     1
 66
     8
424
  8421504
176
     1
 43
1.0
176
     1
 76
     1
176
     1
 77
     6
176
     1
 78
     2
176
     1
 67
     7
176
     1
 79
     5
176
     1
170
     0
176
     1
171
     0
176
     1
290
     0
176
     1
 93
        1
176
     1
 44
0.0
176
     1
173
     0
176
     1
  0
VISUALSTYLE
  5
34
102
{ACAD_REACTORS
330
2A
102
}
330
2A
100
AcDbVisualStyle
  2
Conceptual
 70
     9
177
     2
291
     0
 71
     3
176
     1
 72
     2
176
     1
 73
     0
176
     1
 90
        0
176
     1
 40
-0.6
176
     1
 41
-30.0
176
     1
 62
     5
 63
     7
421
 16777215
176
     1
 74
     2
176
     1
 91
        2
176
     1
 64
     7
176
     1
 65
   257
176
     1
 75
     1
176
     1
175
     1
176
     1
 42
40.0
176
     1
 92
        8
176
     1
 66
     7
176
     1
 43
1.0
176
     1
 76
     1
176
     1
 77
     6
176
     1
 78
     2
176
     1
 67
     7
176
     1
 79
     3
176
     1
170
     0
176
     1
171
     0
176
     1
290
     0
176
     1
 93
        1
176
     1
 44
0.0
176
     1
173
     0
176
     1
  0
VISUALSTYLE
  5
35
102
{ACAD_REACTORS
330
2A
102
}
330
2A
100
AcDbVisualStyle
  2
Dim
 70
    11
177
     2
291
     1
 71
     2
176
     1
 72
     2
176
     1
 73
     0
176
     1
 90
        0
176
     1
 40
-0.6
176
     1
 41
-30.0
176
     1
 62
     5
 63
     7
421
 16777215
176
     1
 74
     1
176
     1
 91
        4
176
     1
 64
     7
176
     1
 65
   257
176
     1
 75
     1
176
     1
175
     1
176
     1
 42
1.0
176
     1
 92
        8
176
     1
 66
     7
176
     1
 43
1.0
176
     1
 76
     1
176
     1
 77
     6
176
     1
 78
     2
176
     1
 67
     7
176
     1
 79
     5
176
     1
170
     0
176
     1
171
     0
176
     1
290
     0
176
     1
 93
        1
176
     1
 44
-50.0
176
     1
173
     0
176
     1
  0
VISUALSTYLE
  5
39
102
{ACAD_REACTORS
330
2A
102
}
330
2A
100
AcDbVisualStyle
  2
Facepattern
 70
    15
177
     2
291
     1
 71
     2
176
     1
 72
     2
176
     1
 73
     0
176
     1
 90
        0
176
     1
 40
-0.6
176
     1
 41
-30.0
176
     1
 62
     5
 63
     7
421
 16777215
176
     1
 74
     1
176
     1
 91
        4
176
     1
 64
     7
176
     1
 65
   257
176
     1
 75
     1
176
     1
175
     1
176
     1
 42
1.0
176
     1
 92
        8
176
     1
 66
     7
176
     1
 43
1.0
176
     1
 76
     1
176
     1
 77
     6
176
     1
 78
     2
176
     1
 67
     7
176
     1
 79
     5
176
     1
170
     0
176
     1
171
     0
176
     1
290
     0
176
     1
 93
        1
176
     1
 44
0.0
176
     1
173
     0
176
     1
  0
VISUALSTYLE
  5
2B
102
{ACAD_REACTORS
330
2A
102
}
330
2A
100
AcDbVisualStyle
  2
Flat
 70
     0
177
     2
291
     1
 71
     2
176
     1
 72
     1
176
     1
 73
     1
176
     1
 90
        2
176
     1
 40
-0.6
176
     1
 41
30.0
176
     1
 62
     5
 63
     7
421
 16777215
176
     1
 74
     0
176
     1
 91
        4
176
     1
 64
     7
176
     1
 65
   257
176
     1
 75
     1
176
     1
175
     1
176
     1
 42
1.0
176
     1
 92
        8
176
     1
 66
     7
176
     1
 43
1.0
176
     1
 76
     1
176
     1
 77
     6
176
     1
 78
     2
176
     1
 67
     7
176
     1
 79
     5
176
     1
170
     0
176
     1
171
     0
176
     1
290
     0
176
     1
 93
       13
176
     1
 44
0.0
176
     1
173
     0
176
     1
  0
VISUALSTYLE
  5
2C
102
{ACAD_REACTORS
330
2A
102
}
330
2A
100
AcDbVisualStyle
  2
FlatWithEdges
 70
     1
177
     2
291
     1
 71
     2
176
     1
 72
     1
176
     1
 73
     1
176
     1
 90
        2
176
     1
 40
-0.6
176
     1
 41
30.0
176
     1
 62
     5
 63
     7
421
 16777215
176
     1
 74
     1
176
     1
 91
        4
176
     1
 64
     7
176
     1
 65
   257
176
     1
 75
     1
176
     1
175
     1
176
     1
 42
1.0
176
     1
 92
        0
176
     1
 66
   257
176
     1
 43
1.0
176
     1
 76
     1
176
     1
 77
     6
176
     1
 78
     2
176
     1
 67
     7
176
     1
 79
     5
176
     1
170
     0
176
     1
171
     0
176
     1
290
     0
176
     1
 93
       13
176
     1
 44
0.0
176
     1
173
     0
176
     1
  0
VISUALSTYLE
  5
2D
102
{ACAD_REACTORS
330
2A
102
}
330
2A
100
AcDbVisualStyle
  2
Gouraud
 70
     2
177
     2
291
     1
 71
     2
176
     1
 72
     2
176
     1
 73
     1
176
     1
 90
        2
176
     1
 40
-0.6
176
     1
 41
30.0
176
     1
 62
     5
 63
     7
421
 16777215
176
     1
 74
     0
176
     1
 91
        4
176
     1
 64
     7
176
     1
 65
   257
176
     1
 75
     1
176
     1
175
     1
176
     1
 42
1.0
176
     1
 92
        0
176
     1
 66
     7
176
     1
 43
1.0
176
     1
 76
     1
176
     1
 77
     6
176
     1
 78
     2
176
     1
 67
     7
176
     1
 79
     5
176
     1
170
     0
176
     1
171
     0
176
     1
290
     0
176
     1
 93
       13
176
     1
 44
0.0
176
     1
173
     0
176
     1
  0
VISUALSTYLE
  5
2E
102
{ACAD_REACTORS
330
2A
102
}
330
2A
100
AcDbVisualStyle
  2
GouraudWithEdges
 70
     3
177
     2
291
     1
 71
     2
176
     1
 72
     2
176
     1
 73
     1
176
     1
 90
        2
176
     1
 40
-0.6
176
     1
 41
30.0
176
     1
 62
     5
 63
     7
421
 16777215
176
     1
 74
     1
176
     1
 91
        4
176
     1
 64
     7
176
     1
 65
   257
176
     1
 75
     1
176
     1
175
     1
176
     1
 42
1.0
176
     1
 92
        0
176
     1
 66
   257
176
     1
 43
1.0
176
     1
 76
     1
176
     1
 77
     6
176
     1
 78
     2
176
     1
 67
     7
176
     1
 79
     5
176
     1
170
     0
176
     1
171
     0
176
     1
290
     0
176
     1
 93
       13
176
     1
 44
0.0
176
     1
173
     0
176
     1
  0
VISUALSTYLE
  5
38
102
{ACAD_REACTORS
330
2A
102
}
330
2A
100
AcDbVisualStyle
  2
Linepattern
 70
    14
177
     2
291
     1
 71
     2
176
     1
 72
     2
176
     1
 73
     0
176
     1
 90
        0
176
     1
 40
-0.6
176
     1
 41
-30.0
176
     1
 62
     5
 63
     7
421
 16777215
176
     1
 74
     1
176
     1
 91
        4
176
     1
 64
     7
176
     1
 65
   257
176
     1
 75
     7
176
     1
175
     7
176
     1
 42
1.0
176
     1
 92
        8
176
     1
 66
     7
176
     1
 43
1.0
176
     1
 76
     1
176
     1
 77
     6
176
     1
 78
     2
176
     1
 67
     7
176
     1
 79
     5
176
     1
170
     0
176
     1
171
     0
176
     1
290
     0
176
     1
 93
        1
176
     1
 44
0.0
176
     1
173
     0
176
     1
  0
VISUALSTYLE
  5
33
102
{ACAD_REACTORS
330
2A
102
}
330
2A
100
AcDbVisualStyle
  2
Realistic
 70
     8
177
     2
291
     0
 71
     2
176
     1
 72
     2
176
     1
 73
     0
176
     1
 90
        0
176
     1
 40
-0.6
176
     1
 41
-30.0
176
     1
 62
     5
 63
     7
421
 16777215
176
     1
 74
     1
176
     1
 91
        0
176
     1
 64
     7
176
     1
 65
   257
176
     1
 75
     1
176
     1
175
     1
176
     1
 42
1.0
176
     1
 92
        8
176
     1
 66
     8
424
  7895160
176
     1
 43
1.0
176
     1
 76
     1
176
     1
 77
     6
176
     1
 78
     2
176
     1
 67
     7
176
     1
 79
     5
176
     1
170
     0
176
     1
171
     0
176
     1
290
     0
176
     1
 93
       13
176
     1
 44
0.0
176
     1
173
     0
176
     1
  0
VISUALSTYLE
  5
37
102
{ACAD_REACTORS
330
2A
102
}
330
2A
100
AcDbVisualStyle
  2
Thicken
 70
    13
177
     2
291
     1
 71
     2
176
     1
 72
     2
176
     1
 73
     0
176
     1
 90
        0
176
     1
 40
-0.6
176
     1
 41
-30.0
176
     1
 62
     5
 63
     7
421
 16777215
176
     1
 74
     1
176
     1
 91
        4
176
     1
 64
     7
176
     1
 65
   257
176
     1
 75
     1
176
     1
175
     1
176
     1
 42
1.0
176
     1
 92
       12
176
     1
 66
     7
176
     1
 43
1.0
176
     1
 76
     1
176
     1
 77
     6
176
     1
 78
     2
176
     1
 67
     7
176
     1
 79
     5
176
     1
170
     0
176
     1
171
     0
176
     1
290
     0
176
     1
 93
        1
176
     1
 44
0.0
176
     1
173
     0
176
     1
  0
ENDSEC
  0
EOF
