  0
SECTION
  2
HEADER
  9
$ACADVER
  1
AC1024
  9
$ACADMAINTVER
 70
     6
  9
$DWGCODEPAGE
  3
UNDEFINED
  9
$INSBASE
 10
0.0
 20
0.0
 30
0.0
  9
$EXTMIN
 10
1.000000000000000E+20
 20
1.000000000000000E+20
 30
1.000000000000000E+20
  9
$EXTMAX
 10
-1.000000000000000E+20
 20
-1.000000000000000E+20
 30
-1.000000000000000E+20
  9
$LIMMIN
 10
0.0
 20
0.0
  9
$LIMMAX
 10
12.0
 20
9.0
  9
$ORTHOMODE
 70
     0
  9
$REGENMODE
 70
     1
  9
$FILLMODE
 70
     1
  9
$QTEXTMODE
 70
     0
  9
$MIRRTEXT
 70
     1
  9
$LTSCALE
 40
1.0
  9
$ATTMODE
 70
     1
  9
$TEXTSIZE
 40
0.2
  9
$TRACEWID
 40
0.05
  9
$TEXTSTYLE
  7
Standard
  9
$CLAYER
  8
0
  9
$CELTYPE
  6
ByLayer
  9
$CECOLOR
 62
   256
  9
$CELTSCALE
 40
1.0
  9
$DISPSILH
 70
     0
  9
$DIMSCALE
 40
1.0
  9
$DIMASZ
 40
0.18
  9
$DIMEXO
 40
0.0625
  9
$DIMDLI
 40
0.38
  9
$DIMRND
 40
0.0
  9
$DIMDLE
 40
0.0
  9
$DIMEXE
 40
0.18
  9
$DIMTP
 40
0.0
  9
$DIMTM
 40
0.0
  9
$DIMTXT
 40
0.18
  9
$DIMCEN
 40
0.09
  9
$DIMTSZ
 40
0.0
  9
$DIMTOL
 70
     0
  9
$DIMLIM
 70
     0
  9
$DIMTIH
 70
     1
  9
$DIMTOH
 70
     1
  9
$DIMSE1
 70
     0
  9
$DIMSE2
 70
     0
  9
$DIMTAD
 70
     0
  9
$DIMZIN
 70
     0
  9
$DIMBLK
  1

  9
$DIMASO
 70
     1
  9
$DIMSHO
 70
     1
  9
$DIMPOST
  1

  9
$DIMAPOST
  1

  9
$DIMALT
 70
     0
  9
$DIMALTD
 70
     2
  9
$DIMALTF
 40
25.4
  9
$DIMLFAC
 40
1.0
  9
$DIMTOFL
 70
     0
  9
$DIMTVP
 40
0.0
  9
$DIMTIX
 70
     0
  9
$DIMSOXD
 70
     0
  9
$DIMSAH
 70
     0
  9
$DIMBLK1
  1

  9
$DIMBLK2
  1

  9
$DIMSTYLE
  2
Standard
  9
$DIMCLRD
 70
     0
  9
$DIMCLRE
 70
     0
  9
$DIMCLRT
 70
     0
  9
$DIMTFAC
 40
1.0
  9
$DIMGAP
 40
0.09
  9
$DIMJUST
 70
     0
  9
$DIMSD1
 70
     0
  9
$DIMSD2
 70
     0
  9
$DIMTOLJ
 70
     1
  9
$DIMTZIN
 70
     0
  9
$DIMALTZ
 70
     0
  9
$DIMALTTZ
 70
     0
  9
$DIMUPT
 70
     0
  9
$DIMDEC
 70
     4
  9
$DIMTDEC
 70
     4
  9
$DIMALTU
 70
     2
  9
$DIMALTTD
 70
     2
  9
$DIMTXSTY
  7
Standard
  9
$DIMAUNIT
 70
     0
  9
$DIMADEC
 70
     0
  9
$DIMALTRND
 40
0.0
  9
$DIMAZIN
 70
     0
  9
$DIMDSEP
 70
    46
  9
$DIMATFIT
 70
     3
  9
$DIMFRAC
 70
     0
  9
$DIMLDRBLK
  1

  9
$DIMLUNIT
 70
     2
  9
$DIMLWD
 70
    -2
  9
$DIMLWE
 70
    -2
  9
$DIMTMOVE
 70
     0
  9
$DIMFXL
 40
1.0
  9
$DIMFXLON
 70
     0
  9
$DIMJOGANG
 40
0.7853981633974483
  9
$DIMTFILL
 70
     0
  9
$DIMTFILLCLR
 70
     0
  9
$DIMARCSYM
 70
     0
  9
$DIMLTYPE
  6

  9
$DIMLTEX1
  6

  9
$DIMLTEX2
  6

  9
$DIMTXTDIRECTION
 70
     0
  9
$LUNITS
 70
     2
  9
$LUPREC
 70
     4
  9
$SKETCHINC
 40
0.1
  9
$FILLETRAD
 40
0.5
  9
$AUNITS
 70
     0
  9
$AUPREC
 70
     0
  9
$MENU
  1
.
  9
$ELEVATION
 40
0.0
  9
$PELEVATION
 40
0.0
  9
$THICKNESS
 40
0.0
  9
$LIMCHECK
 70
     0
  9
$CHAMFERA
 40
0.5
  9
$CHAMFERB
 40
0.5
  9
$CHAMFERC
 40
1.0
  9
$CHAMFERD
 40
0.0
  9
$SKPOLY
 70
     0
  9
$TDCREATE
 40
2458263.58241897
  9
$TDUCREATE
 40
2458263.207418981
  9
$TDUPDATE
 40
2458263.58241897
  9
$TDUUPDATE
 40
2458263.207418981
  9
$TDINDWG
 40
0.0000000116
  9
$TDUSRTIMER
 40
0.0000000116
  9
$USRTIMER
 70
     1
  9
$ANGBASE
 50
0.0
  9
$ANGDIR
 70
     0
  9
$PDMODE
 70
     0
  9
$PDSIZE
 40
0.0
  9
$PLINEWID
 40
0.0
  9
$SPLFRAME
 70
     0
  9
$SPLINETYPE
 70
     6
  9
$SPLINESEGS
 70
     8
  9
$HANDSEED
  5
101
  9
$SURFTAB1
 70
     6
  9
$SURFTAB2
 70
     6
  9
$SURFTYPE
 70
     6
  9
$SURFU
 70
     6
  9
$SURFV
 70
     6
  9
$UCSBASE
  2

  9
$UCSNAME
  2

  9
$UCSORG
 10
0.0
 20
0.0
 30
0.0
  9
$UCSXDIR
 10
1.0
 20
0.0
 30
0.0
  9
$UCSYDIR
 10
0.0
 20
1.0
 30
0.0
  9
$UCSORTHOREF
  2

  9
$UCSORTHOVIEW
 70
     0
  9
$UCSORGTOP
 10
0.0
 20
0.0
 30
0.0
  9
$UCSORGBOTTOM
 10
0.0
 20
0.0
 30
0.0
  9
$UCSORGLEFT
 10
0.0
 20
0.0
 30
0.0
  9
$UCSORGRIGHT
 10
0.0
 20
0.0
 30
0.0
  9
$UCSORGFRONT
 10
0.0
 20
0.0
 30
0.0
  9
$UCSORGBACK
 10
0.0
 20
0.0
 30
0.0
  9
$PUCSBASE
  2

  9
$PUCSNAME
  2

  9
$PUCSORG
 10
0.0
 20
0.0
 30
0.0
  9
$PUCSXDIR
 10
1.0
 20
0.0
 30
0.0
  9
$PUCSYDIR
 10
0.0
 20
1.0
 30
0.0
  9
$PUCSORTHOREF
  2

  9
$PUCSORTHOVIEW
 70
     0
  9
$PUCSORGTOP
 10
0.0
 20
0.0
 30
0.0
  9
$PUCSORGBOTTOM
 10
0.0
 20
0.0
 30
0.0
  9
$PUCSORGLEFT
 10
0.0
 20
0.0
 30
0.0
  9
$PUCSORGRIGHT
 10
0.0
 20
0.0
 30
0.0
  9
$PUCSORGFRONT
 10
0.0
 20
0.0
 30
0.0
  9
$PUCSORGBACK
 10
0.0
 20
0.0
 30
0.0
  9
$USERI1
 70
     0
  9
$USERI2
 70
     0
  9
$USERI3
 70
     0
  9
$USERI4
 70
     0
  9
$USERI5
 70
     0
  9
$USERR1
 40
0.0
  9
$USERR2
 40
0.0
  9
$USERR3
 40
0.0
  9
$USERR4
 40
0.0
  9
$USERR5
 40
0.0
  9
$WORLDVIEW
 70
     1
  9
$SHADEDGE
 70
     3
  9
$SHADEDIF
 70
    70
  9
$TILEMODE
 70
     1
  9
$MAXACTVP
 70
    64
  9
$PINSBASE
 10
0.0
 20
0.0
 30
0.0
  9
$PLIMCHECK
 70
     0
  9
$PEXTMIN
 10
1.000000000000000E+20
 20
1.000000000000000E+20
 30
1.000000000000000E+20
  9
$PEXTMAX
 10
-1.000000000000000E+20
 20
-1.000000000000000E+20
 30
-1.000000000000000E+20
  9
$PLIMMIN
 10
0.0
 20
0.0
  9
$PLIMMAX
 10
12.0
 20
9.0
  9
$UNITMODE
 70
     0
  9
$VISRETAIN
 70
     1
  9
$PLINEGEN
 70
     0
  9
$PSLTSCALE
 70
     1
  9
$TREEDEPTH
 70
  3020
  9
$CMLSTYLE
  2
Standard
  9
$CMLJUST
 70
     0
  9
$CMLSCALE
 40
1.0
  9
$PROXYGRAPHICS
 70
     1
  9
$MEASUREMENT
 70
     0
  9
$CELWEIGHT
370
    -1
  9
$ENDCAPS
280
     0
  9
$JOINSTYLE
280
     0
  9
$LWDISPLAY
290
     1
  9
$INSUNITS
 70
     1
  9
$HYPERLINKBASE
  1

  9
$STYLESHEET
  1

  9
$XEDIT
290
     1
  9
$CEPSNTYPE
380
     0
  9
$PSTYLEMODE
290
     1
  9
$FINGERPRINTGUID
  2
{0E2400DE-8C34-0E18-7424-CD672AC005D6}
  9
$VERSIONGUID
  2
{FAEB1C32-E019-11D5-929B-00C0DF256EC4}
  9
$EXTNAMES
290
     1
  9
$PSVPSCALE
 40
0.0
  9
$OLESTARTUP
290
     0
  9
$SORTENTS
280
   127
  9
$INDEXCTL
280
     0
  9
$HIDETEXT
280
     1
  9
$XCLIPFRAME
280
     2
  9
$HALOGAP
280
     0
  9
$OBSCOLOR
 70
   257
  9
$OBSLTYPE
280
     0
  9
$INTERSECTIONDISPLAY
280
     0
  9
$INTERSECTIONCOLOR
 70
   257
  9
$DIMASSOC
280
     2
  9
$PROJECTNAME
  1

  9
$CAMERADISPLAY
290
     0
  9
$LENSLENGTH
 40
50.0
  9
$CAMERAHEIGHT
 40
0.0
  9
$STEPSPERSEC
 40
2.0
  9
$STEPSIZE
 40
6.0
  9
$3DDWFPREC
 40
2.0
  9
$PSOLWIDTH
 40
0.25
  9
$PSOLHEIGHT
 40
4.0
  9
$LOFTANG1
 40
1.570796326794897
  9
$LOFTANG2
 40
1.570796326794897
  9
$LOFTMAG1
 40
0.0
  9
$LOFTMAG2
 40
0.0
  9
$LOFTPARAM
 70
     7
  9
$LOFTNORMALS
280
     1
  9
$LATITUDE
 40
37.795
  9
$LONGITUDE
 40
-122.394
  9
$NORTHDIRECTION
 40
0.0
  9
$TIMEZONE
 70
 -8000
  9
$LIGHTGLYPHDISPLAY
280
     1
  9
$TILEMODELIGHTSYNCH
280
     1
  9
$CMATERIAL
347
3C
  9
$SOLIDHIST
280
     1
  9
$SHOWHIST
280
     1
  9
$DWFFRAME
280
     2
  9
$DGNFRAME
280
     2
  9
$REALWORLDSCALE
290
     1
  9
$INTERFERECOLOR
 62
   256
  9
$CSHADOW
280
     0
  9
$SHADOWPLANELOCATION
 40
0.0
  0
ENDSEC
  0
SECTION
  2
CLASSES
  0
CLASS
  1
ACDBDICTIONARYWDFLT
  2
AcDbDictionaryWithDefault
  3
ObjectDBX Classes
 90
        0
 91
        4
280
     0
281
     0
  0
CLASS
  1
VISUALSTYLE
  2
AcDbVisualStyle
  3
ObjectDBX Classes
 90
     4095
 91
        4
280
     0
281
     0
  0
CLASS
  1
MATERIAL
  2
AcDbMaterial
  3
ObjectDBX Classes
 90
     1153
 91
        4
280
     0
281
     0
  0
CLASS
  1
SUN
  2
AcDbSun
  3
SCENEOE
 90
     1024
 91
        4
280
     0
281
     0
  0
ENDSEC
  0
SECTION
  2
TABLES
  0
TABLE
  2
VPORT
  5
8
330
0
100
AcDbSymbolTable
 70
     1
  0
VPORT
  5
29
330
8
100
AcDbSymbolTableRecord
100
AcDbViewportTableRecord
  2
*Active
 70
     0
 10
0.0
 20
0.0
 11
1.0
 21
1.0
 12
0.0
 22
0.0
 13
0.0
 23
0.0
 14
0.5
 24
0.5
 15
0.5
 25
0.5
 16
0.0
 26
0.0
 36
1.0
 17
105.0007777515277
 27
-148.5000416295416
 37
0.0
 40
297.0000832590831
 41
0.7070757462376333
 42
50.0
 43
0.0
 44
0.0
 50
0.0
 51
0.0
 71
     0
 72
   100
 73
     1
 74
     3
 75
     0
 76
     0
 77
     0
 78
     0
281
     0
 65
     1
110
0.0
120
0.0
130
0.0
111
1.0
121
0.0
131
0.0
112
0.0
122
1.0
132
0.0
 79
     0
146
0.0
 60
     3
 61
     5
292
     1
282
     1
141
0.0
142
0.0
 63
   250
361
3F
  0
ENDTAB
  0
TABLE
  2
LTYPE
  5
5
330
0
100
AcDbSymbolTable
 70
     2
  0
LTYPE
  5
14
330
5
100
AcDbSymbolTableRecord
100
AcDbLinetypeTableRecord
  2
ByBlock
 70
     0
  3

 72
    65
 73
     0
 40
0.0
  0
LTYPE
  5
15
330
5
100
AcDbSymbolTableRecord
100
AcDbLinetypeTableRecord
  2
ByLayer
 70
     0
  3

 72
    65
 73
     0
 40
0.0
  0
LTYPE
  5
16
330
5
100
AcDbSymbolTableRecord
100
AcDbLinetypeTableRecord
  2
Continuous
 70
     0
  3
Solid line
 72
    65
 73
     0
 40
0.0
  0
LTYPE
  5
47
330
5
100
AcDbSymbolTableRecord
100
AcDbLinetypeTableRecord
  2
AI-Linetype-1
 70
     0
  3
Adobe Illustrator Linetype No. 1
 72
    65
 73
     2
 40
1.411111110758333
 49
0.7055555553791667
 74
     0
 49
-0.7055555553791667
 74
     0
  0
ENDTAB
  0
TABLE
  2
LAYER
  5
2
330
0
100
AcDbSymbolTable
 70
     2
  0
LAYER
  5
10
330
2
100
AcDbSymbolTableRecord
100
AcDbLayerTableRecord
  2
0
 70
     0
 62
     7
  6
Continuous
370
    -3
390
F
347
3E
  0
LAYER
  5
40
330
2
100
AcDbSymbolTableRecord
100
AcDbLayerTableRecord
  2
_U+30EC_U+30A4_U+30E4_U+30FC 1
 70
     0
 62
     7
  6
Continuous
370
    -3
390
F
347
3E
  0
ENDTAB
  0
TABLE
  2
STYLE
  5
3
330
0
100
AcDbSymbolTable
 70
     1
  0
STYLE
  5
11
330
3
100
AcDbSymbolTableRecord
100
AcDbTextStyleTableRecord
  2
Standard
 70
     0
 40
0.0
 41
1.0
 50
0.0
 71
     0
 42
0.2
  3
txt
  4

  0
ENDTAB
  0
TABLE
  2
VIEW
  5
6
330
0
100
AcDbSymbolTable
 70
     0
  0
ENDTAB
  0
TABLE
  2
UCS
  5
7
330
0
100
AcDbSymbolTable
 70
     0
  0
ENDTAB
  0
TABLE
  2
APPID
  5
9
330
0
100
AcDbSymbolTable
 70
     1
  0
APPID
  5
12
330
9
100
AcDbSymbolTableRecord
100
AcDbRegAppTableRecord
  2
ACAD
 70
     0
  0
ENDTAB
  0
TABLE
  2
DIMSTYLE
  5
A
330
0
100
AcDbSymbolTable
 70
     1
100
AcDbDimStyleTable
  0
DIMSTYLE
105
27
330
A
100
AcDbSymbolTableRecord
100
AcDbDimStyleTableRecord
  2
Standard
 70
     0
178
     0
340
11
  0
ENDTAB
  0
TABLE
  2
BLOCK_RECORD
  5
1
330
0
100
AcDbSymbolTable
 70
     7
  0
BLOCK_RECORD
  5
1F
330
1
100
AcDbSymbolTableRecord
100
AcDbBlockTableRecord
  2
*Model_Space
340
22
 70
     0
280
     1
281
     0
  0
BLOCK_RECORD
  5
1B
330
1
100
AcDbSymbolTableRecord
100
AcDbBlockTableRecord
  2
*Paper_Space
340
1E
 70
     0
280
     1
281
     0
  0
BLOCK_RECORD
  5
23
330
1
100
AcDbSymbolTableRecord
100
AcDbBlockTableRecord
  2
*Paper_Space0
340
26
 70
     0
280
     1
281
     0
  0
BLOCK_RECORD
  5
8D
330
1
100
AcDbSymbolTableRecord
100
AcDbBlockTableRecord
  2
block 2
340
0
102
{BLKREFS
331
8E
102
}
 70
     0
280
     1
281
     0
  0
BLOCK_RECORD
  5
A2
330
1
100
AcDbSymbolTableRecord
100
AcDbBlockTableRecord
  2
block 3
340
0
102
{BLKREFS
331
A3
102
}
 70
     0
280
     1
281
     0
  0
BLOCK_RECORD
  5
B4
330
1
100
AcDbSymbolTableRecord
100
AcDbBlockTableRecord
  2
block 4
340
0
102
{BLKREFS
331
B5
102
}
 70
     0
280
     1
281
     0
  0
BLOCK_RECORD
  5
C6
330
1
100
AcDbSymbolTableRecord
100
AcDbBlockTableRecord
  2
block 5
340
0
102
{BLKREFS
331
C7
102
}
 70
     0
280
     1
281
     0
  0
BLOCK_RECORD
  5
DA
330
1
100
AcDbSymbolTableRecord
100
AcDbBlockTableRecord
  2
block 6
340
0
102
{BLKREFS
331
DB
102
}
 70
     0
280
     1
281
     0
  0
BLOCK_RECORD
  5
EE
330
1
100
AcDbSymbolTableRecord
100
AcDbBlockTableRecord
  2
block 7
340
0
102
{BLKREFS
331
EF
102
}
 70
     0
280
     1
281
     0
  0
ENDTAB
  0
ENDSEC
  0
SECTION
  2
BLOCKS
  0
BLOCK
  5
20
330
1F
100
AcDbEntity
  8
0
100
AcDbBlockBegin
  2
*Model_Space
 70
     0
 10
0.0
 20
0.0
 30
0.0
  3
*Model_Space
  1

  0
ENDBLK
  5
21
330
1F
100
AcDbEntity
  8
0
100
AcDbBlockEnd
  0
BLOCK
  5
1C
330
1B
100
AcDbEntity
 67
     1
  8
0
100
AcDbBlockBegin
  2
*Paper_Space
 70
     0
 10
0.0
 20
0.0
 30
0.0
  3
*Paper_Space
  1

  0
ENDBLK
  5
1D
330
1B
100
AcDbEntity
 67
     1
  8
0
100
AcDbBlockEnd
  0
BLOCK
  5
24
330
23
100
AcDbEntity
  8
0
100
AcDbBlockBegin
  2
*Paper_Space0
 70
     0
 10
0.0
 20
0.0
 30
0.0
  3
*Paper_Space0
  1

  0
ENDBLK
  5
25
330
23
100
AcDbEntity
  8
0
100
AcDbBlockEnd
  0
BLOCK
  5
8F
330
8D
100
AcDbEntity
  8
0
100
AcDbBlockBegin
  2
block 2
 70
     0
 10
0.0
 20
0.0
 30
0.0
  3
block 2
  1

  0
SPLINE
  5
91
330
8D
100
AcDbEntity
  8
_U+30EC_U+30A4_U+30E4_U+30FC 1
370
     0
100
AcDbSpline
210
0.0
220
0.0
230
1.0
 70
    11
 71
     3
 72
    26
 73
    22
 74
     0
 42
0.0000000001
 43
0.0000000001
 12
1.0
 22
0.0
 32
0.0
 13
1.0
 23
0.0
 33
0.0
 40
0.0
 40
0.0
 40
0.0
 40
0.0
 40
1.0
 40
1.0
 40
1.0
 40
2.0
 40
2.0
 40
2.0
 40
3.0
 40
3.0
 40
3.0
 40
4.0
 40
4.0
 40
4.0
 40
5.0
 40
5.0
 40
5.0
 40
6.0
 40
6.0
 40
6.0
 40
7.0
 40
7.0
 40
7.0
 40
7.0
 10
92.13149954293935
 20
-159.2140543221757
 30
0.0
 10
92.13149954293935
 20
-159.2140543221757
 30
0.0
 10
92.13149954293935
 20
-158.1099012191531
 30
0.0
 10
92.13149954293935
 20
-158.1099012191531
 30
0.0
 10
92.13149954293935
 20
-158.1099012191531
 30
0.0
 10
91.77872176524977
 20
-158.1099012191531
 30
0.0
 10
91.77872176524977
 20
-158.1099012191531
 30
0.0
 10
91.77872176524977
 20
-158.1099012191531
 30
0.0
 10
91.77872176524977
 20
-157.9617621132873
 30
0.0
 10
91.77872176524977
 20
-157.9617621132873
 30
0.0
 10
92.13373885500476
 20
-157.9469482027008
 30
0.0
 10
92.18352048476662
 20
-157.7839951862485
 30
0.0
 10
92.21521536323093
 20
-157.6696180161381
 30
0.0
 10
92.21521536323093
 20
-157.6696180161381
 30
0.0
 10
92.37110593393848
 20
-157.6696180161381
 30
0.0
 10
92.37110593393848
 20
-157.6696180161381
 30
0.0
 10
92.37110593393848
 20
-157.6696180161381
 30
0.0
 10
92.37110593393848
 20
-159.2140543221757
 30
0.0
 10
92.37110593393848
 20
-159.2140543221757
 30
0.0
 10
92.37110593393848
 20
-159.2140543221757
 30
0.0
 10
92.13149954293935
 20
-159.2140543221757
 30
0.0
 10
92.13149954293935
 20
-159.2140543221757
 30
0.0
  0
HATCH
  5
92
330
8D
100
AcDbEntity
  8
_U+30EC_U+30A4_U+30E4_U+30FC 1
 62
   179
420
  2234388
100
AcDbHatch
 10
0.0
 20
0.0
 30
0.0
210
0.0
220
0.0
230
1.0
  2
SOLID
 70
     1
 71
     0
 91
        1
 92
        1
 93
        1
 72
     4
 94
        3
 73
     0
 74
     1
 95
       26
 96
       22
 40
0.0
 40
0.0
 40
0.0
 40
0.0
 40
1.0
 40
1.0
 40
1.0
 40
2.0
 40
2.0
 40
2.0
 40
3.0
 40
3.0
 40
3.0
 40
4.0
 40
4.0
 40
4.0
 40
5.0
 40
5.0
 40
5.0
 40
6.0
 40
6.0
 40
6.0
 40
7.0
 40
7.0
 40
7.0
 40
7.0
 10
92.13149954293935
 20
-159.2140543221757
 10
92.13149954293935
 20
-159.2140543221757
 10
92.13149954293935
 20
-158.1099012191531
 10
92.13149954293935
 20
-158.1099012191531
 10
92.13149954293935
 20
-158.1099012191531
 10
91.77872176524977
 20
-158.1099012191531
 10
91.77872176524977
 20
-158.1099012191531
 10
91.77872176524977
 20
-158.1099012191531
 10
91.77872176524977
 20
-157.9617621132873
 10
91.77872176524977
 20
-157.9617621132873
 10
92.13373885500476
 20
-157.9469482027008
 10
92.18352048476662
 20
-157.7839951862485
 10
92.21521536323093
 20
-157.6696180161381
 10
92.21521536323093
 20
-157.6696180161381
 10
92.37110593393848
 20
-157.6696180161381
 10
92.37110593393848
 20
-157.6696180161381
 10
92.37110593393848
 20
-157.6696180161381
 10
92.37110593393848
 20
-159.2140543221757
 10
92.37110593393848
 20
-159.2140543221757
 10
92.37110593393848
 20
-159.2140543221757
 10
92.13149954293935
 20
-159.2140543221757
 10
92.13149954293935
 20
-159.2140543221757
 97
        0
 97
        0
 75
     2
 76
     1
 98
        0
  0
SPLINE
  5
93
330
8D
100
AcDbEntity
  8
_U+30EC_U+30A4_U+30E4_U+30FC 1
370
     0
100
AcDbSpline
210
0.0
220
0.0
230
1.0
 70
    11
 71
     3
 72
    44
 73
    40
 74
     0
 42
0.0000000001
 43
0.0000000001
 12
1.0
 22
0.0
 32
0.0
 13
1.0
 23
0.0
 33
0.0
 40
0.0
 40
0.0
 40
0.0
 40
0.0
 40
1.0
 40
1.0
 40
1.0
 40
2.0
 40
2.0
 40
2.0
 40
3.0
 40
3.0
 40
3.0
 40
4.0
 40
4.0
 40
4.0
 40
5.0
 40
5.0
 40
5.0
 40
6.0
 40
6.0
 40
6.0
 40
7.0
 40
7.0
 40
7.0
 40
8.0
 40
8.0
 40
8.0
 40
9.0
 40
9.0
 40
9.0
 40
10.0
 40
10.0
 40
10.0
 40
11.0
 40
11.0
 40
11.0
 40
12.0
 40
12.0
 40
12.0
 40
13.0
 40
13.0
 40
13.0
 40
13.0
 10
93.99064532155442
 20
-159.2140543221757
 30
0.0
 10
93.96584063406063
 20
-159.1696125904159
 30
0.0
 10
93.94327525863224
 20
-159.1169026294916
 30
0.0
 10
93.94086369179257
 20
-158.8860812319799
 30
0.0
 10
93.93638506766175
 20
-158.6428574907212
 30
0.0
 10
93.8731675655074
 20
-158.5729220523707
 30
0.0
 10
93.68317054949588
 20
-158.5729220523707
 30
0.0
 10
93.68317054949588
 20
-158.5729220523707
 30
0.0
 10
93.24684920628899
 20
-158.5729220523707
 30
0.0
 10
93.24684920628899
 20
-158.5729220523707
 30
0.0
 10
93.24684920628899
 20
-158.5729220523707
 30
0.0
 10
93.24684920628899
 20
-159.2140543221757
 30
0.0
 10
93.24684920628899
 20
-159.2140543221757
 30
0.0
 10
93.24684920628899
 20
-159.2140543221757
 30
0.0
 10
92.99587400018854
 20
-159.2140543221757
 30
0.0
 10
92.99587400018854
 20
-159.2140543221757
 30
0.0
 10
92.99587400018854
 20
-159.2140543221757
 30
0.0
 10
92.99587400018854
 20
-157.6696180161381
 30
0.0
 10
92.99587400018854
 20
-157.6696180161381
 30
0.0
 10
92.99587400018854
 20
-157.6696180161381
 30
0.0
 10
93.71710474002559
 20
-157.6696180161381
 30
0.0
 10
93.71710474002559
 20
-157.6696180161381
 30
0.0
 10
94.04490557544712
 20
-157.6696180161381
 30
0.0
 10
94.22353377635731
 20
-157.8411837713036
 30
0.0
 10
94.22353377635731
 20
-158.0971543658577
 30
0.0
 10
94.22353377635731
 20
-158.1477972694908
 30
0.0
 10
94.2144042733214
 20
-158.2304795611368
 30
0.0
 10
94.16703421039922
 20
-158.3107502859432
 30
0.0
 10
94.10364445347062
 20
-158.4144476600492
 30
0.0
 10
94.03353676034578
 20
-158.433395685218
 30
0.0
 10
93.96807994612604
 20
-158.4502766530958
 30
0.0
 10
94.11501326857194
 20
-158.4926513275643
 30
0.0
 10
94.1873602737622
 20
-158.5412271739064
 30
0.0
 10
94.19183889789302
 20
-158.8564534108067
 30
0.0
 10
94.1964897767981
 20
-159.1272379159474
 30
0.0
 10
94.23490259145863
 20
-159.1589327944117
 30
0.0
 10
94.30724959664889
 20
-159.2140543221757
 30
0.0
 10
94.30724959664889
 20
-159.2140543221757
 30
0.0
 10
93.99064532155442
 20
-159.2140543221757
 30
0.0
 10
93.99064532155442
 20
-159.2140543221757
 30
0.0
  0
SPLINE
  5
94
330
8D
100
AcDbEntity
  8
_U+30EC_U+30A4_U+30E4_U+30FC 1
370
     0
100
AcDbSpline
210
0.0
220
0.0
230
1.0
 70
    11
 71
     3
 72
    20
 73
    16
 74
     0
 42
0.0000000001
 43
0.0000000001
 12
1.0
 22
0.0
 32
0.0
 13
1.0
 23
0.0
 33
0.0
 40
0.0
 40
0.0
 40
0.0
 40
0.0
 40
1.0
 40
1.0
 40
1.0
 40
2.0
 40
2.0
 40
2.0
 40
3.0
 40
3.0
 40
3.0
 40
4.0
 40
4.0
 40
4.0
 40
5.0
 40
5.0
 40
5.0
 40
5.0
 10
93.72158336415642
 20
-157.8811468789325
 30
0.0
 10
93.72158336415642
 20
-157.8811468789325
 30
0.0
 10
93.24684920628899
 20
-157.8811468789325
 30
0.0
 10
93.24684920628899
 20
-157.8811468789325
 30
0.0
 10
93.24684920628899
 20
-157.8811468789325
 30
0.0
 10
93.24684920628899
 20
-158.3613931895763
 30
0.0
 10
93.24684920628899
 20
-158.3613931895763
 30
0.0
 10
93.24684920628899
 20
-158.3613931895763
 30
0.0
 10
93.719344052091
 20
-158.3613931895763
 30
0.0
 10
93.719344052091
 20
-158.3613931895763
 30
0.0
 10
93.82562524781096
 20
-158.3613931895763
 30
0.0
 10
93.97031925819145
 20
-158.2852565793523
 30
0.0
 10
93.97031925819145
 20
-158.1140353337354
 30
0.0
 10
93.97031925819145
 20
-158.0358316662202
 30
0.0
 10
93.93414575559633
 20
-157.8811468789325
 30
0.0
 10
93.72158336415642
 20
-157.8811468789325
 30
0.0
  0
HATCH
  5
95
330
8D
100
AcDbEntity
  8
_U+30EC_U+30A4_U+30E4_U+30FC 1
 62
   179
420
  2234388
100
AcDbHatch
 10
0.0
 20
0.0
 30
0.0
210
0.0
220
0.0
230
1.0
  2
SOLID
 70
     1
 71
     0
 91
        2
 92
        1
 93
        1
 72
     4
 94
        3
 73
     0
 74
     1
 95
       44
 96
       40
 40
0.0
 40
0.0
 40
0.0
 40
0.0
 40
1.0
 40
1.0
 40
1.0
 40
2.0
 40
2.0
 40
2.0
 40
3.0
 40
3.0
 40
3.0
 40
4.0
 40
4.0
 40
4.0
 40
5.0
 40
5.0
 40
5.0
 40
6.0
 40
6.0
 40
6.0
 40
7.0
 40
7.0
 40
7.0
 40
8.0
 40
8.0
 40
8.0
 40
9.0
 40
9.0
 40
9.0
 40
10.0
 40
10.0
 40
10.0
 40
11.0
 40
11.0
 40
11.0
 40
12.0
 40
12.0
 40
12.0
 40
13.0
 40
13.0
 40
13.0
 40
13.0
 10
93.99064532155442
 20
-159.2140543221757
 10
93.96584063406063
 20
-159.1696125904159
 10
93.94327525863224
 20
-159.1169026294916
 10
93.94086369179257
 20
-158.8860812319799
 10
93.93638506766175
 20
-158.6428574907212
 10
93.8731675655074
 20
-158.5729220523707
 10
93.68317054949588
 20
-158.5729220523707
 10
93.68317054949588
 20
-158.5729220523707
 10
93.24684920628899
 20
-158.5729220523707
 10
93.24684920628899
 20
-158.5729220523707
 10
93.24684920628899
 20
-158.5729220523707
 10
93.24684920628899
 20
-159.2140543221757
 10
93.24684920628899
 20
-159.2140543221757
 10
93.24684920628899
 20
-159.2140543221757
 10
92.99587400018854
 20
-159.2140543221757
 10
92.99587400018854
 20
-159.2140543221757
 10
92.99587400018854
 20
-159.2140543221757
 10
92.99587400018854
 20
-157.6696180161381
 10
92.99587400018854
 20
-157.6696180161381
 10
92.99587400018854
 20
-157.6696180161381
 10
93.71710474002559
 20
-157.6696180161381
 10
93.71710474002559
 20
-157.6696180161381
 10
94.04490557544712
 20
-157.6696180161381
 10
94.22353377635731
 20
-157.8411837713036
 10
94.22353377635731
 20
-158.0971543658577
 10
94.22353377635731
 20
-158.1477972694908
 10
94.2144042733214
 20
-158.2304795611368
 10
94.16703421039922
 20
-158.3107502859432
 10
94.10364445347062
 20
-158.4144476600492
 10
94.03353676034578
 20
-158.433395685218
 10
93.96807994612604
 20
-158.4502766530958
 10
94.11501326857194
 20
-158.4926513275643
 10
94.1873602737622
 20
-158.5412271739064
 10
94.19183889789302
 20
-158.8564534108067
 10
94.1964897767981
 20
-159.1272379159474
 10
94.23490259145863
 20
-159.1589327944117
 10
94.30724959664889
 20
-159.2140543221757
 10
94.30724959664889
 20
-159.2140543221757
 10
93.99064532155442
 20
-159.2140543221757
 10
93.99064532155442
 20
-159.2140543221757
 97
        0
 97
        0
 92
        1
 93
        1
 72
     4
 94
        3
 73
     0
 74
     1
 95
       20
 96
       16
 40
0.0
 40
0.0
 40
0.0
 40
0.0
 40
1.0
 40
1.0
 40
1.0
 40
2.0
 40
2.0
 40
2.0
 40
3.0
 40
3.0
 40
3.0
 40
4.0
 40
4.0
 40
4.0
 40
5.0
 40
5.0
 40
5.0
 40
5.0
 10
93.72158336415642
 20
-157.8811468789325
 10
93.72158336415642
 20
-157.8811468789325
 10
93.24684920628899
 20
-157.8811468789325
 10
93.24684920628899
 20
-157.8811468789325
 10
93.24684920628899
 20
-157.8811468789325
 10
93.24684920628899
 20
-158.3613931895763
 10
93.24684920628899
 20
-158.3613931895763
 10
93.24684920628899
 20
-158.3613931895763
 10
93.719344052091
 20
-158.3613931895763
 10
93.719344052091
 20
-158.3613931895763
 10
93.82562524781096
 20
-158.3613931895763
 10
93.97031925819145
 20
-158.2852565793523
 10
93.97031925819145
 20
-158.1140353337354
 10
93.97031925819145
 20
-158.0358316662202
 10
93.93414575559633
 20
-157.8811468789325
 10
93.72158336415642
 20
-157.8811468789325
 97
        0
 97
        0
 75
     2
 76
     1
 98
        0
  0
ENDBLK
  5
90
330
8D
100
AcDbEntity
  8
0
100
AcDbBlockEnd
  0
BLOCK
  5
A4
330
A2
100
AcDbEntity
  8
0
100
AcDbBlockBegin
  2
block 3
 70
     0
 10
0.0
 20
0.0
 30
0.0
  3
block 3
  1

  0
SPLINE
  5
A6
330
A2
100
AcDbEntity
  8
_U+30EC_U+30A4_U+30E4_U+30FC 1
370
     0
100
AcDbSpline
210
0.0
220
0.0
230
1.0
 70
    11
 71
     3
 72
    26
 73
    22
 74
     0
 42
0.0000000001
 43
0.0000000001
 12
1.0
 22
0.0
 32
0.0
 13
1.0
 23
0.0
 33
0.0
 40
0.0
 40
0.0
 40
0.0
 40
0.0
 40
1.0
 40
1.0
 40
1.0
 40
2.0
 40
2.0
 40
2.0
 40
3.0
 40
3.0
 40
3.0
 40
4.0
 40
4.0
 40
4.0
 40
5.0
 40
5.0
 40
5.0
 40
6.0
 40
6.0
 40
6.0
 40
7.0
 40
7.0
 40
7.0
 40
7.0
 10
108.9487331541864
 20
-138.7644842860554
 30
0.0
 10
108.9487331541864
 20
-138.7644842860554
 30
0.0
 10
108.9487331541864
 20
-137.6603311830328
 30
0.0
 10
108.9487331541864
 20
-137.6603311830328
 30
0.0
 10
108.9487331541864
 20
-137.6603311830328
 30
0.0
 10
108.5959553764968
 20
-137.6603311830328
 30
0.0
 10
108.5959553764968
 20
-137.6603311830328
 30
0.0
 10
108.5959553764968
 20
-137.6603311830328
 30
0.0
 10
108.5959553764968
 20
-137.5121920771671
 30
0.0
 10
108.5959553764968
 20
-137.5121920771671
 30
0.0
 10
108.9511447210261
 20
-137.4973781665805
 30
0.0
 10
109.0007540960137
 20
-137.3344251501282
 30
0.0
 10
109.032448974478
 20
-137.2200479800179
 30
0.0
 10
109.032448974478
 20
-137.2200479800179
 30
0.0
 10
109.1881672904113
 20
-137.2200479800179
 30
0.0
 10
109.1881672904113
 20
-137.2200479800179
 30
0.0
 10
109.1881672904113
 20
-137.2200479800179
 30
0.0
 10
109.1881672904113
 20
-138.7644842860554
 30
0.0
 10
109.1881672904113
 20
-138.7644842860554
 30
0.0
 10
109.1881672904113
 20
-138.7644842860554
 30
0.0
 10
108.9487331541864
 20
-138.7644842860554
 30
0.0
 10
108.9487331541864
 20
-138.7644842860554
 30
0.0
  0
HATCH
  5
A7
330
A2
100
AcDbEntity
  8
_U+30EC_U+30A4_U+30E4_U+30FC 1
 62
   179
420
  2234388
100
AcDbHatch
 10
0.0
 20
0.0
 30
0.0
210
0.0
220
0.0
230
1.0
  2
SOLID
 70
     1
 71
     0
 91
        1
 92
        1
 93
        1
 72
     4
 94
        3
 73
     0
 74
     1
 95
       26
 96
       22
 40
0.0
 40
0.0
 40
0.0
 40
0.0
 40
1.0
 40
1.0
 40
1.0
 40
2.0
 40
2.0
 40
2.0
 40
3.0
 40
3.0
 40
3.0
 40
4.0
 40
4.0
 40
4.0
 40
5.0
 40
5.0
 40
5.0
 40
6.0
 40
6.0
 40
6.0
 40
7.0
 40
7.0
 40
7.0
 40
7.0
 10
108.9487331541864
 20
-138.7644842860554
 10
108.9487331541864
 20
-138.7644842860554
 10
108.9487331541864
 20
-137.6603311830328
 10
108.9487331541864
 20
-137.6603311830328
 10
108.9487331541864
 20
-137.6603311830328
 10
108.5959553764968
 20
-137.6603311830328
 10
108.5959553764968
 20
-137.6603311830328
 10
108.5959553764968
 20
-137.6603311830328
 10
108.5959553764968
 20
-137.5121920771671
 10
108.5959553764968
 20
-137.5121920771671
 10
108.9511447210261
 20
-137.4973781665805
 10
109.0007540960137
 20
-137.3344251501282
 10
109.032448974478
 20
-137.2200479800179
 10
109.032448974478
 20
-137.2200479800179
 10
109.1881672904113
 20
-137.2200479800179
 10
109.1881672904113
 20
-137.2200479800179
 10
109.1881672904113
 20
-137.2200479800179
 10
109.1881672904113
 20
-138.7644842860554
 10
109.1881672904113
 20
-138.7644842860554
 10
109.1881672904113
 20
-138.7644842860554
 10
108.9487331541864
 20
-138.7644842860554
 10
108.9487331541864
 20
-138.7644842860554
 97
        0
 97
        0
 75
     2
 76
     1
 98
        0
  0
SPLINE
  5
A8
330
A2
100
AcDbEntity
  8
_U+30EC_U+30A4_U+30E4_U+30FC 1
370
     0
100
AcDbSpline
210
0.0
220
0.0
230
1.0
 70
    11
 71
     3
 72
    29
 73
    25
 74
     0
 42
0.0000000001
 43
0.0000000001
 12
1.0
 22
0.0
 32
0.0
 13
1.0
 23
0.0
 33
0.0
 40
0.0
 40
0.0
 40
0.0
 40
0.0
 40
1.0
 40
1.0
 40
1.0
 40
2.0
 40
2.0
 40
2.0
 40
3.0
 40
3.0
 40
3.0
 40
4.0
 40
4.0
 40
4.0
 40
5.0
 40
5.0
 40
5.0
 40
6.0
 40
6.0
 40
6.0
 40
7.0
 40
7.0
 40
7.0
 40
8.0
 40
8.0
 40
8.0
 40
8.0
 10
110.2585584576784
 20
-138.8151271896886
 30
0.0
 10
109.9736490610483
 20
-138.8151271896886
 30
0.0
 10
109.7021755368106
 20
-138.6776678798271
 30
0.0
 10
109.7021755368106
 20
-138.3286797071713
 30
0.0
 10
109.7021755368106
 20
-138.0727091126172
 30
0.0
 10
109.8537597381616
 20
-137.9776244772243
 30
0.0
 10
109.9667588700778
 20
-137.9163017775869
 30
0.0
 10
109.8334336747986
 20
-137.8570461352406
 30
0.0
 10
109.7521294213467
 20
-137.7426689651303
 30
0.0
 10
109.7521294213467
 20
-137.5817830059692
 30
0.0
 10
109.7521294213467
 20
-137.3068643862462
 30
0.0
 10
109.9646918127866
 20
-137.1714721336759
 30
0.0
 10
110.2585584576784
 20
-137.1714721336759
 30
0.0
 10
110.5613823508319
 20
-137.1714721336759
 30
0.0
 10
110.7649874940101
 20
-137.3154771249593
 30
0.0
 10
110.7649874940101
 20
-137.5817830059692
 30
0.0
 10
110.7649874940101
 20
-137.7426689651303
 30
0.0
 10
110.6812716737186
 20
-137.8570461352406
 30
0.0
 10
110.5479464784394
 20
-137.9163017775869
 30
0.0
 10
110.6426866042838
 20
-137.9669446812201
 30
0.0
 10
110.8121853021581
 20
-138.062029316613
 30
0.0
 10
110.8121853021581
 20
-138.324545592589
 30
0.0
 10
110.8121853021581
 20
-138.6990274718357
 30
0.0
 10
110.5138400331354
 20
-138.8151271896886
 30
0.0
 10
110.2585584576784
 20
-138.8151271896886
 30
0.0
  0
SPLINE
  5
A9
330
A2
100
AcDbEntity
  8
_U+30EC_U+30A4_U+30E4_U+30FC 1
370
     0
100
AcDbSpline
210
0.0
220
0.0
230
1.0
 70
    11
 71
     3
 72
    17
 73
    13
 74
     0
 42
0.0000000001
 43
0.0000000001
 12
1.0
 22
0.0
 32
0.0
 13
1.0
 23
0.0
 33
0.0
 40
0.0
 40
0.0
 40
0.0
 40
0.0
 40
1.0
 40
1.0
 40
1.0
 40
2.0
 40
2.0
 40
2.0
 40
3.0
 40
3.0
 40
3.0
 40
4.0
 40
4.0
 40
4.0
 40
4.0
 10
110.2585584576784
 20
-138.0241332662752
 30
0.0
 10
110.1045626894878
 20
-138.0241332662752
 30
0.0
 10
109.941954182584
 20
-138.1109496725035
 30
0.0
 10
109.941954182584
 20
-138.3138657965847
 30
0.0
 10
109.941954182584
 20
-138.5191934875056
 30
0.0
 10
110.0776909447028
 20
-138.620479294772
 30
0.0
 10
110.2585584576784
 20
-138.620479294772
 30
0.0
 10
110.4573404671773
 20
-138.620479294772
 30
0.0
 10
110.5751627327729
 20
-138.4978338954971
 30
0.0
 10
110.5751627327729
 20
-138.3200669684582
 30
0.0
 10
110.5751627327729
 20
-138.0982028192081
 30
0.0
 10
110.4008409012192
 20
-138.0241332662752
 30
0.0
 10
110.2585584576784
 20
-138.0241332662752
 30
0.0
  0
SPLINE
  5
AA
330
A2
100
AcDbEntity
  8
_U+30EC_U+30A4_U+30E4_U+30FC 1
370
     0
100
AcDbSpline
210
0.0
220
0.0
230
1.0
 70
    11
 71
     3
 72
    17
 73
    13
 74
     0
 42
0.0000000001
 43
0.0000000001
 12
1.0
 22
0.0
 32
0.0
 13
1.0
 23
0.0
 33
0.0
 40
0.0
 40
0.0
 40
0.0
 40
0.0
 40
1.0
 40
1.0
 40
1.0
 40
2.0
 40
2.0
 40
2.0
 40
3.0
 40
3.0
 40
3.0
 40
4.0
 40
4.0
 40
4.0
 40
4.0
 10
110.2585584576784
 20
-137.3640529713014
 30
0.0
 10
110.0821695688336
 20
-137.3640529713014
 30
0.0
 10
109.9915635575716
 20
-137.4591376066942
 30
0.0
 10
109.9915635575716
 20
-137.5945298592646
 30
0.0
 10
109.9915635575716
 20
-137.7171752585395
 30
0.0
 10
110.0687336964412
 20
-137.835686543232
 30
0.0
 10
110.2585584576784
 20
-137.835686543232
 30
0.0
 10
110.4483832189157
 20
-137.835686543232
 30
0.0
 10
110.5252088482368
 20
-137.7171752585395
 30
0.0
 10
110.5252088482368
 20
-137.5945298592646
 30
0.0
 10
110.5252088482368
 20
-137.4591376066942
 30
0.0
 10
110.4325357796835
 20
-137.3640529713014
 30
0.0
 10
110.2585584576784
 20
-137.3640529713014
 30
0.0
  0
HATCH
  5
AB
330
A2
100
AcDbEntity
  8
_U+30EC_U+30A4_U+30E4_U+30FC 1
 62
   179
420
  2234388
100
AcDbHatch
 10
0.0
 20
0.0
 30
0.0
210
0.0
220
0.0
230
1.0
  2
SOLID
 70
     1
 71
     0
 91
        3
 92
        1
 93
        1
 72
     4
 94
        3
 73
     0
 74
     1
 95
       29
 96
       25
 40
0.0
 40
0.0
 40
0.0
 40
0.0
 40
1.0
 40
1.0
 40
1.0
 40
2.0
 40
2.0
 40
2.0
 40
3.0
 40
3.0
 40
3.0
 40
4.0
 40
4.0
 40
4.0
 40
5.0
 40
5.0
 40
5.0
 40
6.0
 40
6.0
 40
6.0
 40
7.0
 40
7.0
 40
7.0
 40
8.0
 40
8.0
 40
8.0
 40
8.0
 10
110.2585584576784
 20
-138.8151271896886
 10
109.9736490610483
 20
-138.8151271896886
 10
109.7021755368106
 20
-138.6776678798271
 10
109.7021755368106
 20
-138.3286797071713
 10
109.7021755368106
 20
-138.0727091126172
 10
109.8537597381616
 20
-137.9776244772243
 10
109.9667588700778
 20
-137.9163017775869
 10
109.8334336747986
 20
-137.8570461352406
 10
109.7521294213467
 20
-137.7426689651303
 10
109.7521294213467
 20
-137.5817830059692
 10
109.7521294213467
 20
-137.3068643862462
 10
109.9646918127866
 20
-137.1714721336759
 10
110.2585584576784
 20
-137.1714721336759
 10
110.5613823508319
 20
-137.1714721336759
 10
110.7649874940101
 20
-137.3154771249593
 10
110.7649874940101
 20
-137.5817830059692
 10
110.7649874940101
 20
-137.7426689651303
 10
110.6812716737186
 20
-137.8570461352406
 10
110.5479464784394
 20
-137.9163017775869
 10
110.6426866042838
 20
-137.9669446812201
 10
110.8121853021581
 20
-138.062029316613
 10
110.8121853021581
 20
-138.324545592589
 10
110.8121853021581
 20
-138.6990274718357
 10
110.5138400331354
 20
-138.8151271896886
 10
110.2585584576784
 20
-138.8151271896886
 97
        0
 97
        0
 92
        1
 93
        1
 72
     4
 94
        3
 73
     0
 74
     1
 95
       17
 96
       13
 40
0.0
 40
0.0
 40
0.0
 40
0.0
 40
1.0
 40
1.0
 40
1.0
 40
2.0
 40
2.0
 40
2.0
 40
3.0
 40
3.0
 40
3.0
 40
4.0
 40
4.0
 40
4.0
 40
4.0
 10
110.2585584576784
 20
-138.0241332662752
 10
110.1045626894878
 20
-138.0241332662752
 10
109.941954182584
 20
-138.1109496725035
 10
109.941954182584
 20
-138.3138657965847
 10
109.941954182584
 20
-138.5191934875056
 10
110.0776909447028
 20
-138.620479294772
 10
110.2585584576784
 20
-138.620479294772
 10
110.4573404671773
 20
-138.620479294772
 10
110.5751627327729
 20
-138.4978338954971
 10
110.5751627327729
 20
-138.3200669684582
 10
110.5751627327729
 20
-138.0982028192081
 10
110.4008409012192
 20
-138.0241332662752
 10
110.2585584576784
 20
-138.0241332662752
 97
        0
 97
        0
 92
        1
 93
        1
 72
     4
 94
        3
 73
     0
 74
     1
 95
       17
 96
       13
 40
0.0
 40
0.0
 40
0.0
 40
0.0
 40
1.0
 40
1.0
 40
1.0
 40
2.0
 40
2.0
 40
2.0
 40
3.0
 40
3.0
 40
3.0
 40
4.0
 40
4.0
 40
4.0
 40
4.0
 10
110.2585584576784
 20
-137.3640529713014
 10
110.0821695688336
 20
-137.3640529713014
 10
109.9915635575716
 20
-137.4591376066942
 10
109.9915635575716
 20
-137.5945298592646
 10
109.9915635575716
 20
-137.7171752585395
 10
110.0687336964412
 20
-137.835686543232
 10
110.2585584576784
 20
-137.835686543232
 10
110.4483832189157
 20
-137.835686543232
 10
110.5252088482368
 20
-137.7171752585395
 10
110.5252088482368
 20
-137.5945298592646
 10
110.5252088482368
 20
-137.4591376066942
 10
110.4325357796835
 20
-137.3640529713014
 10
110.2585584576784
 20
-137.3640529713014
 97
        0
 97
        0
 75
     2
 76
     1
 98
        0
  0
ENDBLK
  5
A5
330
A2
100
AcDbEntity
  8
0
100
AcDbBlockEnd
  0
BLOCK
  5
B6
330
B4
100
AcDbEntity
  8
0
100
AcDbBlockBegin
  2
block 4
 70
     0
 10
0.0
 20
0.0
 30
0.0
  3
block 4
  1

  0
SPLINE
  5
B8
330
B4
100
AcDbEntity
  8
_U+30EC_U+30A4_U+30E4_U+30FC 1
370
     0
100
AcDbSpline
210
0.0
220
0.0
230
1.0
 70
    11
 71
     3
 72
    26
 73
    22
 74
     0
 42
0.0000000001
 43
0.0000000001
 12
1.0
 22
0.0
 32
0.0
 13
1.0
 23
0.0
 33
0.0
 40
0.0
 40
0.0
 40
0.0
 40
0.0
 40
1.0
 40
1.0
 40
1.0
 40
2.0
 40
2.0
 40
2.0
 40
3.0
 40
3.0
 40
3.0
 40
4.0
 40
4.0
 40
4.0
 40
5.0
 40
5.0
 40
5.0
 40
6.0
 40
6.0
 40
6.0
 40
7.0
 40
7.0
 40
7.0
 40
7.0
 10
101.8511474354747
 20
-145.2640014285278
 30
0.0
 10
101.8511474354747
 20
-145.2640014285278
 30
0.0
 10
101.8511474354747
 20
-144.1598483255052
 30
0.0
 10
101.8511474354747
 20
-144.1598483255052
 30
0.0
 10
101.8511474354747
 20
-144.1598483255052
 30
0.0
 10
101.4983696577851
 20
-144.1598483255052
 30
0.0
 10
101.4983696577851
 20
-144.1598483255052
 30
0.0
 10
101.4983696577851
 20
-144.1598483255052
 30
0.0
 10
101.4983696577851
 20
-144.0117092196394
 30
0.0
 10
101.4983696577851
 20
-144.0117092196394
 30
0.0
 10
101.8533867475401
 20
-143.9968953090529
 30
0.0
 10
101.903168377302
 20
-143.8339422926005
 30
0.0
 10
101.9348632557663
 20
-143.7195651224903
 30
0.0
 10
101.9348632557663
 20
-143.7195651224903
 30
0.0
 10
102.0907538264738
 20
-143.7195651224903
 30
0.0
 10
102.0907538264738
 20
-143.7195651224903
 30
0.0
 10
102.0907538264738
 20
-143.7195651224903
 30
0.0
 10
102.0907538264738
 20
-145.2640014285278
 30
0.0
 10
102.0907538264738
 20
-145.2640014285278
 30
0.0
 10
102.0907538264738
 20
-145.2640014285278
 30
0.0
 10
101.8511474354747
 20
-145.2640014285278
 30
0.0
 10
101.8511474354747
 20
-145.2640014285278
 30
0.0
  0
HATCH
  5
B9
330
B4
100
AcDbEntity
  8
_U+30EC_U+30A4_U+30E4_U+30FC 1
 62
   179
420
  2234388
100
AcDbHatch
 10
0.0
 20
0.0
 30
0.0
210
0.0
220
0.0
230
1.0
  2
SOLID
 70
     1
 71
     0
 91
        1
 92
        1
 93
        1
 72
     4
 94
        3
 73
     0
 74
     1
 95
       26
 96
       22
 40
0.0
 40
0.0
 40
0.0
 40
0.0
 40
1.0
 40
1.0
 40
1.0
 40
2.0
 40
2.0
 40
2.0
 40
3.0
 40
3.0
 40
3.0
 40
4.0
 40
4.0
 40
4.0
 40
5.0
 40
5.0
 40
5.0
 40
6.0
 40
6.0
 40
6.0
 40
7.0
 40
7.0
 40
7.0
 40
7.0
 10
101.8511474354747
 20
-145.2640014285278
 10
101.8511474354747
 20
-145.2640014285278
 10
101.8511474354747
 20
-144.1598483255052
 10
101.8511474354747
 20
-144.1598483255052
 10
101.8511474354747
 20
-144.1598483255052
 10
101.4983696577851
 20
-144.1598483255052
 10
101.4983696577851
 20
-144.1598483255052
 10
101.4983696577851
 20
-144.1598483255052
 10
101.4983696577851
 20
-144.0117092196394
 10
101.4983696577851
 20
-144.0117092196394
 10
101.8533867475401
 20
-143.9968953090529
 10
101.903168377302
 20
-143.8339422926005
 10
101.9348632557663
 20
-143.7195651224903
 10
101.9348632557663
 20
-143.7195651224903
 10
102.0907538264738
 20
-143.7195651224903
 10
102.0907538264738
 20
-143.7195651224903
 10
102.0907538264738
 20
-143.7195651224903
 10
102.0907538264738
 20
-145.2640014285278
 10
102.0907538264738
 20
-145.2640014285278
 10
102.0907538264738
 20
-145.2640014285278
 10
101.8511474354747
 20
-145.2640014285278
 10
101.8511474354747
 20
-145.2640014285278
 97
        0
 97
        0
 75
     2
 76
     1
 98
        0
  0
ENDBLK
  5
B7
330
B4
100
AcDbEntity
  8
0
100
AcDbBlockEnd
  0
BLOCK
  5
C8
330
C6
100
AcDbEntity
  8
0
100
AcDbBlockBegin
  2
block 5
 70
     0
 10
0.0
 20
0.0
 30
0.0
  3
block 5
  1

  0
SPLINE
  5
CA
330
C6
100
AcDbEntity
  8
_U+30EC_U+30A4_U+30E4_U+30FC 1
370
     0
100
AcDbSpline
210
0.0
220
0.0
230
1.0
 70
    11
 71
     3
 72
    26
 73
    22
 74
     0
 42
0.0000000001
 43
0.0000000001
 12
1.0
 22
0.0
 32
0.0
 13
1.0
 23
0.0
 33
0.0
 40
0.0
 40
0.0
 40
0.0
 40
0.0
 40
1.0
 40
1.0
 40
1.0
 40
2.0
 40
2.0
 40
2.0
 40
3.0
 40
3.0
 40
3.0
 40
4.0
 40
4.0
 40
4.0
 40
5.0
 40
5.0
 40
5.0
 40
6.0
 40
6.0
 40
6.0
 40
7.0
 40
7.0
 40
7.0
 40
7.0
 10
95.02796357216316
 20
-150.5365478139284
 30
0.0
 10
95.02796357216316
 20
-150.5365478139284
 30
0.0
 10
93.92381046914058
 20
-150.5365478139284
 30
0.0
 10
93.92381046914058
 20
-150.5365478139284
 30
0.0
 10
93.92381046914058
 20
-150.5365478139284
 30
0.0
 10
93.92381046914058
 20
-150.889325591618
 30
0.0
 10
93.92381046914058
 20
-150.889325591618
 30
0.0
 10
93.92381046914058
 20
-150.889325591618
 30
0.0
 10
93.77567136327484
 20
-150.889325591618
 30
0.0
 10
93.77567136327484
 20
-150.889325591618
 30
0.0
 10
93.76085745268826
 20
-150.5341362470887
 30
0.0
 10
93.59790443623595
 20
-150.4845268721011
 30
0.0
 10
93.48352726612565
 20
-150.4528319936368
 30
0.0
 10
93.48352726612565
 20
-150.4528319936368
 30
0.0
 10
93.48352726612565
 20
-150.2971136777035
 30
0.0
 10
93.48352726612565
 20
-150.2971136777035
 30
0.0
 10
93.48352726612565
 20
-150.2971136777035
 30
0.0
 10
95.02796357216316
 20
-150.2971136777035
 30
0.0
 10
95.02796357216316
 20
-150.2971136777035
 30
0.0
 10
95.02796357216316
 20
-150.2971136777035
 30
0.0
 10
95.02796357216316
 20
-150.5365478139284
 30
0.0
 10
95.02796357216316
 20
-150.5365478139284
 30
0.0
  0
HATCH
  5
CB
330
C6
100
AcDbEntity
  8
_U+30EC_U+30A4_U+30E4_U+30FC 1
 62
   179
420
  2234388
100
AcDbHatch
 10
0.0
 20
0.0
 30
0.0
210
0.0
220
0.0
230
1.0
  2
SOLID
 70
     1
 71
     0
 91
        1
 92
        1
 93
        1
 72
     4
 94
        3
 73
     0
 74
     1
 95
       26
 96
       22
 40
0.0
 40
0.0
 40
0.0
 40
0.0
 40
1.0
 40
1.0
 40
1.0
 40
2.0
 40
2.0
 40
2.0
 40
3.0
 40
3.0
 40
3.0
 40
4.0
 40
4.0
 40
4.0
 40
5.0
 40
5.0
 40
5.0
 40
6.0
 40
6.0
 40
6.0
 40
7.0
 40
7.0
 40
7.0
 40
7.0
 10
95.02796357216316
 20
-150.5365478139284
 10
95.02796357216316
 20
-150.5365478139284
 10
93.92381046914058
 20
-150.5365478139284
 10
93.92381046914058
 20
-150.5365478139284
 10
93.92381046914058
 20
-150.5365478139284
 10
93.92381046914058
 20
-150.889325591618
 10
93.92381046914058
 20
-150.889325591618
 10
93.92381046914058
 20
-150.889325591618
 10
93.77567136327484
 20
-150.889325591618
 10
93.77567136327484
 20
-150.889325591618
 10
93.76085745268826
 20
-150.5341362470887
 10
93.59790443623595
 20
-150.4845268721011
 10
93.48352726612565
 20
-150.4528319936368
 10
93.48352726612565
 20
-150.4528319936368
 10
93.48352726612565
 20
-150.2971136777035
 10
93.48352726612565
 20
-150.2971136777035
 10
93.48352726612565
 20
-150.2971136777035
 10
95.02796357216316
 20
-150.2971136777035
 10
95.02796357216316
 20
-150.2971136777035
 10
95.02796357216316
 20
-150.2971136777035
 10
95.02796357216316
 20
-150.5365478139284
 10
95.02796357216316
 20
-150.5365478139284
 97
        0
 97
        0
 75
     2
 76
     1
 98
        0
  0
SPLINE
  5
CC
330
C6
100
AcDbEntity
  8
_U+30EC_U+30A4_U+30E4_U+30FC 1
370
     0
100
AcDbSpline
210
0.0
220
0.0
230
1.0
 70
    11
 71
     3
 72
    62
 73
    58
 74
     0
 42
0.0000000001
 43
0.0000000001
 12
1.0
 22
0.0
 32
0.0
 13
1.0
 23
0.0
 33
0.0
 40
0.0
 40
0.0
 40
0.0
 40
0.0
 40
1.0
 40
1.0
 40
1.0
 40
2.0
 40
2.0
 40
2.0
 40
3.0
 40
3.0
 40
3.0
 40
4.0
 40
4.0
 40
4.0
 40
5.0
 40
5.0
 40
5.0
 40
6.0
 40
6.0
 40
6.0
 40
7.0
 40
7.0
 40
7.0
 40
8.0
 40
8.0
 40
8.0
 40
9.0
 40
9.0
 40
9.0
 40
10.0
 40
10.0
 40
10.0
 40
11.0
 40
11.0
 40
11.0
 40
12.0
 40
12.0
 40
12.0
 40
13.0
 40
13.0
 40
13.0
 40
14.0
 40
14.0
 40
14.0
 40
15.0
 40
15.0
 40
15.0
 40
16.0
 40
16.0
 40
16.0
 40
17.0
 40
17.0
 40
17.0
 40
18.0
 40
18.0
 40
18.0
 40
19.0
 40
19.0
 40
19.0
 40
19.0
 10
95.07860647579632
 20
-149.2360242682466
 30
0.0
 10
95.07860647579632
 20
-149.3373100755129
 30
0.0
 10
95.0575913933363
 20
-149.5701985303158
 30
0.0
 10
94.87155623713281
 20
-149.7038682351435
 30
0.0
 10
94.75924612431366
 20
-149.7831054313042
 30
0.0
 10
94.66002737433847
 20
-149.7872395458865
 30
0.0
 10
94.57527802540132
 20
-149.7920626795659
 30
0.0
 10
94.57527802540132
 20
-149.7920626795659
 30
0.0
 10
94.57527802540132
 20
-149.5567626579233
 30
0.0
 10
94.57527802540132
 20
-149.5567626579233
 30
0.0
 10
94.6493475783342
 20
-149.5543510910836
 30
0.0
 10
94.8839585808797
 20
-149.5433267855308
 30
0.0
 10
94.8839585808797
 20
-149.2401583828289
 30
0.0
 10
94.8839585808797
 20
-149.0933973151572
 30
0.0
 10
94.81436765207766
 20
-148.9307888082534
 30
0.0
 10
94.5859578214056
 20
-148.9307888082534
 30
0.0
 10
94.46951359400416
 20
-148.9307888082534
 30
0.0
 10
94.42093774766214
 20
-148.9714409349794
 30
0.0
 10
94.38924286919783
 20
-149.0052028707348
 30
0.0
 10
94.31517331626496
 20
-149.0844400668956
 30
0.0
 10
94.30242646296954
 20
-149.2084635043645
 30
0.0
 10
94.30242646296954
 20
-149.2673746371623
 30
0.0
 10
94.30242646296954
 20
-149.2877007005253
 30
0.0
 10
94.30449352026069
 20
-149.3262857699601
 30
0.0
 10
94.30862763484299
 20
-149.3555690815847
 30
0.0
 10
94.30862763484299
 20
-149.3555690815847
 30
0.0
 10
94.11397973992636
 20
-149.3555690815847
 30
0.0
 10
94.11397973992636
 20
-149.3555690815847
 30
0.0
 10
94.12052542134835
 20
-149.3149169548588
 30
0.0
 10
94.12259247863949
 20
-149.269786204002
 30
0.0
 10
94.12259247863949
 20
-149.2628960130315
 30
0.0
 10
94.12259247863949
 20
-149.1926160651324
 30
0.0
 10
94.10123288663095
 20
-148.980398183241
 30
0.0
 10
93.86455482679428
 20
-148.980398183241
 30
0.0
 10
93.68678789975539
 20
-148.980398183241
 30
0.0
 10
93.63166637199139
 20
-149.1202690599422
 30
0.0
 10
93.63166637199139
 20
-149.2380913255377
 30
0.0
 10
93.63166637199139
 20
-149.5205891553282
 30
0.0
 10
93.86455482679428
 20
-149.5295464035898
 30
0.0
 10
93.93621281288748
 20
-149.5343695372692
 30
0.0
 10
93.93621281288748
 20
-149.5343695372692
 30
0.0
 10
93.93621281288748
 20
-149.7514105528399
 30
0.0
 10
93.93621281288748
 20
-149.7514105528399
 30
0.0
 10
93.81150035632143
 20
-149.7424533045783
 30
0.0
 10
93.43495141978363
 20
-149.7128254834051
 30
0.0
 10
93.43495141978363
 20
-149.2243109435967
 30
0.0
 10
93.43495141978363
 20
-148.9848768073718
 30
0.0
 10
93.56207544318934
 20
-148.7271836650752
 30
0.0
 10
93.8580091453723
 20
-148.7271836650752
 30
0.0
 10
94.04438881112432
 20
-148.7271836650752
 30
0.0
 10
94.12672659322179
 20
-148.82881398189
 30
0.0
 10
94.18804929285925
 20
-148.9349229228357
 30
0.0
 10
94.21561005674124
 20
-148.869466108616
 30
0.0
 10
94.29588078154757
 20
-148.6751627232479
 30
0.0
 10
94.57321096811017
 20
-148.6751627232479
 30
0.0
 10
94.91151934476171
 20
-148.6751627232479
 30
0.0
 10
95.07860647579632
 20
-148.9397460565151
 30
0.0
 10
95.07860647579632
 20
-149.2360242682466
 30
0.0
  0
HATCH
  5
CD
330
C6
100
AcDbEntity
  8
_U+30EC_U+30A4_U+30E4_U+30FC 1
 62
   179
420
  2234388
100
AcDbHatch
 10
0.0
 20
0.0
 30
0.0
210
0.0
220
0.0
230
1.0
  2
SOLID
 70
     1
 71
     0
 91
        1
 92
        1
 93
        1
 72
     4
 94
        3
 73
     0
 74
     1
 95
       62
 96
       58
 40
0.0
 40
0.0
 40
0.0
 40
0.0
 40
1.0
 40
1.0
 40
1.0
 40
2.0
 40
2.0
 40
2.0
 40
3.0
 40
3.0
 40
3.0
 40
4.0
 40
4.0
 40
4.0
 40
5.0
 40
5.0
 40
5.0
 40
6.0
 40
6.0
 40
6.0
 40
7.0
 40
7.0
 40
7.0
 40
8.0
 40
8.0
 40
8.0
 40
9.0
 40
9.0
 40
9.0
 40
10.0
 40
10.0
 40
10.0
 40
11.0
 40
11.0
 40
11.0
 40
12.0
 40
12.0
 40
12.0
 40
13.0
 40
13.0
 40
13.0
 40
14.0
 40
14.0
 40
14.0
 40
15.0
 40
15.0
 40
15.0
 40
16.0
 40
16.0
 40
16.0
 40
17.0
 40
17.0
 40
17.0
 40
18.0
 40
18.0
 40
18.0
 40
19.0
 40
19.0
 40
19.0
 40
19.0
 10
95.07860647579632
 20
-149.2360242682466
 10
95.07860647579632
 20
-149.3373100755129
 10
95.0575913933363
 20
-149.5701985303158
 10
94.87155623713281
 20
-149.7038682351435
 10
94.75924612431366
 20
-149.7831054313042
 10
94.66002737433847
 20
-149.7872395458865
 10
94.57527802540132
 20
-149.7920626795659
 10
94.57527802540132
 20
-149.7920626795659
 10
94.57527802540132
 20
-149.5567626579233
 10
94.57527802540132
 20
-149.5567626579233
 10
94.6493475783342
 20
-149.5543510910836
 10
94.8839585808797
 20
-149.5433267855308
 10
94.8839585808797
 20
-149.2401583828289
 10
94.8839585808797
 20
-149.0933973151572
 10
94.81436765207766
 20
-148.9307888082534
 10
94.5859578214056
 20
-148.9307888082534
 10
94.46951359400416
 20
-148.9307888082534
 10
94.42093774766214
 20
-148.9714409349794
 10
94.38924286919783
 20
-149.0052028707348
 10
94.31517331626496
 20
-149.0844400668956
 10
94.30242646296954
 20
-149.2084635043645
 10
94.30242646296954
 20
-149.2673746371623
 10
94.30242646296954
 20
-149.2877007005253
 10
94.30449352026069
 20
-149.3262857699601
 10
94.30862763484299
 20
-149.3555690815847
 10
94.30862763484299
 20
-149.3555690815847
 10
94.11397973992636
 20
-149.3555690815847
 10
94.11397973992636
 20
-149.3555690815847
 10
94.12052542134835
 20
-149.3149169548588
 10
94.12259247863949
 20
-149.269786204002
 10
94.12259247863949
 20
-149.2628960130315
 10
94.12259247863949
 20
-149.1926160651324
 10
94.10123288663095
 20
-148.980398183241
 10
93.86455482679428
 20
-148.980398183241
 10
93.68678789975539
 20
-148.980398183241
 10
93.63166637199139
 20
-149.1202690599422
 10
93.63166637199139
 20
-149.2380913255377
 10
93.63166637199139
 20
-149.5205891553282
 10
93.86455482679428
 20
-149.5295464035898
 10
93.93621281288748
 20
-149.5343695372692
 10
93.93621281288748
 20
-149.5343695372692
 10
93.93621281288748
 20
-149.7514105528399
 10
93.93621281288748
 20
-149.7514105528399
 10
93.81150035632143
 20
-149.7424533045783
 10
93.43495141978363
 20
-149.7128254834051
 10
93.43495141978363
 20
-149.2243109435967
 10
93.43495141978363
 20
-148.9848768073718
 10
93.56207544318934
 20
-148.7271836650752
 10
93.8580091453723
 20
-148.7271836650752
 10
94.04438881112432
 20
-148.7271836650752
 10
94.12672659322179
 20
-148.82881398189
 10
94.18804929285925
 20
-148.9349229228357
 10
94.21561005674124
 20
-148.869466108616
 10
94.29588078154757
 20
-148.6751627232479
 10
94.57321096811017
 20
-148.6751627232479
 10
94.91151934476171
 20
-148.6751627232479
 10
95.07860647579632
 20
-148.9397460565151
 10
95.07860647579632
 20
-149.2360242682466
 97
        0
 97
        0
 75
     2
 76
     1
 98
        0
  0
ENDBLK
  5
C9
330
C6
100
AcDbEntity
  8
0
100
AcDbBlockEnd
  0
BLOCK
  5
DC
330
DA
100
AcDbEntity
  8
0
100
AcDbBlockBegin
  2
block 6
 70
     0
 10
0.0
 20
0.0
 30
0.0
  3
block 6
  1

  0
SPLINE
  5
DE
330
DA
100
AcDbEntity
  8
_U+30EC_U+30A4_U+30E4_U+30FC 1
370
     0
100
AcDbSpline
210
0.0
220
0.0
230
1.0
 70
    11
 71
     3
 72
    26
 73
    22
 74
     0
 42
0.0000000001
 43
0.0000000001
 12
1.0
 22
0.0
 32
0.0
 13
1.0
 23
0.0
 33
0.0
 40
0.0
 40
0.0
 40
0.0
 40
0.0
 40
1.0
 40
1.0
 40
1.0
 40
2.0
 40
2.0
 40
2.0
 40
3.0
 40
3.0
 40
3.0
 40
4.0
 40
4.0
 40
4.0
 40
5.0
 40
5.0
 40
5.0
 40
6.0
 40
6.0
 40
6.0
 40
7.0
 40
7.0
 40
7.0
 40
7.0
 10
105.4483438863983
 20
-159.76423607117
 30
0.0
 10
105.4483438863983
 20
-159.76423607117
 30
0.0
 10
105.4483438863983
 20
-158.6600829681475
 30
0.0
 10
105.4483438863983
 20
-158.6600829681475
 30
0.0
 10
105.4483438863983
 20
-158.6600829681475
 30
0.0
 10
105.0955661087088
 20
-158.6600829681475
 30
0.0
 10
105.0955661087088
 20
-158.6600829681475
 30
0.0
 10
105.0955661087088
 20
-158.6600829681475
 30
0.0
 10
105.0955661087088
 20
-158.5119438622818
 30
0.0
 10
105.0955661087088
 20
-158.5119438622818
 30
0.0
 10
105.4505831984637
 20
-158.4971299516952
 30
0.0
 10
105.5005370829999
 20
-158.3341769352429
 30
0.0
 10
105.5318874519157
 20
-158.2197997651326
 30
0.0
 10
105.5318874519157
 20
-158.2197997651326
 30
0.0
 10
105.6879502773975
 20
-158.2197997651326
 30
0.0
 10
105.6879502773975
 20
-158.2197997651326
 30
0.0
 10
105.6879502773975
 20
-158.2197997651326
 30
0.0
 10
105.6879502773975
 20
-159.76423607117
 30
0.0
 10
105.6879502773975
 20
-159.76423607117
 30
0.0
 10
105.6879502773975
 20
-159.76423607117
 30
0.0
 10
105.4483438863983
 20
-159.76423607117
 30
0.0
 10
105.4483438863983
 20
-159.76423607117
 30
0.0
  0
HATCH
  5
DF
330
DA
100
AcDbEntity
  8
_U+30EC_U+30A4_U+30E4_U+30FC 1
 62
   179
420
  2234388
100
AcDbHatch
 10
0.0
 20
0.0
 30
0.0
210
0.0
220
0.0
230
1.0
  2
SOLID
 70
     1
 71
     0
 91
        1
 92
        1
 93
        1
 72
     4
 94
        3
 73
     0
 74
     1
 95
       26
 96
       22
 40
0.0
 40
0.0
 40
0.0
 40
0.0
 40
1.0
 40
1.0
 40
1.0
 40
2.0
 40
2.0
 40
2.0
 40
3.0
 40
3.0
 40
3.0
 40
4.0
 40
4.0
 40
4.0
 40
5.0
 40
5.0
 40
5.0
 40
6.0
 40
6.0
 40
6.0
 40
7.0
 40
7.0
 40
7.0
 40
7.0
 10
105.4483438863983
 20
-159.76423607117
 10
105.4483438863983
 20
-159.76423607117
 10
105.4483438863983
 20
-158.6600829681475
 10
105.4483438863983
 20
-158.6600829681475
 10
105.4483438863983
 20
-158.6600829681475
 10
105.0955661087088
 20
-158.6600829681475
 10
105.0955661087088
 20
-158.6600829681475
 10
105.0955661087088
 20
-158.6600829681475
 10
105.0955661087088
 20
-158.5119438622818
 10
105.0955661087088
 20
-158.5119438622818
 10
105.4505831984637
 20
-158.4971299516952
 10
105.5005370829999
 20
-158.3341769352429
 10
105.5318874519157
 20
-158.2197997651326
 10
105.5318874519157
 20
-158.2197997651326
 10
105.6879502773975
 20
-158.2197997651326
 10
105.6879502773975
 20
-158.2197997651326
 10
105.6879502773975
 20
-158.2197997651326
 10
105.6879502773975
 20
-159.76423607117
 10
105.6879502773975
 20
-159.76423607117
 10
105.6879502773975
 20
-159.76423607117
 10
105.4483438863983
 20
-159.76423607117
 10
105.4483438863983
 20
-159.76423607117
 97
        0
 97
        0
 75
     2
 76
     1
 98
        0
  0
SPLINE
  5
E0
330
DA
100
AcDbEntity
  8
_U+30EC_U+30A4_U+30E4_U+30FC 1
370
     0
100
AcDbSpline
210
0.0
220
0.0
230
1.0
 70
    11
 71
     3
 72
    62
 73
    58
 74
     0
 42
0.0000000001
 43
0.0000000001
 12
1.0
 22
0.0
 32
0.0
 13
1.0
 23
0.0
 33
0.0
 40
0.0
 40
0.0
 40
0.0
 40
0.0
 40
1.0
 40
1.0
 40
1.0
 40
2.0
 40
2.0
 40
2.0
 40
3.0
 40
3.0
 40
3.0
 40
4.0
 40
4.0
 40
4.0
 40
5.0
 40
5.0
 40
5.0
 40
6.0
 40
6.0
 40
6.0
 40
7.0
 40
7.0
 40
7.0
 40
8.0
 40
8.0
 40
8.0
 40
9.0
 40
9.0
 40
9.0
 40
10.0
 40
10.0
 40
10.0
 40
11.0
 40
11.0
 40
11.0
 40
12.0
 40
12.0
 40
12.0
 40
13.0
 40
13.0
 40
13.0
 40
14.0
 40
14.0
 40
14.0
 40
15.0
 40
15.0
 40
15.0
 40
16.0
 40
16.0
 40
16.0
 40
17.0
 40
17.0
 40
17.0
 40
18.0
 40
18.0
 40
18.0
 40
19.0
 40
19.0
 40
19.0
 40
19.0
 10
106.7490396868544
 20
-159.8148789748032
 30
0.0
 10
106.6474093700395
 20
-159.8148789748032
 30
0.0
 10
106.4145209152367
 20
-159.7938638923432
 30
0.0
 10
106.2811957199575
 20
-159.6078287361397
 30
0.0
 10
106.2019585237967
 20
-159.4955186233206
 30
0.0
 10
106.1974798996659
 20
-159.3962998733454
 30
0.0
 10
106.1930012755351
 20
-159.3115505244082
 30
0.0
 10
106.1930012755351
 20
-159.3115505244082
 30
0.0
 10
106.4279567876291
 20
-159.3115505244082
 30
0.0
 10
106.4279567876291
 20
-159.3115505244082
 30
0.0
 10
106.4303683544688
 20
-159.3856200773411
 30
0.0
 10
106.4417371695701
 20
-159.6202310798866
 30
0.0
 10
106.7445610627236
 20
-159.6202310798866
 30
0.0
 10
106.8916666399438
 20
-159.6202310798866
 30
0.0
 10
107.0542751468475
 20
-159.5506401510846
 30
0.0
 10
107.0542751468475
 20
-159.3222303204125
 30
0.0
 10
107.0542751468475
 20
-159.2057860930111
 30
0.0
 10
107.0136230201216
 20
-159.157210246669
 30
0.0
 10
106.9798610843661
 20
-159.1255153682047
 30
0.0
 10
106.9006238882054
 20
-159.0514458152719
 30
0.0
 10
106.7762559411879
 20
-159.0386989619765
 30
0.0
 10
106.7173448083901
 20
-159.0386989619765
 30
0.0
 10
106.6970187450271
 20
-159.0386989619765
 30
0.0
 10
106.6587781851409
 20
-159.0407660192676
 30
0.0
 10
106.6291503639677
 20
-159.0449001338499
 30
0.0
 10
106.6291503639677
 20
-159.0449001338499
 30
0.0
 10
106.6291503639677
 20
-158.8502522389333
 30
0.0
 10
106.6291503639677
 20
-158.8502522389333
 30
0.0
 10
106.6698024906937
 20
-158.8567979203553
 30
0.0
 10
106.715277751099
 20
-158.8588649776464
 30
0.0
 10
106.7221679420695
 20
-158.8588649776464
 30
0.0
 10
106.79210338042
 20
-158.8588649776464
 30
0.0
 10
107.0046657718599
 20
-158.8375053856379
 30
0.0
 10
107.0046657718599
 20
-158.6008273258012
 30
0.0
 10
107.0046657718599
 20
-158.4230603987623
 30
0.0
 10
106.8644503856103
 20
-158.3679388709983
 30
0.0
 10
106.7469726295633
 20
-158.3679388709983
 30
0.0
 10
106.4641302902242
 20
-158.3679388709983
 30
0.0
 10
106.4551730419626
 20
-158.6008273258012
 30
0.0
 10
106.4506944178318
 20
-158.6724853118944
 30
0.0
 10
106.4506944178318
 20
-158.6724853118944
 30
0.0
 10
106.233653402261
 20
-158.6724853118944
 30
0.0
 10
106.233653402261
 20
-158.6724853118944
 30
0.0
 10
106.2426106505227
 20
-158.5477728553283
 30
0.0
 10
106.2722384716958
 20
-158.1712239187905
 30
0.0
 10
106.7604085019557
 20
-158.1712239187905
 30
0.0
 10
106.9998426381806
 20
-158.1712239187905
 30
0.0
 10
107.2575357804773
 20
-158.2983479421962
 30
0.0
 10
107.2575357804773
 20
-158.5942816443792
 30
0.0
 10
107.2575357804773
 20
-158.7806613101312
 30
0.0
 10
107.1562499732109
 20
-158.8629990922287
 30
0.0
 10
107.0497965227167
 20
-158.9243217918662
 30
0.0
 10
107.1152533369365
 20
-158.9518825557481
 30
0.0
 10
107.3099012318531
 20
-159.0321532805545
 30
0.0
 10
107.3099012318531
 20
-159.3094834671171
 30
0.0
 10
107.3099012318531
 20
-159.6477918437686
 30
0.0
 10
107.0453178985859
 20
-159.8148789748032
 30
0.0
 10
106.7490396868544
 20
-159.8148789748032
 30
0.0
  0
HATCH
  5
E1
330
DA
100
AcDbEntity
  8
_U+30EC_U+30A4_U+30E4_U+30FC 1
 62
   179
420
  2234388
100
AcDbHatch
 10
0.0
 20
0.0
 30
0.0
210
0.0
220
0.0
230
1.0
  2
SOLID
 70
     1
 71
     0
 91
        1
 92
        1
 93
        1
 72
     4
 94
        3
 73
     0
 74
     1
 95
       62
 96
       58
 40
0.0
 40
0.0
 40
0.0
 40
0.0
 40
1.0
 40
1.0
 40
1.0
 40
2.0
 40
2.0
 40
2.0
 40
3.0
 40
3.0
 40
3.0
 40
4.0
 40
4.0
 40
4.0
 40
5.0
 40
5.0
 40
5.0
 40
6.0
 40
6.0
 40
6.0
 40
7.0
 40
7.0
 40
7.0
 40
8.0
 40
8.0
 40
8.0
 40
9.0
 40
9.0
 40
9.0
 40
10.0
 40
10.0
 40
10.0
 40
11.0
 40
11.0
 40
11.0
 40
12.0
 40
12.0
 40
12.0
 40
13.0
 40
13.0
 40
13.0
 40
14.0
 40
14.0
 40
14.0
 40
15.0
 40
15.0
 40
15.0
 40
16.0
 40
16.0
 40
16.0
 40
17.0
 40
17.0
 40
17.0
 40
18.0
 40
18.0
 40
18.0
 40
19.0
 40
19.0
 40
19.0
 40
19.0
 10
106.7490396868544
 20
-159.8148789748032
 10
106.6474093700395
 20
-159.8148789748032
 10
106.4145209152367
 20
-159.7938638923432
 10
106.2811957199575
 20
-159.6078287361397
 10
106.2019585237967
 20
-159.4955186233206
 10
106.1974798996659
 20
-159.3962998733454
 10
106.1930012755351
 20
-159.3115505244082
 10
106.1930012755351
 20
-159.3115505244082
 10
106.4279567876291
 20
-159.3115505244082
 10
106.4279567876291
 20
-159.3115505244082
 10
106.4303683544688
 20
-159.3856200773411
 10
106.4417371695701
 20
-159.6202310798866
 10
106.7445610627236
 20
-159.6202310798866
 10
106.8916666399438
 20
-159.6202310798866
 10
107.0542751468475
 20
-159.5506401510846
 10
107.0542751468475
 20
-159.3222303204125
 10
107.0542751468475
 20
-159.2057860930111
 10
107.0136230201216
 20
-159.157210246669
 10
106.9798610843661
 20
-159.1255153682047
 10
106.9006238882054
 20
-159.0514458152719
 10
106.7762559411879
 20
-159.0386989619765
 10
106.7173448083901
 20
-159.0386989619765
 10
106.6970187450271
 20
-159.0386989619765
 10
106.6587781851409
 20
-159.0407660192676
 10
106.6291503639677
 20
-159.0449001338499
 10
106.6291503639677
 20
-159.0449001338499
 10
106.6291503639677
 20
-158.8502522389333
 10
106.6291503639677
 20
-158.8502522389333
 10
106.6698024906937
 20
-158.8567979203553
 10
106.715277751099
 20
-158.8588649776464
 10
106.7221679420695
 20
-158.8588649776464
 10
106.79210338042
 20
-158.8588649776464
 10
107.0046657718599
 20
-158.8375053856379
 10
107.0046657718599
 20
-158.6008273258012
 10
107.0046657718599
 20
-158.4230603987623
 10
106.8644503856103
 20
-158.3679388709983
 10
106.7469726295633
 20
-158.3679388709983
 10
106.4641302902242
 20
-158.3679388709983
 10
106.4551730419626
 20
-158.6008273258012
 10
106.4506944178318
 20
-158.6724853118944
 10
106.4506944178318
 20
-158.6724853118944
 10
106.233653402261
 20
-158.6724853118944
 10
106.233653402261
 20
-158.6724853118944
 10
106.2426106505227
 20
-158.5477728553283
 10
106.2722384716958
 20
-158.1712239187905
 10
106.7604085019557
 20
-158.1712239187905
 10
106.9998426381806
 20
-158.1712239187905
 10
107.2575357804773
 20
-158.2983479421962
 10
107.2575357804773
 20
-158.5942816443792
 10
107.2575357804773
 20
-158.7806613101312
 10
107.1562499732109
 20
-158.8629990922287
 10
107.0497965227167
 20
-158.9243217918662
 10
107.1152533369365
 20
-158.9518825557481
 10
107.3099012318531
 20
-159.0321532805545
 10
107.3099012318531
 20
-159.3094834671171
 10
107.3099012318531
 20
-159.6477918437686
 10
107.0453178985859
 20
-159.8148789748032
 10
106.7490396868544
 20
-159.8148789748032
 97
        0
 97
        0
 75
     2
 76
     1
 98
        0
  0
ENDBLK
  5
DD
330
DA
100
AcDbEntity
  8
0
100
AcDbBlockEnd
  0
BLOCK
  5
F0
330
EE
100
AcDbEntity
  8
0
100
AcDbBlockBegin
  2
block 7
 70
     0
 10
0.0
 20
0.0
 30
0.0
  3
block 7
  1

  0
SPLINE
  5
F2
330
EE
100
AcDbEntity
  8
_U+30EC_U+30A4_U+30E4_U+30FC 1
370
     0
100
AcDbSpline
210
0.0
220
0.0
230
1.0
 70
    11
 71
     3
 72
    32
 73
    28
 74
     0
 42
0.0000000001
 43
0.0000000001
 12
1.0
 22
0.0
 32
0.0
 13
1.0
 23
0.0
 33
0.0
 40
0.0
 40
0.0
 40
0.0
 40
0.0
 40
1.0
 40
1.0
 40
1.0
 40
2.0
 40
2.0
 40
2.0
 40
3.0
 40
3.0
 40
3.0
 40
4.0
 40
4.0
 40
4.0
 40
5.0
 40
5.0
 40
5.0
 40
6.0
 40
6.0
 40
6.0
 40
7.0
 40
7.0
 40
7.0
 40
8.0
 40
8.0
 40
8.0
 40
9.0
 40
9.0
 40
9.0
 40
9.0
 10
116.079047280008
 20
-152.8809352916409
 30
0.0
 10
116.079047280008
 20
-153.4324950788294
 30
0.0
 10
115.5250759259798
 20
-153.441452327091
 30
0.0
 10
115.3111354963458
 20
-153.441452327091
 30
0.0
 10
115.0806586083826
 20
-153.441452327091
 30
0.0
 10
114.4333251667042
 20
-153.4211262637281
 30
0.0
 10
114.4333251667042
 20
-152.8402831649149
 30
0.0
 10
114.4333251667042
 20
-152.65459251826
 30
0.0
 10
114.5032606050547
 20
-152.3924207518324
 30
0.0
 10
114.8353678098328
 20
-152.3517686251065
 30
0.0
 10
114.8353678098328
 20
-152.3517686251065
 30
0.0
 10
114.8353678098328
 20
-152.5798339462301
 30
0.0
 10
114.8353678098328
 20
-152.5798339462301
 30
0.0
 10
114.7781792247777
 20
-152.5915472708799
 30
0.0
 10
114.6300401189119
 20
-152.6253092066353
 30
0.0
 10
114.6300401189119
 20
-152.8423502222061
 30
0.0
 10
114.6300401189119
 20
-153.1544758731697
 30
0.0
 10
114.9580132091077
 20
-153.1971950571868
 30
0.0
 10
115.1629963904801
 20
-153.2109754391278
 30
0.0
 10
115.0847927229649
 20
-153.1114121796041
 30
0.0
 10
115.0255370806186
 20
-153.0390651744138
 30
0.0
 10
115.0255370806186
 20
-152.8444172794972
 30
0.0
 10
115.0255370806186
 20
-152.6521809514203
 30
0.0
 10
115.1337130788555
 20
-152.3290309949039
 30
0.0
 10
115.5398898365664
 20
-152.3290309949039
 30
0.0
 10
115.8592501880491
 20
-152.3290309949039
 30
0.0
 10
116.079047280008
 20
-152.5415933863438
 30
0.0
 10
116.079047280008
 20
-152.8809352916409
 30
0.0
  0
SPLINE
  5
F3
330
EE
100
AcDbEntity
  8
_U+30EC_U+30A4_U+30E4_U+30FC 1
370
     0
100
AcDbSpline
210
0.0
220
0.0
230
1.0
 70
    11
 71
     3
 72
    17
 73
    13
 74
     0
 42
0.0000000001
 43
0.0000000001
 12
1.0
 22
0.0
 32
0.0
 13
1.0
 23
0.0
 33
0.0
 40
0.0
 40
0.0
 40
0.0
 40
0.0
 40
1.0
 40
1.0
 40
1.0
 40
2.0
 40
2.0
 40
2.0
 40
3.0
 40
3.0
 40
3.0
 40
4.0
 40
4.0
 40
4.0
 40
4.0
 10
115.2201849755352
 20
-152.8626762855691
 30
0.0
 10
115.2201849755352
 20
-153.1431070580684
 30
0.0
 10
115.4317138383296
 20
-153.1837591847944
 30
0.0
 10
115.548158065731
 20
-153.1837591847944
 30
0.0
 10
115.7238579354788
 20
-153.1837591847944
 30
0.0
 10
115.8868109519311
 20
-153.0821288679795
 30
0.0
 10
115.8868109519311
 20
-152.8850694062232
 30
0.0
 10
115.8868109519311
 20
-152.7562228350749
 30
0.0
 10
115.8275553095848
 20
-152.5688096406772
 30
0.0
 10
115.5419568938576
 20
-152.5688096406772
 30
0.0
 10
115.3176811777678
 20
-152.5688096406772
 30
0.0
 10
115.2201849755352
 20
-152.7179822751886
 30
0.0
 10
115.2201849755352
 20
-152.8626762855691
 30
0.0
  0
HATCH
  5
F4
330
EE
100
AcDbEntity
  8
_U+30EC_U+30A4_U+30E4_U+30FC 1
 62
   179
420
  2234388
100
AcDbHatch
 10
0.0
 20
0.0
 30
0.0
210
0.0
220
0.0
230
1.0
  2
SOLID
 70
     1
 71
     0
 91
        2
 92
        1
 93
        1
 72
     4
 94
        3
 73
     0
 74
     1
 95
       32
 96
       28
 40
0.0
 40
0.0
 40
0.0
 40
0.0
 40
1.0
 40
1.0
 40
1.0
 40
2.0
 40
2.0
 40
2.0
 40
3.0
 40
3.0
 40
3.0
 40
4.0
 40
4.0
 40
4.0
 40
5.0
 40
5.0
 40
5.0
 40
6.0
 40
6.0
 40
6.0
 40
7.0
 40
7.0
 40
7.0
 40
8.0
 40
8.0
 40
8.0
 40
9.0
 40
9.0
 40
9.0
 40
9.0
 10
116.079047280008
 20
-152.8809352916409
 10
116.079047280008
 20
-153.4324950788294
 10
115.5250759259798
 20
-153.441452327091
 10
115.3111354963458
 20
-153.441452327091
 10
115.0806586083826
 20
-153.441452327091
 10
114.4333251667042
 20
-153.4211262637281
 10
114.4333251667042
 20
-152.8402831649149
 10
114.4333251667042
 20
-152.65459251826
 10
114.5032606050547
 20
-152.3924207518324
 10
114.8353678098328
 20
-152.3517686251065
 10
114.8353678098328
 20
-152.3517686251065
 10
114.8353678098328
 20
-152.5798339462301
 10
114.8353678098328
 20
-152.5798339462301
 10
114.7781792247777
 20
-152.5915472708799
 10
114.6300401189119
 20
-152.6253092066353
 10
114.6300401189119
 20
-152.8423502222061
 10
114.6300401189119
 20
-153.1544758731697
 10
114.9580132091077
 20
-153.1971950571868
 10
115.1629963904801
 20
-153.2109754391278
 10
115.0847927229649
 20
-153.1114121796041
 10
115.0255370806186
 20
-153.0390651744138
 10
115.0255370806186
 20
-152.8444172794972
 10
115.0255370806186
 20
-152.6521809514203
 10
115.1337130788555
 20
-152.3290309949039
 10
115.5398898365664
 20
-152.3290309949039
 10
115.8592501880491
 20
-152.3290309949039
 10
116.079047280008
 20
-152.5415933863438
 10
116.079047280008
 20
-152.8809352916409
 97
        0
 97
        0
 92
        1
 93
        1
 72
     4
 94
        3
 73
     0
 74
     1
 95
       17
 96
       13
 40
0.0
 40
0.0
 40
0.0
 40
0.0
 40
1.0
 40
1.0
 40
1.0
 40
2.0
 40
2.0
 40
2.0
 40
3.0
 40
3.0
 40
3.0
 40
4.0
 40
4.0
 40
4.0
 40
4.0
 10
115.2201849755352
 20
-152.8626762855691
 10
115.2201849755352
 20
-153.1431070580684
 10
115.4317138383296
 20
-153.1837591847944
 10
115.548158065731
 20
-153.1837591847944
 10
115.7238579354788
 20
-153.1837591847944
 10
115.8868109519311
 20
-153.0821288679795
 10
115.8868109519311
 20
-152.8850694062232
 10
115.8868109519311
 20
-152.7562228350749
 10
115.8275553095848
 20
-152.5688096406772
 10
115.5419568938576
 20
-152.5688096406772
 10
115.3176811777678
 20
-152.5688096406772
 10
115.2201849755352
 20
-152.7179822751886
 10
115.2201849755352
 20
-152.8626762855691
 97
        0
 97
        0
 75
     2
 76
     1
 98
        0
  0
POLYLINE
  5
F5
330
EE
100
AcDbEntity
  8
_U+30EC_U+30A4_U+30E4_U+30FC 1
370
     0
100
AcDb2dPolyline
 66
     1
 10
0.0
 20
0.0
 30
0.0
  0
VERTEX
  5
F6
330
F5
100
AcDbEntity
  8
_U+30EC_U+30A4_U+30E4_U+30FC 1
370
     0
100
AcDbVertex
100
AcDb2dVertex
 10
116.0284043763749
 20
-152.0975205782951
 30
0.0
  0
VERTEX
  5
F7
330
F5
100
AcDbEntity
  8
_U+30EC_U+30A4_U+30E4_U+30FC 1
370
     0
100
AcDbVertex
100
AcDb2dVertex
 10
115.7765678964031
 20
-152.0975205782951
 30
0.0
  0
VERTEX
  5
F8
330
F5
100
AcDbEntity
  8
_U+30EC_U+30A4_U+30E4_U+30FC 1
370
     0
100
AcDbVertex
100
AcDb2dVertex
 10
115.7765678964031
 20
-151.8288031304456
 30
0.0
  0
VERTEX
  5
F9
330
F5
100
AcDbEntity
  8
_U+30EC_U+30A4_U+30E4_U+30FC 1
370
     0
100
AcDbVertex
100
AcDb2dVertex
 10
116.0284043763749
 20
-151.8288031304456
 30
0.0
  0
VERTEX
  5
FA
330
F5
100
AcDbEntity
  8
_U+30EC_U+30A4_U+30E4_U+30FC 1
370
     0
100
AcDbVertex
100
AcDb2dVertex
 10
116.0284043763749
 20
-152.0975205782951
 30
0.0
  0
SEQEND
  5
FB
330
F5
100
AcDbEntity
  8
_U+30EC_U+30A4_U+30E4_U+30FC 1
370
     0
  0
HATCH
  5
FC
330
EE
100
AcDbEntity
  8
_U+30EC_U+30A4_U+30E4_U+30FC 1
 62
   179
420
  2234388
100
AcDbHatch
 10
0.0
 20
0.0
 30
0.0
210
0.0
220
0.0
230
1.0
  2
SOLID
 70
     1
 71
     0
 91
        1
 92
        1
 93
        4
 72
     1
 10
116.0284043763749
 20
-152.0975205782951
 11
115.7765678964031
 21
-152.0975205782951
 72
     1
 10
115.7765678964031
 20
-152.0975205782951
 11
115.7765678964031
 21
-151.8288031304456
 72
     1
 10
115.7765678964031
 20
-151.8288031304456
 11
116.0284043763749
 21
-151.8288031304456
 72
     1
 10
116.0284043763749
 20
-151.8288031304456
 11
116.0284043763749
 21
-152.0975205782951
 97
        0
 75
     2
 76
     1
 98
        0
  0
SPLINE
  5
FD
330
EE
100
AcDbEntity
  8
_U+30EC_U+30A4_U+30E4_U+30FC 1
370
     0
100
AcDbSpline
210
0.0
220
0.0
230
1.0
 70
    11
 71
     3
 72
    53
 73
    49
 74
     0
 42
0.0000000001
 43
0.0000000001
 12
1.0
 22
0.0
 32
0.0
 13
1.0
 23
0.0
 33
0.0
 40
0.0
 40
0.0
 40
0.0
 40
0.0
 40
1.0
 40
1.0
 40
1.0
 40
2.0
 40
2.0
 40
2.0
 40
3.0
 40
3.0
 40
3.0
 40
4.0
 40
4.0
 40
4.0
 40
5.0
 40
5.0
 40
5.0
 40
6.0
 40
6.0
 40
6.0
 40
7.0
 40
7.0
 40
7.0
 40
8.0
 40
8.0
 40
8.0
 40
9.0
 40
9.0
 40
9.0
 40
10.0
 40
10.0
 40
10.0
 40
11.0
 40
11.0
 40
11.0
 40
12.0
 40
12.0
 40
12.0
 40
13.0
 40
13.0
 40
13.0
 40
14.0
 40
14.0
 40
14.0
 40
15.0
 40
15.0
 40
15.0
 40
16.0
 40
16.0
 40
16.0
 40
16.0
 10
116.079047280008
 20
-151.061924875429
 30
0.0
 10
116.079047280008
 20
-151.145296186172
 30
0.0
 10
116.0621663121303
 20
-151.2541612035059
 30
0.0
 10
115.9987765552017
 20
-151.3623372017427
 30
0.0
 10
115.8888780092222
 20
-151.5476833388492
 30
0.0
 10
115.7576198712342
 20
-151.5704209690518
 30
0.0
 10
115.6497883825459
 20
-151.5910915419634
 30
0.0
 10
115.6497883825459
 20
-151.5910915419634
 30
0.0
 10
115.6497883825459
 20
-151.3533799534811
 30
0.0
 10
115.6497883825459
 20
-151.3533799534811
 30
0.0
 10
115.8485703920448
 20
-151.2948133302318
 30
0.0
 10
115.878198213218
 20
-151.159076568113
 30
0.0
 10
115.878198213218
 20
-151.0595133085893
 30
0.0
 10
115.878198213218
 20
-150.910340674078
 30
0.0
 10
115.7786349536942
 20
-150.7477321671742
 30
0.0
 10
115.5460910084399
 20
-150.7477321671742
 30
0.0
 10
115.2901204138858
 20
-150.7477321671742
 30
0.0
 10
115.2201849755352
 20
-150.9399684952511
 30
0.0
 10
115.2201849755352
 20
-151.0688150663995
 30
0.0
 10
115.2201849755352
 20
-151.1025770021549
 30
0.0
 10
115.2201849755352
 20
-151.2541612035059
 30
0.0
 10
115.3493760562321
 20
-151.3489013293503
 30
0.0
 10
115.3493760562321
 20
-151.3489013293503
 30
0.0
 10
115.3304280310632
 20
-151.5366590332964
 30
0.0
 10
115.3304280310632
 20
-151.5366590332964
 30
0.0
 10
115.3304280310632
 20
-151.5366590332964
 30
0.0
 10
114.4839680703373
 20
-151.4078124621481
 30
0.0
 10
114.4839680703373
 20
-151.4078124621481
 30
0.0
 10
114.4839680703373
 20
-151.4078124621481
 30
0.0
 10
114.4839680703373
 20
-150.5758219024602
 30
0.0
 10
114.4839680703373
 20
-150.5758219024602
 30
0.0
 10
114.4839680703373
 20
-150.5758219024602
 30
0.0
 10
114.678615965254
 20
-150.5758219024602
 30
0.0
 10
114.678615965254
 20
-150.5758219024602
 30
0.0
 10
114.678615965254
 20
-150.5758219024602
 30
0.0
 10
114.678615965254
 20
-151.2334906305944
 30
0.0
 10
114.678615965254
 20
-151.2334906305944
 30
0.0
 10
114.678615965254
 20
-151.2334906305944
 30
0.0
 10
115.1016736908426
 20
-151.3037705784935
 30
0.0
 10
115.1016736908426
 20
-151.3037705784935
 30
0.0
 10
115.0679117550872
 20
-151.2383137642738
 30
0.0
 10
115.0276041379098
 20
-151.1501193198514
 30
0.0
 10
115.0276041379098
 20
-151.0233398059942
 30
0.0
 10
115.0276041379098
 20
-150.7518662817565
 30
0.0
 10
115.2139838036618
 20
-150.4989962731391
 30
0.0
 10
115.527142983271
 20
-150.4989962731391
 30
0.0
 10
115.8444362774625
 20
-150.4989962731391
 30
0.0
 10
116.079047280008
 20
-150.738430409364
 30
0.0
 10
116.079047280008
 20
-151.061924875429
 30
0.0
  0
HATCH
  5
FE
330
EE
100
AcDbEntity
  8
_U+30EC_U+30A4_U+30E4_U+30FC 1
 62
   179
420
  2234388
100
AcDbHatch
 10
0.0
 20
0.0
 30
0.0
210
0.0
220
0.0
230
1.0
  2
SOLID
 70
     1
 71
     0
 91
        1
 92
        1
 93
        1
 72
     4
 94
        3
 73
     0
 74
     1
 95
       53
 96
       49
 40
0.0
 40
0.0
 40
0.0
 40
0.0
 40
1.0
 40
1.0
 40
1.0
 40
2.0
 40
2.0
 40
2.0
 40
3.0
 40
3.0
 40
3.0
 40
4.0
 40
4.0
 40
4.0
 40
5.0
 40
5.0
 40
5.0
 40
6.0
 40
6.0
 40
6.0
 40
7.0
 40
7.0
 40
7.0
 40
8.0
 40
8.0
 40
8.0
 40
9.0
 40
9.0
 40
9.0
 40
10.0
 40
10.0
 40
10.0
 40
11.0
 40
11.0
 40
11.0
 40
12.0
 40
12.0
 40
12.0
 40
13.0
 40
13.0
 40
13.0
 40
14.0
 40
14.0
 40
14.0
 40
15.0
 40
15.0
 40
15.0
 40
16.0
 40
16.0
 40
16.0
 40
16.0
 10
116.079047280008
 20
-151.061924875429
 10
116.079047280008
 20
-151.145296186172
 10
116.0621663121303
 20
-151.2541612035059
 10
115.9987765552017
 20
-151.3623372017427
 10
115.8888780092222
 20
-151.5476833388492
 10
115.7576198712342
 20
-151.5704209690518
 10
115.6497883825459
 20
-151.5910915419634
 10
115.6497883825459
 20
-151.5910915419634
 10
115.6497883825459
 20
-151.3533799534811
 10
115.6497883825459
 20
-151.3533799534811
 10
115.8485703920448
 20
-151.2948133302318
 10
115.878198213218
 20
-151.159076568113
 10
115.878198213218
 20
-151.0595133085893
 10
115.878198213218
 20
-150.910340674078
 10
115.7786349536942
 20
-150.7477321671742
 10
115.5460910084399
 20
-150.7477321671742
 10
115.2901204138858
 20
-150.7477321671742
 10
115.2201849755352
 20
-150.9399684952511
 10
115.2201849755352
 20
-151.0688150663995
 10
115.2201849755352
 20
-151.1025770021549
 10
115.2201849755352
 20
-151.2541612035059
 10
115.3493760562321
 20
-151.3489013293503
 10
115.3493760562321
 20
-151.3489013293503
 10
115.3304280310632
 20
-151.5366590332964
 10
115.3304280310632
 20
-151.5366590332964
 10
115.3304280310632
 20
-151.5366590332964
 10
114.4839680703373
 20
-151.4078124621481
 10
114.4839680703373
 20
-151.4078124621481
 10
114.4839680703373
 20
-151.4078124621481
 10
114.4839680703373
 20
-150.5758219024602
 10
114.4839680703373
 20
-150.5758219024602
 10
114.4839680703373
 20
-150.5758219024602
 10
114.678615965254
 20
-150.5758219024602
 10
114.678615965254
 20
-150.5758219024602
 10
114.678615965254
 20
-150.5758219024602
 10
114.678615965254
 20
-151.2334906305944
 10
114.678615965254
 20
-151.2334906305944
 10
114.678615965254
 20
-151.2334906305944
 10
115.1016736908426
 20
-151.3037705784935
 10
115.1016736908426
 20
-151.3037705784935
 10
115.0679117550872
 20
-151.2383137642738
 10
115.0276041379098
 20
-151.1501193198514
 10
115.0276041379098
 20
-151.0233398059942
 10
115.0276041379098
 20
-150.7518662817565
 10
115.2139838036618
 20
-150.4989962731391
 10
115.527142983271
 20
-150.4989962731391
 10
115.8444362774625
 20
-150.4989962731391
 10
116.079047280008
 20
-150.738430409364
 10
116.079047280008
 20
-151.061924875429
 97
        0
 97
        0
 75
     2
 76
     1
 98
        0
  0
ENDBLK
  5
F1
330
EE
100
AcDbEntity
  8
0
100
AcDbBlockEnd
  0
ENDSEC
  0
SECTION
  2
ENTITIES
  0
POLYLINE
  5
41
330
1F
100
AcDbEntity
  8
_U+30EC_U+30A4_U+30E4_U+30FC 1
  6
AI-Linetype-1
 62
     8
420
  8223869
370
    25
100
AcDb2dPolyline
 66
     1
 10
0.0
 20
0.0
 30
0.0
  0
VERTEX
  5
42
330
41
100
AcDbEntity
  8
_U+30EC_U+30A4_U+30E4_U+30FC 1
  6
AI-Linetype-1
 62
     8
420
  8223869
370
    25
100
AcDbVertex
100
AcDb2dVertex
 10
100.9245351750998
 20
-142.4761548003999
 30
0.0
  0
VERTEX
  5
43
330
41
100
AcDbEntity
  8
_U+30EC_U+30A4_U+30E4_U+30FC 1
  6
AI-Linetype-1
 62
     8
420
  8223869
370
    25
100
AcDbVertex
100
AcDb2dVertex
 10
98.8325601542605
 20
-142.4761548003999
 30
0.0
  0
VERTEX
  5
44
330
41
100
AcDbEntity
  8
_U+30EC_U+30A4_U+30E4_U+30FC 1
  6
AI-Linetype-1
 62
     8
420
  8223869
370
    25
100
AcDbVertex
100
AcDb2dVertex
 10
98.8325601542605
 20
-157.2928214633623
 30
0.0
  0
VERTEX
  5
45
330
41
100
AcDbEntity
  8
_U+30EC_U+30A4_U+30E4_U+30FC 1
  6
AI-Linetype-1
 62
     8
420
  8223869
370
    25
100
AcDbVertex
100
AcDb2dVertex
 10
113.3846381009941
 20
-157.2928214633623
 30
0.0
  0
VERTEX
  5
46
330
41
100
AcDbEntity
  8
_U+30EC_U+30A4_U+30E4_U+30FC 1
  6
AI-Linetype-1
 62
     8
420
  8223869
370
    25
100
AcDbVertex
100
AcDb2dVertex
 10
113.3846381009941
 20
-154.8233770195353
 30
0.0
  0
SEQEND
  5
48
330
41
100
AcDbEntity
  8
_U+30EC_U+30A4_U+30E4_U+30FC 1
  6
AI-Linetype-1
 62
     8
420
  8223869
370
    25
  0
SPLINE
  5
49
330
1F
100
AcDbEntity
  8
_U+30EC_U+30A4_U+30E4_U+30FC 1
370
     0
100
AcDbSpline
210
0.0
220
0.0
230
1.0
 70
    11
 71
     3
 72
    44
 73
    40
 74
     0
 42
0.0000000001
 43
0.0000000001
 12
1.0
 22
0.0
 32
0.0
 13
1.0
 23
0.0
 33
0.0
 40
0.0
 40
0.0
 40
0.0
 40
0.0
 40
1.0
 40
1.0
 40
1.0
 40
2.0
 40
2.0
 40
2.0
 40
3.0
 40
3.0
 40
3.0
 40
4.0
 40
4.0
 40
4.0
 40
5.0
 40
5.0
 40
5.0
 40
6.0
 40
6.0
 40
6.0
 40
7.0
 40
7.0
 40
7.0
 40
8.0
 40
8.0
 40
8.0
 40
9.0
 40
9.0
 40
9.0
 40
10.0
 40
10.0
 40
10.0
 40
11.0
 40
11.0
 40
11.0
 40
12.0
 40
12.0
 40
12.0
 40
13.0
 40
13.0
 40
13.0
 40
13.0
 10
100.6234392126507
 20
-143.3601878337617
 30
0.0
 10
100.0716910218028
 20
-143.3601878337617
 30
0.0
 10
99.62366173690778
 20
-143.8082225016185
 30
0.0
 10
99.62366173690778
 20
-144.359965309505
 30
0.0
 10
99.62366173690778
 20
-144.359965309505
 30
0.0
 10
99.62366173690778
 20
-155.3602843849881
 30
0.0
 10
99.62366173690778
 20
-155.3602843849881
 30
0.0
 10
99.62366173690778
 20
-155.9127269778947
 30
0.0
 10
100.0716910218028
 20
-156.3607616457514
 30
0.0
 10
100.6234392126507
 20
-156.3607616457514
 30
0.0
 10
100.6234392126507
 20
-156.3607616457514
 30
0.0
 10
111.6237529051724
 20
-156.3607616457514
 30
0.0
 10
111.6237529051724
 20
-156.3607616457514
 30
0.0
 10
112.1754957130586
 20
-156.3607616457514
 30
0.0
 10
112.6235196149919
 20
-155.9127269778947
 30
0.0
 10
112.6235196149919
 20
-155.3602843849881
 30
0.0
 10
112.6235196149919
 20
-155.3602843849881
 30
0.0
 10
100.6234392126507
 20
-155.3602843849881
 30
0.0
 10
100.6234392126507
 20
-155.3602843849881
 30
0.0
 10
100.6234392126507
 20
-155.3602843849881
 30
0.0
 10
100.6234392126507
 20
-148.8600028619549
 30
0.0
 10
100.6234392126507
 20
-148.8600028619549
 30
0.0
 10
100.6234392126507
 20
-148.8600028619549
 30
0.0
 10
112.6235196149919
 20
-148.8600028619549
 30
0.0
 10
112.6235196149919
 20
-148.8600028619549
 30
0.0
 10
112.6235196149919
 20
-148.8600028619549
 30
0.0
 10
113.1428139297764
 20
-148.5601395977344
 30
0.0
 10
113.1428139297764
 20
-148.5601395977344
 30
0.0
 10
113.1428139297764
 20
-148.5601395977344
 30
0.0
 10
117.9240143375166
 20
-148.5601395977344
 30
0.0
 10
117.9240143375166
 20
-148.5601395977344
 30
0.0
 10
118.3106509442722
 20
-148.5601395977344
 30
0.0
 10
118.6239177831153
 20
-148.246872758891
 30
0.0
 10
118.6239177831153
 20
-147.860225386212
 30
0.0
 10
118.6239177831153
 20
-147.860225386212
 30
0.0
 10
100.6234392126507
 20
-147.860225386212
 30
0.0
 10
100.6234392126507
 20
-147.860225386212
 30
0.0
 10
100.6234392126507
 20
-147.860225386212
 30
0.0
 10
100.6234392126507
 20
-143.3601878337617
 30
0.0
 10
100.6234392126507
 20
-143.3601878337617
 30
0.0
  0
HATCH
  5
4A
330
1F
100
AcDbEntity
  8
_U+30EC_U+30A4_U+30E4_U+30FC 1
 62
     9
420
 13224394
100
AcDbHatch
 10
0.0
 20
0.0
 30
0.0
210
0.0
220
0.0
230
1.0
  2
SOLID
 70
     1
 71
     0
 91
        1
 92
        1
 93
        1
 72
     4
 94
        3
 73
     0
 74
     1
 95
       44
 96
       40
 40
0.0
 40
0.0
 40
0.0
 40
0.0
 40
1.0
 40
1.0
 40
1.0
 40
2.0
 40
2.0
 40
2.0
 40
3.0
 40
3.0
 40
3.0
 40
4.0
 40
4.0
 40
4.0
 40
5.0
 40
5.0
 40
5.0
 40
6.0
 40
6.0
 40
6.0
 40
7.0
 40
7.0
 40
7.0
 40
8.0
 40
8.0
 40
8.0
 40
9.0
 40
9.0
 40
9.0
 40
10.0
 40
10.0
 40
10.0
 40
11.0
 40
11.0
 40
11.0
 40
12.0
 40
12.0
 40
12.0
 40
13.0
 40
13.0
 40
13.0
 40
13.0
 10
100.6234392126507
 20
-143.3601878337617
 10
100.0716910218028
 20
-143.3601878337617
 10
99.62366173690778
 20
-143.8082225016185
 10
99.62366173690778
 20
-144.359965309505
 10
99.62366173690778
 20
-144.359965309505
 10
99.62366173690778
 20
-155.3602843849881
 10
99.62366173690778
 20
-155.3602843849881
 10
99.62366173690778
 20
-155.9127269778947
 10
100.0716910218028
 20
-156.3607616457514
 10
100.6234392126507
 20
-156.3607616457514
 10
100.6234392126507
 20
-156.3607616457514
 10
111.6237529051724
 20
-156.3607616457514
 10
111.6237529051724
 20
-156.3607616457514
 10
112.1754957130586
 20
-156.3607616457514
 10
112.6235196149919
 20
-155.9127269778947
 10
112.6235196149919
 20
-155.3602843849881
 10
112.6235196149919
 20
-155.3602843849881
 10
100.6234392126507
 20
-155.3602843849881
 10
100.6234392126507
 20
-155.3602843849881
 10
100.6234392126507
 20
-155.3602843849881
 10
100.6234392126507
 20
-148.8600028619549
 10
100.6234392126507
 20
-148.8600028619549
 10
100.6234392126507
 20
-148.8600028619549
 10
112.6235196149919
 20
-148.8600028619549
 10
112.6235196149919
 20
-148.8600028619549
 10
112.6235196149919
 20
-148.8600028619549
 10
113.1428139297764
 20
-148.5601395977344
 10
113.1428139297764
 20
-148.5601395977344
 10
113.1428139297764
 20
-148.5601395977344
 10
117.9240143375166
 20
-148.5601395977344
 10
117.9240143375166
 20
-148.5601395977344
 10
118.3106509442722
 20
-148.5601395977344
 10
118.6239177831153
 20
-148.246872758891
 10
118.6239177831153
 20
-147.860225386212
 10
118.6239177831153
 20
-147.860225386212
 10
100.6234392126507
 20
-147.860225386212
 10
100.6234392126507
 20
-147.860225386212
 10
100.6234392126507
 20
-147.860225386212
 10
100.6234392126507
 20
-143.3601878337617
 10
100.6234392126507
 20
-143.3601878337617
 97
        0
 97
        0
 75
     2
 76
     1
 98
        0
  0
POLYLINE
  5
4B
330
1F
100
AcDbEntity
  8
_U+30EC_U+30A4_U+30E4_U+30FC 1
 62
   179
420
  2234388
370
    25
100
AcDb2dPolyline
 66
     1
 10
0.0
 20
0.0
 30
0.0
  0
VERTEX
  5
4C
330
4B
100
AcDbEntity
  8
_U+30EC_U+30A4_U+30E4_U+30FC 1
 62
   179
420
  2234388
370
    25
100
AcDbVertex
100
AcDb2dVertex
 10
100.6234392126507
 20
-155.3601336620606
 30
0.0
  0
VERTEX
  5
4D
330
4B
100
AcDbEntity
  8
_U+30EC_U+30A4_U+30E4_U+30FC 1
 62
   179
420
  2234388
370
    25
100
AcDbVertex
100
AcDb2dVertex
 10
112.6235196149919
 20
-155.3601336620606
 30
0.0
  0
SEQEND
  5
4E
330
4B
100
AcDbEntity
  8
_U+30EC_U+30A4_U+30E4_U+30FC 1
 62
   179
420
  2234388
370
    25
  0
POLYLINE
  5
4F
330
1F
100
AcDbEntity
  8
_U+30EC_U+30A4_U+30E4_U+30FC 1
 62
   179
420
  2234388
370
    25
100
AcDb2dPolyline
 66
     1
 10
0.0
 20
0.0
 30
0.0
  0
VERTEX
  5
50
330
4F
100
AcDbEntity
  8
_U+30EC_U+30A4_U+30E4_U+30FC 1
 62
   179
420
  2234388
370
    25
100
AcDbVertex
100
AcDb2dVertex
 10
100.6234392126507
 20
-148.8599167345678
 30
0.0
  0
VERTEX
  5
51
330
4F
100
AcDbEntity
  8
_U+30EC_U+30A4_U+30E4_U+30FC 1
 62
   179
420
  2234388
370
    25
100
AcDbVertex
100
AcDb2dVertex
 10
112.6235196149919
 20
-148.8599167345678
 30
0.0
  0
SEQEND
  5
52
330
4F
100
AcDbEntity
  8
_U+30EC_U+30A4_U+30E4_U+30FC 1
 62
   179
420
  2234388
370
    25
  0
POLYLINE
  5
53
330
1F
100
AcDbEntity
  8
_U+30EC_U+30A4_U+30E4_U+30FC 1
 62
   179
420
  2234388
370
    25
100
AcDb2dPolyline
 66
     1
 10
0.0
 20
0.0
 30
0.0
  0
VERTEX
  5
54
330
53
100
AcDbEntity
  8
_U+30EC_U+30A4_U+30E4_U+30FC 1
 62
   179
420
  2234388
370
    25
100
AcDbVertex
100
AcDb2dVertex
 10
100.6234392126507
 20
-156.3605786250537
 30
0.0
  0
VERTEX
  5
55
330
53
100
AcDbEntity
  8
_U+30EC_U+30A4_U+30E4_U+30FC 1
 62
   179
420
  2234388
370
    25
100
AcDbVertex
100
AcDb2dVertex
 10
111.6237529051724
 20
-156.3605786250537
 30
0.0
  0
SEQEND
  5
56
330
53
100
AcDbEntity
  8
_U+30EC_U+30A4_U+30E4_U+30FC 1
 62
   179
420
  2234388
370
    25
  0
POLYLINE
  5
57
330
1F
100
AcDbEntity
  8
_U+30EC_U+30A4_U+30E4_U+30FC 1
 62
   179
420
  2234388
370
    25
100
AcDb2dPolyline
 66
     1
 10
0.0
 20
0.0
 30
0.0
  0
VERTEX
  5
58
330
57
100
AcDbEntity
  8
_U+30EC_U+30A4_U+30E4_U+30FC 1
 62
   179
420
  2234388
370
    25
100
AcDbVertex
100
AcDb2dVertex
 10
99.62366711986948
 20
-144.3599222458111
 30
0.0
  0
VERTEX
  5
59
330
57
100
AcDbEntity
  8
_U+30EC_U+30A4_U+30E4_U+30FC 1
 62
   179
420
  2234388
370
    25
100
AcDbVertex
100
AcDb2dVertex
 10
99.62366711986948
 20
-155.3602413212945
 30
0.0
  0
SEQEND
  5
5A
330
57
100
AcDbEntity
  8
_U+30EC_U+30A4_U+30E4_U+30FC 1
 62
   179
420
  2234388
370
    25
  0
POLYLINE
  5
5B
330
1F
100
AcDbEntity
  8
_U+30EC_U+30A4_U+30E4_U+30FC 1
 62
   179
420
  2234388
370
    25
100
AcDb2dPolyline
 66
     1
 10
0.0
 20
0.0
 30
0.0
  0
VERTEX
  5
5C
330
5B
100
AcDbEntity
  8
_U+30EC_U+30A4_U+30E4_U+30FC 1
 62
   179
420
  2234388
370
    25
100
AcDbVertex
100
AcDb2dVertex
 10
100.6234392126507
 20
-143.3601878337617
 30
0.0
  0
VERTEX
  5
5D
330
5B
100
AcDbEntity
  8
_U+30EC_U+30A4_U+30E4_U+30FC 1
 62
   179
420
  2234388
370
    25
100
AcDbVertex
100
AcDb2dVertex
 10
100.6234392126507
 20
-147.860225386212
 30
0.0
  0
SEQEND
  5
5E
330
5B
100
AcDbEntity
  8
_U+30EC_U+30A4_U+30E4_U+30FC 1
 62
   179
420
  2234388
370
    25
  0
POLYLINE
  5
5F
330
1F
100
AcDbEntity
  8
_U+30EC_U+30A4_U+30E4_U+30FC 1
 62
   179
420
  2234388
370
    25
100
AcDb2dPolyline
 66
     1
 10
0.0
 20
0.0
 30
0.0
  0
VERTEX
  5
60
330
5F
100
AcDbEntity
  8
_U+30EC_U+30A4_U+30E4_U+30FC 1
 62
   179
420
  2234388
370
    25
100
AcDbVertex
100
AcDb2dVertex
 10
100.6234392126507
 20
-147.8601500247483
 30
0.0
  0
VERTEX
  5
61
330
5F
100
AcDbEntity
  8
_U+30EC_U+30A4_U+30E4_U+30FC 1
 62
   179
420
  2234388
370
    25
100
AcDbVertex
100
AcDb2dVertex
 10
118.6239177831153
 20
-147.8601500247483
 30
0.0
  0
SEQEND
  5
62
330
5F
100
AcDbEntity
  8
_U+30EC_U+30A4_U+30E4_U+30FC 1
 62
   179
420
  2234388
370
    25
  0
POLYLINE
  5
63
330
1F
100
AcDbEntity
  8
_U+30EC_U+30A4_U+30E4_U+30FC 1
 62
   179
420
  2234388
370
    25
100
AcDb2dPolyline
 66
     1
 10
0.0
 20
0.0
 30
0.0
  0
VERTEX
  5
64
330
63
100
AcDbEntity
  8
_U+30EC_U+30A4_U+30E4_U+30FC 1
 62
   179
420
  2234388
370
    25
100
AcDbVertex
100
AcDb2dVertex
 10
100.6234392126507
 20
-148.8599167345678
 30
0.0
  0
VERTEX
  5
65
330
63
100
AcDbEntity
  8
_U+30EC_U+30A4_U+30E4_U+30FC 1
 62
   179
420
  2234388
370
    25
100
AcDbVertex
100
AcDb2dVertex
 10
100.6234392126507
 20
-155.3602090235243
 30
0.0
  0
SEQEND
  5
66
330
63
100
AcDbEntity
  8
_U+30EC_U+30A4_U+30E4_U+30FC 1
 62
   179
420
  2234388
370
    25
  0
POLYLINE
  5
67
330
1F
100
AcDbEntity
  8
_U+30EC_U+30A4_U+30E4_U+30FC 1
 62
   179
420
  2234388
370
    25
100
AcDb2dPolyline
 66
     1
 10
0.0
 20
0.0
 30
0.0
  0
VERTEX
  5
68
330
67
100
AcDbEntity
  8
_U+30EC_U+30A4_U+30E4_U+30FC 1
 62
   179
420
  2234388
370
    25
100
AcDbVertex
100
AcDb2dVertex
 10
113.1428892912401
 20
-148.5601934273511
 30
0.0
  0
VERTEX
  5
69
330
67
100
AcDbEntity
  8
_U+30EC_U+30A4_U+30E4_U+30FC 1
 62
   179
420
  2234388
370
    25
100
AcDbVertex
100
AcDb2dVertex
 10
117.924078933057
 20
-148.5601934273511
 30
0.0
  0
SEQEND
  5
6A
330
67
100
AcDbEntity
  8
_U+30EC_U+30A4_U+30E4_U+30FC 1
 62
   179
420
  2234388
370
    25
  0
POLYLINE
  5
6B
330
1F
100
AcDbEntity
  8
_U+30EC_U+30A4_U+30E4_U+30FC 1
 62
   179
420
  2234388
370
    25
100
AcDb2dPolyline
 66
     1
 10
0.0
 20
0.0
 30
0.0
  0
VERTEX
  5
6C
330
6B
100
AcDbEntity
  8
_U+30EC_U+30A4_U+30E4_U+30FC 1
 62
   179
420
  2234388
370
    25
100
AcDbVertex
100
AcDb2dVertex
 10
112.6233904239112
 20
-148.8599167345678
 30
0.0
  0
VERTEX
  5
6D
330
6B
100
AcDbEntity
  8
_U+30EC_U+30A4_U+30E4_U+30FC 1
 62
   179
420
  2234388
370
    25
100
AcDbVertex
100
AcDb2dVertex
 10
113.1430292482442
 20
-148.5600642362704
 30
0.0
  0
SEQEND
  5
6E
330
6B
100
AcDbEntity
  8
_U+30EC_U+30A4_U+30E4_U+30FC 1
 62
   179
420
  2234388
370
    25
  0
POLYLINE
  5
6F
330
1F
100
AcDbEntity
  8
_U+30EC_U+30A4_U+30E4_U+30FC 1
 62
   179
420
  2234388
370
     9
100
AcDb2dPolyline
 66
     1
 10
0.0
 20
0.0
 30
0.0
  0
VERTEX
  5
70
330
6F
100
AcDbEntity
  8
_U+30EC_U+30A4_U+30E4_U+30FC 1
 62
   179
420
  2234388
370
     9
100
AcDbVertex
100
AcDb2dVertex
 10
99.91647332130724
 20
-156.0670672556338
 30
0.0
  0
VERTEX
  5
71
330
6F
100
AcDbEntity
  8
_U+30EC_U+30A4_U+30E4_U+30FC 1
 62
   179
420
  2234388
370
     9
100
AcDbVertex
100
AcDb2dVertex
 10
95.62386819780085
 20
-160.3603775471224
 30
0.0
  0
SEQEND
  5
72
330
6F
100
AcDbEntity
  8
_U+30EC_U+30A4_U+30E4_U+30FC 1
 62
   179
420
  2234388
370
     9
  0
POLYLINE
  5
73
330
1F
100
AcDbEntity
  8
_U+30EC_U+30A4_U+30E4_U+30FC 1
 62
   179
420
  2234388
370
     9
100
AcDb2dPolyline
 66
     1
 10
0.0
 20
0.0
 30
0.0
  0
VERTEX
  5
74
330
73
100
AcDbEntity
  8
_U+30EC_U+30A4_U+30E4_U+30FC 1
 62
   179
420
  2234388
370
     9
100
AcDbVertex
100
AcDb2dVertex
 10
91.41124850213092
 20
-160.3603344834288
 30
0.0
  0
VERTEX
  5
75
330
73
100
AcDbEntity
  8
_U+30EC_U+30A4_U+30E4_U+30FC 1
 62
   179
420
  2234388
370
     9
100
AcDbVertex
100
AcDb2dVertex
 10
95.62376592152863
 20
-160.3603344834288
 30
0.0
  0
SEQEND
  5
76
330
73
100
AcDbEntity
  8
_U+30EC_U+30A4_U+30E4_U+30FC 1
 62
   179
420
  2234388
370
     9
  0
POLYLINE
  5
77
330
1F
100
AcDbEntity
  8
_U+30EC_U+30A4_U+30E4_U+30FC 1
 62
   179
420
  2234388
370
     9
100
AcDb2dPolyline
 66
     1
 10
0.0
 20
0.0
 30
0.0
  0
VERTEX
  5
78
330
77
100
AcDbEntity
  8
_U+30EC_U+30A4_U+30E4_U+30FC 1
 62
   179
420
  2234388
370
     9
100
AcDbVertex
100
AcDb2dVertex
 10
99.91647332130724
 20
-156.0670672556338
 30
0.0
  0
VERTEX
  5
79
330
77
100
AcDbEntity
  8
_U+30EC_U+30A4_U+30E4_U+30FC 1
 62
   179
420
  2234388
370
     9
100
AcDbVertex
100
AcDb2dVertex
 10
98.61754313228735
 20
-156.8174305841681
 30
0.0
  0
SEQEND
  5
7A
330
77
100
AcDbEntity
  8
_U+30EC_U+30A4_U+30E4_U+30FC 1
 62
   179
420
  2234388
370
     9
  0
POLYLINE
  5
7B
330
1F
100
AcDbEntity
  8
_U+30EC_U+30A4_U+30E4_U+30FC 1
 62
   179
420
  2234388
370
     9
100
AcDb2dPolyline
 66
     1
 10
0.0
 20
0.0
 30
0.0
  0
VERTEX
  5
7C
330
7B
100
AcDbEntity
  8
_U+30EC_U+30A4_U+30E4_U+30FC 1
 62
   179
420
  2234388
370
     9
100
AcDbVertex
100
AcDb2dVertex
 10
99.91647332130724
 20
-156.0670672556338
 30
0.0
  0
VERTEX
  5
7D
330
7B
100
AcDbEntity
  8
_U+30EC_U+30A4_U+30E4_U+30FC 1
 62
   179
420
  2234388
370
     9
100
AcDbVertex
100
AcDb2dVertex
 10
99.16682054371687
 20
-157.3667079955976
 30
0.0
  0
SEQEND
  5
7E
330
7B
100
AcDbEntity
  8
_U+30EC_U+30A4_U+30E4_U+30FC 1
 62
   179
420
  2234388
370
     9
  0
SPLINE
  5
7F
330
1F
100
AcDbEntity
  8
_U+30EC_U+30A4_U+30E4_U+30FC 1
 62
   179
420
  2234388
370
    25
100
AcDbSpline
210
0.0
220
0.0
230
1.0
 70
     8
 71
     3
 72
     8
 73
     4
 74
     0
 42
0.0000000001
 43
0.0000000001
 12
1.0
 22
0.0
 32
0.0
 13
1.0
 23
0.0
 33
0.0
 40
0.0
 40
0.0
 40
0.0
 40
0.0
 40
1.0
 40
1.0
 40
1.0
 40
1.0
 10
99.62366711986948
 20
-155.3601336620606
 30
0.0
 10
99.62366711986948
 20
-155.9125870208906
 30
0.0
 10
100.0716910218028
 20
-156.3606216887473
 30
0.0
 10
100.6234392126507
 20
-156.3606216887473
 30
0.0
  0
SPLINE
  5
80
330
1F
100
AcDbEntity
  8
_U+30EC_U+30A4_U+30E4_U+30FC 1
 62
   179
420
  2234388
370
    25
100
AcDbSpline
210
0.0
220
0.0
230
1.0
 70
     8
 71
     3
 72
     8
 73
     4
 74
     0
 42
0.0000000001
 43
0.0000000001
 12
1.0
 22
0.0
 32
0.0
 13
1.0
 23
0.0
 33
0.0
 40
0.0
 40
0.0
 40
0.0
 40
0.0
 40
1.0
 40
1.0
 40
1.0
 40
1.0
 10
100.6234392126507
 20
-143.3601878337617
 30
0.0
 10
100.0716910218028
 20
-143.3601878337617
 30
0.0
 10
99.62366173690778
 20
-143.8082225016185
 30
0.0
 10
99.62366173690778
 20
-144.359965309505
 30
0.0
  0
SPLINE
  5
81
330
1F
100
AcDbEntity
  8
_U+30EC_U+30A4_U+30E4_U+30FC 1
 62
   179
420
  2234388
370
    25
100
AcDbSpline
210
0.0
220
0.0
230
1.0
 70
     8
 71
     3
 72
     8
 73
     4
 74
     0
 42
0.0000000001
 43
0.0000000001
 12
1.0
 22
0.0
 32
0.0
 13
1.0
 23
0.0
 33
0.0
 40
0.0
 40
0.0
 40
0.0
 40
0.0
 40
1.0
 40
1.0
 40
1.0
 40
1.0
 10
111.6236560118619
 20
-156.3605786250537
 30
0.0
 10
112.175398819748
 20
-156.3605786250537
 30
0.0
 10
112.6234227216814
 20
-155.9125547231204
 30
0.0
 10
112.6234227216814
 20
-155.3601013642904
 30
0.0
  0
SPLINE
  5
82
330
1F
100
AcDbEntity
  8
_U+30EC_U+30A4_U+30E4_U+30FC 1
 62
   179
420
  2234388
370
    25
100
AcDbSpline
210
0.0
220
0.0
230
1.0
 70
     8
 71
     3
 72
     8
 73
     4
 74
     0
 42
0.0000000001
 43
0.0000000001
 12
1.0
 22
0.0
 32
0.0
 13
1.0
 23
0.0
 33
0.0
 40
0.0
 40
0.0
 40
0.0
 40
0.0
 40
1.0
 40
1.0
 40
1.0
 40
1.0
 10
117.9240143375166
 20
-148.5601934273511
 30
0.0
 10
118.3106509442722
 20
-148.5601934273511
 30
0.0
 10
118.6239177831153
 20
-148.2465820789594
 30
0.0
 10
118.6239177831153
 20
-147.8602899817524
 30
0.0
  0
SPLINE
  5
83
330
1F
100
AcDbEntity
  8
_U+30EC_U+30A4_U+30E4_U+30FC 1
 62
   179
420
  2234388
370
     9
100
AcDbSpline
210
0.0
220
0.0
230
1.0
 70
    11
 71
     3
 72
    17
 73
    13
 74
     0
 42
0.0000000001
 43
0.0000000001
 12
1.0
 22
0.0
 32
0.0
 13
1.0
 23
0.0
 33
0.0
 40
0.0
 40
0.0
 40
0.0
 40
0.0
 40
1.0
 40
1.0
 40
1.0
 40
2.0
 40
2.0
 40
2.0
 40
3.0
 40
3.0
 40
3.0
 40
4.0
 40
4.0
 40
4.0
 40
4.0
 10
118.7239439773448
 20
-139.3604212094633
 30
0.0
 10
118.7239439773448
 20
-139.3050412995379
 30
0.0
 10
118.6791362041898
 20
-139.2602335263829
 30
0.0
 10
118.624100803813
 20
-139.2602335263829
 30
0.0
 10
118.5690654034361
 20
-139.2602335263829
 30
0.0
 10
118.5242683962044
 20
-139.3050412995379
 30
0.0
 10
118.5242683962044
 20
-139.3604212094633
 30
0.0
 10
118.5242683962044
 20
-139.4154566098402
 30
0.0
 10
118.5690654034361
 20
-139.4602643829955
 30
0.0
 10
118.624100803813
 20
-139.4602643829955
 30
0.0
 10
118.6791362041898
 20
-139.4602643829955
 30
0.0
 10
118.7239439773448
 20
-139.4154566098402
 30
0.0
 10
118.7239439773448
 20
-139.3604212094633
 30
0.0
  0
SPLINE
  5
84
330
1F
100
AcDbEntity
  8
_U+30EC_U+30A4_U+30E4_U+30FC 1
 62
   179
420
  2234388
370
     9
100
AcDbSpline
210
0.0
220
0.0
230
1.0
 70
    11
 71
     3
 72
    17
 73
    13
 74
     0
 42
0.0000000001
 43
0.0000000001
 12
1.0
 22
0.0
 32
0.0
 13
1.0
 23
0.0
 33
0.0
 40
0.0
 40
0.0
 40
0.0
 40
0.0
 40
1.0
 40
1.0
 40
1.0
 40
2.0
 40
2.0
 40
2.0
 40
3.0
 40
3.0
 40
3.0
 40
4.0
 40
4.0
 40
4.0
 40
4.0
 10
100.7233469817229
 20
-139.3604212094633
 30
0.0
 10
100.7233469817229
 20
-139.3050412995379
 30
0.0
 10
100.6785392085679
 20
-139.2602335263829
 30
0.0
 10
100.6235091911527
 20
-139.2602335263829
 30
0.0
 10
100.5684737907759
 20
-139.2602335263829
 30
0.0
 10
100.5236714005825
 20
-139.3050412995379
 30
0.0
 10
100.5236714005825
 20
-139.3604212094633
 30
0.0
 10
100.5236714005825
 20
-139.4154566098402
 30
0.0
 10
100.5684737907759
 20
-139.4602643829955
 30
0.0
 10
100.6235091911527
 20
-139.4602643829955
 30
0.0
 10
100.6785392085679
 20
-139.4602643829955
 30
0.0
 10
100.7233469817229
 20
-139.4154566098402
 30
0.0
 10
100.7233469817229
 20
-139.3604212094633
 30
0.0
  0
SPLINE
  5
85
330
1F
100
AcDbEntity
  8
_U+30EC_U+30A4_U+30E4_U+30FC 1
 62
   179
420
  2234388
370
     9
100
AcDbSpline
210
0.0
220
0.0
230
1.0
 70
    11
 71
     3
 72
    17
 73
    13
 74
     0
 42
0.0000000001
 43
0.0000000001
 12
1.0
 22
0.0
 32
0.0
 13
1.0
 23
0.0
 33
0.0
 40
0.0
 40
0.0
 40
0.0
 40
0.0
 40
1.0
 40
1.0
 40
1.0
 40
2.0
 40
2.0
 40
2.0
 40
3.0
 40
3.0
 40
3.0
 40
4.0
 40
4.0
 40
4.0
 40
4.0
 10
99.72357488894173
 20
-145.8599275860122
 30
0.0
 10
99.72357488894173
 20
-145.8049029515588
 30
0.0
 10
99.6787671157867
 20
-145.7600951784037
 30
0.0
 10
99.62373709837152
 20
-145.7600951784037
 30
0.0
 10
99.56870169799465
 20
-145.7600951784037
 30
0.0
 10
99.52389930780132
 20
-145.8049029515588
 30
0.0
 10
99.52389930780132
 20
-145.8599275860122
 30
0.0
 10
99.52389930780132
 20
-145.9156735373329
 30
0.0
 10
99.56870169799465
 20
-145.9604705445649
 30
0.0
 10
99.62373709837152
 20
-145.9604705445649
 30
0.0
 10
99.6787671157867
 20
-145.9604705445649
 30
0.0
 10
99.72357488894173
 20
-145.9156735373329
 30
0.0
 10
99.72357488894173
 20
-145.8599275860122
 30
0.0
  0
SPLINE
  5
86
330
1F
100
AcDbEntity
  8
_U+30EC_U+30A4_U+30E4_U+30FC 1
 62
   179
420
  2234388
370
     9
100
AcDbSpline
210
0.0
220
0.0
230
1.0
 70
    11
 71
     3
 72
    17
 73
    13
 74
     0
 42
0.0000000001
 43
0.0000000001
 12
1.0
 22
0.0
 32
0.0
 13
1.0
 23
0.0
 33
0.0
 40
0.0
 40
0.0
 40
0.0
 40
0.0
 40
1.0
 40
1.0
 40
1.0
 40
2.0
 40
2.0
 40
2.0
 40
3.0
 40
3.0
 40
3.0
 40
4.0
 40
4.0
 40
4.0
 40
4.0
 10
100.7233469817229
 20
-145.8599275860122
 30
0.0
 10
100.7233469817229
 20
-145.8049029515588
 30
0.0
 10
100.6785392085679
 20
-145.7600951784037
 30
0.0
 10
100.6235091911527
 20
-145.7600951784037
 30
0.0
 10
100.5684737907759
 20
-145.7600951784037
 30
0.0
 10
100.5236714005825
 20
-145.8049029515588
 30
0.0
 10
100.5236714005825
 20
-145.8599275860122
 30
0.0
 10
100.5236714005825
 20
-145.9156735373329
 30
0.0
 10
100.5684737907759
 20
-145.9604705445649
 30
0.0
 10
100.6235091911527
 20
-145.9604705445649
 30
0.0
 10
100.6785392085679
 20
-145.9604705445649
 30
0.0
 10
100.7233469817229
 20
-145.9156735373329
 30
0.0
 10
100.7233469817229
 20
-145.8599275860122
 30
0.0
  0
SPLINE
  5
87
330
1F
100
AcDbEntity
  8
_U+30EC_U+30A4_U+30E4_U+30FC 1
 62
   179
420
  2234388
370
     9
100
AcDbSpline
210
0.0
220
0.0
230
1.0
 70
    11
 71
     3
 72
    17
 73
    13
 74
     0
 42
0.0000000001
 43
0.0000000001
 12
1.0
 22
0.0
 32
0.0
 13
1.0
 23
0.0
 33
0.0
 40
0.0
 40
0.0
 40
0.0
 40
0.0
 40
1.0
 40
1.0
 40
1.0
 40
2.0
 40
2.0
 40
2.0
 40
3.0
 40
3.0
 40
3.0
 40
4.0
 40
4.0
 40
4.0
 40
4.0
 10
95.72385132833683
 20
-156.3605786250537
 30
0.0
 10
95.72385132833683
 20
-156.3048434396564
 30
0.0
 10
95.67904355518213
 20
-156.2600464324248
 30
0.0
 10
95.62401353776663
 20
-156.2600464324248
 30
0.0
 10
95.56827296940763
 20
-156.2600464324248
 30
0.0
 10
95.52347057921429
 20
-156.3048434396564
 30
0.0
 10
95.52347057921429
 20
-156.3605786250537
 30
0.0
 10
95.52347057921429
 20
-156.4156140254306
 30
0.0
 10
95.56827296940763
 20
-156.4604217985856
 30
0.0
 10
95.62401353776663
 20
-156.4604217985856
 30
0.0
 10
95.67904355518213
 20
-156.4604217985856
 30
0.0
 10
95.72385132833683
 20
-156.4156140254306
 30
0.0
 10
95.72385132833683
 20
-156.3605786250537
 30
0.0
  0
SPLINE
  5
88
330
1F
100
AcDbEntity
  8
_U+30EC_U+30A4_U+30E4_U+30FC 1
 62
   179
420
  2234388
370
     9
100
AcDbSpline
210
0.0
220
0.0
230
1.0
 70
    11
 71
     3
 72
    17
 73
    13
 74
     0
 42
0.0000000001
 43
0.0000000001
 12
1.0
 22
0.0
 32
0.0
 13
1.0
 23
0.0
 33
0.0
 40
0.0
 40
0.0
 40
0.0
 40
0.0
 40
1.0
 40
1.0
 40
1.0
 40
2.0
 40
2.0
 40
2.0
 40
3.0
 40
3.0
 40
3.0
 40
4.0
 40
4.0
 40
4.0
 40
4.0
 10
95.72385132833683
 20
-143.3601878337617
 30
0.0
 10
95.72385132833683
 20
-143.3051631993086
 30
0.0
 10
95.67904355518213
 20
-143.2603554261532
 30
0.0
 10
95.62401353776663
 20
-143.2603554261532
 30
0.0
 10
95.56827296940763
 20
-143.2603554261532
 30
0.0
 10
95.52347057921429
 20
-143.3051631993086
 30
0.0
 10
95.52347057921429
 20
-143.3601878337617
 30
0.0
 10
95.52347057921429
 20
-143.4152232341386
 30
0.0
 10
95.56827296940763
 20
-143.4600310072936
 30
0.0
 10
95.62401353776663
 20
-143.4600310072936
 30
0.0
 10
95.67904355518213
 20
-143.4600310072936
 30
0.0
 10
95.72385132833683
 20
-143.4152232341386
 30
0.0
 10
95.72385132833683
 20
-143.3601878337617
 30
0.0
  0
SPLINE
  5
89
330
1F
100
AcDbEntity
  8
_U+30EC_U+30A4_U+30E4_U+30FC 1
 62
   179
420
  2234388
370
     9
100
AcDbSpline
210
0.0
220
0.0
230
1.0
 70
    11
 71
     3
 72
    17
 73
    13
 74
     0
 42
0.0000000001
 43
0.0000000001
 12
1.0
 22
0.0
 32
0.0
 13
1.0
 23
0.0
 33
0.0
 40
0.0
 40
0.0
 40
0.0
 40
0.0
 40
1.0
 40
1.0
 40
1.0
 40
2.0
 40
2.0
 40
2.0
 40
3.0
 40
3.0
 40
3.0
 40
4.0
 40
4.0
 40
4.0
 40
4.0
 10
112.7232981929835
 20
-160.3603344834288
 30
0.0
 10
112.7232981929835
 20
-160.3053098489753
 30
0.0
 10
112.6784904198284
 20
-160.2605020758203
 30
0.0
 10
112.6234550194516
 20
-160.2605020758203
 30
0.0
 10
112.5684196190747
 20
-160.2605020758203
 30
0.0
 10
112.5236226118431
 20
-160.3053098489753
 30
0.0
 10
112.5236226118431
 20
-160.3603344834288
 30
0.0
 10
112.5236226118431
 20
-160.4153698838057
 30
0.0
 10
112.5684196190747
 20
-160.4601776569607
 30
0.0
 10
112.6234550194516
 20
-160.4601776569607
 30
0.0
 10
112.6784904198284
 20
-160.4601776569607
 30
0.0
 10
112.7232981929835
 20
-160.4153698838057
 30
0.0
 10
112.7232981929835
 20
-160.3603344834288
 30
0.0
  0
SPLINE
  5
8A
330
1F
100
AcDbEntity
  8
_U+30EC_U+30A4_U+30E4_U+30FC 1
 62
   179
420
  2234388
370
     9
100
AcDbSpline
210
0.0
220
0.0
230
1.0
 70
    11
 71
     3
 72
    17
 73
    13
 74
     0
 42
0.0000000001
 43
0.0000000001
 12
1.0
 22
0.0
 32
0.0
 13
1.0
 23
0.0
 33
0.0
 40
0.0
 40
0.0
 40
0.0
 40
0.0
 40
1.0
 40
1.0
 40
1.0
 40
2.0
 40
2.0
 40
2.0
 40
3.0
 40
3.0
 40
3.0
 40
4.0
 40
4.0
 40
4.0
 40
4.0
 10
99.72357488894173
 20
-160.3603344834288
 30
0.0
 10
99.72357488894173
 20
-160.3053098489753
 30
0.0
 10
99.6787671157867
 20
-160.2605020758203
 30
0.0
 10
99.62373709837152
 20
-160.2605020758203
 30
0.0
 10
99.56870169799465
 20
-160.2605020758203
 30
0.0
 10
99.52389930780132
 20
-160.3053098489753
 30
0.0
 10
99.52389930780132
 20
-160.3603344834288
 30
0.0
 10
99.52389930780132
 20
-160.4153698838057
 30
0.0
 10
99.56870169799465
 20
-160.4601776569607
 30
0.0
 10
99.62373709837152
 20
-160.4601776569607
 30
0.0
 10
99.6787671157867
 20
-160.4601776569607
 30
0.0
 10
99.72357488894173
 20
-160.4153698838057
 30
0.0
 10
99.72357488894173
 20
-160.3603344834288
 30
0.0
  0
SPLINE
  5
8B
330
1F
100
AcDbEntity
  8
_U+30EC_U+30A4_U+30E4_U+30FC 1
 62
   179
420
  2234388
370
     9
100
AcDbSpline
210
0.0
220
0.0
230
1.0
 70
    11
 71
     3
 72
    17
 73
    13
 74
     0
 42
0.0000000001
 43
0.0000000001
 12
1.0
 22
0.0
 32
0.0
 13
1.0
 23
0.0
 33
0.0
 40
0.0
 40
0.0
 40
0.0
 40
0.0
 40
1.0
 40
1.0
 40
1.0
 40
2.0
 40
2.0
 40
2.0
 40
3.0
 40
3.0
 40
3.0
 40
4.0
 40
4.0
 40
4.0
 40
4.0
 10
116.7244320895526
 20
-148.8599167345678
 30
0.0
 10
116.7244320895526
 20
-148.8048921001143
 30
0.0
 10
116.6796243163976
 20
-148.7600843269593
 30
0.0
 10
116.6245889160207
 20
-148.7600843269593
 30
0.0
 10
116.5688537306234
 20
-148.7600843269593
 30
0.0
 10
116.5240459574684
 20
-148.8048921001143
 30
0.0
 10
116.5240459574684
 20
-148.8599167345678
 30
0.0
 10
116.5240459574684
 20
-148.9156626858885
 30
0.0
 10
116.5688537306234
 20
-148.9604596931201
 30
0.0
 10
116.6245889160207
 20
-148.9604596931201
 30
0.0
 10
116.6796243163976
 20
-148.9604596931201
 30
0.0
 10
116.7244320895526
 20
-148.9156626858885
 30
0.0
 10
116.7244320895526
 20
-148.8599167345678
 30
0.0
  0
SPLINE
  5
8C
330
1F
100
AcDbEntity
  8
_U+30EC_U+30A4_U+30E4_U+30FC 1
 62
   179
420
  2234388
370
     9
100
AcDbSpline
210
0.0
220
0.0
230
1.0
 70
    11
 71
     3
 72
    17
 73
    13
 74
     0
 42
0.0000000001
 43
0.0000000001
 12
1.0
 22
0.0
 32
0.0
 13
1.0
 23
0.0
 33
0.0
 40
0.0
 40
0.0
 40
0.0
 40
0.0
 40
1.0
 40
1.0
 40
1.0
 40
2.0
 40
2.0
 40
2.0
 40
3.0
 40
3.0
 40
3.0
 40
4.0
 40
4.0
 40
4.0
 40
4.0
 10
116.7244320895526
 20
-155.3601336620606
 30
0.0
 10
116.7244320895526
 20
-155.3051090276071
 30
0.0
 10
116.6796243163976
 20
-155.2603012544521
 30
0.0
 10
116.6245889160207
 20
-155.2603012544521
 30
0.0
 10
116.5688537306234
 20
-155.2603012544521
 30
0.0
 10
116.5240459574684
 20
-155.3051090276071
 30
0.0
 10
116.5240459574684
 20
-155.3601336620606
 30
0.0
 10
116.5240459574684
 20
-155.4151690624375
 30
0.0
 10
116.5688537306234
 20
-155.4599768355925
 30
0.0
 10
116.6245889160207
 20
-155.4599768355925
 30
0.0
 10
116.6796243163976
 20
-155.4599768355925
 30
0.0
 10
116.7244320895526
 20
-155.4151690624375
 30
0.0
 10
116.7244320895526
 20
-155.3601336620606
 30
0.0
  0
INSERT
  5
8E
330
1F
100
AcDbEntity
  8
_U+30EC_U+30A4_U+30E4_U+30FC 1
100
AcDbBlockReference
  2
block 2
 10
0.0
 20
0.0
 30
0.0
  0
POLYLINE
  5
96
330
1F
100
AcDbEntity
  8
_U+30EC_U+30A4_U+30E4_U+30FC 1
 62
   179
420
  2234388
370
     9
100
AcDb2dPolyline
 66
     1
 10
0.0
 20
0.0
 30
0.0
  0
VERTEX
  5
97
330
96
100
AcDbEntity
  8
_U+30EC_U+30A4_U+30E4_U+30FC 1
 62
   179
420
  2234388
370
     9
100
AcDbVertex
100
AcDb2dVertex
 10
100.6234392126507
 20
-139.3604212094633
 30
0.0
  0
VERTEX
  5
98
330
96
100
AcDbEntity
  8
_U+30EC_U+30A4_U+30E4_U+30FC 1
 62
   179
420
  2234388
370
     9
100
AcDbVertex
100
AcDb2dVertex
 10
118.6239177831153
 20
-139.3604212094633
 30
0.0
  0
SEQEND
  5
99
330
96
100
AcDbEntity
  8
_U+30EC_U+30A4_U+30E4_U+30FC 1
 62
   179
420
  2234388
370
     9
  0
POLYLINE
  5
9A
330
1F
100
AcDbEntity
  8
_U+30EC_U+30A4_U+30E4_U+30FC 1
 62
   179
420
  2234388
370
     9
100
AcDb2dPolyline
 66
     1
 10
0.0
 20
0.0
 30
0.0
  0
VERTEX
  5
9B
330
9A
100
AcDbEntity
  8
_U+30EC_U+30A4_U+30E4_U+30FC 1
 62
   179
420
  2234388
370
     9
100
AcDbVertex
100
AcDb2dVertex
 10
100.6234392126507
 20
-141.8201978540849
 30
0.0
  0
VERTEX
  5
9C
330
9A
100
AcDbEntity
  8
_U+30EC_U+30A4_U+30E4_U+30FC 1
 62
   179
420
  2234388
370
     9
100
AcDbVertex
100
AcDb2dVertex
 10
100.6234392126507
 20
-138.3594487162239
 30
0.0
  0
SEQEND
  5
9D
330
9A
100
AcDbEntity
  8
_U+30EC_U+30A4_U+30E4_U+30FC 1
 62
   179
420
  2234388
370
     9
  0
POLYLINE
  5
9E
330
1F
100
AcDbEntity
  8
_U+30EC_U+30A4_U+30E4_U+30FC 1
 62
   179
420
  2234388
370
     9
100
AcDb2dPolyline
 66
     1
 10
0.0
 20
0.0
 30
0.0
  0
VERTEX
  5
9F
330
9E
100
AcDbEntity
  8
_U+30EC_U+30A4_U+30E4_U+30FC 1
 62
   179
420
  2234388
370
     9
100
AcDbVertex
100
AcDb2dVertex
 10
118.6240362082726
 20
-145.3204256330221
 30
0.0
  0
VERTEX
  5
A0
330
9E
100
AcDbEntity
  8
_U+30EC_U+30A4_U+30E4_U+30FC 1
 62
   179
420
  2234388
370
     9
100
AcDbVertex
100
AcDb2dVertex
 10
118.6240362082726
 20
-138.3597716939257
 30
0.0
  0
SEQEND
  5
A1
330
9E
100
AcDbEntity
  8
_U+30EC_U+30A4_U+30E4_U+30FC 1
 62
   179
420
  2234388
370
     9
  0
INSERT
  5
A3
330
1F
100
AcDbEntity
  8
_U+30EC_U+30A4_U+30E4_U+30FC 1
100
AcDbBlockReference
  2
block 3
 10
0.0
 20
0.0
 30
0.0
  0
POLYLINE
  5
AC
330
1F
100
AcDbEntity
  8
_U+30EC_U+30A4_U+30E4_U+30FC 1
 62
   179
420
  2234388
370
     9
100
AcDb2dPolyline
 66
     1
 10
0.0
 20
0.0
 30
0.0
  0
VERTEX
  5
AD
330
AC
100
AcDbEntity
  8
_U+30EC_U+30A4_U+30E4_U+30FC 1
 62
   179
420
  2234388
370
     9
100
AcDbVertex
100
AcDb2dVertex
 10
100.6234392126507
 20
-145.8599275860122
 30
0.0
  0
VERTEX
  5
AE
330
AC
100
AcDbEntity
  8
_U+30EC_U+30A4_U+30E4_U+30FC 1
 62
   179
420
  2234388
370
     9
100
AcDbVertex
100
AcDb2dVertex
 10
104.3939185835207
 20
-145.8599275860122
 30
0.0
  0
SEQEND
  5
AF
330
AC
100
AcDbEntity
  8
_U+30EC_U+30A4_U+30E4_U+30FC 1
 62
   179
420
  2234388
370
     9
  0
POLYLINE
  5
B0
330
1F
100
AcDbEntity
  8
_U+30EC_U+30A4_U+30E4_U+30FC 1
 62
   179
420
  2234388
370
     9
100
AcDb2dPolyline
 66
     1
 10
0.0
 20
0.0
 30
0.0
  0
VERTEX
  5
B1
330
B0
100
AcDbEntity
  8
_U+30EC_U+30A4_U+30E4_U+30FC 1
 62
   179
420
  2234388
370
     9
100
AcDbVertex
100
AcDb2dVertex
 10
98.62393270782015
 20
-145.8599275860122
 30
0.0
  0
VERTEX
  5
B2
330
B0
100
AcDbEntity
  8
_U+30EC_U+30A4_U+30E4_U+30FC 1
 62
   179
420
  2234388
370
     9
100
AcDbVertex
100
AcDb2dVertex
 10
100.6234768933825
 20
-145.8599275860122
 30
0.0
  0
SEQEND
  5
B3
330
B0
100
AcDbEntity
  8
_U+30EC_U+30A4_U+30E4_U+30FC 1
 62
   179
420
  2234388
370
     9
  0
INSERT
  5
B5
330
1F
100
AcDbEntity
  8
_U+30EC_U+30A4_U+30E4_U+30FC 1
100
AcDbBlockReference
  2
block 4
 10
0.0
 20
0.0
 30
0.0
  0
POLYLINE
  5
BA
330
1F
100
AcDbEntity
  8
_U+30EC_U+30A4_U+30E4_U+30FC 1
 62
   179
420
  2234388
370
     9
100
AcDb2dPolyline
 66
     1
 10
0.0
 20
0.0
 30
0.0
  0
VERTEX
  5
BB
330
BA
100
AcDbEntity
  8
_U+30EC_U+30A4_U+30E4_U+30FC 1
 62
   179
420
  2234388
370
     9
100
AcDbVertex
100
AcDb2dVertex
 10
95.62394355926459
 20
-156.3605786250537
 30
0.0
  0
VERTEX
  5
BC
330
BA
100
AcDbEntity
  8
_U+30EC_U+30A4_U+30E4_U+30FC 1
 62
   179
420
  2234388
370
     9
100
AcDbVertex
100
AcDb2dVertex
 10
95.62394355926459
 20
-143.3600155789875
 30
0.0
  0
SEQEND
  5
BD
330
BA
100
AcDbEntity
  8
_U+30EC_U+30A4_U+30E4_U+30FC 1
 62
   179
420
  2234388
370
     9
  0
POLYLINE
  5
BE
330
1F
100
AcDbEntity
  8
_U+30EC_U+30A4_U+30E4_U+30FC 1
 62
   179
420
  2234388
370
     9
100
AcDb2dPolyline
 66
     1
 10
0.0
 20
0.0
 30
0.0
  0
VERTEX
  5
BF
330
BE
100
AcDbEntity
  8
_U+30EC_U+30A4_U+30E4_U+30FC 1
 62
   179
420
  2234388
370
     9
100
AcDbVertex
100
AcDb2dVertex
 10
98.08368790611601
 20
-156.3605786250537
 30
0.0
  0
VERTEX
  5
C0
330
BE
100
AcDbEntity
  8
_U+30EC_U+30A4_U+30E4_U+30FC 1
 62
   179
420
  2234388
370
     9
100
AcDbVertex
100
AcDb2dVertex
 10
94.6232886607653
 20
-156.3605786250537
 30
0.0
  0
SEQEND
  5
C1
330
BE
100
AcDbEntity
  8
_U+30EC_U+30A4_U+30E4_U+30FC 1
 62
   179
420
  2234388
370
     9
  0
POLYLINE
  5
C2
330
1F
100
AcDbEntity
  8
_U+30EC_U+30A4_U+30E4_U+30FC 1
 62
   179
420
  2234388
370
     9
100
AcDb2dPolyline
 66
     1
 10
0.0
 20
0.0
 30
0.0
  0
VERTEX
  5
C3
330
C2
100
AcDbEntity
  8
_U+30EC_U+30A4_U+30E4_U+30FC 1
 62
   179
420
  2234388
370
     9
100
AcDbVertex
100
AcDb2dVertex
 10
98.08368790611601
 20
-143.3601878337617
 30
0.0
  0
VERTEX
  5
C4
330
C2
100
AcDbEntity
  8
_U+30EC_U+30A4_U+30E4_U+30FC 1
 62
   179
420
  2234388
370
     9
100
AcDbVertex
100
AcDb2dVertex
 10
94.6232886607653
 20
-143.3601878337617
 30
0.0
  0
SEQEND
  5
C5
330
C2
100
AcDbEntity
  8
_U+30EC_U+30A4_U+30E4_U+30FC 1
 62
   179
420
  2234388
370
     9
  0
INSERT
  5
C7
330
1F
100
AcDbEntity
  8
_U+30EC_U+30A4_U+30E4_U+30FC 1
100
AcDbBlockReference
  2
block 5
 10
0.0
 20
0.0
 30
0.0
  0
POLYLINE
  5
CE
330
1F
100
AcDbEntity
  8
_U+30EC_U+30A4_U+30E4_U+30FC 1
 62
   179
420
  2234388
370
     9
100
AcDb2dPolyline
 66
     1
 10
0.0
 20
0.0
 30
0.0
  0
VERTEX
  5
CF
330
CE
100
AcDbEntity
  8
_U+30EC_U+30A4_U+30E4_U+30FC 1
 62
   179
420
  2234388
370
     9
100
AcDbVertex
100
AcDb2dVertex
 10
99.62366711986948
 20
-160.3603344834288
 30
0.0
  0
VERTEX
  5
D0
330
CE
100
AcDbEntity
  8
_U+30EC_U+30A4_U+30E4_U+30FC 1
 62
   179
420
  2234388
370
     9
100
AcDbVertex
100
AcDb2dVertex
 10
112.6235196149919
 20
-160.3603344834288
 30
0.0
  0
SEQEND
  5
D1
330
CE
100
AcDbEntity
  8
_U+30EC_U+30A4_U+30E4_U+30FC 1
 62
   179
420
  2234388
370
     9
  0
POLYLINE
  5
D2
330
1F
100
AcDbEntity
  8
_U+30EC_U+30A4_U+30E4_U+30FC 1
 62
   179
420
  2234388
370
     9
100
AcDb2dPolyline
 66
     1
 10
0.0
 20
0.0
 30
0.0
  0
VERTEX
  5
D3
330
D2
100
AcDbEntity
  8
_U+30EC_U+30A4_U+30E4_U+30FC 1
 62
   179
420
  2234388
370
     9
100
AcDbVertex
100
AcDb2dVertex
 10
99.62366711986948
 20
-157.9005147751136
 30
0.0
  0
VERTEX
  5
D4
330
D2
100
AcDbEntity
  8
_U+30EC_U+30A4_U+30E4_U+30FC 1
 62
   179
420
  2234388
370
     9
100
AcDbVertex
100
AcDb2dVertex
 10
99.62366711986948
 20
-161.3602088524822
 30
0.0
  0
SEQEND
  5
D5
330
D2
100
AcDbEntity
  8
_U+30EC_U+30A4_U+30E4_U+30FC 1
 62
   179
420
  2234388
370
     9
  0
POLYLINE
  5
D6
330
1F
100
AcDbEntity
  8
_U+30EC_U+30A4_U+30E4_U+30FC 1
 62
   179
420
  2234388
370
     9
100
AcDb2dPolyline
 66
     1
 10
0.0
 20
0.0
 30
0.0
  0
VERTEX
  5
D7
330
D6
100
AcDbEntity
  8
_U+30EC_U+30A4_U+30E4_U+30FC 1
 62
   179
420
  2234388
370
     9
100
AcDbVertex
100
AcDb2dVertex
 10
112.6233904239112
 20
-157.9005147751136
 30
0.0
  0
VERTEX
  5
D8
330
D6
100
AcDbEntity
  8
_U+30EC_U+30A4_U+30E4_U+30FC 1
 62
   179
420
  2234388
370
     9
100
AcDbVertex
100
AcDb2dVertex
 10
112.6233904239112
 20
-161.3602088524822
 30
0.0
  0
SEQEND
  5
D9
330
D6
100
AcDbEntity
  8
_U+30EC_U+30A4_U+30E4_U+30FC 1
 62
   179
420
  2234388
370
     9
  0
INSERT
  5
DB
330
1F
100
AcDbEntity
  8
_U+30EC_U+30A4_U+30E4_U+30FC 1
100
AcDbBlockReference
  2
block 6
 10
0.0
 20
0.0
 30
0.0
  0
POLYLINE
  5
E2
330
1F
100
AcDbEntity
  8
_U+30EC_U+30A4_U+30E4_U+30FC 1
 62
   179
420
  2234388
370
     9
100
AcDb2dPolyline
 66
     1
 10
0.0
 20
0.0
 30
0.0
  0
VERTEX
  5
E3
330
E2
100
AcDbEntity
  8
_U+30EC_U+30A4_U+30E4_U+30FC 1
 62
   179
420
  2234388
370
     9
100
AcDbVertex
100
AcDb2dVertex
 10
116.6245243204804
 20
-155.3601336620606
 30
0.0
  0
VERTEX
  5
E4
330
E2
100
AcDbEntity
  8
_U+30EC_U+30A4_U+30E4_U+30FC 1
 62
   179
420
  2234388
370
     9
100
AcDbVertex
100
AcDb2dVertex
 10
116.6245243204804
 20
-148.8598521390275
 30
0.0
  0
SEQEND
  5
E5
330
E2
100
AcDbEntity
  8
_U+30EC_U+30A4_U+30E4_U+30FC 1
 62
   179
420
  2234388
370
     9
  0
POLYLINE
  5
E6
330
1F
100
AcDbEntity
  8
_U+30EC_U+30A4_U+30E4_U+30FC 1
 62
   179
420
  2234388
370
     9
100
AcDb2dPolyline
 66
     1
 10
0.0
 20
0.0
 30
0.0
  0
VERTEX
  5
E7
330
E6
100
AcDbEntity
  8
_U+30EC_U+30A4_U+30E4_U+30FC 1
 62
   179
420
  2234388
370
     9
100
AcDbVertex
100
AcDb2dVertex
 10
115.1645143856783
 20
-155.3601336620606
 30
0.0
  0
VERTEX
  5
E8
330
E6
100
AcDbEntity
  8
_U+30EC_U+30A4_U+30E4_U+30FC 1
 62
   179
420
  2234388
370
     9
100
AcDbVertex
100
AcDb2dVertex
 10
117.624430987304
 20
-155.3601336620606
 30
0.0
  0
SEQEND
  5
E9
330
E6
100
AcDbEntity
  8
_U+30EC_U+30A4_U+30E4_U+30FC 1
 62
   179
420
  2234388
370
     9
  0
POLYLINE
  5
EA
330
1F
100
AcDbEntity
  8
_U+30EC_U+30A4_U+30E4_U+30FC 1
 62
   179
420
  2234388
370
     9
100
AcDb2dPolyline
 66
     1
 10
0.0
 20
0.0
 30
0.0
  0
VERTEX
  5
EB
330
EA
100
AcDbEntity
  8
_U+30EC_U+30A4_U+30E4_U+30FC 1
 62
   179
420
  2234388
370
     9
100
AcDbVertex
100
AcDb2dVertex
 10
115.1645143856783
 20
-148.8599167345678
 30
0.0
  0
VERTEX
  5
EC
330
EA
100
AcDbEntity
  8
_U+30EC_U+30A4_U+30E4_U+30FC 1
 62
   179
420
  2234388
370
     9
100
AcDbVertex
100
AcDb2dVertex
 10
117.624430987304
 20
-148.8599167345678
 30
0.0
  0
SEQEND
  5
ED
330
EA
100
AcDbEntity
  8
_U+30EC_U+30A4_U+30E4_U+30FC 1
 62
   179
420
  2234388
370
     9
  0
INSERT
  5
EF
330
1F
100
AcDbEntity
  8
_U+30EC_U+30A4_U+30E4_U+30FC 1
100
AcDbBlockReference
  2
block 7
 10
0.0
 20
0.0
 30
0.0
  0
ENDSEC
  0
SECTION
  2
OBJECTS
  0
DICTIONARY
  5
C
330
0
100
AcDbDictionary
281
     1
  3
ACAD_GROUP
350
D
  3
ACAD_LAYOUT
350
1A
  3
ACAD_MATERIAL
350
3B
  3
ACAD_MLEADERSTYLE
350
100
  3
ACAD_MLINESTYLE
350
17
  3
ACAD_PLOTSETTINGS
350
19
  3
ACAD_PLOTSTYLENAME
350
E
  3
ACAD_TABLESTYLE
350
FF
  3
ACAD_VISUALSTYLE
350
2A
  0
SUN
  5
3F
330
29
100
AcDbSun
 90
        1
290
     0
 63
     7
421
 16777215
 40
1.0
291
     1
 91
  2455826
 92
 54000000
292
     0
 70
     2
 71
   256
280
     1
  0
DICTIONARY
  5
D
102
{ACAD_REACTORS
330
C
102
}
330
C
100
AcDbDictionary
281
     1
  0
DICTIONARY
  5
1A
102
{ACAD_REACTORS
330
C
102
}
330
C
100
AcDbDictionary
281
     1
  3
Layout1
350
1E
  3
Layout2
350
26
  3
Model
350
22
  0
DICTIONARY
  5
3B
102
{ACAD_REACTORS
330
C
102
}
330
C
100
AcDbDictionary
281
     1
  3
ByBlock
350
3D
  3
ByLayer
350
3C
  3
Global
350
3E
  0
DICTIONARY
  5
100
102
{ACAD_REACTORS
330
C
102
}
330
C
100
AcDbDictionary
281
     1
  0
DICTIONARY
  5
17
102
{ACAD_REACTORS
330
C
102
}
330
C
100
AcDbDictionary
281
     1
  3
Standard
350
18
  0
DICTIONARY
  5
19
102
{ACAD_REACTORS
330
C
102
}
330
C
100
AcDbDictionary
281
     1
  0
ACDBDICTIONARYWDFLT
  5
E
102
{ACAD_REACTORS
330
C
102
}
330
C
100
AcDbDictionary
281
     1
  3
Normal
350
F
100
AcDbDictionaryWithDefault
340
F
  0
DICTIONARY
  5
FF
102
{ACAD_REACTORS
330
C
102
}
330
C
100
AcDbDictionary
281
     1
  0
DICTIONARY
  5
2A
102
{ACAD_REACTORS
330
C
102
}
330
C
100
AcDbDictionary
281
     1
  3
2dWireframe
350
2F
  3
3D Hidden
350
31
  3
3dWireframe
350
30
  3
Basic
350
32
  3
Brighten
350
36
  3
ColorChange
350
3A
  3
Conceptual
350
34
  3
Dim
350
35
  3
Facepattern
350
39
  3
Flat
350
2B
  3
FlatWithEdges
350
2C
  3
Gouraud
350
2D
  3
GouraudWithEdges
350
2E
  3
Linepattern
350
38
  3
Realistic
350
33
  3
Thicken
350
37
  0
LAYOUT
  5
1E
102
{ACAD_REACTORS
330
1A
102
}
330
1A
100
AcDbPlotSettings
  1

  2
none_device
  4

  6

 40
0.0
 41
0.0
 42
0.0
 43
0.0
 44
0.0
 45
0.0
 46
0.0
 47
0.0
 48
0.0
 49
0.0
140
0.0
141
0.0
142
1.0
143
1.0
 70
   688
 72
     0
 73
     0
 74
     5
  7

 75
    16
 76
     0
 77
     2
 78
   300
147
1.0
148
0.0
149
0.0
100
AcDbLayout
  1
Layout1
 70
     1
 71
     1
 10
0.0
 20
0.0
 11
12.0
 21
9.0
 12
0.0
 22
0.0
 32
0.0
 14
1.000000000000000E+20
 24
1.000000000000000E+20
 34
1.000000000000000E+20
 15
-1.000000000000000E+20
 25
-1.000000000000000E+20
 35
-1.000000000000000E+20
146
0.0
 13
0.0
 23
0.0
 33
0.0
 16
1.0
 26
0.0
 36
0.0
 17
0.0
 27
1.0
 37
0.0
 76
     0
330
1B
  0
LAYOUT
  5
26
102
{ACAD_REACTORS
330
1A
102
}
330
1A
100
AcDbPlotSettings
  1

  2
none_device
  4

  6

 40
0.0
 41
0.0
 42
0.0
 43
0.0
 44
0.0
 45
0.0
 46
0.0
 47
0.0
 48
0.0
 49
0.0
140
0.0
141
0.0
142
1.0
143
1.0
 70
   688
 72
     0
 73
     0
 74
     5
  7

 75
    16
 76
     0
 77
     2
 78
   300
147
1.0
148
0.0
149
0.0
100
AcDbLayout
  1
Layout2
 70
     1
 71
     2
 10
0.0
 20
0.0
 11
0.0
 21
0.0
 12
0.0
 22
0.0
 32
0.0
 14
0.0
 24
0.0
 34
0.0
 15
0.0
 25
0.0
 35
0.0
146
0.0
 13
0.0
 23
0.0
 33
0.0
 16
1.0
 26
0.0
 36
0.0
 17
0.0
 27
1.0
 37
0.0
 76
     0
330
23
  0
LAYOUT
  5
22
102
{ACAD_REACTORS
330
1A
102
}
330
1A
100
AcDbPlotSettings
  1

  2
none_device
  4

  6

 40
0.0
 41
0.0
 42
0.0
 43
0.0
 44
0.0
 45
0.0
 46
0.0
 47
0.0
 48
0.0
 49
0.0
140
0.0
141
0.0
142
1.0
143
1.0
 70
  1712
 72
     0
 73
     0
 74
     0
  7

 75
     0
 76
     0
 77
     2
 78
   300
147
1.0
148
0.0
149
0.0
100
AcDbLayout
  1
Model
 70
     1
 71
     0
 10
0.0
 20
0.0
 11
12.0
 21
9.0
 12
0.0
 22
0.0
 32
0.0
 14
1.000000000000000E+20
 24
1.000000000000000E+20
 34
1.000000000000000E+20
 15
-1.000000000000000E+20
 25
-1.000000000000000E+20
 35
-1.000000000000000E+20
146
0.0
 13
0.0
 23
0.0
 33
0.0
 16
1.0
 26
0.0
 36
0.0
 17
0.0
 27
1.0
 37
0.0
 76
     0
330
1F
331
29
  0
MATERIAL
  5
3D
102
{ACAD_REACTORS
330
3B
102
}
330
3B
100
AcDbMaterial
  1
ByBlock
 72
     1
 94
      127
  0
MATERIAL
  5
3C
102
{ACAD_REACTORS
330
3B
102
}
330
3B
100
AcDbMaterial
  1
ByLayer
 72
     1
 94
      127
  0
MATERIAL
  5
3E
102
{ACAD_REACTORS
330
3B
102
}
330
3B
100
AcDbMaterial
  1
Global
 72
     1
 94
      127
  0
MLINESTYLE
  5
18
102
{ACAD_REACTORS
330
17
102
}
330
17
100
AcDbMlineStyle
  2
Standard
 70
     0
  3

 62
   256
 51
90.0
 52
90.0
 71
     2
 49
0.5
 62
   256
  6
BYLAYER
 49
-0.5
 62
   256
  6
BYLAYER
  0
ACDBPLACEHOLDER
  5
F
102
{ACAD_REACTORS
330
E
102
}
330
E
  0
VISUALSTYLE
  5
2F
102
{ACAD_REACTORS
330
2A
102
}
330
2A
100
AcDbVisualStyle
  2
2dWireframe
 70
     4
177
     2
291
     0
 71
     0
176
     1
 72
     2
176
     1
 73
     0
176
     1
 90
        0
176
     1
 40
-0.6
176
     1
 41
-30.0
176
     1
 62
     5
 63
     7
421
 16777215
176
     1
 74
     1
176
     1
 91
        4
176
     1
 64
     7
176
     1
 65
   257
176
     1
 75
     1
176
     1
175
     1
176
     1
 42
1.0
176
     1
 92
        0
176
     1
 66
   257
176
     1
 43
1.0
176
     1
 76
     1
176
     1
 77
     6
176
     1
 78
     2
176
     1
 67
     7
176
     1
 79
     5
176
     1
170
     0
176
     1
171
     0
176
     1
290
     0
176
     1
 93
        1
176
     1
 44
0.0
176
     1
173
     0
176
     1
  0
VISUALSTYLE
  5
31
102
{ACAD_REACTORS
330
2A
102
}
330
2A
100
AcDbVisualStyle
  2
3D Hidden
 70
     6
177
     2
291
     0
 71
     1
176
     1
 72
     2
176
     1
 73
     2
176
     1
 90
        0
176
     1
 40
-0.6
176
     1
 41
-30.0
176
     1
 62
     5
 63
     7
421
 16777215
176
     1
 74
     2
176
     1
 91
        2
176
     1
 64
     7
176
     1
 65
   257
176
     1
 75
     2
176
     1
175
     1
176
     1
 42
40.0
176
     1
 92
        0
176
     1
 66
   257
176
     1
 43
1.0
176
     1
 76
     1
176
     1
 77
     6
176
     1
 78
     2
176
     1
 67
     7
176
     1
 79
     3
176
     1
170
     0
176
     1
171
     0
176
     1
290
     0
176
     1
 93
        1
176
     1
 44
0.0
176
     1
173
     0
176
     1
  0
VISUALSTYLE
  5
30
102
{ACAD_REACTORS
330
2A
102
}
330
2A
100
AcDbVisualStyle
  2
3dWireframe
 70
     5
177
     2
291
     0
 71
     0
176
     1
 72
     2
176
     1
 73
     0
176
     1
 90
        0
176
     1
 40
-0.6
176
     1
 41
-30.0
176
     1
 62
     5
 63
     7
421
 16777215
176
     1
 74
     1
176
     1
 91
        4
176
     1
 64
     7
176
     1
 65
   257
176
     1
 75
     1
176
     1
175
     1
176
     1
 42
1.0
176
     1
 92
        0
176
     1
 66
   257
176
     1
 43
1.0
176
     1
 76
     1
176
     1
 77
     6
176
     1
 78
     2
176
     1
 67
     7
176
     1
 79
     5
176
     1
170
     0
176
     1
171
     0
176
     1
290
     0
176
     1
 93
        1
176
     1
 44
0.0
176
     1
173
     0
176
     1
  0
VISUALSTYLE
  5
32
102
{ACAD_REACTORS
330
2A
102
}
330
2A
100
AcDbVisualStyle
  2
Basic
 70
     7
177
     2
291
     1
 71
     1
176
     1
 72
     0
176
     1
 73
     1
176
     1
 90
        0
176
     1
 40
-0.6
176
     1
 41
-30.0
176
     1
 62
     5
 63
     7
421
 16777215
176
     1
 74
     0
176
     1
 91
        4
176
     1
 64
     7
176
     1
 65
   257
176
     1
 75
     1
176
     1
175
     1
176
     1
 42
1.0
176
     1
 92
        8
176
     1
 66
     7
176
     1
 43
1.0
176
     1
 76
     1
176
     1
 77
     6
176
     1
 78
     2
176
     1
 67
     7
176
     1
 79
     5
176
     1
170
     0
176
     1
171
     0
176
     1
290
     0
176
     1
 93
        1
176
     1
 44
0.0
176
     1
173
     0
176
     1
  0
VISUALSTYLE
  5
36
102
{ACAD_REACTORS
330
2A
102
}
330
2A
100
AcDbVisualStyle
  2
Brighten
 70
    12
177
     2
291
     1
 71
     2
176
     1
 72
     2
176
     1
 73
     0
176
     1
 90
        0
176
     1
 40
-0.6
176
     1
 41
-30.0
176
     1
 62
     5
 63
     7
421
 16777215
176
     1
 74
     1
176
     1
 91
        4
176
     1
 64
     7
176
     1
 65
   257
176
     1
 75
     1
176
     1
175
     1
176
     1
 42
1.0
176
     1
 92
        8
176
     1
 66
     7
176
     1
 43
1.0
176
     1
 76
     1
176
     1
 77
     6
176
     1
 78
     2
176
     1
 67
     7
176
     1
 79
     5
176
     1
170
     0
176
     1
171
     0
176
     1
290
     0
176
     1
 93
        1
176
     1
 44
50.0
176
     1
173
     0
176
     1
  0
VISUALSTYLE
  5
3A
102
{ACAD_REACTORS
330
2A
102
}
330
2A
100
AcDbVisualStyle
  2
ColorChange
 70
    16
177
     2
291
     1
 71
     2
176
     1
 72
     2
176
     1
 73
     3
176
     1
 90
        0
176
     1
 40
-0.6
176
     1
 41
-30.0
176
     1
 62
     5
 63
     8
421
  8421504
176
     1
 74
     1
176
     1
 91
        4
176
     1
 64
     7
176
     1
 65
   257
176
     1
 75
     1
176
     1
175
     1
176
     1
 42
1.0
176
     1
 92
        8
176
     1
 66
     8
424
  8421504
176
     1
 43
1.0
176
     1
 76
     1
176
     1
 77
     6
176
     1
 78
     2
176
     1
 67
     7
176
     1
 79
     5
176
     1
170
     0
176
     1
171
     0
176
     1
290
     0
176
     1
 93
        1
176
     1
 44
0.0
176
     1
173
     0
176
     1
  0
VISUALSTYLE
  5
34
102
{ACAD_REACTORS
330
2A
102
}
330
2A
100
AcDbVisualStyle
  2
Conceptual
 70
     9
177
     2
291
     0
 71
     3
176
     1
 72
     2
176
     1
 73
     0
176
     1
 90
        0
176
     1
 40
-0.6
176
     1
 41
-30.0
176
     1
 62
     5
 63
     7
421
 16777215
176
     1
 74
     2
176
     1
 91
        2
176
     1
 64
     7
176
     1
 65
   257
176
     1
 75
     1
176
     1
175
     1
176
     1
 42
40.0
176
     1
 92
        8
176
     1
 66
     7
176
     1
 43
1.0
176
     1
 76
     1
176
     1
 77
     6
176
     1
 78
     2
176
     1
 67
     7
176
     1
 79
     3
176
     1
170
     0
176
     1
171
     0
176
     1
290
     0
176
     1
 93
        1
176
     1
 44
0.0
176
     1
173
     0
176
     1
  0
VISUALSTYLE
  5
35
102
{ACAD_REACTORS
330
2A
102
}
330
2A
100
AcDbVisualStyle
  2
Dim
 70
    11
177
     2
291
     1
 71
     2
176
     1
 72
     2
176
     1
 73
     0
176
     1
 90
        0
176
     1
 40
-0.6
176
     1
 41
-30.0
176
     1
 62
     5
 63
     7
421
 16777215
176
     1
 74
     1
176
     1
 91
        4
176
     1
 64
     7
176
     1
 65
   257
176
     1
 75
     1
176
     1
175
     1
176
     1
 42
1.0
176
     1
 92
        8
176
     1
 66
     7
176
     1
 43
1.0
176
     1
 76
     1
176
     1
 77
     6
176
     1
 78
     2
176
     1
 67
     7
176
     1
 79
     5
176
     1
170
     0
176
     1
171
     0
176
     1
290
     0
176
     1
 93
        1
176
     1
 44
-50.0
176
     1
173
     0
176
     1
  0
VISUALSTYLE
  5
39
102
{ACAD_REACTORS
330
2A
102
}
330
2A
100
AcDbVisualStyle
  2
Facepattern
 70
    15
177
     2
291
     1
 71
     2
176
     1
 72
     2
176
     1
 73
     0
176
     1
 90
        0
176
     1
 40
-0.6
176
     1
 41
-30.0
176
     1
 62
     5
 63
     7
421
 16777215
176
     1
 74
     1
176
     1
 91
        4
176
     1
 64
     7
176
     1
 65
   257
176
     1
 75
     1
176
     1
175
     1
176
     1
 42
1.0
176
     1
 92
        8
176
     1
 66
     7
176
     1
 43
1.0
176
     1
 76
     1
176
     1
 77
     6
176
     1
 78
     2
176
     1
 67
     7
176
     1
 79
     5
176
     1
170
     0
176
     1
171
     0
176
     1
290
     0
176
     1
 93
        1
176
     1
 44
0.0
176
     1
173
     0
176
     1
  0
VISUALSTYLE
  5
2B
102
{ACAD_REACTORS
330
2A
102
}
330
2A
100
AcDbVisualStyle
  2
Flat
 70
     0
177
     2
291
     1
 71
     2
176
     1
 72
     1
176
     1
 73
     1
176
     1
 90
        2
176
     1
 40
-0.6
176
     1
 41
30.0
176
     1
 62
     5
 63
     7
421
 16777215
176
     1
 74
     0
176
     1
 91
        4
176
     1
 64
     7
176
     1
 65
   257
176
     1
 75
     1
176
     1
175
     1
176
     1
 42
1.0
176
     1
 92
        8
176
     1
 66
     7
176
     1
 43
1.0
176
     1
 76
     1
176
     1
 77
     6
176
     1
 78
     2
176
     1
 67
     7
176
     1
 79
     5
176
     1
170
     0
176
     1
171
     0
176
     1
290
     0
176
     1
 93
       13
176
     1
 44
0.0
176
     1
173
     0
176
     1
  0
VISUALSTYLE
  5
2C
102
{ACAD_REACTORS
330
2A
102
}
330
2A
100
AcDbVisualStyle
  2
FlatWithEdges
 70
     1
177
     2
291
     1
 71
     2
176
     1
 72
     1
176
     1
 73
     1
176
     1
 90
        2
176
     1
 40
-0.6
176
     1
 41
30.0
176
     1
 62
     5
 63
     7
421
 16777215
176
     1
 74
     1
176
     1
 91
        4
176
     1
 64
     7
176
     1
 65
   257
176
     1
 75
     1
176
     1
175
     1
176
     1
 42
1.0
176
     1
 92
        0
176
     1
 66
   257
176
     1
 43
1.0
176
     1
 76
     1
176
     1
 77
     6
176
     1
 78
     2
176
     1
 67
     7
176
     1
 79
     5
176
     1
170
     0
176
     1
171
     0
176
     1
290
     0
176
     1
 93
       13
176
     1
 44
0.0
176
     1
173
     0
176
     1
  0
VISUALSTYLE
  5
2D
102
{ACAD_REACTORS
330
2A
102
}
330
2A
100
AcDbVisualStyle
  2
Gouraud
 70
     2
177
     2
291
     1
 71
     2
176
     1
 72
     2
176
     1
 73
     1
176
     1
 90
        2
176
     1
 40
-0.6
176
     1
 41
30.0
176
     1
 62
     5
 63
     7
421
 16777215
176
     1
 74
     0
176
     1
 91
        4
176
     1
 64
     7
176
     1
 65
   257
176
     1
 75
     1
176
     1
175
     1
176
     1
 42
1.0
176
     1
 92
        0
176
     1
 66
     7
176
     1
 43
1.0
176
     1
 76
     1
176
     1
 77
     6
176
     1
 78
     2
176
     1
 67
     7
176
     1
 79
     5
176
     1
170
     0
176
     1
171
     0
176
     1
290
     0
176
     1
 93
       13
176
     1
 44
0.0
176
     1
173
     0
176
     1
  0
VISUALSTYLE
  5
2E
102
{ACAD_REACTORS
330
2A
102
}
330
2A
100
AcDbVisualStyle
  2
GouraudWithEdges
 70
     3
177
     2
291
     1
 71
     2
176
     1
 72
     2
176
     1
 73
     1
176
     1
 90
        2
176
     1
 40
-0.6
176
     1
 41
30.0
176
     1
 62
     5
 63
     7
421
 16777215
176
     1
 74
     1
176
     1
 91
        4
176
     1
 64
     7
176
     1
 65
   257
176
     1
 75
     1
176
     1
175
     1
176
     1
 42
1.0
176
     1
 92
        0
176
     1
 66
   257
176
     1
 43
1.0
176
     1
 76
     1
176
     1
 77
     6
176
     1
 78
     2
176
     1
 67
     7
176
     1
 79
     5
176
     1
170
     0
176
     1
171
     0
176
     1
290
     0
176
     1
 93
       13
176
     1
 44
0.0
176
     1
173
     0
176
     1
  0
VISUALSTYLE
  5
38
102
{ACAD_REACTORS
330
2A
102
}
330
2A
100
AcDbVisualStyle
  2
Linepattern
 70
    14
177
     2
291
     1
 71
     2
176
     1
 72
     2
176
     1
 73
     0
176
     1
 90
        0
176
     1
 40
-0.6
176
     1
 41
-30.0
176
     1
 62
     5
 63
     7
421
 16777215
176
     1
 74
     1
176
     1
 91
        4
176
     1
 64
     7
176
     1
 65
   257
176
     1
 75
     7
176
     1
175
     7
176
     1
 42
1.0
176
     1
 92
        8
176
     1
 66
     7
176
     1
 43
1.0
176
     1
 76
     1
176
     1
 77
     6
176
     1
 78
     2
176
     1
 67
     7
176
     1
 79
     5
176
     1
170
     0
176
     1
171
     0
176
     1
290
     0
176
     1
 93
        1
176
     1
 44
0.0
176
     1
173
     0
176
     1
  0
VISUALSTYLE
  5
33
102
{ACAD_REACTORS
330
2A
102
}
330
2A
100
AcDbVisualStyle
  2
Realistic
 70
     8
177
     2
291
     0
 71
     2
176
     1
 72
     2
176
     1
 73
     0
176
     1
 90
        0
176
     1
 40
-0.6
176
     1
 41
-30.0
176
     1
 62
     5
 63
     7
421
 16777215
176
     1
 74
     1
176
     1
 91
        0
176
     1
 64
     7
176
     1
 65
   257
176
     1
 75
     1
176
     1
175
     1
176
     1
 42
1.0
176
     1
 92
        8
176
     1
 66
     8
424
  7895160
176
     1
 43
1.0
176
     1
 76
     1
176
     1
 77
     6
176
     1
 78
     2
176
     1
 67
     7
176
     1
 79
     5
176
     1
170
     0
176
     1
171
     0
176
     1
290
     0
176
     1
 93
       13
176
     1
 44
0.0
176
     1
173
     0
176
     1
  0
VISUALSTYLE
  5
37
102
{ACAD_REACTORS
330
2A
102
}
330
2A
100
AcDbVisualStyle
  2
Thicken
 70
    13
177
     2
291
     1
 71
     2
176
     1
 72
     2
176
     1
 73
     0
176
     1
 90
        0
176
     1
 40
-0.6
176
     1
 41
-30.0
176
     1
 62
     5
 63
     7
421
 16777215
176
     1
 74
     1
176
     1
 91
        4
176
     1
 64
     7
176
     1
 65
   257
176
     1
 75
     1
176
     1
175
     1
176
     1
 42
1.0
176
     1
 92
       12
176
     1
 66
     7
176
     1
 43
1.0
176
     1
 76
     1
176
     1
 77
     6
176
     1
 78
     2
176
     1
 67
     7
176
     1
 79
     5
176
     1
170
     0
176
     1
171
     0
176
     1
290
     0
176
     1
 93
        1
176
     1
 44
0.0
176
     1
173
     0
176
     1
  0
ENDSEC
  0
EOF
