  0
SECTION
  2
HEADER
  9
$ACADVER
  1
AC1024
  9
$ACADMAINTVER
 70
     6
  9
$DWGCODEPAGE
  3
UNDEFINED
  9
$INSBASE
 10
0.0
 20
0.0
 30
0.0
  9
$EXTMIN
 10
1.000000000000000E+20
 20
1.000000000000000E+20
 30
1.000000000000000E+20
  9
$EXTMAX
 10
-1.000000000000000E+20
 20
-1.000000000000000E+20
 30
-1.000000000000000E+20
  9
$LIMMIN
 10
0.0
 20
0.0
  9
$LIMMAX
 10
12.0
 20
9.0
  9
$ORTHOMODE
 70
     0
  9
$REGENMODE
 70
     1
  9
$FILLMODE
 70
     1
  9
$QTEXTMODE
 70
     0
  9
$MIRRTEXT
 70
     1
  9
$LTSCALE
 40
1.0
  9
$ATTMODE
 70
     1
  9
$TEXTSIZE
 40
0.2
  9
$TRACEWID
 40
0.05
  9
$TEXTSTYLE
  7
Standard
  9
$CLAYER
  8
0
  9
$CELTYPE
  6
ByLayer
  9
$CECOLOR
 62
   256
  9
$CELTSCALE
 40
1.0
  9
$DISPSILH
 70
     0
  9
$DIMSCALE
 40
1.0
  9
$DIMASZ
 40
0.18
  9
$DIMEXO
 40
0.0625
  9
$DIMDLI
 40
0.38
  9
$DIMRND
 40
0.0
  9
$DIMDLE
 40
0.0
  9
$DIMEXE
 40
0.18
  9
$DIMTP
 40
0.0
  9
$DIMTM
 40
0.0
  9
$DIMTXT
 40
0.18
  9
$DIMCEN
 40
0.09
  9
$DIMTSZ
 40
0.0
  9
$DIMTOL
 70
     0
  9
$DIMLIM
 70
     0
  9
$DIMTIH
 70
     1
  9
$DIMTOH
 70
     1
  9
$DIMSE1
 70
     0
  9
$DIMSE2
 70
     0
  9
$DIMTAD
 70
     0
  9
$DIMZIN
 70
     0
  9
$DIMBLK
  1

  9
$DIMASO
 70
     1
  9
$DIMSHO
 70
     1
  9
$DIMPOST
  1

  9
$DIMAPOST
  1

  9
$DIMALT
 70
     0
  9
$DIMALTD
 70
     2
  9
$DIMALTF
 40
25.4
  9
$DIMLFAC
 40
1.0
  9
$DIMTOFL
 70
     0
  9
$DIMTVP
 40
0.0
  9
$DIMTIX
 70
     0
  9
$DIMSOXD
 70
     0
  9
$DIMSAH
 70
     0
  9
$DIMBLK1
  1

  9
$DIMBLK2
  1

  9
$DIMSTYLE
  2
Standard
  9
$DIMCLRD
 70
     0
  9
$DIMCLRE
 70
     0
  9
$DIMCLRT
 70
     0
  9
$DIMTFAC
 40
1.0
  9
$DIMGAP
 40
0.09
  9
$DIMJUST
 70
     0
  9
$DIMSD1
 70
     0
  9
$DIMSD2
 70
     0
  9
$DIMTOLJ
 70
     1
  9
$DIMTZIN
 70
     0
  9
$DIMALTZ
 70
     0
  9
$DIMALTTZ
 70
     0
  9
$DIMUPT
 70
     0
  9
$DIMDEC
 70
     4
  9
$DIMTDEC
 70
     4
  9
$DIMALTU
 70
     2
  9
$DIMALTTD
 70
     2
  9
$DIMTXSTY
  7
Standard
  9
$DIMAUNIT
 70
     0
  9
$DIMADEC
 70
     0
  9
$DIMALTRND
 40
0.0
  9
$DIMAZIN
 70
     0
  9
$DIMDSEP
 70
    46
  9
$DIMATFIT
 70
     3
  9
$DIMFRAC
 70
     0
  9
$DIMLDRBLK
  1

  9
$DIMLUNIT
 70
     2
  9
$DIMLWD
 70
    -2
  9
$DIMLWE
 70
    -2
  9
$DIMTMOVE
 70
     0
  9
$DIMFXL
 40
1.0
  9
$DIMFXLON
 70
     0
  9
$DIMJOGANG
 40
0.7853981633974483
  9
$DIMTFILL
 70
     0
  9
$DIMTFILLCLR
 70
     0
  9
$DIMARCSYM
 70
     0
  9
$DIMLTYPE
  6

  9
$DIMLTEX1
  6

  9
$DIMLTEX2
  6

  9
$DIMTXTDIRECTION
 70
     0
  9
$LUNITS
 70
     2
  9
$LUPREC
 70
     4
  9
$SKETCHINC
 40
0.1
  9
$FILLETRAD
 40
0.5
  9
$AUNITS
 70
     0
  9
$AUPREC
 70
     0
  9
$MENU
  1
.
  9
$ELEVATION
 40
0.0
  9
$PELEVATION
 40
0.0
  9
$THICKNESS
 40
0.0
  9
$LIMCHECK
 70
     0
  9
$CHAMFERA
 40
0.5
  9
$CHAMFERB
 40
0.5
  9
$CHAMFERC
 40
1.0
  9
$CHAMFERD
 40
0.0
  9
$SKPOLY
 70
     0
  9
$TDCREATE
 40
2457917.618749988
  9
$TDUCREATE
 40
2457917.24375
  9
$TDUPDATE
 40
2457917.618749988
  9
$TDUUPDATE
 40
2457917.24375
  9
$TDINDWG
 40
0.0000000116
  9
$TDUSRTIMER
 40
0.0000000116
  9
$USRTIMER
 70
     1
  9
$ANGBASE
 50
0.0
  9
$ANGDIR
 70
     0
  9
$PDMODE
 70
     0
  9
$PDSIZE
 40
0.0
  9
$PLINEWID
 40
0.0
  9
$SPLFRAME
 70
     0
  9
$SPLINETYPE
 70
     6
  9
$SPLINESEGS
 70
     8
  9
$HANDSEED
  5
F9
  9
$SURFTAB1
 70
     6
  9
$SURFTAB2
 70
     6
  9
$SURFTYPE
 70
     6
  9
$SURFU
 70
     6
  9
$SURFV
 70
     6
  9
$UCSBASE
  2

  9
$UCSNAME
  2

  9
$UCSORG
 10
0.0
 20
0.0
 30
0.0
  9
$UCSXDIR
 10
1.0
 20
0.0
 30
0.0
  9
$UCSYDIR
 10
0.0
 20
1.0
 30
0.0
  9
$UCSORTHOREF
  2

  9
$UCSORTHOVIEW
 70
     0
  9
$UCSORGTOP
 10
0.0
 20
0.0
 30
0.0
  9
$UCSORGBOTTOM
 10
0.0
 20
0.0
 30
0.0
  9
$UCSORGLEFT
 10
0.0
 20
0.0
 30
0.0
  9
$UCSORGRIGHT
 10
0.0
 20
0.0
 30
0.0
  9
$UCSORGFRONT
 10
0.0
 20
0.0
 30
0.0
  9
$UCSORGBACK
 10
0.0
 20
0.0
 30
0.0
  9
$PUCSBASE
  2

  9
$PUCSNAME
  2

  9
$PUCSORG
 10
0.0
 20
0.0
 30
0.0
  9
$PUCSXDIR
 10
1.0
 20
0.0
 30
0.0
  9
$PUCSYDIR
 10
0.0
 20
1.0
 30
0.0
  9
$PUCSORTHOREF
  2

  9
$PUCSORTHOVIEW
 70
     0
  9
$PUCSORGTOP
 10
0.0
 20
0.0
 30
0.0
  9
$PUCSORGBOTTOM
 10
0.0
 20
0.0
 30
0.0
  9
$PUCSORGLEFT
 10
0.0
 20
0.0
 30
0.0
  9
$PUCSORGRIGHT
 10
0.0
 20
0.0
 30
0.0
  9
$PUCSORGFRONT
 10
0.0
 20
0.0
 30
0.0
  9
$PUCSORGBACK
 10
0.0
 20
0.0
 30
0.0
  9
$USERI1
 70
     0
  9
$USERI2
 70
     0
  9
$USERI3
 70
     0
  9
$USERI4
 70
     0
  9
$USERI5
 70
     0
  9
$USERR1
 40
0.0
  9
$USERR2
 40
0.0
  9
$USERR3
 40
0.0
  9
$USERR4
 40
0.0
  9
$USERR5
 40
0.0
  9
$WORLDVIEW
 70
     1
  9
$SHADEDGE
 70
     3
  9
$SHADEDIF
 70
    70
  9
$TILEMODE
 70
     1
  9
$MAXACTVP
 70
    64
  9
$PINSBASE
 10
0.0
 20
0.0
 30
0.0
  9
$PLIMCHECK
 70
     0
  9
$PEXTMIN
 10
1.000000000000000E+20
 20
1.000000000000000E+20
 30
1.000000000000000E+20
  9
$PEXTMAX
 10
-1.000000000000000E+20
 20
-1.000000000000000E+20
 30
-1.000000000000000E+20
  9
$PLIMMIN
 10
0.0
 20
0.0
  9
$PLIMMAX
 10
12.0
 20
9.0
  9
$UNITMODE
 70
     0
  9
$VISRETAIN
 70
     1
  9
$PLINEGEN
 70
     0
  9
$PSLTSCALE
 70
     1
  9
$TREEDEPTH
 70
  3020
  9
$CMLSTYLE
  2
Standard
  9
$CMLJUST
 70
     0
  9
$CMLSCALE
 40
1.0
  9
$PROXYGRAPHICS
 70
     1
  9
$MEASUREMENT
 70
     0
  9
$CELWEIGHT
370
    -1
  9
$ENDCAPS
280
     0
  9
$JOINSTYLE
280
     0
  9
$LWDISPLAY
290
     1
  9
$INSUNITS
 70
     1
  9
$HYPERLINKBASE
  1

  9
$STYLESHEET
  1

  9
$XEDIT
290
     1
  9
$CEPSNTYPE
380
     0
  9
$PSTYLEMODE
290
     1
  9
$FINGERPRINTGUID
  2
{89E4A95E-CA92-231E-FC57-B57B258A2B00}
  9
$VERSIONGUID
  2
{FAEB1C32-E019-11D5-929B-00C0DF256EC4}
  9
$EXTNAMES
290
     1
  9
$PSVPSCALE
 40
0.0
  9
$OLESTARTUP
290
     0
  9
$SORTENTS
280
   127
  9
$INDEXCTL
280
     0
  9
$HIDETEXT
280
     1
  9
$XCLIPFRAME
280
     2
  9
$HALOGAP
280
     0
  9
$OBSCOLOR
 70
   257
  9
$OBSLTYPE
280
     0
  9
$INTERSECTIONDISPLAY
280
     0
  9
$INTERSECTIONCOLOR
 70
   257
  9
$DIMASSOC
280
     2
  9
$PROJECTNAME
  1

  9
$CAMERADISPLAY
290
     0
  9
$LENSLENGTH
 40
50.0
  9
$CAMERAHEIGHT
 40
0.0
  9
$STEPSPERSEC
 40
2.0
  9
$STEPSIZE
 40
6.0
  9
$3DDWFPREC
 40
2.0
  9
$PSOLWIDTH
 40
0.25
  9
$PSOLHEIGHT
 40
4.0
  9
$LOFTANG1
 40
1.570796326794897
  9
$LOFTANG2
 40
1.570796326794897
  9
$LOFTMAG1
 40
0.0
  9
$LOFTMAG2
 40
0.0
  9
$LOFTPARAM
 70
     7
  9
$LOFTNORMALS
280
     1
  9
$LATITUDE
 40
37.795
  9
$LONGITUDE
 40
-122.394
  9
$NORTHDIRECTION
 40
0.0
  9
$TIMEZONE
 70
 -8000
  9
$LIGHTGLYPHDISPLAY
280
     1
  9
$TILEMODELIGHTSYNCH
280
     1
  9
$CMATERIAL
347
3C
  9
$SOLIDHIST
280
     1
  9
$SHOWHIST
280
     1
  9
$DWFFRAME
280
     2
  9
$DGNFRAME
280
     2
  9
$REALWORLDSCALE
290
     1
  9
$INTERFERECOLOR
 62
   256
  9
$CSHADOW
280
     0
  9
$SHADOWPLANELOCATION
 40
0.0
  0
ENDSEC
  0
SECTION
  2
CLASSES
  0
CLASS
  1
ACDBDICTIONARYWDFLT
  2
AcDbDictionaryWithDefault
  3
ObjectDBX Classes
 90
        0
 91
        4
280
     0
281
     0
  0
CLASS
  1
VISUALSTYLE
  2
AcDbVisualStyle
  3
ObjectDBX Classes
 90
     4095
 91
        4
280
     0
281
     0
  0
CLASS
  1
MATERIAL
  2
AcDbMaterial
  3
ObjectDBX Classes
 90
     1153
 91
        4
280
     0
281
     0
  0
CLASS
  1
SUN
  2
AcDbSun
  3
SCENEOE
 90
     1024
 91
        4
280
     0
281
     0
  0
ENDSEC
  0
SECTION
  2
TABLES
  0
TABLE
  2
VPORT
  5
8
330
0
100
AcDbSymbolTable
 70
     1
  0
VPORT
  5
29
330
8
100
AcDbSymbolTableRecord
100
AcDbViewportTableRecord
  2
*Active
 70
     0
 10
0.0
 20
0.0
 11
1.0
 21
1.0
 12
0.0
 22
0.0
 13
0.0
 23
0.0
 14
0.5
 24
0.5
 15
0.5
 25
0.5
 16
0.0
 26
0.0
 36
1.0
 17
91.00082462281999
 27
-128.4993055234307
 37
0.0
 40
256.9986110468615
 41
0.7081814508812795
 42
50.0
 43
0.0
 44
0.0
 50
0.0
 51
0.0
 71
     0
 72
   100
 73
     1
 74
     3
 75
     0
 76
     0
 77
     0
 78
     0
281
     0
 65
     1
110
0.0
120
0.0
130
0.0
111
1.0
121
0.0
131
0.0
112
0.0
122
1.0
132
0.0
 79
     0
146
0.0
 60
     3
 61
     5
292
     1
282
     1
141
0.0
142
0.0
 63
   250
361
3F
  0
ENDTAB
  0
TABLE
  2
LTYPE
  5
5
330
0
100
AcDbSymbolTable
 70
     1
  0
LTYPE
  5
14
330
5
100
AcDbSymbolTableRecord
100
AcDbLinetypeTableRecord
  2
ByBlock
 70
     0
  3

 72
    65
 73
     0
 40
0.0
  0
LTYPE
  5
15
330
5
100
AcDbSymbolTableRecord
100
AcDbLinetypeTableRecord
  2
ByLayer
 70
     0
  3

 72
    65
 73
     0
 40
0.0
  0
LTYPE
  5
16
330
5
100
AcDbSymbolTableRecord
100
AcDbLinetypeTableRecord
  2
Continuous
 70
     0
  3
Solid line
 72
    65
 73
     0
 40
0.0
  0
ENDTAB
  0
TABLE
  2
LAYER
  5
2
330
0
100
AcDbSymbolTable
 70
     2
  0
LAYER
  5
10
330
2
100
AcDbSymbolTableRecord
100
AcDbLayerTableRecord
  2
0
 70
     0
 62
     7
  6
Continuous
370
    -3
390
F
347
3E
  0
LAYER
  5
40
330
2
100
AcDbSymbolTableRecord
100
AcDbLayerTableRecord
  2
_U+30EC_U+30A4_U+30E4_U+30FC 1
 70
     0
 62
     7
  6
Continuous
370
    -3
390
F
347
3E
  0
ENDTAB
  0
TABLE
  2
STYLE
  5
3
330
0
100
AcDbSymbolTable
 70
     1
  0
STYLE
  5
11
330
3
100
AcDbSymbolTableRecord
100
AcDbTextStyleTableRecord
  2
Standard
 70
     0
 40
0.0
 41
1.0
 50
0.0
 71
     0
 42
0.2
  3
txt
  4

  0
ENDTAB
  0
TABLE
  2
VIEW
  5
6
330
0
100
AcDbSymbolTable
 70
     0
  0
ENDTAB
  0
TABLE
  2
UCS
  5
7
330
0
100
AcDbSymbolTable
 70
     0
  0
ENDTAB
  0
TABLE
  2
APPID
  5
9
330
0
100
AcDbSymbolTable
 70
     1
  0
APPID
  5
12
330
9
100
AcDbSymbolTableRecord
100
AcDbRegAppTableRecord
  2
ACAD
 70
     0
  0
ENDTAB
  0
TABLE
  2
DIMSTYLE
  5
A
330
0
100
AcDbSymbolTable
 70
     1
100
AcDbDimStyleTable
  0
DIMSTYLE
105
27
330
A
100
AcDbSymbolTableRecord
100
AcDbDimStyleTableRecord
  2
Standard
 70
     0
178
     0
340
11
  0
ENDTAB
  0
TABLE
  2
BLOCK_RECORD
  5
1
330
0
100
AcDbSymbolTable
 70
     7
  0
BLOCK_RECORD
  5
1F
330
1
100
AcDbSymbolTableRecord
100
AcDbBlockTableRecord
  2
*Model_Space
340
22
 70
     0
280
     1
281
     0
  0
BLOCK_RECORD
  5
1B
330
1
100
AcDbSymbolTableRecord
100
AcDbBlockTableRecord
  2
*Paper_Space
340
1E
 70
     0
280
     1
281
     0
  0
BLOCK_RECORD
  5
23
330
1
100
AcDbSymbolTableRecord
100
AcDbBlockTableRecord
  2
*Paper_Space0
340
26
 70
     0
280
     1
281
     0
  0
BLOCK_RECORD
  5
85
330
1
100
AcDbSymbolTableRecord
100
AcDbBlockTableRecord
  2
block 2
340
0
102
{BLKREFS
331
86
102
}
 70
     0
280
     1
281
     0
  0
BLOCK_RECORD
  5
9A
330
1
100
AcDbSymbolTableRecord
100
AcDbBlockTableRecord
  2
block 3
340
0
102
{BLKREFS
331
9B
102
}
 70
     0
280
     1
281
     0
  0
BLOCK_RECORD
  5
AC
330
1
100
AcDbSymbolTableRecord
100
AcDbBlockTableRecord
  2
block 4
340
0
102
{BLKREFS
331
AD
102
}
 70
     0
280
     1
281
     0
  0
BLOCK_RECORD
  5
BE
330
1
100
AcDbSymbolTableRecord
100
AcDbBlockTableRecord
  2
block 5
340
0
102
{BLKREFS
331
BF
102
}
 70
     0
280
     1
281
     0
  0
BLOCK_RECORD
  5
D2
330
1
100
AcDbSymbolTableRecord
100
AcDbBlockTableRecord
  2
block 6
340
0
102
{BLKREFS
331
D3
102
}
 70
     0
280
     1
281
     0
  0
BLOCK_RECORD
  5
E6
330
1
100
AcDbSymbolTableRecord
100
AcDbBlockTableRecord
  2
block 7
340
0
102
{BLKREFS
331
E7
102
}
 70
     0
280
     1
281
     0
  0
ENDTAB
  0
ENDSEC
  0
SECTION
  2
BLOCKS
  0
BLOCK
  5
20
330
1F
100
AcDbEntity
  8
0
100
AcDbBlockBegin
  2
*Model_Space
 70
     0
 10
0.0
 20
0.0
 30
0.0
  3
*Model_Space
  1

  0
ENDBLK
  5
21
330
1F
100
AcDbEntity
  8
0
100
AcDbBlockEnd
  0
BLOCK
  5
1C
330
1B
100
AcDbEntity
 67
     1
  8
0
100
AcDbBlockBegin
  2
*Paper_Space
 70
     0
 10
0.0
 20
0.0
 30
0.0
  3
*Paper_Space
  1

  0
ENDBLK
  5
1D
330
1B
100
AcDbEntity
 67
     1
  8
0
100
AcDbBlockEnd
  0
BLOCK
  5
24
330
23
100
AcDbEntity
  8
0
100
AcDbBlockBegin
  2
*Paper_Space0
 70
     0
 10
0.0
 20
0.0
 30
0.0
  3
*Paper_Space0
  1

  0
ENDBLK
  5
25
330
23
100
AcDbEntity
  8
0
100
AcDbBlockEnd
  0
BLOCK
  5
87
330
85
100
AcDbEntity
  8
0
100
AcDbBlockBegin
  2
block 2
 70
     0
 10
0.0
 20
0.0
 30
0.0
  3
block 2
  1

  0
SPLINE
  5
89
330
85
100
AcDbEntity
  8
_U+30EC_U+30A4_U+30E4_U+30FC 1
370
     0
100
AcDbSpline
210
0.0
220
0.0
230
1.0
 70
    11
 71
     3
 72
    26
 73
    22
 74
     0
 42
0.0000000001
 43
0.0000000001
 12
1.0
 22
0.0
 32
0.0
 13
1.0
 23
0.0
 33
0.0
 40
0.0
 40
0.0
 40
0.0
 40
0.0
 40
1.0
 40
1.0
 40
1.0
 40
2.0
 40
2.0
 40
2.0
 40
3.0
 40
3.0
 40
3.0
 40
4.0
 40
4.0
 40
4.0
 40
5.0
 40
5.0
 40
5.0
 40
6.0
 40
6.0
 40
6.0
 40
7.0
 40
7.0
 40
7.0
 40
7.0
 10
77.85950247619485
 20
-138.5868896137908
 30
0.0
 10
77.85950247619485
 20
-138.5868896137908
 30
0.0
 10
77.85950247619485
 20
-137.4827365107682
 30
0.0
 10
77.85950247619485
 20
-137.4827365107682
 30
0.0
 10
77.85950247619485
 20
-137.4827365107682
 30
0.0
 10
77.50672469850527
 20
-137.4827365107682
 30
0.0
 10
77.50672469850527
 20
-137.4827365107682
 30
0.0
 10
77.50672469850527
 20
-137.4827365107682
 30
0.0
 10
77.50672469850527
 20
-137.3345974049025
 30
0.0
 10
77.50672469850527
 20
-137.3345974049025
 30
0.0
 10
77.86174178826026
 20
-137.3197834943159
 30
0.0
 10
77.91152341802213
 20
-137.1568304778636
 30
0.0
 10
77.94304604171217
 20
-137.0424533077533
 30
0.0
 10
77.94304604171217
 20
-137.0424533077533
 30
0.0
 10
78.09910886719398
 20
-137.0424533077533
 30
0.0
 10
78.09910886719398
 20
-137.0424533077533
 30
0.0
 10
78.09910886719398
 20
-137.0424533077533
 30
0.0
 10
78.09910886719398
 20
-138.5868896137908
 30
0.0
 10
78.09910886719398
 20
-138.5868896137908
 30
0.0
 10
78.09910886719398
 20
-138.5868896137908
 30
0.0
 10
77.85950247619485
 20
-138.5868896137908
 30
0.0
 10
77.85950247619485
 20
-138.5868896137908
 30
0.0
  0
HATCH
  5
8A
330
85
100
AcDbEntity
  8
_U+30EC_U+30A4_U+30E4_U+30FC 1
 62
   179
420
  2234388
100
AcDbHatch
 10
0.0
 20
0.0
 30
0.0
210
0.0
220
0.0
230
1.0
  2
SOLID
 70
     1
 71
     0
 91
        1
 92
        1
 93
        1
 72
     4
 94
        3
 73
     0
 74
     1
 95
       26
 96
       22
 40
0.0
 40
0.0
 40
0.0
 40
0.0
 40
1.0
 40
1.0
 40
1.0
 40
2.0
 40
2.0
 40
2.0
 40
3.0
 40
3.0
 40
3.0
 40
4.0
 40
4.0
 40
4.0
 40
5.0
 40
5.0
 40
5.0
 40
6.0
 40
6.0
 40
6.0
 40
7.0
 40
7.0
 40
7.0
 40
7.0
 10
77.85950247619485
 20
-138.5868896137908
 10
77.85950247619485
 20
-138.5868896137908
 10
77.85950247619485
 20
-137.4827365107682
 10
77.85950247619485
 20
-137.4827365107682
 10
77.85950247619485
 20
-137.4827365107682
 10
77.50672469850527
 20
-137.4827365107682
 10
77.50672469850527
 20
-137.4827365107682
 10
77.50672469850527
 20
-137.4827365107682
 10
77.50672469850527
 20
-137.3345974049025
 10
77.50672469850527
 20
-137.3345974049025
 10
77.86174178826026
 20
-137.3197834943159
 10
77.91152341802213
 20
-137.1568304778636
 10
77.94304604171217
 20
-137.0424533077533
 10
77.94304604171217
 20
-137.0424533077533
 10
78.09910886719398
 20
-137.0424533077533
 10
78.09910886719398
 20
-137.0424533077533
 10
78.09910886719398
 20
-137.0424533077533
 10
78.09910886719398
 20
-138.5868896137908
 10
78.09910886719398
 20
-138.5868896137908
 10
78.09910886719398
 20
-138.5868896137908
 10
77.85950247619485
 20
-138.5868896137908
 10
77.85950247619485
 20
-138.5868896137908
 97
        0
 97
        0
 75
     2
 76
     1
 98
        0
  0
SPLINE
  5
8B
330
85
100
AcDbEntity
  8
_U+30EC_U+30A4_U+30E4_U+30FC 1
370
     0
100
AcDbSpline
210
0.0
220
0.0
230
1.0
 70
    11
 71
     3
 72
    44
 73
    40
 74
     0
 42
0.0000000001
 43
0.0000000001
 12
1.0
 22
0.0
 32
0.0
 13
1.0
 23
0.0
 33
0.0
 40
0.0
 40
0.0
 40
0.0
 40
0.0
 40
1.0
 40
1.0
 40
1.0
 40
2.0
 40
2.0
 40
2.0
 40
3.0
 40
3.0
 40
3.0
 40
4.0
 40
4.0
 40
4.0
 40
5.0
 40
5.0
 40
5.0
 40
6.0
 40
6.0
 40
6.0
 40
7.0
 40
7.0
 40
7.0
 40
8.0
 40
8.0
 40
8.0
 40
9.0
 40
9.0
 40
9.0
 40
10.0
 40
10.0
 40
10.0
 40
11.0
 40
11.0
 40
11.0
 40
12.0
 40
12.0
 40
12.0
 40
13.0
 40
13.0
 40
13.0
 40
13.0
 10
79.71864825480992
 20
-138.5868896137908
 30
0.0
 10
79.69384356731612
 20
-138.5424478820311
 30
0.0
 10
79.67110593711348
 20
-138.4897379211068
 30
0.0
 10
79.66886662504807
 20
-138.258916523595
 30
0.0
 10
79.66438800091724
 20
-138.0156927823364
 30
0.0
 10
79.60117049876291
 20
-137.9457573439858
 30
0.0
 10
79.41117348275138
 20
-137.9457573439858
 30
0.0
 10
79.41117348275138
 20
-137.9457573439858
 30
0.0
 10
78.97485213954448
 20
-137.9457573439858
 30
0.0
 10
78.97485213954448
 20
-137.9457573439858
 30
0.0
 10
78.97485213954448
 20
-137.9457573439858
 30
0.0
 10
78.97485213954448
 20
-138.5868896137908
 30
0.0
 10
78.97485213954448
 20
-138.5868896137908
 30
0.0
 10
78.97485213954448
 20
-138.5868896137908
 30
0.0
 10
78.72387693344403
 20
-138.5868896137908
 30
0.0
 10
78.72387693344403
 20
-138.5868896137908
 30
0.0
 10
78.72387693344403
 20
-138.5868896137908
 30
0.0
 10
78.72387693344403
 20
-137.0424533077533
 30
0.0
 10
78.72387693344403
 20
-137.0424533077533
 30
0.0
 10
78.72387693344403
 20
-137.0424533077533
 30
0.0
 10
79.44510767328109
 20
-137.0424533077533
 30
0.0
 10
79.44510767328109
 20
-137.0424533077533
 30
0.0
 10
79.77290850870261
 20
-137.0424533077533
 30
0.0
 10
79.95153670961281
 20
-137.2140190629187
 30
0.0
 10
79.95153670961281
 20
-137.4699896574728
 30
0.0
 10
79.95153670961281
 20
-137.520632561106
 30
0.0
 10
79.94257946135116
 20
-137.603314852752
 30
0.0
 10
79.89503714365472
 20
-137.6835855775583
 30
0.0
 10
79.83164738672612
 20
-137.7872829516643
 30
0.0
 10
79.76171194837555
 20
-137.8062309768332
 30
0.0
 10
79.69608287938154
 20
-137.8231119447109
 30
0.0
 10
79.84301620182744
 20
-137.8654866191795
 30
0.0
 10
79.91536320701769
 20
-137.9140624655215
 30
0.0
 10
79.91984183114852
 20
-138.2292887024219
 30
0.0
 10
79.92432045527934
 20
-138.5000732075625
 30
0.0
 10
79.96290552471415
 20
-138.5317680860268
 30
0.0
 10
80.03525252990438
 20
-138.5868896137908
 30
0.0
 10
80.03525252990438
 20
-138.5868896137908
 30
0.0
 10
79.71864825480992
 20
-138.5868896137908
 30
0.0
 10
79.71864825480992
 20
-138.5868896137908
 30
0.0
  0
SPLINE
  5
8C
330
85
100
AcDbEntity
  8
_U+30EC_U+30A4_U+30E4_U+30FC 1
370
     0
100
AcDbSpline
210
0.0
220
0.0
230
1.0
 70
    11
 71
     3
 72
    20
 73
    16
 74
     0
 42
0.0000000001
 43
0.0000000001
 12
1.0
 22
0.0
 32
0.0
 13
1.0
 23
0.0
 33
0.0
 40
0.0
 40
0.0
 40
0.0
 40
0.0
 40
1.0
 40
1.0
 40
1.0
 40
2.0
 40
2.0
 40
2.0
 40
3.0
 40
3.0
 40
3.0
 40
4.0
 40
4.0
 40
4.0
 40
5.0
 40
5.0
 40
5.0
 40
5.0
 10
79.44958629741191
 20
-137.2539821705476
 30
0.0
 10
79.44958629741191
 20
-137.2539821705476
 30
0.0
 10
78.97485213954448
 20
-137.2539821705476
 30
0.0
 10
78.97485213954448
 20
-137.2539821705476
 30
0.0
 10
78.97485213954448
 20
-137.2539821705476
 30
0.0
 10
78.97485213954448
 20
-137.7342284811915
 30
0.0
 10
78.97485213954448
 20
-137.7342284811915
 30
0.0
 10
78.97485213954448
 20
-137.7342284811915
 30
0.0
 10
79.4473469853465
 20
-137.7342284811915
 30
0.0
 10
79.4473469853465
 20
-137.7342284811915
 30
0.0
 10
79.55362818106646
 20
-137.7342284811915
 30
0.0
 10
79.69832219144695
 20
-137.6580918709674
 30
0.0
 10
79.69832219144695
 20
-137.4868706253505
 30
0.0
 10
79.69832219144695
 20
-137.4086669578354
 30
0.0
 10
79.66214868885183
 20
-137.2539821705476
 30
0.0
 10
79.44958629741191
 20
-137.2539821705476
 30
0.0
  0
HATCH
  5
8D
330
85
100
AcDbEntity
  8
_U+30EC_U+30A4_U+30E4_U+30FC 1
 62
   179
420
  2234388
100
AcDbHatch
 10
0.0
 20
0.0
 30
0.0
210
0.0
220
0.0
230
1.0
  2
SOLID
 70
     1
 71
     0
 91
        2
 92
        1
 93
        1
 72
     4
 94
        3
 73
     0
 74
     1
 95
       44
 96
       40
 40
0.0
 40
0.0
 40
0.0
 40
0.0
 40
1.0
 40
1.0
 40
1.0
 40
2.0
 40
2.0
 40
2.0
 40
3.0
 40
3.0
 40
3.0
 40
4.0
 40
4.0
 40
4.0
 40
5.0
 40
5.0
 40
5.0
 40
6.0
 40
6.0
 40
6.0
 40
7.0
 40
7.0
 40
7.0
 40
8.0
 40
8.0
 40
8.0
 40
9.0
 40
9.0
 40
9.0
 40
10.0
 40
10.0
 40
10.0
 40
11.0
 40
11.0
 40
11.0
 40
12.0
 40
12.0
 40
12.0
 40
13.0
 40
13.0
 40
13.0
 40
13.0
 10
79.71864825480992
 20
-138.5868896137908
 10
79.69384356731612
 20
-138.5424478820311
 10
79.67110593711348
 20
-138.4897379211068
 10
79.66886662504807
 20
-138.258916523595
 10
79.66438800091724
 20
-138.0156927823364
 10
79.60117049876291
 20
-137.9457573439858
 10
79.41117348275138
 20
-137.9457573439858
 10
79.41117348275138
 20
-137.9457573439858
 10
78.97485213954448
 20
-137.9457573439858
 10
78.97485213954448
 20
-137.9457573439858
 10
78.97485213954448
 20
-137.9457573439858
 10
78.97485213954448
 20
-138.5868896137908
 10
78.97485213954448
 20
-138.5868896137908
 10
78.97485213954448
 20
-138.5868896137908
 10
78.72387693344403
 20
-138.5868896137908
 10
78.72387693344403
 20
-138.5868896137908
 10
78.72387693344403
 20
-138.5868896137908
 10
78.72387693344403
 20
-137.0424533077533
 10
78.72387693344403
 20
-137.0424533077533
 10
78.72387693344403
 20
-137.0424533077533
 10
79.44510767328109
 20
-137.0424533077533
 10
79.44510767328109
 20
-137.0424533077533
 10
79.77290850870261
 20
-137.0424533077533
 10
79.95153670961281
 20
-137.2140190629187
 10
79.95153670961281
 20
-137.4699896574728
 10
79.95153670961281
 20
-137.520632561106
 10
79.94257946135116
 20
-137.603314852752
 10
79.89503714365472
 20
-137.6835855775583
 10
79.83164738672612
 20
-137.7872829516643
 10
79.76171194837555
 20
-137.8062309768332
 10
79.69608287938154
 20
-137.8231119447109
 10
79.84301620182744
 20
-137.8654866191795
 10
79.91536320701769
 20
-137.9140624655215
 10
79.91984183114852
 20
-138.2292887024219
 10
79.92432045527934
 20
-138.5000732075625
 10
79.96290552471415
 20
-138.5317680860268
 10
80.03525252990438
 20
-138.5868896137908
 10
80.03525252990438
 20
-138.5868896137908
 10
79.71864825480992
 20
-138.5868896137908
 10
79.71864825480992
 20
-138.5868896137908
 97
        0
 97
        0
 92
        1
 93
        1
 72
     4
 94
        3
 73
     0
 74
     1
 95
       20
 96
       16
 40
0.0
 40
0.0
 40
0.0
 40
0.0
 40
1.0
 40
1.0
 40
1.0
 40
2.0
 40
2.0
 40
2.0
 40
3.0
 40
3.0
 40
3.0
 40
4.0
 40
4.0
 40
4.0
 40
5.0
 40
5.0
 40
5.0
 40
5.0
 10
79.44958629741191
 20
-137.2539821705476
 10
79.44958629741191
 20
-137.2539821705476
 10
78.97485213954448
 20
-137.2539821705476
 10
78.97485213954448
 20
-137.2539821705476
 10
78.97485213954448
 20
-137.2539821705476
 10
78.97485213954448
 20
-137.7342284811915
 10
78.97485213954448
 20
-137.7342284811915
 10
78.97485213954448
 20
-137.7342284811915
 10
79.4473469853465
 20
-137.7342284811915
 10
79.4473469853465
 20
-137.7342284811915
 10
79.55362818106646
 20
-137.7342284811915
 10
79.69832219144695
 20
-137.6580918709674
 10
79.69832219144695
 20
-137.4868706253505
 10
79.69832219144695
 20
-137.4086669578354
 10
79.66214868885183
 20
-137.2539821705476
 10
79.44958629741191
 20
-137.2539821705476
 97
        0
 97
        0
 75
     2
 76
     1
 98
        0
  0
ENDBLK
  5
88
330
85
100
AcDbEntity
  8
0
100
AcDbBlockEnd
  0
BLOCK
  5
9C
330
9A
100
AcDbEntity
  8
0
100
AcDbBlockBegin
  2
block 3
 70
     0
 10
0.0
 20
0.0
 30
0.0
  3
block 3
  1

  0
SPLINE
  5
9E
330
9A
100
AcDbEntity
  8
_U+30EC_U+30A4_U+30E4_U+30FC 1
370
     0
100
AcDbSpline
210
0.0
220
0.0
230
1.0
 70
    11
 71
     3
 72
    26
 73
    22
 74
     0
 42
0.0000000001
 43
0.0000000001
 12
1.0
 22
0.0
 32
0.0
 13
1.0
 23
0.0
 33
0.0
 40
0.0
 40
0.0
 40
0.0
 40
0.0
 40
1.0
 40
1.0
 40
1.0
 40
2.0
 40
2.0
 40
2.0
 40
3.0
 40
3.0
 40
3.0
 40
4.0
 40
4.0
 40
4.0
 40
5.0
 40
5.0
 40
5.0
 40
6.0
 40
6.0
 40
6.0
 40
7.0
 40
7.0
 40
7.0
 40
7.0
 10
94.67673608744194
 20
-118.1371473228963
 30
0.0
 10
94.67673608744194
 20
-118.1371473228963
 30
0.0
 10
94.67673608744194
 20
-117.0328219650994
 30
0.0
 10
94.67673608744194
 20
-117.0328219650994
 30
0.0
 10
94.67673608744194
 20
-117.0328219650994
 30
0.0
 10
94.32430281930087
 20
-117.0328219650994
 30
0.0
 10
94.32430281930087
 20
-117.0328219650994
 30
0.0
 10
94.32430281930087
 20
-117.0328219650994
 30
0.0
 10
94.32430281930087
 20
-116.884855114008
 30
0.0
 10
94.32430281930087
 20
-116.884855114008
 30
0.0
 10
94.6791476542816
 20
-116.8700412034214
 30
0.0
 10
94.7287570292692
 20
-116.7070881869691
 30
0.0
 10
94.7604519077335
 20
-116.592883271633
 30
0.0
 10
94.7604519077335
 20
-116.592883271633
 30
0.0
 10
94.91651473321532
 20
-116.592883271633
 30
0.0
 10
94.91651473321532
 20
-116.592883271633
 30
0.0
 10
94.91651473321532
 20
-116.592883271633
 30
0.0
 10
94.91651473321532
 20
-118.1371473228963
 30
0.0
 10
94.91651473321532
 20
-118.1371473228963
 30
0.0
 10
94.91651473321532
 20
-118.1371473228963
 30
0.0
 10
94.67673608744194
 20
-118.1371473228963
 30
0.0
 10
94.67673608744194
 20
-118.1371473228963
 30
0.0
  0
HATCH
  5
9F
330
9A
100
AcDbEntity
  8
_U+30EC_U+30A4_U+30E4_U+30FC 1
 62
   179
420
  2234388
100
AcDbHatch
 10
0.0
 20
0.0
 30
0.0
210
0.0
220
0.0
230
1.0
  2
SOLID
 70
     1
 71
     0
 91
        1
 92
        1
 93
        1
 72
     4
 94
        3
 73
     0
 74
     1
 95
       26
 96
       22
 40
0.0
 40
0.0
 40
0.0
 40
0.0
 40
1.0
 40
1.0
 40
1.0
 40
2.0
 40
2.0
 40
2.0
 40
3.0
 40
3.0
 40
3.0
 40
4.0
 40
4.0
 40
4.0
 40
5.0
 40
5.0
 40
5.0
 40
6.0
 40
6.0
 40
6.0
 40
7.0
 40
7.0
 40
7.0
 40
7.0
 10
94.67673608744194
 20
-118.1371473228963
 10
94.67673608744194
 20
-118.1371473228963
 10
94.67673608744194
 20
-117.0328219650994
 10
94.67673608744194
 20
-117.0328219650994
 10
94.67673608744194
 20
-117.0328219650994
 10
94.32430281930087
 20
-117.0328219650994
 10
94.32430281930087
 20
-117.0328219650994
 10
94.32430281930087
 20
-117.0328219650994
 10
94.32430281930087
 20
-116.884855114008
 10
94.32430281930087
 20
-116.884855114008
 10
94.6791476542816
 20
-116.8700412034214
 10
94.7287570292692
 20
-116.7070881869691
 10
94.7604519077335
 20
-116.592883271633
 10
94.7604519077335
 20
-116.592883271633
 10
94.91651473321532
 20
-116.592883271633
 10
94.91651473321532
 20
-116.592883271633
 10
94.91651473321532
 20
-116.592883271633
 10
94.91651473321532
 20
-118.1371473228963
 10
94.91651473321532
 20
-118.1371473228963
 10
94.91651473321532
 20
-118.1371473228963
 10
94.67673608744194
 20
-118.1371473228963
 10
94.67673608744194
 20
-118.1371473228963
 97
        0
 97
        0
 75
     2
 76
     1
 98
        0
  0
SPLINE
  5
A0
330
9A
100
AcDbEntity
  8
_U+30EC_U+30A4_U+30E4_U+30FC 1
370
     0
100
AcDbSpline
210
0.0
220
0.0
230
1.0
 70
    11
 71
     3
 72
    29
 73
    25
 74
     0
 42
0.0000000001
 43
0.0000000001
 12
1.0
 22
0.0
 32
0.0
 13
1.0
 23
0.0
 33
0.0
 40
0.0
 40
0.0
 40
0.0
 40
0.0
 40
1.0
 40
1.0
 40
1.0
 40
2.0
 40
2.0
 40
2.0
 40
3.0
 40
3.0
 40
3.0
 40
4.0
 40
4.0
 40
4.0
 40
5.0
 40
5.0
 40
5.0
 40
6.0
 40
6.0
 40
6.0
 40
7.0
 40
7.0
 40
7.0
 40
8.0
 40
8.0
 40
8.0
 40
8.0
 10
95.98656139093391
 20
-118.1877902265294
 30
0.0
 10
95.70165199430376
 20
-118.1877902265294
 30
0.0
 10
95.4305229796146
 20
-118.050330916668
 30
0.0
 10
95.4305229796146
 20
-117.7013427440122
 30
0.0
 10
95.4305229796146
 20
-117.4453721494581
 30
0.0
 10
95.5821071809656
 20
-117.3501152592909
 30
0.0
 10
95.69510631288178
 20
-117.2887925596535
 30
0.0
 10
95.56178111760262
 20
-117.2295369173072
 30
0.0
 10
95.48013235460219
 20
-117.1153320019712
 30
0.0
 10
95.48013235460219
 20
-116.9546182975843
 30
0.0
 10
95.48013235460219
 20
-116.6795274230871
 30
0.0
 10
95.69269474604211
 20
-116.5441351705168
 30
0.0
 10
95.98656139093391
 20
-116.5441351705168
 30
0.0
 10
96.2897297936359
 20
-116.5441351705168
 30
0.0
 10
96.49299042726564
 20
-116.6879679070259
 30
0.0
 10
96.49299042726564
 20
-116.9546182975843
 30
0.0
 10
96.49299042726564
 20
-117.1153320019712
 30
0.0
 10
96.4096191165226
 20
-117.2295369173072
 30
0.0
 10
96.27594941169491
 20
-117.2887925596535
 30
0.0
 10
96.3710340470878
 20
-117.3396077180609
 30
0.0
 10
96.54053274496209
 20
-117.4348646082281
 30
0.0
 10
96.54053274496209
 20
-117.6972086294299
 30
0.0
 10
96.54053274496209
 20
-118.0716905086765
 30
0.0
 10
96.24218747593946
 20
-118.1877902265294
 30
0.0
 10
95.98656139093391
 20
-118.1877902265294
 30
0.0
  0
SPLINE
  5
A1
330
9A
100
AcDbEntity
  8
_U+30EC_U+30A4_U+30E4_U+30FC 1
370
     0
100
AcDbSpline
210
0.0
220
0.0
230
1.0
 70
    11
 71
     3
 72
    17
 73
    13
 74
     0
 42
0.0000000001
 43
0.0000000001
 12
1.0
 22
0.0
 32
0.0
 13
1.0
 23
0.0
 33
0.0
 40
0.0
 40
0.0
 40
0.0
 40
0.0
 40
1.0
 40
1.0
 40
1.0
 40
2.0
 40
2.0
 40
2.0
 40
3.0
 40
3.0
 40
3.0
 40
4.0
 40
4.0
 40
4.0
 40
4.0
 10
95.98656139093391
 20
-117.3967963031161
 30
0.0
 10
95.83291013229177
 20
-117.3967963031161
 30
0.0
 10
95.67030162538798
 20
-117.4834404545701
 30
0.0
 10
95.67030162538798
 20
-117.6865288334256
 30
0.0
 10
95.67030162538798
 20
-117.8918565243465
 30
0.0
 10
95.8056938779583
 20
-117.9931423316128
 30
0.0
 10
95.98656139093391
 20
-117.9931423316128
 30
0.0
 10
96.18568790998135
 20
-117.9931423316128
 30
0.0
 10
96.30316566602838
 20
-117.8704969323379
 30
0.0
 10
96.30316566602838
 20
-117.6929022600733
 30
0.0
 10
96.30316566602838
 20
-117.4706936012747
 30
0.0
 10
96.12918834402326
 20
-117.3967963031161
 30
0.0
 10
95.98656139093391
 20
-117.3967963031161
 30
0.0
  0
SPLINE
  5
A2
330
9A
100
AcDbEntity
  8
_U+30EC_U+30A4_U+30E4_U+30FC 1
370
     0
100
AcDbSpline
210
0.0
220
0.0
230
1.0
 70
    11
 71
     3
 72
    17
 73
    13
 74
     0
 42
0.0000000001
 43
0.0000000001
 12
1.0
 22
0.0
 32
0.0
 13
1.0
 23
0.0
 33
0.0
 40
0.0
 40
0.0
 40
0.0
 40
0.0
 40
1.0
 40
1.0
 40
1.0
 40
2.0
 40
2.0
 40
2.0
 40
3.0
 40
3.0
 40
3.0
 40
4.0
 40
4.0
 40
4.0
 40
4.0
 10
95.98656139093391
 20
-116.7367160081422
 30
0.0
 10
95.81051701163766
 20
-116.7367160081422
 30
0.0
 10
95.71991100037559
 20
-116.8318006435351
 30
0.0
 10
95.71991100037559
 20
-116.9671928961054
 30
0.0
 10
95.71991100037559
 20
-117.0900105501546
 30
0.0
 10
95.79673662969665
 20
-117.2085218348472
 30
0.0
 10
95.98656139093391
 20
-117.2085218348472
 30
0.0
 10
96.17673066171972
 20
-117.2085218348472
 30
0.0
 10
96.25355629104078
 20
-117.0900105501546
 30
0.0
 10
96.25355629104078
 20
-116.9671928961054
 30
0.0
 10
96.25355629104078
 20
-116.8318006435351
 30
0.0
 10
96.16088322248756
 20
-116.7367160081422
 30
0.0
 10
95.98656139093391
 20
-116.7367160081422
 30
0.0
  0
HATCH
  5
A3
330
9A
100
AcDbEntity
  8
_U+30EC_U+30A4_U+30E4_U+30FC 1
 62
   179
420
  2234388
100
AcDbHatch
 10
0.0
 20
0.0
 30
0.0
210
0.0
220
0.0
230
1.0
  2
SOLID
 70
     1
 71
     0
 91
        3
 92
        1
 93
        1
 72
     4
 94
        3
 73
     0
 74
     1
 95
       29
 96
       25
 40
0.0
 40
0.0
 40
0.0
 40
0.0
 40
1.0
 40
1.0
 40
1.0
 40
2.0
 40
2.0
 40
2.0
 40
3.0
 40
3.0
 40
3.0
 40
4.0
 40
4.0
 40
4.0
 40
5.0
 40
5.0
 40
5.0
 40
6.0
 40
6.0
 40
6.0
 40
7.0
 40
7.0
 40
7.0
 40
8.0
 40
8.0
 40
8.0
 40
8.0
 10
95.98656139093391
 20
-118.1877902265294
 10
95.70165199430376
 20
-118.1877902265294
 10
95.4305229796146
 20
-118.050330916668
 10
95.4305229796146
 20
-117.7013427440122
 10
95.4305229796146
 20
-117.4453721494581
 10
95.5821071809656
 20
-117.3501152592909
 10
95.69510631288178
 20
-117.2887925596535
 10
95.56178111760262
 20
-117.2295369173072
 10
95.48013235460219
 20
-117.1153320019712
 10
95.48013235460219
 20
-116.9546182975843
 10
95.48013235460219
 20
-116.6795274230871
 10
95.69269474604211
 20
-116.5441351705168
 10
95.98656139093391
 20
-116.5441351705168
 10
96.2897297936359
 20
-116.5441351705168
 10
96.49299042726564
 20
-116.6879679070259
 10
96.49299042726564
 20
-116.9546182975843
 10
96.49299042726564
 20
-117.1153320019712
 10
96.4096191165226
 20
-117.2295369173072
 10
96.27594941169491
 20
-117.2887925596535
 10
96.3710340470878
 20
-117.3396077180609
 10
96.54053274496209
 20
-117.4348646082281
 10
96.54053274496209
 20
-117.6972086294299
 10
96.54053274496209
 20
-118.0716905086765
 10
96.24218747593946
 20
-118.1877902265294
 10
95.98656139093391
 20
-118.1877902265294
 97
        0
 97
        0
 92
        1
 93
        1
 72
     4
 94
        3
 73
     0
 74
     1
 95
       17
 96
       13
 40
0.0
 40
0.0
 40
0.0
 40
0.0
 40
1.0
 40
1.0
 40
1.0
 40
2.0
 40
2.0
 40
2.0
 40
3.0
 40
3.0
 40
3.0
 40
4.0
 40
4.0
 40
4.0
 40
4.0
 10
95.98656139093391
 20
-117.3967963031161
 10
95.83291013229177
 20
-117.3967963031161
 10
95.67030162538798
 20
-117.4834404545701
 10
95.67030162538798
 20
-117.6865288334256
 10
95.67030162538798
 20
-117.8918565243465
 10
95.8056938779583
 20
-117.9931423316128
 10
95.98656139093391
 20
-117.9931423316128
 10
96.18568790998135
 20
-117.9931423316128
 10
96.30316566602838
 20
-117.8704969323379
 10
96.30316566602838
 20
-117.6929022600733
 10
96.30316566602838
 20
-117.4706936012747
 10
96.12918834402326
 20
-117.3967963031161
 10
95.98656139093391
 20
-117.3967963031161
 97
        0
 97
        0
 92
        1
 93
        1
 72
     4
 94
        3
 73
     0
 74
     1
 95
       17
 96
       13
 40
0.0
 40
0.0
 40
0.0
 40
0.0
 40
1.0
 40
1.0
 40
1.0
 40
2.0
 40
2.0
 40
2.0
 40
3.0
 40
3.0
 40
3.0
 40
4.0
 40
4.0
 40
4.0
 40
4.0
 10
95.98656139093391
 20
-116.7367160081422
 10
95.81051701163766
 20
-116.7367160081422
 10
95.71991100037559
 20
-116.8318006435351
 10
95.71991100037559
 20
-116.9671928961054
 10
95.71991100037559
 20
-117.0900105501546
 10
95.79673662969665
 20
-117.2085218348472
 10
95.98656139093391
 20
-117.2085218348472
 10
96.17673066171972
 20
-117.2085218348472
 10
96.25355629104078
 20
-117.0900105501546
 10
96.25355629104078
 20
-116.9671928961054
 10
96.25355629104078
 20
-116.8318006435351
 10
96.16088322248756
 20
-116.7367160081422
 10
95.98656139093391
 20
-116.7367160081422
 97
        0
 97
        0
 75
     2
 76
     1
 98
        0
  0
ENDBLK
  5
9D
330
9A
100
AcDbEntity
  8
0
100
AcDbBlockEnd
  0
BLOCK
  5
AE
330
AC
100
AcDbEntity
  8
0
100
AcDbBlockBegin
  2
block 4
 70
     0
 10
0.0
 20
0.0
 30
0.0
  3
block 4
  1

  0
SPLINE
  5
B0
330
AC
100
AcDbEntity
  8
_U+30EC_U+30A4_U+30E4_U+30FC 1
370
     0
100
AcDbSpline
210
0.0
220
0.0
230
1.0
 70
    11
 71
     3
 72
    26
 73
    22
 74
     0
 42
0.0000000001
 43
0.0000000001
 12
1.0
 22
0.0
 32
0.0
 13
1.0
 23
0.0
 33
0.0
 40
0.0
 40
0.0
 40
0.0
 40
0.0
 40
1.0
 40
1.0
 40
1.0
 40
2.0
 40
2.0
 40
2.0
 40
3.0
 40
3.0
 40
3.0
 40
4.0
 40
4.0
 40
4.0
 40
5.0
 40
5.0
 40
5.0
 40
6.0
 40
6.0
 40
6.0
 40
7.0
 40
7.0
 40
7.0
 40
7.0
 10
87.57932262350448
 20
-124.6371812296914
 30
0.0
 10
87.57932262350448
 20
-124.6371812296914
 30
0.0
 10
87.57932262350448
 20
-123.5328558718946
 30
0.0
 10
87.57932262350448
 20
-123.5328558718946
 30
0.0
 10
87.57932262350448
 20
-123.5328558718946
 30
0.0
 10
87.2265448458149
 20
-123.5328558718946
 30
0.0
 10
87.2265448458149
 20
-123.5328558718946
 30
0.0
 10
87.2265448458149
 20
-123.5328558718946
 30
0.0
 10
87.2265448458149
 20
-123.3847167660288
 30
0.0
 10
87.2265448458149
 20
-123.3847167660288
 30
0.0
 10
87.5815619355699
 20
-123.3700751102165
 30
0.0
 10
87.63134356533175
 20
-123.2071220937642
 30
0.0
 10
87.66286618902178
 20
-123.0929171784282
 30
0.0
 10
87.66286618902178
 20
-123.0929171784282
 30
0.0
 10
87.81892901450361
 20
-123.0929171784282
 30
0.0
 10
87.81892901450361
 20
-123.0929171784282
 30
0.0
 10
87.81892901450361
 20
-123.0929171784282
 30
0.0
 10
87.81892901450361
 20
-124.6371812296914
 30
0.0
 10
87.81892901450361
 20
-124.6371812296914
 30
0.0
 10
87.81892901450361
 20
-124.6371812296914
 30
0.0
 10
87.57932262350448
 20
-124.6371812296914
 30
0.0
 10
87.57932262350448
 20
-124.6371812296914
 30
0.0
  0
HATCH
  5
B1
330
AC
100
AcDbEntity
  8
_U+30EC_U+30A4_U+30E4_U+30FC 1
 62
   179
420
  2234388
100
AcDbHatch
 10
0.0
 20
0.0
 30
0.0
210
0.0
220
0.0
230
1.0
  2
SOLID
 70
     1
 71
     0
 91
        1
 92
        1
 93
        1
 72
     4
 94
        3
 73
     0
 74
     1
 95
       26
 96
       22
 40
0.0
 40
0.0
 40
0.0
 40
0.0
 40
1.0
 40
1.0
 40
1.0
 40
2.0
 40
2.0
 40
2.0
 40
3.0
 40
3.0
 40
3.0
 40
4.0
 40
4.0
 40
4.0
 40
5.0
 40
5.0
 40
5.0
 40
6.0
 40
6.0
 40
6.0
 40
7.0
 40
7.0
 40
7.0
 40
7.0
 10
87.57932262350448
 20
-124.6371812296914
 10
87.57932262350448
 20
-124.6371812296914
 10
87.57932262350448
 20
-123.5328558718946
 10
87.57932262350448
 20
-123.5328558718946
 10
87.57932262350448
 20
-123.5328558718946
 10
87.2265448458149
 20
-123.5328558718946
 10
87.2265448458149
 20
-123.5328558718946
 10
87.2265448458149
 20
-123.5328558718946
 10
87.2265448458149
 20
-123.3847167660288
 10
87.2265448458149
 20
-123.3847167660288
 10
87.5815619355699
 20
-123.3700751102165
 10
87.63134356533175
 20
-123.2071220937642
 10
87.66286618902178
 20
-123.0929171784282
 10
87.66286618902178
 20
-123.0929171784282
 10
87.81892901450361
 20
-123.0929171784282
 10
87.81892901450361
 20
-123.0929171784282
 10
87.81892901450361
 20
-123.0929171784282
 10
87.81892901450361
 20
-124.6371812296914
 10
87.81892901450361
 20
-124.6371812296914
 10
87.81892901450361
 20
-124.6371812296914
 10
87.57932262350448
 20
-124.6371812296914
 10
87.57932262350448
 20
-124.6371812296914
 97
        0
 97
        0
 75
     2
 76
     1
 98
        0
  0
ENDBLK
  5
AF
330
AC
100
AcDbEntity
  8
0
100
AcDbBlockEnd
  0
BLOCK
  5
C0
330
BE
100
AcDbEntity
  8
0
100
AcDbBlockBegin
  2
block 5
 70
     0
 10
0.0
 20
0.0
 30
0.0
  3
block 5
  1

  0
SPLINE
  5
C2
330
BE
100
AcDbEntity
  8
_U+30EC_U+30A4_U+30E4_U+30FC 1
370
     0
100
AcDbSpline
210
0.0
220
0.0
230
1.0
 70
    11
 71
     3
 72
    26
 73
    22
 74
     0
 42
0.0000000001
 43
0.0000000001
 12
1.0
 22
0.0
 32
0.0
 13
1.0
 23
0.0
 33
0.0
 40
0.0
 40
0.0
 40
0.0
 40
0.0
 40
1.0
 40
1.0
 40
1.0
 40
2.0
 40
2.0
 40
2.0
 40
3.0
 40
3.0
 40
3.0
 40
4.0
 40
4.0
 40
4.0
 40
5.0
 40
5.0
 40
5.0
 40
6.0
 40
6.0
 40
6.0
 40
7.0
 40
7.0
 40
7.0
 40
7.0
 10
80.75596650541866
 20
-129.909727615092
 30
0.0
 10
80.75596650541866
 20
-129.909727615092
 30
0.0
 10
79.65164114762182
 20
-129.909727615092
 30
0.0
 10
79.65164114762182
 20
-129.909727615092
 30
0.0
 10
79.65164114762182
 20
-129.909727615092
 30
0.0
 10
79.65164114762182
 20
-130.2621608832331
 30
0.0
 10
79.65164114762182
 20
-130.2621608832331
 30
0.0
 10
79.65164114762182
 20
-130.2621608832331
 30
0.0
 10
79.50350204175608
 20
-130.2621608832331
 30
0.0
 10
79.50350204175608
 20
-130.2621608832331
 30
0.0
 10
79.48886038594377
 20
-129.9073160482523
 30
0.0
 10
79.32590736949145
 20
-129.8577066732647
 30
0.0
 10
79.21170245415541
 20
-129.8260117948005
 30
0.0
 10
79.21170245415541
 20
-129.8260117948005
 30
0.0
 10
79.21170245415541
 20
-129.6699489693186
 30
0.0
 10
79.21170245415541
 20
-129.6699489693186
 30
0.0
 10
79.21170245415541
 20
-129.6699489693186
 30
0.0
 10
80.75596650541866
 20
-129.6699489693186
 30
0.0
 10
80.75596650541866
 20
-129.6699489693186
 30
0.0
 10
80.75596650541866
 20
-129.6699489693186
 30
0.0
 10
80.75596650541866
 20
-129.909727615092
 30
0.0
 10
80.75596650541866
 20
-129.909727615092
 30
0.0
  0
HATCH
  5
C3
330
BE
100
AcDbEntity
  8
_U+30EC_U+30A4_U+30E4_U+30FC 1
 62
   179
420
  2234388
100
AcDbHatch
 10
0.0
 20
0.0
 30
0.0
210
0.0
220
0.0
230
1.0
  2
SOLID
 70
     1
 71
     0
 91
        1
 92
        1
 93
        1
 72
     4
 94
        3
 73
     0
 74
     1
 95
       26
 96
       22
 40
0.0
 40
0.0
 40
0.0
 40
0.0
 40
1.0
 40
1.0
 40
1.0
 40
2.0
 40
2.0
 40
2.0
 40
3.0
 40
3.0
 40
3.0
 40
4.0
 40
4.0
 40
4.0
 40
5.0
 40
5.0
 40
5.0
 40
6.0
 40
6.0
 40
6.0
 40
7.0
 40
7.0
 40
7.0
 40
7.0
 10
80.75596650541866
 20
-129.909727615092
 10
80.75596650541866
 20
-129.909727615092
 10
79.65164114762182
 20
-129.909727615092
 10
79.65164114762182
 20
-129.909727615092
 10
79.65164114762182
 20
-129.909727615092
 10
79.65164114762182
 20
-130.2621608832331
 10
79.65164114762182
 20
-130.2621608832331
 10
79.65164114762182
 20
-130.2621608832331
 10
79.50350204175608
 20
-130.2621608832331
 10
79.50350204175608
 20
-130.2621608832331
 10
79.48886038594377
 20
-129.9073160482523
 10
79.32590736949145
 20
-129.8577066732647
 10
79.21170245415541
 20
-129.8260117948005
 10
79.21170245415541
 20
-129.8260117948005
 10
79.21170245415541
 20
-129.6699489693186
 10
79.21170245415541
 20
-129.6699489693186
 10
79.21170245415541
 20
-129.6699489693186
 10
80.75596650541866
 20
-129.6699489693186
 10
80.75596650541866
 20
-129.6699489693186
 10
80.75596650541866
 20
-129.6699489693186
 10
80.75596650541866
 20
-129.909727615092
 10
80.75596650541866
 20
-129.909727615092
 97
        0
 97
        0
 75
     2
 76
     1
 98
        0
  0
SPLINE
  5
C4
330
BE
100
AcDbEntity
  8
_U+30EC_U+30A4_U+30E4_U+30FC 1
370
     0
100
AcDbSpline
210
0.0
220
0.0
230
1.0
 70
    11
 71
     3
 72
    62
 73
    58
 74
     0
 42
0.0000000001
 43
0.0000000001
 12
1.0
 22
0.0
 32
0.0
 13
1.0
 23
0.0
 33
0.0
 40
0.0
 40
0.0
 40
0.0
 40
0.0
 40
1.0
 40
1.0
 40
1.0
 40
2.0
 40
2.0
 40
2.0
 40
3.0
 40
3.0
 40
3.0
 40
4.0
 40
4.0
 40
4.0
 40
5.0
 40
5.0
 40
5.0
 40
6.0
 40
6.0
 40
6.0
 40
7.0
 40
7.0
 40
7.0
 40
8.0
 40
8.0
 40
8.0
 40
9.0
 40
9.0
 40
9.0
 40
10.0
 40
10.0
 40
10.0
 40
11.0
 40
11.0
 40
11.0
 40
12.0
 40
12.0
 40
12.0
 40
13.0
 40
13.0
 40
13.0
 40
14.0
 40
14.0
 40
14.0
 40
15.0
 40
15.0
 40
15.0
 40
16.0
 40
16.0
 40
16.0
 40
17.0
 40
17.0
 40
17.0
 40
18.0
 40
18.0
 40
18.0
 40
19.0
 40
19.0
 40
19.0
 40
19.0
 10
80.80678166382609
 20
-128.6088595598617
 30
0.0
 10
80.80678166382609
 20
-128.7104898766765
 30
0.0
 10
80.7855943265918
 20
-128.9433783314794
 30
0.0
 10
80.59938691561405
 20
-129.0767035267586
 30
0.0
 10
80.48724905756916
 20
-129.1559407229194
 30
0.0
 10
80.38785805281971
 20
-129.1604193470502
 30
0.0
 10
80.30328095865683
 20
-129.164897971181
 30
0.0
 10
80.30328095865683
 20
-129.164897971181
 30
0.0
 10
80.30328095865683
 20
-128.929942459087
 30
0.0
 10
80.30328095865683
 20
-128.929942459087
 30
0.0
 10
80.3773505115897
 20
-128.9275308922473
 30
0.0
 10
80.61213376890947
 20
-128.916162077146
 30
0.0
 10
80.61213376890947
 20
-128.6133381839925
 30
0.0
 10
80.61213376890947
 20
-128.4662326067723
 30
0.0
 10
80.54237058533316
 20
-128.3036240998686
 30
0.0
 10
80.31378849988684
 20
-128.3036240998686
 30
0.0
 10
80.19751652725965
 20
-128.3036240998686
 30
0.0
 10
80.14876842614336
 20
-128.3442762265945
 30
0.0
 10
80.11707354767907
 20
-128.3783826718985
 30
0.0
 10
80.0430039947462
 20
-128.4572753585107
 30
0.0
 10
80.03042939622503
 20
-128.5816433055282
 30
0.0
 10
80.03042939622503
 20
-128.640554438326
 30
0.0
 10
80.03042939622503
 20
-128.660880501689
 30
0.0
 10
80.03249645351619
 20
-128.6991210615752
 30
0.0
 10
80.03663056809849
 20
-128.7287488827484
 30
0.0
 10
80.03663056809849
 20
-128.7287488827484
 30
0.0
 10
79.84215492795613
 20
-128.7287488827484
 30
0.0
 10
79.84215492795613
 20
-128.7287488827484
 30
0.0
 10
79.84835609982959
 20
-128.6880967560224
 30
0.0
 10
79.850595411895
 20
-128.6426214956171
 30
0.0
 10
79.850595411895
 20
-128.6360758141952
 30
0.0
 10
79.850595411895
 20
-128.5657958662961
 30
0.0
 10
79.8294080746607
 20
-128.3532334748562
 30
0.0
 10
79.59238550527552
 20
-128.3532334748562
 30
0.0
 10
79.41479083301088
 20
-128.3532334748562
 30
0.0
 10
79.3596693052469
 20
-128.4934488611058
 30
0.0
 10
79.3596693052469
 20
-128.6109266171528
 30
0.0
 10
79.3596693052469
 20
-128.8937689564918
 30
0.0
 10
79.59238550527552
 20
-128.9027262047535
 30
0.0
 10
79.66438800091724
 20
-128.9072048288843
 30
0.0
 10
79.66438800091724
 20
-128.9072048288843
 30
0.0
 10
79.66438800091724
 20
-129.1242458444551
 30
0.0
 10
79.66438800091724
 20
-129.1242458444551
 30
0.0
 10
79.53950328957693
 20
-129.1152885961934
 30
0.0
 10
79.16295435303913
 20
-129.0860052845688
 30
0.0
 10
79.16295435303913
 20
-128.5974907447604
 30
0.0
 10
79.16295435303913
 20
-128.357712098987
 30
0.0
 10
79.28990612167058
 20
-128.1000189566903
 30
0.0
 10
79.5860120786278
 20
-128.1000189566903
 30
0.0
 10
79.77221948960556
 20
-128.1000189566903
 30
0.0
 10
79.8547295264773
 20
-128.2019937830537
 30
0.0
 10
79.91605222611474
 20
-128.3081027239994
 30
0.0
 10
79.94361298999674
 20
-128.2426459097796
 30
0.0
 10
80.02405596957732
 20
-128.047998014863
 30
0.0
 10
80.30121390136567
 20
-128.047998014863
 30
0.0
 10
80.63969453279147
 20
-128.047998014863
 30
0.0
 10
80.80678166382609
 20
-128.3125813481302
 30
0.0
 10
80.80678166382609
 20
-128.6088595598617
 30
0.0
  0
HATCH
  5
C5
330
BE
100
AcDbEntity
  8
_U+30EC_U+30A4_U+30E4_U+30FC 1
 62
   179
420
  2234388
100
AcDbHatch
 10
0.0
 20
0.0
 30
0.0
210
0.0
220
0.0
230
1.0
  2
SOLID
 70
     1
 71
     0
 91
        1
 92
        1
 93
        1
 72
     4
 94
        3
 73
     0
 74
     1
 95
       62
 96
       58
 40
0.0
 40
0.0
 40
0.0
 40
0.0
 40
1.0
 40
1.0
 40
1.0
 40
2.0
 40
2.0
 40
2.0
 40
3.0
 40
3.0
 40
3.0
 40
4.0
 40
4.0
 40
4.0
 40
5.0
 40
5.0
 40
5.0
 40
6.0
 40
6.0
 40
6.0
 40
7.0
 40
7.0
 40
7.0
 40
8.0
 40
8.0
 40
8.0
 40
9.0
 40
9.0
 40
9.0
 40
10.0
 40
10.0
 40
10.0
 40
11.0
 40
11.0
 40
11.0
 40
12.0
 40
12.0
 40
12.0
 40
13.0
 40
13.0
 40
13.0
 40
14.0
 40
14.0
 40
14.0
 40
15.0
 40
15.0
 40
15.0
 40
16.0
 40
16.0
 40
16.0
 40
17.0
 40
17.0
 40
17.0
 40
18.0
 40
18.0
 40
18.0
 40
19.0
 40
19.0
 40
19.0
 40
19.0
 10
80.80678166382609
 20
-128.6088595598617
 10
80.80678166382609
 20
-128.7104898766765
 10
80.7855943265918
 20
-128.9433783314794
 10
80.59938691561405
 20
-129.0767035267586
 10
80.48724905756916
 20
-129.1559407229194
 10
80.38785805281971
 20
-129.1604193470502
 10
80.30328095865683
 20
-129.164897971181
 10
80.30328095865683
 20
-129.164897971181
 10
80.30328095865683
 20
-128.929942459087
 10
80.30328095865683
 20
-128.929942459087
 10
80.3773505115897
 20
-128.9275308922473
 10
80.61213376890947
 20
-128.916162077146
 10
80.61213376890947
 20
-128.6133381839925
 10
80.61213376890947
 20
-128.4662326067723
 10
80.54237058533316
 20
-128.3036240998686
 10
80.31378849988684
 20
-128.3036240998686
 10
80.19751652725965
 20
-128.3036240998686
 10
80.14876842614336
 20
-128.3442762265945
 10
80.11707354767907
 20
-128.3783826718985
 10
80.0430039947462
 20
-128.4572753585107
 10
80.03042939622503
 20
-128.5816433055282
 10
80.03042939622503
 20
-128.640554438326
 10
80.03042939622503
 20
-128.660880501689
 10
80.03249645351619
 20
-128.6991210615752
 10
80.03663056809849
 20
-128.7287488827484
 10
80.03663056809849
 20
-128.7287488827484
 10
79.84215492795613
 20
-128.7287488827484
 10
79.84215492795613
 20
-128.7287488827484
 10
79.84835609982959
 20
-128.6880967560224
 10
79.850595411895
 20
-128.6426214956171
 10
79.850595411895
 20
-128.6360758141952
 10
79.850595411895
 20
-128.5657958662961
 10
79.8294080746607
 20
-128.3532334748562
 10
79.59238550527552
 20
-128.3532334748562
 10
79.41479083301088
 20
-128.3532334748562
 10
79.3596693052469
 20
-128.4934488611058
 10
79.3596693052469
 20
-128.6109266171528
 10
79.3596693052469
 20
-128.8937689564918
 10
79.59238550527552
 20
-128.9027262047535
 10
79.66438800091724
 20
-128.9072048288843
 10
79.66438800091724
 20
-128.9072048288843
 10
79.66438800091724
 20
-129.1242458444551
 10
79.66438800091724
 20
-129.1242458444551
 10
79.53950328957693
 20
-129.1152885961934
 10
79.16295435303913
 20
-129.0860052845688
 10
79.16295435303913
 20
-128.5974907447604
 10
79.16295435303913
 20
-128.357712098987
 10
79.28990612167058
 20
-128.1000189566903
 10
79.5860120786278
 20
-128.1000189566903
 10
79.77221948960556
 20
-128.1000189566903
 10
79.8547295264773
 20
-128.2019937830537
 10
79.91605222611474
 20
-128.3081027239994
 10
79.94361298999674
 20
-128.2426459097796
 10
80.02405596957732
 20
-128.047998014863
 10
80.30121390136567
 20
-128.047998014863
 10
80.63969453279147
 20
-128.047998014863
 10
80.80678166382609
 20
-128.3125813481302
 10
80.80678166382609
 20
-128.6088595598617
 97
        0
 97
        0
 75
     2
 76
     1
 98
        0
  0
ENDBLK
  5
C1
330
BE
100
AcDbEntity
  8
0
100
AcDbBlockEnd
  0
BLOCK
  5
D4
330
D2
100
AcDbEntity
  8
0
100
AcDbBlockBegin
  2
block 6
 70
     0
 10
0.0
 20
0.0
 30
0.0
  3
block 6
  1

  0
SPLINE
  5
D6
330
D2
100
AcDbEntity
  8
_U+30EC_U+30A4_U+30E4_U+30FC 1
370
     0
100
AcDbSpline
210
0.0
220
0.0
230
1.0
 70
    11
 71
     3
 72
    26
 73
    22
 74
     0
 42
0.0000000001
 43
0.0000000001
 12
1.0
 22
0.0
 32
0.0
 13
1.0
 23
0.0
 33
0.0
 40
0.0
 40
0.0
 40
0.0
 40
0.0
 40
1.0
 40
1.0
 40
1.0
 40
2.0
 40
2.0
 40
2.0
 40
3.0
 40
3.0
 40
3.0
 40
4.0
 40
4.0
 40
4.0
 40
5.0
 40
5.0
 40
5.0
 40
6.0
 40
6.0
 40
6.0
 40
7.0
 40
7.0
 40
7.0
 40
7.0
 10
91.17617456487957
 20
-139.1370713627852
 30
0.0
 10
91.17617456487957
 20
-139.1370713627852
 30
0.0
 10
91.17617456487957
 20
-138.0329182597626
 30
0.0
 10
91.17617456487957
 20
-138.0329182597626
 30
0.0
 10
91.17617456487957
 20
-138.0329182597626
 30
0.0
 10
90.82374129673852
 20
-138.0329182597626
 30
0.0
 10
90.82374129673852
 20
-138.0329182597626
 30
0.0
 10
90.82374129673852
 20
-138.0329182597626
 30
0.0
 10
90.82374129673852
 20
-137.8847791538969
 30
0.0
 10
90.82374129673852
 20
-137.8847791538969
 30
0.0
 10
91.17858613171924
 20
-137.8699652433103
 30
0.0
 10
91.22819550670684
 20
-137.707012226858
 30
0.0
 10
91.25989038517115
 20
-137.5926350567477
 30
0.0
 10
91.25989038517115
 20
-137.5926350567477
 30
0.0
 10
91.41595321065296
 20
-137.5926350567477
 30
0.0
 10
91.41595321065296
 20
-137.5926350567477
 30
0.0
 10
91.41595321065296
 20
-137.5926350567477
 30
0.0
 10
91.41595321065296
 20
-139.1370713627852
 30
0.0
 10
91.41595321065296
 20
-139.1370713627852
 30
0.0
 10
91.41595321065296
 20
-139.1370713627852
 30
0.0
 10
91.17617456487957
 20
-139.1370713627852
 30
0.0
 10
91.17617456487957
 20
-139.1370713627852
 30
0.0
  0
HATCH
  5
D7
330
D2
100
AcDbEntity
  8
_U+30EC_U+30A4_U+30E4_U+30FC 1
 62
   179
420
  2234388
100
AcDbHatch
 10
0.0
 20
0.0
 30
0.0
210
0.0
220
0.0
230
1.0
  2
SOLID
 70
     1
 71
     0
 91
        1
 92
        1
 93
        1
 72
     4
 94
        3
 73
     0
 74
     1
 95
       26
 96
       22
 40
0.0
 40
0.0
 40
0.0
 40
0.0
 40
1.0
 40
1.0
 40
1.0
 40
2.0
 40
2.0
 40
2.0
 40
3.0
 40
3.0
 40
3.0
 40
4.0
 40
4.0
 40
4.0
 40
5.0
 40
5.0
 40
5.0
 40
6.0
 40
6.0
 40
6.0
 40
7.0
 40
7.0
 40
7.0
 40
7.0
 10
91.17617456487957
 20
-139.1370713627852
 10
91.17617456487957
 20
-139.1370713627852
 10
91.17617456487957
 20
-138.0329182597626
 10
91.17617456487957
 20
-138.0329182597626
 10
91.17617456487957
 20
-138.0329182597626
 10
90.82374129673852
 20
-138.0329182597626
 10
90.82374129673852
 20
-138.0329182597626
 10
90.82374129673852
 20
-138.0329182597626
 10
90.82374129673852
 20
-137.8847791538969
 10
90.82374129673852
 20
-137.8847791538969
 10
91.17858613171924
 20
-137.8699652433103
 10
91.22819550670684
 20
-137.707012226858
 10
91.25989038517115
 20
-137.5926350567477
 10
91.25989038517115
 20
-137.5926350567477
 10
91.41595321065296
 20
-137.5926350567477
 10
91.41595321065296
 20
-137.5926350567477
 10
91.41595321065296
 20
-137.5926350567477
 10
91.41595321065296
 20
-139.1370713627852
 10
91.41595321065296
 20
-139.1370713627852
 10
91.41595321065296
 20
-139.1370713627852
 10
91.17617456487957
 20
-139.1370713627852
 10
91.17617456487957
 20
-139.1370713627852
 97
        0
 97
        0
 75
     2
 76
     1
 98
        0
  0
SPLINE
  5
D8
330
D2
100
AcDbEntity
  8
_U+30EC_U+30A4_U+30E4_U+30FC 1
370
     0
100
AcDbSpline
210
0.0
220
0.0
230
1.0
 70
    11
 71
     3
 72
    62
 73
    58
 74
     0
 42
0.0000000001
 43
0.0000000001
 12
1.0
 22
0.0
 32
0.0
 13
1.0
 23
0.0
 33
0.0
 40
0.0
 40
0.0
 40
0.0
 40
0.0
 40
1.0
 40
1.0
 40
1.0
 40
2.0
 40
2.0
 40
2.0
 40
3.0
 40
3.0
 40
3.0
 40
4.0
 40
4.0
 40
4.0
 40
5.0
 40
5.0
 40
5.0
 40
6.0
 40
6.0
 40
6.0
 40
7.0
 40
7.0
 40
7.0
 40
8.0
 40
8.0
 40
8.0
 40
9.0
 40
9.0
 40
9.0
 40
10.0
 40
10.0
 40
10.0
 40
11.0
 40
11.0
 40
11.0
 40
12.0
 40
12.0
 40
12.0
 40
13.0
 40
13.0
 40
13.0
 40
14.0
 40
14.0
 40
14.0
 40
15.0
 40
15.0
 40
15.0
 40
16.0
 40
16.0
 40
16.0
 40
17.0
 40
17.0
 40
17.0
 40
18.0
 40
18.0
 40
18.0
 40
19.0
 40
19.0
 40
19.0
 40
19.0
 10
92.47704262010991
 20
-139.1877142664184
 30
0.0
 10
92.37541230329504
 20
-139.1877142664184
 30
0.0
 10
92.14252384849215
 20
-139.1666991839583
 30
0.0
 10
92.00919865321298
 20
-138.9806640277548
 30
0.0
 10
91.92996145705223
 20
-138.8683539149357
 30
0.0
 10
91.92548283292142
 20
-138.7691351649605
 30
0.0
 10
91.92100420879059
 20
-138.6843858160234
 30
0.0
 10
91.92100420879059
 20
-138.6843858160234
 30
0.0
 10
92.15595972088462
 20
-138.6843858160234
 30
0.0
 10
92.15595972088462
 20
-138.6843858160234
 30
0.0
 10
92.15837128772431
 20
-138.7584553689562
 30
0.0
 10
92.16974010282563
 20
-138.9930663715017
 30
0.0
 10
92.47256399597909
 20
-138.9930663715017
 30
0.0
 10
92.61966957319926
 20
-138.9930663715017
 30
0.0
 10
92.78227808010304
 20
-138.9234754426997
 30
0.0
 10
92.78227808010304
 20
-138.6950656120276
 30
0.0
 10
92.78227808010304
 20
-138.5786213846262
 30
0.0
 10
92.7416259533771
 20
-138.5300455382842
 30
0.0
 10
92.70786401762165
 20
-138.4983506598199
 30
0.0
 10
92.6286268214609
 20
-138.424281106887
 30
0.0
 10
92.50425887444338
 20
-138.4115342535916
 30
0.0
 10
92.4453477416456
 20
-138.4115342535916
 30
0.0
 10
92.42502167828263
 20
-138.4115342535916
 30
0.0
 10
92.38678111839637
 20
-138.4136013108827
 30
0.0
 10
92.35715329722322
 20
-138.417735425465
 30
0.0
 10
92.35715329722322
 20
-138.417735425465
 30
0.0
 10
92.35715329722322
 20
-138.2230875305484
 30
0.0
 10
92.35715329722322
 20
-138.2230875305484
 30
0.0
 10
92.39780542394917
 20
-138.2296332119704
 30
0.0
 10
92.44328068435446
 20
-138.2317002692615
 30
0.0
 10
92.44982636577643
 20
-138.2317002692615
 30
0.0
 10
92.52010631367553
 20
-138.2317002692615
 30
0.0
 10
92.73266870511544
 20
-138.210340677253
 30
0.0
 10
92.73266870511544
 20
-137.9736626174163
 30
0.0
 10
92.73266870511544
 20
-137.7958956903774
 30
0.0
 10
92.59245331886578
 20
-137.7407741626134
 30
0.0
 10
92.47497556281876
 20
-137.7407741626134
 30
0.0
 10
92.19213322347974
 20
-137.7407741626134
 30
0.0
 10
92.1831759752181
 20
-137.9736626174163
 30
0.0
 10
92.17869735108728
 20
-138.0453206035095
 30
0.0
 10
92.17869735108728
 20
-138.0453206035095
 30
0.0
 10
91.96165633551654
 20
-138.0453206035095
 30
0.0
 10
91.96165633551654
 20
-138.0453206035095
 30
0.0
 10
91.97061358377819
 20
-137.9206081469435
 30
0.0
 10
91.99989689540281
 20
-137.5440592104057
 30
0.0
 10
92.48841143521123
 20
-137.5440592104057
 30
0.0
 10
92.72819008098462
 20
-137.5440592104057
 30
0.0
 10
92.9858832232813
 20
-137.6711832338114
 30
0.0
 10
92.9858832232813
 20
-137.9671169359943
 30
0.0
 10
92.9858832232813
 20
-138.1534966017464
 30
0.0
 10
92.88390839691792
 20
-138.2358343838438
 30
0.0
 10
92.77779945597221
 20
-138.2971570834813
 30
0.0
 10
92.84325627019197
 20
-138.3247178473633
 30
0.0
 10
93.03790416510859
 20
-138.4049885721696
 30
0.0
 10
93.03790416510859
 20
-138.6823187587322
 30
0.0
 10
93.03790416510859
 20
-139.0206271353837
 30
0.0
 10
92.7733208318414
 20
-139.1877142664184
 30
0.0
 10
92.47704262010991
 20
-139.1877142664184
 30
0.0
  0
HATCH
  5
D9
330
D2
100
AcDbEntity
  8
_U+30EC_U+30A4_U+30E4_U+30FC 1
 62
   179
420
  2234388
100
AcDbHatch
 10
0.0
 20
0.0
 30
0.0
210
0.0
220
0.0
230
1.0
  2
SOLID
 70
     1
 71
     0
 91
        1
 92
        1
 93
        1
 72
     4
 94
        3
 73
     0
 74
     1
 95
       62
 96
       58
 40
0.0
 40
0.0
 40
0.0
 40
0.0
 40
1.0
 40
1.0
 40
1.0
 40
2.0
 40
2.0
 40
2.0
 40
3.0
 40
3.0
 40
3.0
 40
4.0
 40
4.0
 40
4.0
 40
5.0
 40
5.0
 40
5.0
 40
6.0
 40
6.0
 40
6.0
 40
7.0
 40
7.0
 40
7.0
 40
8.0
 40
8.0
 40
8.0
 40
9.0
 40
9.0
 40
9.0
 40
10.0
 40
10.0
 40
10.0
 40
11.0
 40
11.0
 40
11.0
 40
12.0
 40
12.0
 40
12.0
 40
13.0
 40
13.0
 40
13.0
 40
14.0
 40
14.0
 40
14.0
 40
15.0
 40
15.0
 40
15.0
 40
16.0
 40
16.0
 40
16.0
 40
17.0
 40
17.0
 40
17.0
 40
18.0
 40
18.0
 40
18.0
 40
19.0
 40
19.0
 40
19.0
 40
19.0
 10
92.47704262010991
 20
-139.1877142664184
 10
92.37541230329504
 20
-139.1877142664184
 10
92.14252384849215
 20
-139.1666991839583
 10
92.00919865321298
 20
-138.9806640277548
 10
91.92996145705223
 20
-138.8683539149357
 10
91.92548283292142
 20
-138.7691351649605
 10
91.92100420879059
 20
-138.6843858160234
 10
91.92100420879059
 20
-138.6843858160234
 10
92.15595972088462
 20
-138.6843858160234
 10
92.15595972088462
 20
-138.6843858160234
 10
92.15837128772431
 20
-138.7584553689562
 10
92.16974010282563
 20
-138.9930663715017
 10
92.47256399597909
 20
-138.9930663715017
 10
92.61966957319926
 20
-138.9930663715017
 10
92.78227808010304
 20
-138.9234754426997
 10
92.78227808010304
 20
-138.6950656120276
 10
92.78227808010304
 20
-138.5786213846262
 10
92.7416259533771
 20
-138.5300455382842
 10
92.70786401762165
 20
-138.4983506598199
 10
92.6286268214609
 20
-138.424281106887
 10
92.50425887444338
 20
-138.4115342535916
 10
92.4453477416456
 20
-138.4115342535916
 10
92.42502167828263
 20
-138.4115342535916
 10
92.38678111839637
 20
-138.4136013108827
 10
92.35715329722322
 20
-138.417735425465
 10
92.35715329722322
 20
-138.417735425465
 10
92.35715329722322
 20
-138.2230875305484
 10
92.35715329722322
 20
-138.2230875305484
 10
92.39780542394917
 20
-138.2296332119704
 10
92.44328068435446
 20
-138.2317002692615
 10
92.44982636577643
 20
-138.2317002692615
 10
92.52010631367553
 20
-138.2317002692615
 10
92.73266870511544
 20
-138.210340677253
 10
92.73266870511544
 20
-137.9736626174163
 10
92.73266870511544
 20
-137.7958956903774
 10
92.59245331886578
 20
-137.7407741626134
 10
92.47497556281876
 20
-137.7407741626134
 10
92.19213322347974
 20
-137.7407741626134
 10
92.1831759752181
 20
-137.9736626174163
 10
92.17869735108728
 20
-138.0453206035095
 10
92.17869735108728
 20
-138.0453206035095
 10
91.96165633551654
 20
-138.0453206035095
 10
91.96165633551654
 20
-138.0453206035095
 10
91.97061358377819
 20
-137.9206081469435
 10
91.99989689540281
 20
-137.5440592104057
 10
92.48841143521123
 20
-137.5440592104057
 10
92.72819008098462
 20
-137.5440592104057
 10
92.9858832232813
 20
-137.6711832338114
 10
92.9858832232813
 20
-137.9671169359943
 10
92.9858832232813
 20
-138.1534966017464
 10
92.88390839691792
 20
-138.2358343838438
 10
92.77779945597221
 20
-138.2971570834813
 10
92.84325627019197
 20
-138.3247178473633
 10
93.03790416510859
 20
-138.4049885721696
 10
93.03790416510859
 20
-138.6823187587322
 10
93.03790416510859
 20
-139.0206271353837
 10
92.7733208318414
 20
-139.1877142664184
 10
92.47704262010991
 20
-139.1877142664184
 97
        0
 97
        0
 75
     2
 76
     1
 98
        0
  0
ENDBLK
  5
D5
330
D2
100
AcDbEntity
  8
0
100
AcDbBlockEnd
  0
BLOCK
  5
E8
330
E6
100
AcDbEntity
  8
0
100
AcDbBlockBegin
  2
block 7
 70
     0
 10
0.0
 20
0.0
 30
0.0
  3
block 7
  1

  0
SPLINE
  5
EA
330
E6
100
AcDbEntity
  8
_U+30EC_U+30A4_U+30E4_U+30FC 1
370
     0
100
AcDbSpline
210
0.0
220
0.0
230
1.0
 70
    11
 71
     3
 72
    32
 73
    28
 74
     0
 42
0.0000000001
 43
0.0000000001
 12
1.0
 22
0.0
 32
0.0
 13
1.0
 23
0.0
 33
0.0
 40
0.0
 40
0.0
 40
0.0
 40
0.0
 40
1.0
 40
1.0
 40
1.0
 40
2.0
 40
2.0
 40
2.0
 40
3.0
 40
3.0
 40
3.0
 40
4.0
 40
4.0
 40
4.0
 40
5.0
 40
5.0
 40
5.0
 40
6.0
 40
6.0
 40
6.0
 40
7.0
 40
7.0
 40
7.0
 40
8.0
 40
8.0
 40
8.0
 40
9.0
 40
9.0
 40
9.0
 40
9.0
 10
101.8070502132635
 20
-132.2534260737075
 30
0.0
 10
101.8070502132635
 20
-132.8053303704445
 30
0.0
 10
101.2530788592353
 20
-132.8142876187061
 30
0.0
 10
101.0391384296013
 20
-132.8142876187061
 30
0.0
 10
100.8086615416381
 20
-132.8142876187061
 30
0.0
 10
100.1613280999597
 20
-132.7939615553432
 30
0.0
 10
100.1613280999597
 20
-132.2127739469815
 30
0.0
 10
100.1613280999597
 20
-132.0274278098751
 30
0.0
 10
100.2312635383102
 20
-131.7652560434476
 30
0.0
 10
100.5633707430883
 20
-131.7246039167216
 30
0.0
 10
100.5633707430883
 20
-131.7246039167216
 30
0.0
 10
100.5633707430883
 20
-131.9530137473937
 30
0.0
 10
100.5633707430883
 20
-131.9530137473937
 30
0.0
 10
100.5061821580332
 20
-131.9640380529465
 30
0.0
 10
100.3580430521674
 20
-131.9981444982505
 30
0.0
 10
100.3580430521674
 20
-132.2151855138212
 30
0.0
 10
100.3580430521674
 20
-132.5273111647848
 30
0.0
 10
100.6860161423632
 20
-132.5700303488019
 30
0.0
 10
100.8909993237356
 20
-132.583810730743
 30
0.0
 10
100.8127956562204
 20
-132.4842474712192
 30
0.0
 10
100.7535400138741
 20
-132.411900466029
 30
0.0
 10
100.7535400138741
 20
-132.2175970806609
 30
0.0
 10
100.7535400138741
 20
-132.0253607525839
 30
0.0
 10
100.861716012111
 20
-131.701866286519
 30
0.0
 10
101.2678927698219
 20
-131.701866286519
 30
0.0
 10
101.5872531213046
 20
-131.701866286519
 30
0.0
 10
101.8070502132635
 20
-131.9144286779589
 30
0.0
 10
101.8070502132635
 20
-132.2534260737075
 30
0.0
  0
SPLINE
  5
EB
330
E6
100
AcDbEntity
  8
_U+30EC_U+30A4_U+30E4_U+30FC 1
370
     0
100
AcDbSpline
210
0.0
220
0.0
230
1.0
 70
    11
 71
     3
 72
    17
 73
    13
 74
     0
 42
0.0000000001
 43
0.0000000001
 12
1.0
 22
0.0
 32
0.0
 13
1.0
 23
0.0
 33
0.0
 40
0.0
 40
0.0
 40
0.0
 40
0.0
 40
1.0
 40
1.0
 40
1.0
 40
2.0
 40
2.0
 40
2.0
 40
3.0
 40
3.0
 40
3.0
 40
4.0
 40
4.0
 40
4.0
 40
4.0
 10
100.9481879087907
 20
-132.2355115771842
 30
0.0
 10
100.9481879087907
 20
-132.5159423496835
 30
0.0
 10
101.1597167715851
 20
-132.5565944764095
 30
0.0
 10
101.2761609989865
 20
-132.5565944764095
 30
0.0
 10
101.4518608687343
 20
-132.5565944764095
 30
0.0
 10
101.6148138851866
 20
-132.4549641595946
 30
0.0
 10
101.6148138851866
 20
-132.2582492073868
 30
0.0
 10
101.6148138851866
 20
-132.1294026362385
 30
0.0
 10
101.5555582428403
 20
-131.9416449322924
 30
0.0
 10
101.2699598271131
 20
-131.9416449322924
 30
0.0
 10
101.0456841110233
 20
-131.9416449322924
 30
0.0
 10
100.9481879087907
 20
-132.0908175668037
 30
0.0
 10
100.9481879087907
 20
-132.2355115771842
 30
0.0
  0
HATCH
  5
EC
330
E6
100
AcDbEntity
  8
_U+30EC_U+30A4_U+30E4_U+30FC 1
 62
   179
420
  2234388
100
AcDbHatch
 10
0.0
 20
0.0
 30
0.0
210
0.0
220
0.0
230
1.0
  2
SOLID
 70
     1
 71
     0
 91
        2
 92
        1
 93
        1
 72
     4
 94
        3
 73
     0
 74
     1
 95
       32
 96
       28
 40
0.0
 40
0.0
 40
0.0
 40
0.0
 40
1.0
 40
1.0
 40
1.0
 40
2.0
 40
2.0
 40
2.0
 40
3.0
 40
3.0
 40
3.0
 40
4.0
 40
4.0
 40
4.0
 40
5.0
 40
5.0
 40
5.0
 40
6.0
 40
6.0
 40
6.0
 40
7.0
 40
7.0
 40
7.0
 40
8.0
 40
8.0
 40
8.0
 40
9.0
 40
9.0
 40
9.0
 40
9.0
 10
101.8070502132635
 20
-132.2534260737075
 10
101.8070502132635
 20
-132.8053303704445
 10
101.2530788592353
 20
-132.8142876187061
 10
101.0391384296013
 20
-132.8142876187061
 10
100.8086615416381
 20
-132.8142876187061
 10
100.1613280999597
 20
-132.7939615553432
 10
100.1613280999597
 20
-132.2127739469815
 10
100.1613280999597
 20
-132.0274278098751
 10
100.2312635383102
 20
-131.7652560434476
 10
100.5633707430883
 20
-131.7246039167216
 10
100.5633707430883
 20
-131.7246039167216
 10
100.5633707430883
 20
-131.9530137473937
 10
100.5633707430883
 20
-131.9530137473937
 10
100.5061821580332
 20
-131.9640380529465
 10
100.3580430521674
 20
-131.9981444982505
 10
100.3580430521674
 20
-132.2151855138212
 10
100.3580430521674
 20
-132.5273111647848
 10
100.6860161423632
 20
-132.5700303488019
 10
100.8909993237356
 20
-132.583810730743
 10
100.8127956562204
 20
-132.4842474712192
 10
100.7535400138741
 20
-132.411900466029
 10
100.7535400138741
 20
-132.2175970806609
 10
100.7535400138741
 20
-132.0253607525839
 10
100.861716012111
 20
-131.701866286519
 10
101.2678927698219
 20
-131.701866286519
 10
101.5872531213046
 20
-131.701866286519
 10
101.8070502132635
 20
-131.9144286779589
 10
101.8070502132635
 20
-132.2534260737075
 97
        0
 97
        0
 92
        1
 93
        1
 72
     4
 94
        3
 73
     0
 74
     1
 95
       17
 96
       13
 40
0.0
 40
0.0
 40
0.0
 40
0.0
 40
1.0
 40
1.0
 40
1.0
 40
2.0
 40
2.0
 40
2.0
 40
3.0
 40
3.0
 40
3.0
 40
4.0
 40
4.0
 40
4.0
 40
4.0
 10
100.9481879087907
 20
-132.2355115771842
 10
100.9481879087907
 20
-132.5159423496835
 10
101.1597167715851
 20
-132.5565944764095
 10
101.2761609989865
 20
-132.5565944764095
 10
101.4518608687343
 20
-132.5565944764095
 10
101.6148138851866
 20
-132.4549641595946
 10
101.6148138851866
 20
-132.2582492073868
 10
101.6148138851866
 20
-132.1294026362385
 10
101.5555582428403
 20
-131.9416449322924
 10
101.2699598271131
 20
-131.9416449322924
 10
101.0456841110233
 20
-131.9416449322924
 10
100.9481879087907
 20
-132.0908175668037
 10
100.9481879087907
 20
-132.2355115771842
 97
        0
 97
        0
 75
     2
 76
     1
 98
        0
  0
POLYLINE
  5
ED
330
E6
100
AcDbEntity
  8
_U+30EC_U+30A4_U+30E4_U+30FC 1
370
     0
100
AcDb2dPolyline
 66
     1
 10
0.0
 20
0.0
 30
0.0
  0
VERTEX
  5
EE
330
ED
100
AcDbEntity
  8
_U+30EC_U+30A4_U+30E4_U+30FC 1
370
     0
100
AcDbVertex
100
AcDb2dVertex
 10
101.7564073096303
 20
-131.4707003794587
 30
0.0
  0
VERTEX
  5
EF
330
ED
100
AcDbEntity
  8
_U+30EC_U+30A4_U+30E4_U+30FC 1
370
     0
100
AcDbVertex
100
AcDb2dVertex
 10
101.5045708296586
 20
-131.4707003794587
 30
0.0
  0
VERTEX
  5
F0
330
ED
100
AcDbEntity
  8
_U+30EC_U+30A4_U+30E4_U+30FC 1
370
     0
100
AcDbVertex
100
AcDb2dVertex
 10
101.5045708296586
 20
-131.2016384220607
 30
0.0
  0
VERTEX
  5
F1
330
ED
100
AcDbEntity
  8
_U+30EC_U+30A4_U+30E4_U+30FC 1
370
     0
100
AcDbVertex
100
AcDb2dVertex
 10
101.7564073096303
 20
-131.2016384220607
 30
0.0
  0
VERTEX
  5
F2
330
ED
100
AcDbEntity
  8
_U+30EC_U+30A4_U+30E4_U+30FC 1
370
     0
100
AcDbVertex
100
AcDb2dVertex
 10
101.7564073096303
 20
-131.4707003794587
 30
0.0
  0
SEQEND
  5
F3
330
ED
100
AcDbEntity
  8
_U+30EC_U+30A4_U+30E4_U+30FC 1
370
     0
  0
HATCH
  5
F4
330
E6
100
AcDbEntity
  8
_U+30EC_U+30A4_U+30E4_U+30FC 1
 62
   179
420
  2234388
100
AcDbHatch
 10
0.0
 20
0.0
 30
0.0
210
0.0
220
0.0
230
1.0
  2
SOLID
 70
     1
 71
     0
 91
        1
 92
        1
 93
        4
 72
     1
 10
101.7564073096303
 20
-131.4707003794587
 11
101.5045708296586
 21
-131.4707003794587
 72
     1
 10
101.5045708296586
 20
-131.4707003794587
 11
101.5045708296586
 21
-131.2016384220607
 72
     1
 10
101.5045708296586
 20
-131.2016384220607
 11
101.7564073096303
 21
-131.2016384220607
 72
     1
 10
101.7564073096303
 20
-131.2016384220607
 11
101.7564073096303
 21
-131.4707003794587
 97
        0
 75
     2
 76
     1
 98
        0
  0
SPLINE
  5
F5
330
E6
100
AcDbEntity
  8
_U+30EC_U+30A4_U+30E4_U+30FC 1
370
     0
100
AcDbSpline
210
0.0
220
0.0
230
1.0
 70
    11
 71
     3
 72
    53
 73
    49
 74
     0
 42
0.0000000001
 43
0.0000000001
 12
1.0
 22
0.0
 32
0.0
 13
1.0
 23
0.0
 33
0.0
 40
0.0
 40
0.0
 40
0.0
 40
0.0
 40
1.0
 40
1.0
 40
1.0
 40
2.0
 40
2.0
 40
2.0
 40
3.0
 40
3.0
 40
3.0
 40
4.0
 40
4.0
 40
4.0
 40
5.0
 40
5.0
 40
5.0
 40
6.0
 40
6.0
 40
6.0
 40
7.0
 40
7.0
 40
7.0
 40
8.0
 40
8.0
 40
8.0
 40
9.0
 40
9.0
 40
9.0
 40
10.0
 40
10.0
 40
10.0
 40
11.0
 40
11.0
 40
11.0
 40
12.0
 40
12.0
 40
12.0
 40
13.0
 40
13.0
 40
13.0
 40
14.0
 40
14.0
 40
14.0
 40
15.0
 40
15.0
 40
15.0
 40
16.0
 40
16.0
 40
16.0
 40
16.0
 10
101.8070502132635
 20
-130.4347601670441
 30
0.0
 10
101.8070502132635
 20
-130.5184759873357
 30
0.0
 10
101.7901692453858
 20
-130.6266519855725
 30
0.0
 10
101.7267794884572
 20
-130.7355170029064
 30
0.0
 10
101.6168809424777
 20
-130.9208631400128
 30
0.0
 10
101.4856228044897
 20
-130.943256260667
 30
0.0
 10
101.3777913158014
 20
-130.9635823240299
 30
0.0
 10
101.3777913158014
 20
-130.9635823240299
 30
0.0
 10
101.3777913158014
 20
-130.7262152450962
 30
0.0
 10
101.3777913158014
 20
-130.7262152450962
 30
0.0
 10
101.5765733253003
 20
-130.667648621847
 30
0.0
 10
101.6062011464735
 20
-130.5319118597281
 30
0.0
 10
101.6062011464735
 20
-130.4323486002044
 30
0.0
 10
101.6062011464735
 20
-130.2831759656931
 30
0.0
 10
101.5066378869497
 20
-130.1202229492408
 30
0.0
 10
101.2740939416954
 20
-130.1202229492408
 30
0.0
 10
101.0181233471413
 20
-130.1202229492408
 30
0.0
 10
100.9481879087907
 20
-130.3124592773177
 30
0.0
 10
100.9481879087907
 20
-130.4413058484661
 30
0.0
 10
100.9481879087907
 20
-130.47541229377
 30
0.0
 10
100.9481879087907
 20
-130.6266519855725
 30
0.0
 10
101.0773789894876
 20
-130.7217366209654
 30
0.0
 10
101.0773789894876
 20
-130.7217366209654
 30
0.0
 10
101.0584309643187
 20
-130.9094943249115
 30
0.0
 10
101.0584309643187
 20
-130.9094943249115
 30
0.0
 10
101.0584309643187
 20
-130.9094943249115
 30
0.0
 10
100.2119710035929
 20
-130.7806477537632
 30
0.0
 10
100.2119710035929
 20
-130.7806477537632
 30
0.0
 10
100.2119710035929
 20
-130.7806477537632
 30
0.0
 10
100.2119710035929
 20
-129.9486571940753
 30
0.0
 10
100.2119710035929
 20
-129.9486571940753
 30
0.0
 10
100.2119710035929
 20
-129.9486571940753
 30
0.0
 10
100.4066188985095
 20
-129.9486571940753
 30
0.0
 10
100.4066188985095
 20
-129.9486571940753
 30
0.0
 10
100.4066188985095
 20
-129.9486571940753
 30
0.0
 10
100.4066188985095
 20
-130.6063259222095
 30
0.0
 10
100.4066188985095
 20
-130.6063259222095
 30
0.0
 10
100.4066188985095
 20
-130.6063259222095
 30
0.0
 10
100.8296766240981
 20
-130.6766058701086
 30
0.0
 10
100.8296766240981
 20
-130.6766058701086
 30
0.0
 10
100.7959146883427
 20
-130.6111490558889
 30
0.0
 10
100.7556070711653
 20
-130.5229546114665
 30
0.0
 10
100.7556070711653
 20
-130.3961750976093
 30
0.0
 10
100.7556070711653
 20
-130.1250460829201
 30
0.0
 10
100.9419867369173
 20
-129.8718315647543
 30
0.0
 10
101.2551459165265
 20
-129.8718315647543
 30
0.0
 10
101.572439210718
 20
-129.8718315647543
 30
0.0
 10
101.8070502132635
 20
-130.1112657009791
 30
0.0
 10
101.8070502132635
 20
-130.4347601670441
 30
0.0
  0
HATCH
  5
F6
330
E6
100
AcDbEntity
  8
_U+30EC_U+30A4_U+30E4_U+30FC 1
 62
   179
420
  2234388
100
AcDbHatch
 10
0.0
 20
0.0
 30
0.0
210
0.0
220
0.0
230
1.0
  2
SOLID
 70
     1
 71
     0
 91
        1
 92
        1
 93
        1
 72
     4
 94
        3
 73
     0
 74
     1
 95
       53
 96
       49
 40
0.0
 40
0.0
 40
0.0
 40
0.0
 40
1.0
 40
1.0
 40
1.0
 40
2.0
 40
2.0
 40
2.0
 40
3.0
 40
3.0
 40
3.0
 40
4.0
 40
4.0
 40
4.0
 40
5.0
 40
5.0
 40
5.0
 40
6.0
 40
6.0
 40
6.0
 40
7.0
 40
7.0
 40
7.0
 40
8.0
 40
8.0
 40
8.0
 40
9.0
 40
9.0
 40
9.0
 40
10.0
 40
10.0
 40
10.0
 40
11.0
 40
11.0
 40
11.0
 40
12.0
 40
12.0
 40
12.0
 40
13.0
 40
13.0
 40
13.0
 40
14.0
 40
14.0
 40
14.0
 40
15.0
 40
15.0
 40
15.0
 40
16.0
 40
16.0
 40
16.0
 40
16.0
 10
101.8070502132635
 20
-130.4347601670441
 10
101.8070502132635
 20
-130.5184759873357
 10
101.7901692453858
 20
-130.6266519855725
 10
101.7267794884572
 20
-130.7355170029064
 10
101.6168809424777
 20
-130.9208631400128
 10
101.4856228044897
 20
-130.943256260667
 10
101.3777913158014
 20
-130.9635823240299
 10
101.3777913158014
 20
-130.9635823240299
 10
101.3777913158014
 20
-130.7262152450962
 10
101.3777913158014
 20
-130.7262152450962
 10
101.5765733253003
 20
-130.667648621847
 10
101.6062011464735
 20
-130.5319118597281
 10
101.6062011464735
 20
-130.4323486002044
 10
101.6062011464735
 20
-130.2831759656931
 10
101.5066378869497
 20
-130.1202229492408
 10
101.2740939416954
 20
-130.1202229492408
 10
101.0181233471413
 20
-130.1202229492408
 10
100.9481879087907
 20
-130.3124592773177
 10
100.9481879087907
 20
-130.4413058484661
 10
100.9481879087907
 20
-130.47541229377
 10
100.9481879087907
 20
-130.6266519855725
 10
101.0773789894876
 20
-130.7217366209654
 10
101.0773789894876
 20
-130.7217366209654
 10
101.0584309643187
 20
-130.9094943249115
 10
101.0584309643187
 20
-130.9094943249115
 10
101.0584309643187
 20
-130.9094943249115
 10
100.2119710035929
 20
-130.7806477537632
 10
100.2119710035929
 20
-130.7806477537632
 10
100.2119710035929
 20
-130.7806477537632
 10
100.2119710035929
 20
-129.9486571940753
 10
100.2119710035929
 20
-129.9486571940753
 10
100.2119710035929
 20
-129.9486571940753
 10
100.4066188985095
 20
-129.9486571940753
 10
100.4066188985095
 20
-129.9486571940753
 10
100.4066188985095
 20
-129.9486571940753
 10
100.4066188985095
 20
-130.6063259222095
 10
100.4066188985095
 20
-130.6063259222095
 10
100.4066188985095
 20
-130.6063259222095
 10
100.8296766240981
 20
-130.6766058701086
 10
100.8296766240981
 20
-130.6766058701086
 10
100.7959146883427
 20
-130.6111490558889
 10
100.7556070711653
 20
-130.5229546114665
 10
100.7556070711653
 20
-130.3961750976093
 10
100.7556070711653
 20
-130.1250460829201
 10
100.9419867369173
 20
-129.8718315647543
 10
101.2551459165265
 20
-129.8718315647543
 10
101.572439210718
 20
-129.8718315647543
 10
101.8070502132635
 20
-130.1112657009791
 10
101.8070502132635
 20
-130.4347601670441
 97
        0
 97
        0
 75
     2
 76
     1
 98
        0
  0
ENDBLK
  5
E9
330
E6
100
AcDbEntity
  8
0
100
AcDbBlockEnd
  0
ENDSEC
  0
SECTION
  2
ENTITIES
  0
SPLINE
  5
41
330
1F
100
AcDbEntity
  8
_U+30EC_U+30A4_U+30E4_U+30FC 1
370
     0
100
AcDbSpline
210
0.0
220
0.0
230
1.0
 70
    11
 71
     3
 72
    44
 73
    40
 74
     0
 42
0.0000000001
 43
0.0000000001
 12
1.0
 22
0.0
 32
0.0
 13
1.0
 23
0.0
 33
0.0
 40
0.0
 40
0.0
 40
0.0
 40
0.0
 40
1.0
 40
1.0
 40
1.0
 40
2.0
 40
2.0
 40
2.0
 40
3.0
 40
3.0
 40
3.0
 40
4.0
 40
4.0
 40
4.0
 40
5.0
 40
5.0
 40
5.0
 40
6.0
 40
6.0
 40
6.0
 40
7.0
 40
7.0
 40
7.0
 40
8.0
 40
8.0
 40
8.0
 40
9.0
 40
9.0
 40
9.0
 40
10.0
 40
10.0
 40
10.0
 40
11.0
 40
11.0
 40
11.0
 40
12.0
 40
12.0
 40
12.0
 40
13.0
 40
13.0
 40
13.0
 40
13.0
 10
86.35304807472798
 20
-122.7334349693168
 30
0.0
 10
85.80045697771465
 20
-122.7334349693168
 30
0.0
 10
85.35257032247452
 20
-123.1812863580935
 30
0.0
 10
85.35257032247452
 20
-123.7335246912889
 30
0.0
 10
85.35257032247452
 20
-123.7335246912889
 30
0.0
 10
85.35257032247452
 20
-134.7335591329831
 30
0.0
 10
85.35257032247452
 20
-134.7335591329831
 30
0.0
 10
85.35257032247452
 20
-135.2861502439566
 30
0.0
 10
85.80045697771465
 20
-135.734001632733
 30
0.0
 10
86.35304807472798
 20
-135.734001632733
 30
0.0
 10
86.35304807472798
 20
-135.734001632733
 30
0.0
 10
97.3525555312171
 20
-135.734001632733
 30
0.0
 10
97.3525555312171
 20
-135.734001632733
 30
0.0
 10
97.90514416889835
 20
-135.734001632733
 30
0.0
 10
98.3529955463616
 20
-135.2861502439566
 30
0.0
 10
98.3529955463616
 20
-134.7335591329831
 30
0.0
 10
98.3529955463616
 20
-134.7335591329831
 30
0.0
 10
86.35304807472798
 20
-134.7335591329831
 30
0.0
 10
86.35304807472798
 20
-134.7335591329831
 30
0.0
 10
86.35304807472798
 20
-134.7335591329831
 30
0.0
 10
86.35304807472798
 20
-128.2335227457195
 30
0.0
 10
86.35304807472798
 20
-128.2335227457195
 30
0.0
 10
86.35304807472798
 20
-128.2335227457195
 30
0.0
 10
98.3529955463616
 20
-128.2335227457195
 30
0.0
 10
98.3529955463616
 20
-128.2335227457195
 30
0.0
 10
98.3529955463616
 20
-128.2335227457195
 30
0.0
 10
98.87253136644047
 20
-127.9334499680165
 30
0.0
 10
98.87253136644047
 20
-127.9334499680165
 30
0.0
 10
98.87253136644047
 20
-127.9334499680165
 30
0.0
 10
103.652917077816
 20
-127.9334499680165
 30
0.0
 10
103.652917077816
 20
-127.9334499680165
 30
0.0
 10
104.0394583073238
 20
-127.9334499680165
 30
0.0
 10
104.3529692821784
 20
-127.619936356984
 30
0.0
 10
104.3529692821784
 20
-127.2333977459696
 30
0.0
 10
104.3529692821784
 20
-127.2333977459696
 30
0.0
 10
86.35304807472798
 20
-127.2333977459696
 30
0.0
 10
86.35304807472798
 20
-127.2333977459696
 30
0.0
 10
86.35304807472798
 20
-127.2333977459696
 30
0.0
 10
86.35304807472798
 20
-122.7334349693168
 30
0.0
 10
86.35304807472798
 20
-122.7334349693168
 30
0.0
  0
HATCH
  5
42
330
1F
100
AcDbEntity
  8
_U+30EC_U+30A4_U+30E4_U+30FC 1
 62
   253
420
 11711154
100
AcDbHatch
 10
0.0
 20
0.0
 30
0.0
210
0.0
220
0.0
230
1.0
  2
SOLID
 70
     1
 71
     0
 91
        1
 92
        1
 93
        1
 72
     4
 94
        3
 73
     0
 74
     1
 95
       44
 96
       40
 40
0.0
 40
0.0
 40
0.0
 40
0.0
 40
1.0
 40
1.0
 40
1.0
 40
2.0
 40
2.0
 40
2.0
 40
3.0
 40
3.0
 40
3.0
 40
4.0
 40
4.0
 40
4.0
 40
5.0
 40
5.0
 40
5.0
 40
6.0
 40
6.0
 40
6.0
 40
7.0
 40
7.0
 40
7.0
 40
8.0
 40
8.0
 40
8.0
 40
9.0
 40
9.0
 40
9.0
 40
10.0
 40
10.0
 40
10.0
 40
11.0
 40
11.0
 40
11.0
 40
12.0
 40
12.0
 40
12.0
 40
13.0
 40
13.0
 40
13.0
 40
13.0
 10
86.35304807472798
 20
-122.7334349693168
 10
85.80045697771465
 20
-122.7334349693168
 10
85.35257032247452
 20
-123.1812863580935
 10
85.35257032247452
 20
-123.7335246912889
 10
85.35257032247452
 20
-123.7335246912889
 10
85.35257032247452
 20
-134.7335591329831
 10
85.35257032247452
 20
-134.7335591329831
 10
85.35257032247452
 20
-135.2861502439566
 10
85.80045697771465
 20
-135.734001632733
 10
86.35304807472798
 20
-135.734001632733
 10
86.35304807472798
 20
-135.734001632733
 10
97.3525555312171
 20
-135.734001632733
 10
97.3525555312171
 20
-135.734001632733
 10
97.90514416889835
 20
-135.734001632733
 10
98.3529955463616
 20
-135.2861502439566
 10
98.3529955463616
 20
-134.7335591329831
 10
98.3529955463616
 20
-134.7335591329831
 10
86.35304807472798
 20
-134.7335591329831
 10
86.35304807472798
 20
-134.7335591329831
 10
86.35304807472798
 20
-134.7335591329831
 10
86.35304807472798
 20
-128.2335227457195
 10
86.35304807472798
 20
-128.2335227457195
 10
86.35304807472798
 20
-128.2335227457195
 10
98.3529955463616
 20
-128.2335227457195
 10
98.3529955463616
 20
-128.2335227457195
 10
98.3529955463616
 20
-128.2335227457195
 10
98.87253136644047
 20
-127.9334499680165
 10
98.87253136644047
 20
-127.9334499680165
 10
98.87253136644047
 20
-127.9334499680165
 10
103.652917077816
 20
-127.9334499680165
 10
103.652917077816
 20
-127.9334499680165
 10
104.0394583073238
 20
-127.9334499680165
 10
104.3529692821784
 20
-127.619936356984
 10
104.3529692821784
 20
-127.2333977459696
 10
104.3529692821784
 20
-127.2333977459696
 10
86.35304807472798
 20
-127.2333977459696
 10
86.35304807472798
 20
-127.2333977459696
 10
86.35304807472798
 20
-127.2333977459696
 10
86.35304807472798
 20
-122.7334349693168
 10
86.35304807472798
 20
-122.7334349693168
 97
        0
 97
        0
 75
     2
 76
     1
 98
        0
  0
POLYLINE
  5
43
330
1F
100
AcDbEntity
  8
_U+30EC_U+30A4_U+30E4_U+30FC 1
 62
   179
420
  2234388
370
    25
100
AcDb2dPolyline
 66
     1
 10
0.0
 20
0.0
 30
0.0
  0
VERTEX
  5
44
330
43
100
AcDbEntity
  8
_U+30EC_U+30A4_U+30E4_U+30FC 1
 62
   179
420
  2234388
370
    25
100
AcDbVertex
100
AcDb2dVertex
 10
86.35304807472798
 20
-134.7335591329831
 30
0.0
  0
VERTEX
  5
45
330
43
100
AcDbEntity
  8
_U+30EC_U+30A4_U+30E4_U+30FC 1
 62
   179
420
  2234388
370
    25
100
AcDbVertex
100
AcDb2dVertex
 10
98.3529955463616
 20
-134.7335591329831
 30
0.0
  0
SEQEND
  5
46
330
43
100
AcDbEntity
  8
_U+30EC_U+30A4_U+30E4_U+30FC 1
 62
   179
420
  2234388
370
    25
  0
POLYLINE
  5
47
330
1F
100
AcDbEntity
  8
_U+30EC_U+30A4_U+30E4_U+30FC 1
 62
   179
420
  2234388
370
    25
100
AcDb2dPolyline
 66
     1
 10
0.0
 20
0.0
 30
0.0
  0
VERTEX
  5
48
330
47
100
AcDbEntity
  8
_U+30EC_U+30A4_U+30E4_U+30FC 1
 62
   179
420
  2234388
370
    25
100
AcDbVertex
100
AcDb2dVertex
 10
86.35304807472798
 20
-128.2335227457195
 30
0.0
  0
VERTEX
  5
49
330
47
100
AcDbEntity
  8
_U+30EC_U+30A4_U+30E4_U+30FC 1
 62
   179
420
  2234388
370
    25
100
AcDbVertex
100
AcDb2dVertex
 10
98.3529955463616
 20
-128.2335227457195
 30
0.0
  0
SEQEND
  5
4A
330
47
100
AcDbEntity
  8
_U+30EC_U+30A4_U+30E4_U+30FC 1
 62
   179
420
  2234388
370
    25
  0
POLYLINE
  5
4B
330
1F
100
AcDbEntity
  8
_U+30EC_U+30A4_U+30E4_U+30FC 1
 62
   179
420
  2234388
370
    25
100
AcDb2dPolyline
 66
     1
 10
0.0
 20
0.0
 30
0.0
  0
VERTEX
  5
4C
330
4B
100
AcDbEntity
  8
_U+30EC_U+30A4_U+30E4_U+30FC 1
 62
   179
420
  2234388
370
    25
100
AcDbVertex
100
AcDb2dVertex
 10
86.35304807472798
 20
-135.734001632733
 30
0.0
  0
VERTEX
  5
4D
330
4B
100
AcDbEntity
  8
_U+30EC_U+30A4_U+30E4_U+30FC 1
 62
   179
420
  2234388
370
    25
100
AcDbVertex
100
AcDb2dVertex
 10
97.3525555312171
 20
-135.734001632733
 30
0.0
  0
SEQEND
  5
4E
330
4B
100
AcDbEntity
  8
_U+30EC_U+30A4_U+30E4_U+30FC 1
 62
   179
420
  2234388
370
    25
  0
POLYLINE
  5
4F
330
1F
100
AcDbEntity
  8
_U+30EC_U+30A4_U+30E4_U+30FC 1
 62
   179
420
  2234388
370
    25
100
AcDb2dPolyline
 66
     1
 10
0.0
 20
0.0
 30
0.0
  0
VERTEX
  5
50
330
4F
100
AcDbEntity
  8
_U+30EC_U+30A4_U+30E4_U+30FC 1
 62
   179
420
  2234388
370
    25
100
AcDbVertex
100
AcDb2dVertex
 10
85.35257032247452
 20
-123.7335246912889
 30
0.0
  0
VERTEX
  5
51
330
4F
100
AcDbEntity
  8
_U+30EC_U+30A4_U+30E4_U+30FC 1
 62
   179
420
  2234388
370
    25
100
AcDbVertex
100
AcDb2dVertex
 10
85.35257032247452
 20
-134.7335591329831
 30
0.0
  0
SEQEND
  5
52
330
4F
100
AcDbEntity
  8
_U+30EC_U+30A4_U+30E4_U+30FC 1
 62
   179
420
  2234388
370
    25
  0
POLYLINE
  5
53
330
1F
100
AcDbEntity
  8
_U+30EC_U+30A4_U+30E4_U+30FC 1
 62
   179
420
  2234388
370
    25
100
AcDb2dPolyline
 66
     1
 10
0.0
 20
0.0
 30
0.0
  0
VERTEX
  5
54
330
53
100
AcDbEntity
  8
_U+30EC_U+30A4_U+30E4_U+30FC 1
 62
   179
420
  2234388
370
    25
100
AcDbVertex
100
AcDb2dVertex
 10
86.35304807472798
 20
-122.7334349693168
 30
0.0
  0
VERTEX
  5
55
330
53
100
AcDbEntity
  8
_U+30EC_U+30A4_U+30E4_U+30FC 1
 62
   179
420
  2234388
370
    25
100
AcDbVertex
100
AcDb2dVertex
 10
86.35304807472798
 20
-127.2333977459696
 30
0.0
  0
SEQEND
  5
56
330
53
100
AcDbEntity
  8
_U+30EC_U+30A4_U+30E4_U+30FC 1
 62
   179
420
  2234388
370
    25
  0
POLYLINE
  5
57
330
1F
100
AcDbEntity
  8
_U+30EC_U+30A4_U+30E4_U+30FC 1
 62
   179
420
  2234388
370
    25
100
AcDb2dPolyline
 66
     1
 10
0.0
 20
0.0
 30
0.0
  0
VERTEX
  5
58
330
57
100
AcDbEntity
  8
_U+30EC_U+30A4_U+30E4_U+30FC 1
 62
   179
420
  2234388
370
    25
100
AcDbVertex
100
AcDb2dVertex
 10
86.35304807472798
 20
-127.2333977459696
 30
0.0
  0
VERTEX
  5
59
330
57
100
AcDbEntity
  8
_U+30EC_U+30A4_U+30E4_U+30FC 1
 62
   179
420
  2234388
370
    25
100
AcDbVertex
100
AcDb2dVertex
 10
104.3529692821784
 20
-127.2333977459696
 30
0.0
  0
SEQEND
  5
5A
330
57
100
AcDbEntity
  8
_U+30EC_U+30A4_U+30E4_U+30FC 1
 62
   179
420
  2234388
370
    25
  0
POLYLINE
  5
5B
330
1F
100
AcDbEntity
  8
_U+30EC_U+30A4_U+30E4_U+30FC 1
 62
   179
420
  2234388
370
    25
100
AcDb2dPolyline
 66
     1
 10
0.0
 20
0.0
 30
0.0
  0
VERTEX
  5
5C
330
5B
100
AcDbEntity
  8
_U+30EC_U+30A4_U+30E4_U+30FC 1
 62
   179
420
  2234388
370
    25
100
AcDbVertex
100
AcDb2dVertex
 10
86.35304807472798
 20
-128.2335227457195
 30
0.0
  0
VERTEX
  5
5D
330
5B
100
AcDbEntity
  8
_U+30EC_U+30A4_U+30E4_U+30FC 1
 62
   179
420
  2234388
370
    25
100
AcDbVertex
100
AcDb2dVertex
 10
86.35304807472798
 20
-134.7335591329831
 30
0.0
  0
SEQEND
  5
5E
330
5B
100
AcDbEntity
  8
_U+30EC_U+30A4_U+30E4_U+30FC 1
 62
   179
420
  2234388
370
    25
  0
POLYLINE
  5
5F
330
1F
100
AcDbEntity
  8
_U+30EC_U+30A4_U+30E4_U+30FC 1
 62
   179
420
  2234388
370
    25
100
AcDb2dPolyline
 66
     1
 10
0.0
 20
0.0
 30
0.0
  0
VERTEX
  5
60
330
5F
100
AcDbEntity
  8
_U+30EC_U+30A4_U+30E4_U+30FC 1
 62
   179
420
  2234388
370
    25
100
AcDbVertex
100
AcDb2dVertex
 10
98.87253136644047
 20
-127.9334499680165
 30
0.0
  0
VERTEX
  5
61
330
5F
100
AcDbEntity
  8
_U+30EC_U+30A4_U+30E4_U+30FC 1
 62
   179
420
  2234388
370
    25
100
AcDbVertex
100
AcDb2dVertex
 10
103.652917077816
 20
-127.9334499680165
 30
0.0
  0
SEQEND
  5
62
330
5F
100
AcDbEntity
  8
_U+30EC_U+30A4_U+30E4_U+30FC 1
 62
   179
420
  2234388
370
    25
  0
POLYLINE
  5
63
330
1F
100
AcDbEntity
  8
_U+30EC_U+30A4_U+30E4_U+30FC 1
 62
   179
420
  2234388
370
    25
100
AcDb2dPolyline
 66
     1
 10
0.0
 20
0.0
 30
0.0
  0
VERTEX
  5
64
330
63
100
AcDbEntity
  8
_U+30EC_U+30A4_U+30E4_U+30FC 1
 62
   179
420
  2234388
370
    25
100
AcDbVertex
100
AcDb2dVertex
 10
98.3529955463616
 20
-128.2335227457195
 30
0.0
  0
VERTEX
  5
65
330
63
100
AcDbEntity
  8
_U+30EC_U+30A4_U+30E4_U+30FC 1
 62
   179
420
  2234388
370
    25
100
AcDbVertex
100
AcDb2dVertex
 10
98.87253136644047
 20
-127.9334499680165
 30
0.0
  0
SEQEND
  5
66
330
63
100
AcDbEntity
  8
_U+30EC_U+30A4_U+30E4_U+30FC 1
 62
   179
420
  2234388
370
    25
  0
POLYLINE
  5
67
330
1F
100
AcDbEntity
  8
_U+30EC_U+30A4_U+30E4_U+30FC 1
 62
   179
420
  2234388
370
     9
100
AcDb2dPolyline
 66
     1
 10
0.0
 20
0.0
 30
0.0
  0
VERTEX
  5
68
330
67
100
AcDbEntity
  8
_U+30EC_U+30A4_U+30E4_U+30FC 1
 62
   179
420
  2234388
370
     9
100
AcDbVertex
100
AcDb2dVertex
 10
85.64541114833686
 20
-135.4404905216958
 30
0.0
  0
VERTEX
  5
69
330
67
100
AcDbEntity
  8
_U+30EC_U+30A4_U+30E4_U+30FC 1
 62
   179
420
  2234388
370
     9
100
AcDbVertex
100
AcDb2dVertex
 10
81.3528112578502
 20
-139.7337607983999
 30
0.0
  0
SEQEND
  5
6A
330
67
100
AcDbEntity
  8
_U+30EC_U+30A4_U+30E4_U+30FC 1
 62
   179
420
  2234388
370
     9
  0
POLYLINE
  5
6B
330
1F
100
AcDbEntity
  8
_U+30EC_U+30A4_U+30E4_U+30FC 1
 62
   179
420
  2234388
370
     9
100
AcDb2dPolyline
 66
     1
 10
0.0
 20
0.0
 30
0.0
  0
VERTEX
  5
6C
330
6B
100
AcDbEntity
  8
_U+30EC_U+30A4_U+30E4_U+30FC 1
 62
   179
420
  2234388
370
     9
100
AcDbVertex
100
AcDb2dVertex
 10
77.14085831404826
 20
-139.7337607983999
 30
0.0
  0
VERTEX
  5
6D
330
6B
100
AcDbEntity
  8
_U+30EC_U+30A4_U+30E4_U+30FC 1
 62
   179
420
  2234388
370
     9
100
AcDbVertex
100
AcDb2dVertex
 10
81.3528112578502
 20
-139.7337607983999
 30
0.0
  0
SEQEND
  5
6E
330
6B
100
AcDbEntity
  8
_U+30EC_U+30A4_U+30E4_U+30FC 1
 62
   179
420
  2234388
370
     9
  0
POLYLINE
  5
6F
330
1F
100
AcDbEntity
  8
_U+30EC_U+30A4_U+30E4_U+30FC 1
 62
   179
420
  2234388
370
     9
100
AcDb2dPolyline
 66
     1
 10
0.0
 20
0.0
 30
0.0
  0
VERTEX
  5
70
330
6F
100
AcDbEntity
  8
_U+30EC_U+30A4_U+30E4_U+30FC 1
 62
   179
420
  2234388
370
     9
100
AcDbVertex
100
AcDb2dVertex
 10
85.64541114833686
 20
-135.4404905216958
 30
0.0
  0
VERTEX
  5
71
330
6F
100
AcDbEntity
  8
_U+30EC_U+30A4_U+30E4_U+30FC 1
 62
   179
420
  2234388
370
     9
100
AcDbVertex
100
AcDb2dVertex
 10
84.346624514805
 20
-136.1908135770635
 30
0.0
  0
SEQEND
  5
72
330
6F
100
AcDbEntity
  8
_U+30EC_U+30A4_U+30E4_U+30FC 1
 62
   179
420
  2234388
370
     9
  0
POLYLINE
  5
73
330
1F
100
AcDbEntity
  8
_U+30EC_U+30A4_U+30E4_U+30FC 1
 62
   179
420
  2234388
370
     9
100
AcDb2dPolyline
 66
     1
 10
0.0
 20
0.0
 30
0.0
  0
VERTEX
  5
74
330
73
100
AcDbEntity
  8
_U+30EC_U+30A4_U+30E4_U+30FC 1
 62
   179
420
  2234388
370
     9
100
AcDbVertex
100
AcDb2dVertex
 10
85.64541114833686
 20
-135.4404905216958
 30
0.0
  0
VERTEX
  5
75
330
73
100
AcDbEntity
  8
_U+30EC_U+30A4_U+30E4_U+30FC 1
 62
   179
420
  2234388
370
     9
100
AcDbVertex
100
AcDb2dVertex
 10
84.89575838968432
 20
-136.7399827435926
 30
0.0
  0
SEQEND
  5
76
330
73
100
AcDbEntity
  8
_U+30EC_U+30A4_U+30E4_U+30FC 1
 62
   179
420
  2234388
370
     9
  0
SPLINE
  5
77
330
1F
100
AcDbEntity
  8
_U+30EC_U+30A4_U+30E4_U+30FC 1
 62
   179
420
  2234388
370
    25
100
AcDbSpline
210
0.0
220
0.0
230
1.0
 70
     8
 71
     3
 72
     8
 73
     4
 74
     0
 42
0.0000000001
 43
0.0000000001
 12
1.0
 22
0.0
 32
0.0
 13
1.0
 23
0.0
 33
0.0
 40
0.0
 40
0.0
 40
0.0
 40
0.0
 40
1.0
 40
1.0
 40
1.0
 40
1.0
 10
85.35257032247452
 20
-134.7335591329831
 30
0.0
 10
85.35257032247452
 20
-135.2861502439566
 30
0.0
 10
85.80045697771465
 20
-135.734001632733
 30
0.0
 10
86.35304807472798
 20
-135.734001632733
 30
0.0
  0
SPLINE
  5
78
330
1F
100
AcDbEntity
  8
_U+30EC_U+30A4_U+30E4_U+30FC 1
 62
   179
420
  2234388
370
    25
100
AcDbSpline
210
0.0
220
0.0
230
1.0
 70
     8
 71
     3
 72
     8
 73
     4
 74
     0
 42
0.0000000001
 43
0.0000000001
 12
1.0
 22
0.0
 32
0.0
 13
1.0
 23
0.0
 33
0.0
 40
0.0
 40
0.0
 40
0.0
 40
0.0
 40
1.0
 40
1.0
 40
1.0
 40
1.0
 10
86.35304807472798
 20
-122.7334349693168
 30
0.0
 10
85.80045697771465
 20
-122.7334349693168
 30
0.0
 10
85.35257032247452
 20
-123.1812863580935
 30
0.0
 10
85.35257032247452
 20
-123.7335246912889
 30
0.0
  0
SPLINE
  5
79
330
1F
100
AcDbEntity
  8
_U+30EC_U+30A4_U+30E4_U+30FC 1
 62
   179
420
  2234388
370
    25
100
AcDbSpline
210
0.0
220
0.0
230
1.0
 70
     8
 71
     3
 72
     8
 73
     4
 74
     0
 42
0.0000000001
 43
0.0000000001
 12
1.0
 22
0.0
 32
0.0
 13
1.0
 23
0.0
 33
0.0
 40
0.0
 40
0.0
 40
0.0
 40
0.0
 40
1.0
 40
1.0
 40
1.0
 40
1.0
 10
97.3525555312171
 20
-135.734001632733
 30
0.0
 10
97.90514416889835
 20
-135.734001632733
 30
0.0
 10
98.3529955463616
 20
-135.2861502439566
 30
0.0
 10
98.3529955463616
 20
-134.7335591329831
 30
0.0
  0
SPLINE
  5
7A
330
1F
100
AcDbEntity
  8
_U+30EC_U+30A4_U+30E4_U+30FC 1
 62
   179
420
  2234388
370
    25
100
AcDbSpline
210
0.0
220
0.0
230
1.0
 70
     8
 71
     3
 72
     8
 73
     4
 74
     0
 42
0.0000000001
 43
0.0000000001
 12
1.0
 22
0.0
 32
0.0
 13
1.0
 23
0.0
 33
0.0
 40
0.0
 40
0.0
 40
0.0
 40
0.0
 40
1.0
 40
1.0
 40
1.0
 40
1.0
 10
103.652917077816
 20
-127.9334499680165
 30
0.0
 10
104.0394583073238
 20
-127.9334499680165
 30
0.0
 10
104.3529692821784
 20
-127.619936356984
 30
0.0
 10
104.3529692821784
 20
-127.2333977459696
 30
0.0
  0
SPLINE
  5
7B
330
1F
100
AcDbEntity
  8
_U+30EC_U+30A4_U+30E4_U+30FC 1
 62
   179
420
  2234388
370
     9
100
AcDbSpline
210
0.0
220
0.0
230
1.0
 70
    11
 71
     3
 72
    17
 73
    13
 74
     0
 42
0.0000000001
 43
0.0000000001
 12
1.0
 22
0.0
 32
0.0
 13
1.0
 23
0.0
 33
0.0
 40
0.0
 40
0.0
 40
0.0
 40
0.0
 40
1.0
 40
1.0
 40
1.0
 40
2.0
 40
2.0
 40
2.0
 40
3.0
 40
3.0
 40
3.0
 40
4.0
 40
4.0
 40
4.0
 40
4.0
 10
104.4528759462962
 20
-118.7336758036499
 30
0.0
 10
104.4528759462962
 20
-118.6785366369972
 30
0.0
 10
104.4081110850088
 20
-118.6337691370083
 30
0.0
 10
104.3529692821784
 20
-118.6337691370083
 30
0.0
 10
104.2978653946953
 20
-118.6337691370083
 30
0.0
 10
104.2530626180606
 20
-118.6785366369972
 30
0.0
 10
104.2530626180606
 20
-118.7336758036499
 30
0.0
 10
104.2530626180606
 20
-118.7887796925252
 30
0.0
 10
104.2978653946953
 20
-118.8335824702916
 30
0.0
 10
104.3529692821784
 20
-118.8335824702916
 30
0.0
 10
104.4081110850088
 20
-118.8335824702916
 30
0.0
 10
104.4528759462962
 20
-118.7887796925252
 30
0.0
 10
104.4528759462962
 20
-118.7336758036499
 30
0.0
  0
SPLINE
  5
7C
330
1F
100
AcDbEntity
  8
_U+30EC_U+30A4_U+30E4_U+30FC 1
 62
   179
420
  2234388
370
     9
100
AcDbSpline
210
0.0
220
0.0
230
1.0
 70
    11
 71
     3
 72
    17
 73
    13
 74
     0
 42
0.0000000001
 43
0.0000000001
 12
1.0
 22
0.0
 32
0.0
 13
1.0
 23
0.0
 33
0.0
 40
0.0
 40
0.0
 40
0.0
 40
0.0
 40
1.0
 40
1.0
 40
1.0
 40
2.0
 40
2.0
 40
2.0
 40
3.0
 40
3.0
 40
3.0
 40
4.0
 40
4.0
 40
4.0
 40
4.0
 10
86.45295473884582
 20
-118.7336758036499
 30
0.0
 10
86.45295473884582
 20
-118.6785366369972
 30
0.0
 10
86.40815196221105
 20
-118.6337691370083
 30
0.0
 10
86.35304807472798
 20
-118.6337691370083
 30
0.0
 10
86.29791108953657
 20
-118.6337691370083
 30
0.0
 10
86.25314141061016
 20
-118.6785366369972
 30
0.0
 10
86.25314141061016
 20
-118.7336758036499
 30
0.0
 10
86.25314141061016
 20
-118.7887796925252
 30
0.0
 10
86.29791108953657
 20
-118.8335824702916
 30
0.0
 10
86.35304807472798
 20
-118.8335824702916
 30
0.0
 10
86.40815196221105
 20
-118.8335824702916
 30
0.0
 10
86.45295473884582
 20
-118.7887796925252
 30
0.0
 10
86.45295473884582
 20
-118.7336758036499
 30
0.0
  0
SPLINE
  5
7D
330
1F
100
AcDbEntity
  8
_U+30EC_U+30A4_U+30E4_U+30FC 1
 62
   179
420
  2234388
370
     9
100
AcDbSpline
210
0.0
220
0.0
230
1.0
 70
    11
 71
     3
 72
    17
 73
    13
 74
     0
 42
0.0000000001
 43
0.0000000001
 12
1.0
 22
0.0
 32
0.0
 13
1.0
 23
0.0
 33
0.0
 40
0.0
 40
0.0
 40
0.0
 40
0.0
 40
1.0
 40
1.0
 40
1.0
 40
2.0
 40
2.0
 40
2.0
 40
3.0
 40
3.0
 40
3.0
 40
4.0
 40
4.0
 40
4.0
 40
4.0
 10
85.45247698659236
 20
-125.2335358020249
 30
0.0
 10
85.45247698659236
 20
-125.1783966353721
 30
0.0
 10
85.40770948773446
 20
-125.1336291353832
 30
0.0
 10
85.35257032247452
 20
-125.1336291353832
 30
0.0
 10
85.29746643499145
 20
-125.1336291353832
 30
0.0
 10
85.25266365835668
 20
-125.1783966353721
 30
0.0
 10
85.25266365835668
 20
-125.2335358020249
 30
0.0
 10
85.25266365835668
 20
-125.2889924686779
 30
0.0
 10
85.29746643499145
 20
-125.3337952464443
 30
0.0
 10
85.35257032247452
 20
-125.3337952464443
 30
0.0
 10
85.40770948773446
 20
-125.3337952464443
 30
0.0
 10
85.45247698659236
 20
-125.2889924686779
 30
0.0
 10
85.45247698659236
 20
-125.2335358020249
 30
0.0
  0
SPLINE
  5
7E
330
1F
100
AcDbEntity
  8
_U+30EC_U+30A4_U+30E4_U+30FC 1
 62
   179
420
  2234388
370
     9
100
AcDbSpline
210
0.0
220
0.0
230
1.0
 70
    11
 71
     3
 72
    17
 73
    13
 74
     0
 42
0.0000000001
 43
0.0000000001
 12
1.0
 22
0.0
 32
0.0
 13
1.0
 23
0.0
 33
0.0
 40
0.0
 40
0.0
 40
0.0
 40
0.0
 40
1.0
 40
1.0
 40
1.0
 40
2.0
 40
2.0
 40
2.0
 40
3.0
 40
3.0
 40
3.0
 40
4.0
 40
4.0
 40
4.0
 40
4.0
 10
86.45295473884582
 20
-125.2335358020249
 30
0.0
 10
86.45295473884582
 20
-125.1783966353721
 30
0.0
 10
86.40815196221105
 20
-125.1336291353832
 30
0.0
 10
86.35304807472798
 20
-125.1336291353832
 30
0.0
 10
86.29723863170736
 20
-125.1336291353832
 30
0.0
 10
86.25243585507259
 20
-125.1783966353721
 30
0.0
 10
86.25243585507259
 20
-125.2335358020249
 30
0.0
 10
86.25243585507259
 20
-125.2889924686779
 30
0.0
 10
86.29723863170736
 20
-125.3337952464443
 30
0.0
 10
86.35304807472798
 20
-125.3337952464443
 30
0.0
 10
86.40815196221105
 20
-125.3337952464443
 30
0.0
 10
86.45295473884582
 20
-125.2889924686779
 30
0.0
 10
86.45295473884582
 20
-125.2335358020249
 30
0.0
  0
SPLINE
  5
7F
330
1F
100
AcDbEntity
  8
_U+30EC_U+30A4_U+30E4_U+30FC 1
 62
   179
420
  2234388
370
     9
100
AcDbSpline
210
0.0
220
0.0
230
1.0
 70
    11
 71
     3
 72
    17
 73
    13
 74
     0
 42
0.0000000001
 43
0.0000000001
 12
1.0
 22
0.0
 32
0.0
 13
1.0
 23
0.0
 33
0.0
 40
0.0
 40
0.0
 40
0.0
 40
0.0
 40
1.0
 40
1.0
 40
1.0
 40
2.0
 40
2.0
 40
2.0
 40
3.0
 40
3.0
 40
3.0
 40
4.0
 40
4.0
 40
4.0
 40
4.0
 10
81.45271792196804
 20
-135.734001632733
 30
0.0
 10
81.45271792196804
 20
-135.6781921883025
 30
0.0
 10
81.40795042311015
 20
-135.633424688314
 30
0.0
 10
81.3528112578502
 20
-135.633424688314
 30
0.0
 10
81.29770737036714
 20
-135.633424688314
 30
0.0
 10
81.25290459373237
 20
-135.6781921883025
 30
0.0
 10
81.25290459373237
 20
-135.734001632733
 30
0.0
 10
81.25290459373237
 20
-135.789140799386
 30
0.0
 10
81.29770737036714
 20
-135.8339082993746
 30
0.0
 10
81.3528112578502
 20
-135.8339082993746
 30
0.0
 10
81.40795042311015
 20
-135.8339082993746
 30
0.0
 10
81.45271792196804
 20
-135.789140799386
 30
0.0
 10
81.45271792196804
 20
-135.734001632733
 30
0.0
  0
SPLINE
  5
80
330
1F
100
AcDbEntity
  8
_U+30EC_U+30A4_U+30E4_U+30FC 1
 62
   179
420
  2234388
370
     9
100
AcDbSpline
210
0.0
220
0.0
230
1.0
 70
    11
 71
     3
 72
    17
 73
    13
 74
     0
 42
0.0000000001
 43
0.0000000001
 12
1.0
 22
0.0
 32
0.0
 13
1.0
 23
0.0
 33
0.0
 40
0.0
 40
0.0
 40
0.0
 40
0.0
 40
1.0
 40
1.0
 40
1.0
 40
2.0
 40
2.0
 40
2.0
 40
3.0
 40
3.0
 40
3.0
 40
4.0
 40
4.0
 40
4.0
 40
4.0
 10
81.45271792196804
 20
-122.7334349693168
 30
0.0
 10
81.45271792196804
 20
-122.6782958026637
 30
0.0
 10
81.40795042311015
 20
-122.6335283026748
 30
0.0
 10
81.3528112578502
 20
-122.6335283026748
 30
0.0
 10
81.29770737036714
 20
-122.6335283026748
 30
0.0
 10
81.25290459373237
 20
-122.6782958026637
 30
0.0
 10
81.25290459373237
 20
-122.7334349693168
 30
0.0
 10
81.25290459373237
 20
-122.7888916359695
 30
0.0
 10
81.29770737036714
 20
-122.8336591359584
 30
0.0
 10
81.3528112578502
 20
-122.8336591359584
 30
0.0
 10
81.40795042311015
 20
-122.8336591359584
 30
0.0
 10
81.45271792196804
 20
-122.7888916359695
 30
0.0
 10
81.45271792196804
 20
-122.7334349693168
 30
0.0
  0
SPLINE
  5
81
330
1F
100
AcDbEntity
  8
_U+30EC_U+30A4_U+30E4_U+30FC 1
 62
   179
420
  2234388
370
     9
100
AcDbSpline
210
0.0
220
0.0
230
1.0
 70
    11
 71
     3
 72
    17
 73
    13
 74
     0
 42
0.0000000001
 43
0.0000000001
 12
1.0
 22
0.0
 32
0.0
 13
1.0
 23
0.0
 33
0.0
 40
0.0
 40
0.0
 40
0.0
 40
0.0
 40
1.0
 40
1.0
 40
1.0
 40
2.0
 40
2.0
 40
2.0
 40
3.0
 40
3.0
 40
3.0
 40
4.0
 40
4.0
 40
4.0
 40
4.0
 10
98.45290221047944
 20
-139.7337607983999
 30
0.0
 10
98.45290221047944
 20
-139.6786569095249
 30
0.0
 10
98.40809943384467
 20
-139.6338541317582
 30
0.0
 10
98.3529955463616
 20
-139.6338541317582
 30
0.0
 10
98.29785638110165
 20
-139.6338541317582
 30
0.0
 10
98.25308888224376
 20
-139.6786569095249
 30
0.0
 10
98.25308888224376
 20
-139.7337607983999
 30
0.0
 10
98.25308888224376
 20
-139.7888999650529
 30
0.0
 10
98.29785638110165
 20
-139.8336674650415
 30
0.0
 10
98.3529955463616
 20
-139.8336674650415
 30
0.0
 10
98.40809943384467
 20
-139.8336674650415
 30
0.0
 10
98.45290221047944
 20
-139.7888999650529
 30
0.0
 10
98.45290221047944
 20
-139.7337607983999
 30
0.0
  0
SPLINE
  5
82
330
1F
100
AcDbEntity
  8
_U+30EC_U+30A4_U+30E4_U+30FC 1
 62
   179
420
  2234388
370
     9
100
AcDbSpline
210
0.0
220
0.0
230
1.0
 70
    11
 71
     3
 72
    17
 73
    13
 74
     0
 42
0.0000000001
 43
0.0000000001
 12
1.0
 22
0.0
 32
0.0
 13
1.0
 23
0.0
 33
0.0
 40
0.0
 40
0.0
 40
0.0
 40
0.0
 40
1.0
 40
1.0
 40
1.0
 40
2.0
 40
2.0
 40
2.0
 40
3.0
 40
3.0
 40
3.0
 40
4.0
 40
4.0
 40
4.0
 40
4.0
 10
85.45247698659236
 20
-139.7337607983999
 30
0.0
 10
85.45247698659236
 20
-139.6786569095249
 30
0.0
 10
85.40770948773446
 20
-139.6338541317582
 30
0.0
 10
85.35257032247452
 20
-139.6338541317582
 30
0.0
 10
85.29746643499145
 20
-139.6338541317582
 30
0.0
 10
85.25266365835668
 20
-139.6786569095249
 30
0.0
 10
85.25266365835668
 20
-139.7337607983999
 30
0.0
 10
85.25266365835668
 20
-139.7888999650529
 30
0.0
 10
85.29746643499145
 20
-139.8336674650415
 30
0.0
 10
85.35257032247452
 20
-139.8336674650415
 30
0.0
 10
85.40770948773446
 20
-139.8336674650415
 30
0.0
 10
85.45247698659236
 20
-139.7888999650529
 30
0.0
 10
85.45247698659236
 20
-139.7337607983999
 30
0.0
  0
SPLINE
  5
83
330
1F
100
AcDbEntity
  8
_U+30EC_U+30A4_U+30E4_U+30FC 1
 62
   179
420
  2234388
370
     9
100
AcDbSpline
210
0.0
220
0.0
230
1.0
 70
    11
 71
     3
 72
    17
 73
    13
 74
     0
 42
0.0000000001
 43
0.0000000001
 12
1.0
 22
0.0
 32
0.0
 13
1.0
 23
0.0
 33
0.0
 40
0.0
 40
0.0
 40
0.0
 40
0.0
 40
1.0
 40
1.0
 40
1.0
 40
2.0
 40
2.0
 40
2.0
 40
3.0
 40
3.0
 40
3.0
 40
4.0
 40
4.0
 40
4.0
 40
4.0
 10
102.4526638632755
 20
-128.2335227457195
 30
0.0
 10
102.4526638632755
 20
-128.1783835790665
 30
0.0
 10
102.4078610855095
 20
-128.1336160790776
 30
0.0
 10
102.3527546109859
 20
-128.1336160790776
 30
0.0
 10
102.297615445726
 20
-128.1336160790776
 30
0.0
 10
102.2528479468681
 20
-128.1783835790665
 30
0.0
 10
102.2528479468681
 20
-128.2335227457195
 30
0.0
 10
102.2528479468681
 20
-128.2889794123722
 30
0.0
 10
102.297615445726
 20
-128.3337821901389
 30
0.0
 10
102.3527546109859
 20
-128.3337821901389
 30
0.0
 10
102.4078610855095
 20
-128.3337821901389
 30
0.0
 10
102.4526638632755
 20
-128.2889794123722
 30
0.0
 10
102.4526638632755
 20
-128.2335227457195
 30
0.0
  0
SPLINE
  5
84
330
1F
100
AcDbEntity
  8
_U+30EC_U+30A4_U+30E4_U+30FC 1
 62
   179
420
  2234388
370
     9
100
AcDbSpline
210
0.0
220
0.0
230
1.0
 70
    11
 71
     3
 72
    17
 73
    13
 74
     0
 42
0.0000000001
 43
0.0000000001
 12
1.0
 22
0.0
 32
0.0
 13
1.0
 23
0.0
 33
0.0
 40
0.0
 40
0.0
 40
0.0
 40
0.0
 40
1.0
 40
1.0
 40
1.0
 40
2.0
 40
2.0
 40
2.0
 40
3.0
 40
3.0
 40
3.0
 40
4.0
 40
4.0
 40
4.0
 40
4.0
 10
102.4526638632755
 20
-134.7335591329831
 30
0.0
 10
102.4526638632755
 20
-134.6784199663306
 30
0.0
 10
102.4078610855095
 20
-134.6336524663414
 30
0.0
 10
102.3527546109859
 20
-134.6336524663414
 30
0.0
 10
102.297615445726
 20
-134.6336524663414
 30
0.0
 10
102.2528479468681
 20
-134.6784199663306
 30
0.0
 10
102.2528479468681
 20
-134.7335591329831
 30
0.0
 10
102.2528479468681
 20
-134.7886630218586
 30
0.0
 10
102.297615445726
 20
-134.8334657996247
 30
0.0
 10
102.3527546109859
 20
-134.8334657996247
 30
0.0
 10
102.4078610855095
 20
-134.8334657996247
 30
0.0
 10
102.4526638632755
 20
-134.7886630218586
 30
0.0
 10
102.4526638632755
 20
-134.7335591329831
 30
0.0
  0
INSERT
  5
86
330
1F
100
AcDbEntity
  8
_U+30EC_U+30A4_U+30E4_U+30FC 1
100
AcDbBlockReference
  2
block 2
 10
0.0
 20
0.0
 30
0.0
  0
POLYLINE
  5
8E
330
1F
100
AcDbEntity
  8
_U+30EC_U+30A4_U+30E4_U+30FC 1
 62
   179
420
  2234388
370
     9
100
AcDb2dPolyline
 66
     1
 10
0.0
 20
0.0
 30
0.0
  0
VERTEX
  5
8F
330
8E
100
AcDbEntity
  8
_U+30EC_U+30A4_U+30E4_U+30FC 1
 62
   179
420
  2234388
370
     9
100
AcDbVertex
100
AcDb2dVertex
 10
86.35304807472798
 20
-118.7336758036499
 30
0.0
  0
VERTEX
  5
90
330
8E
100
AcDbEntity
  8
_U+30EC_U+30A4_U+30E4_U+30FC 1
 62
   179
420
  2234388
370
     9
100
AcDbVertex
100
AcDb2dVertex
 10
104.3529692821784
 20
-118.7336758036499
 30
0.0
  0
SEQEND
  5
91
330
8E
100
AcDbEntity
  8
_U+30EC_U+30A4_U+30E4_U+30FC 1
 62
   179
420
  2234388
370
     9
  0
POLYLINE
  5
92
330
1F
100
AcDbEntity
  8
_U+30EC_U+30A4_U+30E4_U+30FC 1
 62
   179
420
  2234388
370
     9
100
AcDb2dPolyline
 66
     1
 10
0.0
 20
0.0
 30
0.0
  0
VERTEX
  5
93
330
92
100
AcDbEntity
  8
_U+30EC_U+30A4_U+30E4_U+30FC 1
 62
   179
420
  2234388
370
     9
100
AcDbVertex
100
AcDb2dVertex
 10
86.35304807472798
 20
-121.1934541363683
 30
0.0
  0
VERTEX
  5
94
330
92
100
AcDbEntity
  8
_U+30EC_U+30A4_U+30E4_U+30FC 1
 62
   179
420
  2234388
370
     9
100
AcDbVertex
100
AcDb2dVertex
 10
86.35304807472798
 20
-117.7335508038999
 30
0.0
  0
SEQEND
  5
95
330
92
100
AcDbEntity
  8
_U+30EC_U+30A4_U+30E4_U+30FC 1
 62
   179
420
  2234388
370
     9
  0
POLYLINE
  5
96
330
1F
100
AcDbEntity
  8
_U+30EC_U+30A4_U+30E4_U+30FC 1
 62
   179
420
  2234388
370
     9
100
AcDb2dPolyline
 66
     1
 10
0.0
 20
0.0
 30
0.0
  0
VERTEX
  5
97
330
96
100
AcDbEntity
  8
_U+30EC_U+30A4_U+30E4_U+30FC 1
 62
   179
420
  2234388
370
     9
100
AcDbVertex
100
AcDb2dVertex
 10
104.3529692821784
 20
-124.6936799688267
 30
0.0
  0
VERTEX
  5
98
330
96
100
AcDbEntity
  8
_U+30EC_U+30A4_U+30E4_U+30FC 1
 62
   179
420
  2234388
370
     9
100
AcDbVertex
100
AcDb2dVertex
 10
104.3529692821784
 20
-117.7335508038999
 30
0.0
  0
SEQEND
  5
99
330
96
100
AcDbEntity
  8
_U+30EC_U+30A4_U+30E4_U+30FC 1
 62
   179
420
  2234388
370
     9
  0
INSERT
  5
9B
330
1F
100
AcDbEntity
  8
_U+30EC_U+30A4_U+30E4_U+30FC 1
100
AcDbBlockReference
  2
block 3
 10
0.0
 20
0.0
 30
0.0
  0
POLYLINE
  5
A4
330
1F
100
AcDbEntity
  8
_U+30EC_U+30A4_U+30E4_U+30FC 1
 62
   179
420
  2234388
370
     9
100
AcDb2dPolyline
 66
     1
 10
0.0
 20
0.0
 30
0.0
  0
VERTEX
  5
A5
330
A4
100
AcDbEntity
  8
_U+30EC_U+30A4_U+30E4_U+30FC 1
 62
   179
420
  2234388
370
     9
100
AcDbVertex
100
AcDb2dVertex
 10
86.35304807472798
 20
-125.2335358020249
 30
0.0
  0
VERTEX
  5
A6
330
A4
100
AcDbEntity
  8
_U+30EC_U+30A4_U+30E4_U+30FC 1
 62
   179
420
  2234388
370
     9
100
AcDbVertex
100
AcDb2dVertex
 10
90.1233604785393
 20
-125.2335358020249
 30
0.0
  0
SEQEND
  5
A7
330
A4
100
AcDbEntity
  8
_U+30EC_U+30A4_U+30E4_U+30FC 1
 62
   179
420
  2234388
370
     9
  0
POLYLINE
  5
A8
330
1F
100
AcDbEntity
  8
_U+30EC_U+30A4_U+30E4_U+30FC 1
 62
   179
420
  2234388
370
     9
100
AcDb2dPolyline
 66
     1
 10
0.0
 20
0.0
 30
0.0
  0
VERTEX
  5
A9
330
A8
100
AcDbEntity
  8
_U+30EC_U+30A4_U+30E4_U+30FC 1
 62
   179
420
  2234388
370
     9
100
AcDbVertex
100
AcDb2dVertex
 10
84.35283340353548
 20
-125.2335358020249
 30
0.0
  0
VERTEX
  5
AA
330
A8
100
AcDbEntity
  8
_U+30EC_U+30A4_U+30E4_U+30FC 1
 62
   179
420
  2234388
370
     9
100
AcDbVertex
100
AcDb2dVertex
 10
86.35304807472798
 20
-125.2335358020249
 30
0.0
  0
SEQEND
  5
AB
330
A8
100
AcDbEntity
  8
_U+30EC_U+30A4_U+30E4_U+30FC 1
 62
   179
420
  2234388
370
     9
  0
INSERT
  5
AD
330
1F
100
AcDbEntity
  8
_U+30EC_U+30A4_U+30E4_U+30FC 1
100
AcDbBlockReference
  2
block 4
 10
0.0
 20
0.0
 30
0.0
  0
POLYLINE
  5
B2
330
1F
100
AcDbEntity
  8
_U+30EC_U+30A4_U+30E4_U+30FC 1
 62
   179
420
  2234388
370
     9
100
AcDb2dPolyline
 66
     1
 10
0.0
 20
0.0
 30
0.0
  0
VERTEX
  5
B3
330
B2
100
AcDbEntity
  8
_U+30EC_U+30A4_U+30E4_U+30FC 1
 62
   179
420
  2234388
370
     9
100
AcDbVertex
100
AcDb2dVertex
 10
81.3528112578502
 20
-135.734001632733
 30
0.0
  0
VERTEX
  5
B4
330
B2
100
AcDbEntity
  8
_U+30EC_U+30A4_U+30E4_U+30FC 1
 62
   179
420
  2234388
370
     9
100
AcDbVertex
100
AcDb2dVertex
 10
81.3528112578502
 20
-122.7334349693168
 30
0.0
  0
SEQEND
  5
B5
330
B2
100
AcDbEntity
  8
_U+30EC_U+30A4_U+30E4_U+30FC 1
 62
   179
420
  2234388
370
     9
  0
POLYLINE
  5
B6
330
1F
100
AcDbEntity
  8
_U+30EC_U+30A4_U+30E4_U+30FC 1
 62
   179
420
  2234388
370
     9
100
AcDb2dPolyline
 66
     1
 10
0.0
 20
0.0
 30
0.0
  0
VERTEX
  5
B7
330
B6
100
AcDbEntity
  8
_U+30EC_U+30A4_U+30E4_U+30FC 1
 62
   179
420
  2234388
370
     9
100
AcDbVertex
100
AcDb2dVertex
 10
83.81262480620624
 20
-135.734001632733
 30
0.0
  0
VERTEX
  5
B8
330
B6
100
AcDbEntity
  8
_U+30EC_U+30A4_U+30E4_U+30FC 1
 62
   179
420
  2234388
370
     9
100
AcDbVertex
100
AcDb2dVertex
 10
80.35307433891117
 20
-135.734001632733
 30
0.0
  0
SEQEND
  5
B9
330
B6
100
AcDbEntity
  8
_U+30EC_U+30A4_U+30E4_U+30FC 1
 62
   179
420
  2234388
370
     9
  0
POLYLINE
  5
BA
330
1F
100
AcDbEntity
  8
_U+30EC_U+30A4_U+30E4_U+30FC 1
 62
   179
420
  2234388
370
     9
100
AcDb2dPolyline
 66
     1
 10
0.0
 20
0.0
 30
0.0
  0
VERTEX
  5
BB
330
BA
100
AcDbEntity
  8
_U+30EC_U+30A4_U+30E4_U+30FC 1
 62
   179
420
  2234388
370
     9
100
AcDbVertex
100
AcDb2dVertex
 10
83.81262480620624
 20
-122.7334349693168
 30
0.0
  0
VERTEX
  5
BC
330
BA
100
AcDbEntity
  8
_U+30EC_U+30A4_U+30E4_U+30FC 1
 62
   179
420
  2234388
370
     9
100
AcDbVertex
100
AcDb2dVertex
 10
80.35307433891117
 20
-122.7334349693168
 30
0.0
  0
SEQEND
  5
BD
330
BA
100
AcDbEntity
  8
_U+30EC_U+30A4_U+30E4_U+30FC 1
 62
   179
420
  2234388
370
     9
  0
INSERT
  5
BF
330
1F
100
AcDbEntity
  8
_U+30EC_U+30A4_U+30E4_U+30FC 1
100
AcDbBlockReference
  2
block 5
 10
0.0
 20
0.0
 30
0.0
  0
POLYLINE
  5
C6
330
1F
100
AcDbEntity
  8
_U+30EC_U+30A4_U+30E4_U+30FC 1
 62
   179
420
  2234388
370
     9
100
AcDb2dPolyline
 66
     1
 10
0.0
 20
0.0
 30
0.0
  0
VERTEX
  5
C7
330
C6
100
AcDbEntity
  8
_U+30EC_U+30A4_U+30E4_U+30FC 1
 62
   179
420
  2234388
370
     9
100
AcDbVertex
100
AcDb2dVertex
 10
85.35257032247452
 20
-139.7337607983999
 30
0.0
  0
VERTEX
  5
C8
330
C6
100
AcDbEntity
  8
_U+30EC_U+30A4_U+30E4_U+30FC 1
 62
   179
420
  2234388
370
     9
100
AcDbVertex
100
AcDb2dVertex
 10
98.3529955463616
 20
-139.7337607983999
 30
0.0
  0
SEQEND
  5
C9
330
C6
100
AcDbEntity
  8
_U+30EC_U+30A4_U+30E4_U+30FC 1
 62
   179
420
  2234388
370
     9
  0
POLYLINE
  5
CA
330
1F
100
AcDbEntity
  8
_U+30EC_U+30A4_U+30E4_U+30FC 1
 62
   179
420
  2234388
370
     9
100
AcDb2dPolyline
 66
     1
 10
0.0
 20
0.0
 30
0.0
  0
VERTEX
  5
CB
330
CA
100
AcDbEntity
  8
_U+30EC_U+30A4_U+30E4_U+30FC 1
 62
   179
420
  2234388
370
     9
100
AcDbVertex
100
AcDb2dVertex
 10
85.35257032247452
 20
-137.2739471879036
 30
0.0
  0
VERTEX
  5
CC
330
CA
100
AcDbEntity
  8
_U+30EC_U+30A4_U+30E4_U+30FC 1
 62
   179
420
  2234388
370
     9
100
AcDbVertex
100
AcDb2dVertex
 10
85.35257032247452
 20
-140.7335330203724
 30
0.0
  0
SEQEND
  5
CD
330
CA
100
AcDbEntity
  8
_U+30EC_U+30A4_U+30E4_U+30FC 1
 62
   179
420
  2234388
370
     9
  0
POLYLINE
  5
CE
330
1F
100
AcDbEntity
  8
_U+30EC_U+30A4_U+30E4_U+30FC 1
 62
   179
420
  2234388
370
     9
100
AcDb2dPolyline
 66
     1
 10
0.0
 20
0.0
 30
0.0
  0
VERTEX
  5
CF
330
CE
100
AcDbEntity
  8
_U+30EC_U+30A4_U+30E4_U+30FC 1
 62
   179
420
  2234388
370
     9
100
AcDbVertex
100
AcDb2dVertex
 10
98.3529955463616
 20
-137.2739471879036
 30
0.0
  0
VERTEX
  5
D0
330
CE
100
AcDbEntity
  8
_U+30EC_U+30A4_U+30E4_U+30FC 1
 62
   179
420
  2234388
370
     9
100
AcDbVertex
100
AcDb2dVertex
 10
98.3529955463616
 20
-140.7335330203724
 30
0.0
  0
SEQEND
  5
D1
330
CE
100
AcDbEntity
  8
_U+30EC_U+30A4_U+30E4_U+30FC 1
 62
   179
420
  2234388
370
     9
  0
INSERT
  5
D3
330
1F
100
AcDbEntity
  8
_U+30EC_U+30A4_U+30E4_U+30FC 1
100
AcDbBlockReference
  2
block 6
 10
0.0
 20
0.0
 30
0.0
  0
POLYLINE
  5
DA
330
1F
100
AcDbEntity
  8
_U+30EC_U+30A4_U+30E4_U+30FC 1
 62
   179
420
  2234388
370
     9
100
AcDb2dPolyline
 66
     1
 10
0.0
 20
0.0
 30
0.0
  0
VERTEX
  5
DB
330
DA
100
AcDbEntity
  8
_U+30EC_U+30A4_U+30E4_U+30FC 1
 62
   179
420
  2234388
370
     9
100
AcDbVertex
100
AcDb2dVertex
 10
102.3527546109859
 20
-134.7335591329831
 30
0.0
  0
VERTEX
  5
DC
330
DA
100
AcDbEntity
  8
_U+30EC_U+30A4_U+30E4_U+30FC 1
 62
   179
420
  2234388
370
     9
100
AcDbVertex
100
AcDb2dVertex
 10
102.3527546109859
 20
-128.2335227457195
 30
0.0
  0
SEQEND
  5
DD
330
DA
100
AcDbEntity
  8
_U+30EC_U+30A4_U+30E4_U+30FC 1
 62
   179
420
  2234388
370
     9
  0
POLYLINE
  5
DE
330
1F
100
AcDbEntity
  8
_U+30EC_U+30A4_U+30E4_U+30FC 1
 62
   179
420
  2234388
370
     9
100
AcDb2dPolyline
 66
     1
 10
0.0
 20
0.0
 30
0.0
  0
VERTEX
  5
DF
330
DE
100
AcDbEntity
  8
_U+30EC_U+30A4_U+30E4_U+30FC 1
 62
   179
420
  2234388
370
     9
100
AcDbVertex
100
AcDb2dVertex
 10
100.8927132593458
 20
-134.7335591329831
 30
0.0
  0
VERTEX
  5
E0
330
DE
100
AcDbEntity
  8
_U+30EC_U+30A4_U+30E4_U+30FC 1
 62
   179
420
  2234388
370
     9
100
AcDbVertex
100
AcDb2dVertex
 10
103.3525268077018
 20
-134.7335591329831
 30
0.0
  0
SEQEND
  5
E1
330
DE
100
AcDbEntity
  8
_U+30EC_U+30A4_U+30E4_U+30FC 1
 62
   179
420
  2234388
370
     9
  0
POLYLINE
  5
E2
330
1F
100
AcDbEntity
  8
_U+30EC_U+30A4_U+30E4_U+30FC 1
 62
   179
420
  2234388
370
     9
100
AcDb2dPolyline
 66
     1
 10
0.0
 20
0.0
 30
0.0
  0
VERTEX
  5
E3
330
E2
100
AcDbEntity
  8
_U+30EC_U+30A4_U+30E4_U+30FC 1
 62
   179
420
  2234388
370
     9
100
AcDbVertex
100
AcDb2dVertex
 10
100.8927132593458
 20
-128.2335227457195
 30
0.0
  0
VERTEX
  5
E4
330
E2
100
AcDbEntity
  8
_U+30EC_U+30A4_U+30E4_U+30FC 1
 62
   179
420
  2234388
370
     9
100
AcDbVertex
100
AcDb2dVertex
 10
103.3525268077018
 20
-128.2335227457195
 30
0.0
  0
SEQEND
  5
E5
330
E2
100
AcDbEntity
  8
_U+30EC_U+30A4_U+30E4_U+30FC 1
 62
   179
420
  2234388
370
     9
  0
INSERT
  5
E7
330
1F
100
AcDbEntity
  8
_U+30EC_U+30A4_U+30E4_U+30FC 1
100
AcDbBlockReference
  2
block 7
 10
0.0
 20
0.0
 30
0.0
  0
ENDSEC
  0
SECTION
  2
OBJECTS
  0
DICTIONARY
  5
C
330
0
100
AcDbDictionary
281
     1
  3
ACAD_GROUP
350
D
  3
ACAD_LAYOUT
350
1A
  3
ACAD_MATERIAL
350
3B
  3
ACAD_MLEADERSTYLE
350
F8
  3
ACAD_MLINESTYLE
350
17
  3
ACAD_PLOTSETTINGS
350
19
  3
ACAD_PLOTSTYLENAME
350
E
  3
ACAD_TABLESTYLE
350
F7
  3
ACAD_VISUALSTYLE
350
2A
  0
SUN
  5
3F
330
29
100
AcDbSun
 90
        1
290
     0
 63
     7
421
 16777215
 40
1.0
291
     1
 91
  2455826
 92
 54000000
292
     0
 70
     2
 71
   256
280
     1
  0
DICTIONARY
  5
D
102
{ACAD_REACTORS
330
C
102
}
330
C
100
AcDbDictionary
281
     1
  0
DICTIONARY
  5
1A
102
{ACAD_REACTORS
330
C
102
}
330
C
100
AcDbDictionary
281
     1
  3
Layout1
350
1E
  3
Layout2
350
26
  3
Model
350
22
  0
DICTIONARY
  5
3B
102
{ACAD_REACTORS
330
C
102
}
330
C
100
AcDbDictionary
281
     1
  3
ByBlock
350
3D
  3
ByLayer
350
3C
  3
Global
350
3E
  0
DICTIONARY
  5
F8
102
{ACAD_REACTORS
330
C
102
}
330
C
100
AcDbDictionary
281
     1
  0
DICTIONARY
  5
17
102
{ACAD_REACTORS
330
C
102
}
330
C
100
AcDbDictionary
281
     1
  3
Standard
350
18
  0
DICTIONARY
  5
19
102
{ACAD_REACTORS
330
C
102
}
330
C
100
AcDbDictionary
281
     1
  0
ACDBDICTIONARYWDFLT
  5
E
102
{ACAD_REACTORS
330
C
102
}
330
C
100
AcDbDictionary
281
     1
  3
Normal
350
F
100
AcDbDictionaryWithDefault
340
F
  0
DICTIONARY
  5
F7
102
{ACAD_REACTORS
330
C
102
}
330
C
100
AcDbDictionary
281
     1
  0
DICTIONARY
  5
2A
102
{ACAD_REACTORS
330
C
102
}
330
C
100
AcDbDictionary
281
     1
  3
2dWireframe
350
2F
  3
3D Hidden
350
31
  3
3dWireframe
350
30
  3
Basic
350
32
  3
Brighten
350
36
  3
ColorChange
350
3A
  3
Conceptual
350
34
  3
Dim
350
35
  3
Facepattern
350
39
  3
Flat
350
2B
  3
FlatWithEdges
350
2C
  3
Gouraud
350
2D
  3
GouraudWithEdges
350
2E
  3
Linepattern
350
38
  3
Realistic
350
33
  3
Thicken
350
37
  0
LAYOUT
  5
1E
102
{ACAD_REACTORS
330
1A
102
}
330
1A
100
AcDbPlotSettings
  1

  2
none_device
  4

  6

 40
0.0
 41
0.0
 42
0.0
 43
0.0
 44
0.0
 45
0.0
 46
0.0
 47
0.0
 48
0.0
 49
0.0
140
0.0
141
0.0
142
1.0
143
1.0
 70
   688
 72
     0
 73
     0
 74
     5
  7

 75
    16
 76
     0
 77
     2
 78
   300
147
1.0
148
0.0
149
0.0
100
AcDbLayout
  1
Layout1
 70
     1
 71
     1
 10
0.0
 20
0.0
 11
12.0
 21
9.0
 12
0.0
 22
0.0
 32
0.0
 14
1.000000000000000E+20
 24
1.000000000000000E+20
 34
1.000000000000000E+20
 15
-1.000000000000000E+20
 25
-1.000000000000000E+20
 35
-1.000000000000000E+20
146
0.0
 13
0.0
 23
0.0
 33
0.0
 16
1.0
 26
0.0
 36
0.0
 17
0.0
 27
1.0
 37
0.0
 76
     0
330
1B
  0
LAYOUT
  5
26
102
{ACAD_REACTORS
330
1A
102
}
330
1A
100
AcDbPlotSettings
  1

  2
none_device
  4

  6

 40
0.0
 41
0.0
 42
0.0
 43
0.0
 44
0.0
 45
0.0
 46
0.0
 47
0.0
 48
0.0
 49
0.0
140
0.0
141
0.0
142
1.0
143
1.0
 70
   688
 72
     0
 73
     0
 74
     5
  7

 75
    16
 76
     0
 77
     2
 78
   300
147
1.0
148
0.0
149
0.0
100
AcDbLayout
  1
Layout2
 70
     1
 71
     2
 10
0.0
 20
0.0
 11
0.0
 21
0.0
 12
0.0
 22
0.0
 32
0.0
 14
0.0
 24
0.0
 34
0.0
 15
0.0
 25
0.0
 35
0.0
146
0.0
 13
0.0
 23
0.0
 33
0.0
 16
1.0
 26
0.0
 36
0.0
 17
0.0
 27
1.0
 37
0.0
 76
     0
330
23
  0
LAYOUT
  5
22
102
{ACAD_REACTORS
330
1A
102
}
330
1A
100
AcDbPlotSettings
  1

  2
none_device
  4

  6

 40
0.0
 41
0.0
 42
0.0
 43
0.0
 44
0.0
 45
0.0
 46
0.0
 47
0.0
 48
0.0
 49
0.0
140
0.0
141
0.0
142
1.0
143
1.0
 70
  1712
 72
     0
 73
     0
 74
     0
  7

 75
     0
 76
     0
 77
     2
 78
   300
147
1.0
148
0.0
149
0.0
100
AcDbLayout
  1
Model
 70
     1
 71
     0
 10
0.0
 20
0.0
 11
12.0
 21
9.0
 12
0.0
 22
0.0
 32
0.0
 14
1.000000000000000E+20
 24
1.000000000000000E+20
 34
1.000000000000000E+20
 15
-1.000000000000000E+20
 25
-1.000000000000000E+20
 35
-1.000000000000000E+20
146
0.0
 13
0.0
 23
0.0
 33
0.0
 16
1.0
 26
0.0
 36
0.0
 17
0.0
 27
1.0
 37
0.0
 76
     0
330
1F
331
29
  0
MATERIAL
  5
3D
102
{ACAD_REACTORS
330
3B
102
}
330
3B
100
AcDbMaterial
  1
ByBlock
 72
     1
 94
      127
  0
MATERIAL
  5
3C
102
{ACAD_REACTORS
330
3B
102
}
330
3B
100
AcDbMaterial
  1
ByLayer
 72
     1
 94
      127
  0
MATERIAL
  5
3E
102
{ACAD_REACTORS
330
3B
102
}
330
3B
100
AcDbMaterial
  1
Global
 72
     1
 94
      127
  0
MLINESTYLE
  5
18
102
{ACAD_REACTORS
330
17
102
}
330
17
100
AcDbMlineStyle
  2
Standard
 70
     0
  3

 62
   256
 51
90.0
 52
90.0
 71
     2
 49
0.5
 62
   256
  6
BYLAYER
 49
-0.5
 62
   256
  6
BYLAYER
  0
ACDBPLACEHOLDER
  5
F
102
{ACAD_REACTORS
330
E
102
}
330
E
  0
VISUALSTYLE
  5
2F
102
{ACAD_REACTORS
330
2A
102
}
330
2A
100
AcDbVisualStyle
  2
2dWireframe
 70
     4
177
     2
291
     0
 71
     0
176
     1
 72
     2
176
     1
 73
     0
176
     1
 90
        0
176
     1
 40
-0.6
176
     1
 41
-30.0
176
     1
 62
     5
 63
     7
421
 16777215
176
     1
 74
     1
176
     1
 91
        4
176
     1
 64
     7
176
     1
 65
   257
176
     1
 75
     1
176
     1
175
     1
176
     1
 42
1.0
176
     1
 92
        0
176
     1
 66
   257
176
     1
 43
1.0
176
     1
 76
     1
176
     1
 77
     6
176
     1
 78
     2
176
     1
 67
     7
176
     1
 79
     5
176
     1
170
     0
176
     1
171
     0
176
     1
290
     0
176
     1
 93
        1
176
     1
 44
0.0
176
     1
173
     0
176
     1
  0
VISUALSTYLE
  5
31
102
{ACAD_REACTORS
330
2A
102
}
330
2A
100
AcDbVisualStyle
  2
3D Hidden
 70
     6
177
     2
291
     0
 71
     1
176
     1
 72
     2
176
     1
 73
     2
176
     1
 90
        0
176
     1
 40
-0.6
176
     1
 41
-30.0
176
     1
 62
     5
 63
     7
421
 16777215
176
     1
 74
     2
176
     1
 91
        2
176
     1
 64
     7
176
     1
 65
   257
176
     1
 75
     2
176
     1
175
     1
176
     1
 42
40.0
176
     1
 92
        0
176
     1
 66
   257
176
     1
 43
1.0
176
     1
 76
     1
176
     1
 77
     6
176
     1
 78
     2
176
     1
 67
     7
176
     1
 79
     3
176
     1
170
     0
176
     1
171
     0
176
     1
290
     0
176
     1
 93
        1
176
     1
 44
0.0
176
     1
173
     0
176
     1
  0
VISUALSTYLE
  5
30
102
{ACAD_REACTORS
330
2A
102
}
330
2A
100
AcDbVisualStyle
  2
3dWireframe
 70
     5
177
     2
291
     0
 71
     0
176
     1
 72
     2
176
     1
 73
     0
176
     1
 90
        0
176
     1
 40
-0.6
176
     1
 41
-30.0
176
     1
 62
     5
 63
     7
421
 16777215
176
     1
 74
     1
176
     1
 91
        4
176
     1
 64
     7
176
     1
 65
   257
176
     1
 75
     1
176
     1
175
     1
176
     1
 42
1.0
176
     1
 92
        0
176
     1
 66
   257
176
     1
 43
1.0
176
     1
 76
     1
176
     1
 77
     6
176
     1
 78
     2
176
     1
 67
     7
176
     1
 79
     5
176
     1
170
     0
176
     1
171
     0
176
     1
290
     0
176
     1
 93
        1
176
     1
 44
0.0
176
     1
173
     0
176
     1
  0
VISUALSTYLE
  5
32
102
{ACAD_REACTORS
330
2A
102
}
330
2A
100
AcDbVisualStyle
  2
Basic
 70
     7
177
     2
291
     1
 71
     1
176
     1
 72
     0
176
     1
 73
     1
176
     1
 90
        0
176
     1
 40
-0.6
176
     1
 41
-30.0
176
     1
 62
     5
 63
     7
421
 16777215
176
     1
 74
     0
176
     1
 91
        4
176
     1
 64
     7
176
     1
 65
   257
176
     1
 75
     1
176
     1
175
     1
176
     1
 42
1.0
176
     1
 92
        8
176
     1
 66
     7
176
     1
 43
1.0
176
     1
 76
     1
176
     1
 77
     6
176
     1
 78
     2
176
     1
 67
     7
176
     1
 79
     5
176
     1
170
     0
176
     1
171
     0
176
     1
290
     0
176
     1
 93
        1
176
     1
 44
0.0
176
     1
173
     0
176
     1
  0
VISUALSTYLE
  5
36
102
{ACAD_REACTORS
330
2A
102
}
330
2A
100
AcDbVisualStyle
  2
Brighten
 70
    12
177
     2
291
     1
 71
     2
176
     1
 72
     2
176
     1
 73
     0
176
     1
 90
        0
176
     1
 40
-0.6
176
     1
 41
-30.0
176
     1
 62
     5
 63
     7
421
 16777215
176
     1
 74
     1
176
     1
 91
        4
176
     1
 64
     7
176
     1
 65
   257
176
     1
 75
     1
176
     1
175
     1
176
     1
 42
1.0
176
     1
 92
        8
176
     1
 66
     7
176
     1
 43
1.0
176
     1
 76
     1
176
     1
 77
     6
176
     1
 78
     2
176
     1
 67
     7
176
     1
 79
     5
176
     1
170
     0
176
     1
171
     0
176
     1
290
     0
176
     1
 93
        1
176
     1
 44
50.0
176
     1
173
     0
176
     1
  0
VISUALSTYLE
  5
3A
102
{ACAD_REACTORS
330
2A
102
}
330
2A
100
AcDbVisualStyle
  2
ColorChange
 70
    16
177
     2
291
     1
 71
     2
176
     1
 72
     2
176
     1
 73
     3
176
     1
 90
        0
176
     1
 40
-0.6
176
     1
 41
-30.0
176
     1
 62
     5
 63
     8
421
  8421504
176
     1
 74
     1
176
     1
 91
        4
176
     1
 64
     7
176
     1
 65
   257
176
     1
 75
     1
176
     1
175
     1
176
     1
 42
1.0
176
     1
 92
        8
176
     1
 66
     8
424
  8421504
176
     1
 43
1.0
176
     1
 76
     1
176
     1
 77
     6
176
     1
 78
     2
176
     1
 67
     7
176
     1
 79
     5
176
     1
170
     0
176
     1
171
     0
176
     1
290
     0
176
     1
 93
        1
176
     1
 44
0.0
176
     1
173
     0
176
     1
  0
VISUALSTYLE
  5
34
102
{ACAD_REACTORS
330
2A
102
}
330
2A
100
AcDbVisualStyle
  2
Conceptual
 70
     9
177
     2
291
     0
 71
     3
176
     1
 72
     2
176
     1
 73
     0
176
     1
 90
        0
176
     1
 40
-0.6
176
     1
 41
-30.0
176
     1
 62
     5
 63
     7
421
 16777215
176
     1
 74
     2
176
     1
 91
        2
176
     1
 64
     7
176
     1
 65
   257
176
     1
 75
     1
176
     1
175
     1
176
     1
 42
40.0
176
     1
 92
        8
176
     1
 66
     7
176
     1
 43
1.0
176
     1
 76
     1
176
     1
 77
     6
176
     1
 78
     2
176
     1
 67
     7
176
     1
 79
     3
176
     1
170
     0
176
     1
171
     0
176
     1
290
     0
176
     1
 93
        1
176
     1
 44
0.0
176
     1
173
     0
176
     1
  0
VISUALSTYLE
  5
35
102
{ACAD_REACTORS
330
2A
102
}
330
2A
100
AcDbVisualStyle
  2
Dim
 70
    11
177
     2
291
     1
 71
     2
176
     1
 72
     2
176
     1
 73
     0
176
     1
 90
        0
176
     1
 40
-0.6
176
     1
 41
-30.0
176
     1
 62
     5
 63
     7
421
 16777215
176
     1
 74
     1
176
     1
 91
        4
176
     1
 64
     7
176
     1
 65
   257
176
     1
 75
     1
176
     1
175
     1
176
     1
 42
1.0
176
     1
 92
        8
176
     1
 66
     7
176
     1
 43
1.0
176
     1
 76
     1
176
     1
 77
     6
176
     1
 78
     2
176
     1
 67
     7
176
     1
 79
     5
176
     1
170
     0
176
     1
171
     0
176
     1
290
     0
176
     1
 93
        1
176
     1
 44
-50.0
176
     1
173
     0
176
     1
  0
VISUALSTYLE
  5
39
102
{ACAD_REACTORS
330
2A
102
}
330
2A
100
AcDbVisualStyle
  2
Facepattern
 70
    15
177
     2
291
     1
 71
     2
176
     1
 72
     2
176
     1
 73
     0
176
     1
 90
        0
176
     1
 40
-0.6
176
     1
 41
-30.0
176
     1
 62
     5
 63
     7
421
 16777215
176
     1
 74
     1
176
     1
 91
        4
176
     1
 64
     7
176
     1
 65
   257
176
     1
 75
     1
176
     1
175
     1
176
     1
 42
1.0
176
     1
 92
        8
176
     1
 66
     7
176
     1
 43
1.0
176
     1
 76
     1
176
     1
 77
     6
176
     1
 78
     2
176
     1
 67
     7
176
     1
 79
     5
176
     1
170
     0
176
     1
171
     0
176
     1
290
     0
176
     1
 93
        1
176
     1
 44
0.0
176
     1
173
     0
176
     1
  0
VISUALSTYLE
  5
2B
102
{ACAD_REACTORS
330
2A
102
}
330
2A
100
AcDbVisualStyle
  2
Flat
 70
     0
177
     2
291
     1
 71
     2
176
     1
 72
     1
176
     1
 73
     1
176
     1
 90
        2
176
     1
 40
-0.6
176
     1
 41
30.0
176
     1
 62
     5
 63
     7
421
 16777215
176
     1
 74
     0
176
     1
 91
        4
176
     1
 64
     7
176
     1
 65
   257
176
     1
 75
     1
176
     1
175
     1
176
     1
 42
1.0
176
     1
 92
        8
176
     1
 66
     7
176
     1
 43
1.0
176
     1
 76
     1
176
     1
 77
     6
176
     1
 78
     2
176
     1
 67
     7
176
     1
 79
     5
176
     1
170
     0
176
     1
171
     0
176
     1
290
     0
176
     1
 93
       13
176
     1
 44
0.0
176
     1
173
     0
176
     1
  0
VISUALSTYLE
  5
2C
102
{ACAD_REACTORS
330
2A
102
}
330
2A
100
AcDbVisualStyle
  2
FlatWithEdges
 70
     1
177
     2
291
     1
 71
     2
176
     1
 72
     1
176
     1
 73
     1
176
     1
 90
        2
176
     1
 40
-0.6
176
     1
 41
30.0
176
     1
 62
     5
 63
     7
421
 16777215
176
     1
 74
     1
176
     1
 91
        4
176
     1
 64
     7
176
     1
 65
   257
176
     1
 75
     1
176
     1
175
     1
176
     1
 42
1.0
176
     1
 92
        0
176
     1
 66
   257
176
     1
 43
1.0
176
     1
 76
     1
176
     1
 77
     6
176
     1
 78
     2
176
     1
 67
     7
176
     1
 79
     5
176
     1
170
     0
176
     1
171
     0
176
     1
290
     0
176
     1
 93
       13
176
     1
 44
0.0
176
     1
173
     0
176
     1
  0
VISUALSTYLE
  5
2D
102
{ACAD_REACTORS
330
2A
102
}
330
2A
100
AcDbVisualStyle
  2
Gouraud
 70
     2
177
     2
291
     1
 71
     2
176
     1
 72
     2
176
     1
 73
     1
176
     1
 90
        2
176
     1
 40
-0.6
176
     1
 41
30.0
176
     1
 62
     5
 63
     7
421
 16777215
176
     1
 74
     0
176
     1
 91
        4
176
     1
 64
     7
176
     1
 65
   257
176
     1
 75
     1
176
     1
175
     1
176
     1
 42
1.0
176
     1
 92
        0
176
     1
 66
     7
176
     1
 43
1.0
176
     1
 76
     1
176
     1
 77
     6
176
     1
 78
     2
176
     1
 67
     7
176
     1
 79
     5
176
     1
170
     0
176
     1
171
     0
176
     1
290
     0
176
     1
 93
       13
176
     1
 44
0.0
176
     1
173
     0
176
     1
  0
VISUALSTYLE
  5
2E
102
{ACAD_REACTORS
330
2A
102
}
330
2A
100
AcDbVisualStyle
  2
GouraudWithEdges
 70
     3
177
     2
291
     1
 71
     2
176
     1
 72
     2
176
     1
 73
     1
176
     1
 90
        2
176
     1
 40
-0.6
176
     1
 41
30.0
176
     1
 62
     5
 63
     7
421
 16777215
176
     1
 74
     1
176
     1
 91
        4
176
     1
 64
     7
176
     1
 65
   257
176
     1
 75
     1
176
     1
175
     1
176
     1
 42
1.0
176
     1
 92
        0
176
     1
 66
   257
176
     1
 43
1.0
176
     1
 76
     1
176
     1
 77
     6
176
     1
 78
     2
176
     1
 67
     7
176
     1
 79
     5
176
     1
170
     0
176
     1
171
     0
176
     1
290
     0
176
     1
 93
       13
176
     1
 44
0.0
176
     1
173
     0
176
     1
  0
VISUALSTYLE
  5
38
102
{ACAD_REACTORS
330
2A
102
}
330
2A
100
AcDbVisualStyle
  2
Linepattern
 70
    14
177
     2
291
     1
 71
     2
176
     1
 72
     2
176
     1
 73
     0
176
     1
 90
        0
176
     1
 40
-0.6
176
     1
 41
-30.0
176
     1
 62
     5
 63
     7
421
 16777215
176
     1
 74
     1
176
     1
 91
        4
176
     1
 64
     7
176
     1
 65
   257
176
     1
 75
     7
176
     1
175
     7
176
     1
 42
1.0
176
     1
 92
        8
176
     1
 66
     7
176
     1
 43
1.0
176
     1
 76
     1
176
     1
 77
     6
176
     1
 78
     2
176
     1
 67
     7
176
     1
 79
     5
176
     1
170
     0
176
     1
171
     0
176
     1
290
     0
176
     1
 93
        1
176
     1
 44
0.0
176
     1
173
     0
176
     1
  0
VISUALSTYLE
  5
33
102
{ACAD_REACTORS
330
2A
102
}
330
2A
100
AcDbVisualStyle
  2
Realistic
 70
     8
177
     2
291
     0
 71
     2
176
     1
 72
     2
176
     1
 73
     0
176
     1
 90
        0
176
     1
 40
-0.6
176
     1
 41
-30.0
176
     1
 62
     5
 63
     7
421
 16777215
176
     1
 74
     1
176
     1
 91
        0
176
     1
 64
     7
176
     1
 65
   257
176
     1
 75
     1
176
     1
175
     1
176
     1
 42
1.0
176
     1
 92
        8
176
     1
 66
     8
424
  7895160
176
     1
 43
1.0
176
     1
 76
     1
176
     1
 77
     6
176
     1
 78
     2
176
     1
 67
     7
176
     1
 79
     5
176
     1
170
     0
176
     1
171
     0
176
     1
290
     0
176
     1
 93
       13
176
     1
 44
0.0
176
     1
173
     0
176
     1
  0
VISUALSTYLE
  5
37
102
{ACAD_REACTORS
330
2A
102
}
330
2A
100
AcDbVisualStyle
  2
Thicken
 70
    13
177
     2
291
     1
 71
     2
176
     1
 72
     2
176
     1
 73
     0
176
     1
 90
        0
176
     1
 40
-0.6
176
     1
 41
-30.0
176
     1
 62
     5
 63
     7
421
 16777215
176
     1
 74
     1
176
     1
 91
        4
176
     1
 64
     7
176
     1
 65
   257
176
     1
 75
     1
176
     1
175
     1
176
     1
 42
1.0
176
     1
 92
       12
176
     1
 66
     7
176
     1
 43
1.0
176
     1
 76
     1
176
     1
 77
     6
176
     1
 78
     2
176
     1
 67
     7
176
     1
 79
     5
176
     1
170
     0
176
     1
171
     0
176
     1
290
     0
176
     1
 93
        1
176
     1
 44
0.0
176
     1
173
     0
176
     1
  0
ENDSEC
  0
EOF
