  0
SECTION
  2
HEADER
  9
$ACADVER
  1
AC1024
  9
$ACADMAINTVER
 70
     6
  9
$DWGCODEPAGE
  3
UNDEFINED
  9
$INSBASE
 10
0.0
 20
0.0
 30
0.0
  9
$EXTMIN
 10
1.000000000000000E+20
 20
1.000000000000000E+20
 30
1.000000000000000E+20
  9
$EXTMAX
 10
-1.000000000000000E+20
 20
-1.000000000000000E+20
 30
-1.000000000000000E+20
  9
$LIMMIN
 10
0.0
 20
0.0
  9
$LIMMAX
 10
12.0
 20
9.0
  9
$ORTHOMODE
 70
     0
  9
$REGENMODE
 70
     1
  9
$FILLMODE
 70
     1
  9
$QTEXTMODE
 70
     0
  9
$MIRRTEXT
 70
     1
  9
$LTSCALE
 40
1.0
  9
$ATTMODE
 70
     1
  9
$TEXTSIZE
 40
0.2
  9
$TRACEWID
 40
0.05
  9
$TEXTSTYLE
  7
Standard
  9
$CLAYER
  8
0
  9
$CELTYPE
  6
ByLayer
  9
$CECOLOR
 62
   256
  9
$CELTSCALE
 40
1.0
  9
$DISPSILH
 70
     0
  9
$DIMSCALE
 40
1.0
  9
$DIMASZ
 40
0.18
  9
$DIMEXO
 40
0.0625
  9
$DIMDLI
 40
0.38
  9
$DIMRND
 40
0.0
  9
$DIMDLE
 40
0.0
  9
$DIMEXE
 40
0.18
  9
$DIMTP
 40
0.0
  9
$DIMTM
 40
0.0
  9
$DIMTXT
 40
0.18
  9
$DIMCEN
 40
0.09
  9
$DIMTSZ
 40
0.0
  9
$DIMTOL
 70
     0
  9
$DIMLIM
 70
     0
  9
$DIMTIH
 70
     1
  9
$DIMTOH
 70
     1
  9
$DIMSE1
 70
     0
  9
$DIMSE2
 70
     0
  9
$DIMTAD
 70
     0
  9
$DIMZIN
 70
     0
  9
$DIMBLK
  1

  9
$DIMASO
 70
     1
  9
$DIMSHO
 70
     1
  9
$DIMPOST
  1

  9
$DIMAPOST
  1

  9
$DIMALT
 70
     0
  9
$DIMALTD
 70
     2
  9
$DIMALTF
 40
25.4
  9
$DIMLFAC
 40
1.0
  9
$DIMTOFL
 70
     0
  9
$DIMTVP
 40
0.0
  9
$DIMTIX
 70
     0
  9
$DIMSOXD
 70
     0
  9
$DIMSAH
 70
     0
  9
$DIMBLK1
  1

  9
$DIMBLK2
  1

  9
$DIMSTYLE
  2
Standard
  9
$DIMCLRD
 70
     0
  9
$DIMCLRE
 70
     0
  9
$DIMCLRT
 70
     0
  9
$DIMTFAC
 40
1.0
  9
$DIMGAP
 40
0.09
  9
$DIMJUST
 70
     0
  9
$DIMSD1
 70
     0
  9
$DIMSD2
 70
     0
  9
$DIMTOLJ
 70
     1
  9
$DIMTZIN
 70
     0
  9
$DIMALTZ
 70
     0
  9
$DIMALTTZ
 70
     0
  9
$DIMUPT
 70
     0
  9
$DIMDEC
 70
     4
  9
$DIMTDEC
 70
     4
  9
$DIMALTU
 70
     2
  9
$DIMALTTD
 70
     2
  9
$DIMTXSTY
  7
Standard
  9
$DIMAUNIT
 70
     0
  9
$DIMADEC
 70
     0
  9
$DIMALTRND
 40
0.0
  9
$DIMAZIN
 70
     0
  9
$DIMDSEP
 70
    46
  9
$DIMATFIT
 70
     3
  9
$DIMFRAC
 70
     0
  9
$DIMLDRBLK
  1

  9
$DIMLUNIT
 70
     2
  9
$DIMLWD
 70
    -2
  9
$DIMLWE
 70
    -2
  9
$DIMTMOVE
 70
     0
  9
$DIMFXL
 40
1.0
  9
$DIMFXLON
 70
     0
  9
$DIMJOGANG
 40
0.7853981633974483
  9
$DIMTFILL
 70
     0
  9
$DIMTFILLCLR
 70
     0
  9
$DIMARCSYM
 70
     0
  9
$DIMLTYPE
  6

  9
$DIMLTEX1
  6

  9
$DIMLTEX2
  6

  9
$DIMTXTDIRECTION
 70
     0
  9
$LUNITS
 70
     2
  9
$LUPREC
 70
     4
  9
$SKETCHINC
 40
0.1
  9
$FILLETRAD
 40
0.5
  9
$AUNITS
 70
     0
  9
$AUPREC
 70
     0
  9
$MENU
  1
.
  9
$ELEVATION
 40
0.0
  9
$PELEVATION
 40
0.0
  9
$THICKNESS
 40
0.0
  9
$LIMCHECK
 70
     0
  9
$CHAMFERA
 40
0.5
  9
$CHAMFERB
 40
0.5
  9
$CHAMFERC
 40
1.0
  9
$CHAMFERD
 40
0.0
  9
$SKPOLY
 70
     0
  9
$TDCREATE
 40
2457917.618726852
  9
$TDUCREATE
 40
2457917.243726852
  9
$TDUPDATE
 40
2457917.618726852
  9
$TDUUPDATE
 40
2457917.243726852
  9
$TDINDWG
 40
0.0000000116
  9
$TDUSRTIMER
 40
0.0000000116
  9
$USRTIMER
 70
     1
  9
$ANGBASE
 50
0.0
  9
$ANGDIR
 70
     0
  9
$PDMODE
 70
     0
  9
$PDSIZE
 40
0.0
  9
$PLINEWID
 40
0.0
  9
$SPLFRAME
 70
     0
  9
$SPLINETYPE
 70
     6
  9
$SPLINESEGS
 70
     8
  9
$HANDSEED
  5
D3
  9
$SURFTAB1
 70
     6
  9
$SURFTAB2
 70
     6
  9
$SURFTYPE
 70
     6
  9
$SURFU
 70
     6
  9
$SURFV
 70
     6
  9
$UCSBASE
  2

  9
$UCSNAME
  2

  9
$UCSORG
 10
0.0
 20
0.0
 30
0.0
  9
$UCSXDIR
 10
1.0
 20
0.0
 30
0.0
  9
$UCSYDIR
 10
0.0
 20
1.0
 30
0.0
  9
$UCSORTHOREF
  2

  9
$UCSORTHOVIEW
 70
     0
  9
$UCSORGTOP
 10
0.0
 20
0.0
 30
0.0
  9
$UCSORGBOTTOM
 10
0.0
 20
0.0
 30
0.0
  9
$UCSORGLEFT
 10
0.0
 20
0.0
 30
0.0
  9
$UCSORGRIGHT
 10
0.0
 20
0.0
 30
0.0
  9
$UCSORGFRONT
 10
0.0
 20
0.0
 30
0.0
  9
$UCSORGBACK
 10
0.0
 20
0.0
 30
0.0
  9
$PUCSBASE
  2

  9
$PUCSNAME
  2

  9
$PUCSORG
 10
0.0
 20
0.0
 30
0.0
  9
$PUCSXDIR
 10
1.0
 20
0.0
 30
0.0
  9
$PUCSYDIR
 10
0.0
 20
1.0
 30
0.0
  9
$PUCSORTHOREF
  2

  9
$PUCSORTHOVIEW
 70
     0
  9
$PUCSORGTOP
 10
0.0
 20
0.0
 30
0.0
  9
$PUCSORGBOTTOM
 10
0.0
 20
0.0
 30
0.0
  9
$PUCSORGLEFT
 10
0.0
 20
0.0
 30
0.0
  9
$PUCSORGRIGHT
 10
0.0
 20
0.0
 30
0.0
  9
$PUCSORGFRONT
 10
0.0
 20
0.0
 30
0.0
  9
$PUCSORGBACK
 10
0.0
 20
0.0
 30
0.0
  9
$USERI1
 70
     0
  9
$USERI2
 70
     0
  9
$USERI3
 70
     0
  9
$USERI4
 70
     0
  9
$USERI5
 70
     0
  9
$USERR1
 40
0.0
  9
$USERR2
 40
0.0
  9
$USERR3
 40
0.0
  9
$USERR4
 40
0.0
  9
$USERR5
 40
0.0
  9
$WORLDVIEW
 70
     1
  9
$SHADEDGE
 70
     3
  9
$SHADEDIF
 70
    70
  9
$TILEMODE
 70
     1
  9
$MAXACTVP
 70
    64
  9
$PINSBASE
 10
0.0
 20
0.0
 30
0.0
  9
$PLIMCHECK
 70
     0
  9
$PEXTMIN
 10
1.000000000000000E+20
 20
1.000000000000000E+20
 30
1.000000000000000E+20
  9
$PEXTMAX
 10
-1.000000000000000E+20
 20
-1.000000000000000E+20
 30
-1.000000000000000E+20
  9
$PLIMMIN
 10
0.0
 20
0.0
  9
$PLIMMAX
 10
12.0
 20
9.0
  9
$UNITMODE
 70
     0
  9
$VISRETAIN
 70
     1
  9
$PLINEGEN
 70
     0
  9
$PSLTSCALE
 70
     1
  9
$TREEDEPTH
 70
  3020
  9
$CMLSTYLE
  2
Standard
  9
$CMLJUST
 70
     0
  9
$CMLSCALE
 40
1.0
  9
$PROXYGRAPHICS
 70
     1
  9
$MEASUREMENT
 70
     0
  9
$CELWEIGHT
370
    -1
  9
$ENDCAPS
280
     0
  9
$JOINSTYLE
280
     0
  9
$LWDISPLAY
290
     1
  9
$INSUNITS
 70
     1
  9
$HYPERLINKBASE
  1

  9
$STYLESHEET
  1

  9
$XEDIT
290
     1
  9
$CEPSNTYPE
380
     0
  9
$PSTYLEMODE
290
     1
  9
$FINGERPRINTGUID
  2
{F8E2CE28-C429-EAD6-6BA3-767E02FA9802}
  9
$VERSIONGUID
  2
{FAEB1C32-E019-11D5-929B-00C0DF256EC4}
  9
$EXTNAMES
290
     1
  9
$PSVPSCALE
 40
0.0
  9
$OLESTARTUP
290
     0
  9
$SORTENTS
280
   127
  9
$INDEXCTL
280
     0
  9
$HIDETEXT
280
     1
  9
$XCLIPFRAME
280
     2
  9
$HALOGAP
280
     0
  9
$OBSCOLOR
 70
   257
  9
$OBSLTYPE
280
     0
  9
$INTERSECTIONDISPLAY
280
     0
  9
$INTERSECTIONCOLOR
 70
   257
  9
$DIMASSOC
280
     2
  9
$PROJECTNAME
  1

  9
$CAMERADISPLAY
290
     0
  9
$LENSLENGTH
 40
50.0
  9
$CAMERAHEIGHT
 40
0.0
  9
$STEPSPERSEC
 40
2.0
  9
$STEPSIZE
 40
6.0
  9
$3DDWFPREC
 40
2.0
  9
$PSOLWIDTH
 40
0.25
  9
$PSOLHEIGHT
 40
4.0
  9
$LOFTANG1
 40
1.570796326794897
  9
$LOFTANG2
 40
1.570796326794897
  9
$LOFTMAG1
 40
0.0
  9
$LOFTMAG2
 40
0.0
  9
$LOFTPARAM
 70
     7
  9
$LOFTNORMALS
280
     1
  9
$LATITUDE
 40
37.795
  9
$LONGITUDE
 40
-122.394
  9
$NORTHDIRECTION
 40
0.0
  9
$TIMEZONE
 70
 -8000
  9
$LIGHTGLYPHDISPLAY
280
     1
  9
$TILEMODELIGHTSYNCH
280
     1
  9
$CMATERIAL
347
3C
  9
$SOLIDHIST
280
     1
  9
$SHOWHIST
280
     1
  9
$DWFFRAME
280
     2
  9
$DGNFRAME
280
     2
  9
$REALWORLDSCALE
290
     1
  9
$INTERFERECOLOR
 62
   256
  9
$CSHADOW
280
     0
  9
$SHADOWPLANELOCATION
 40
0.0
  0
ENDSEC
  0
SECTION
  2
CLASSES
  0
CLASS
  1
ACDBDICTIONARYWDFLT
  2
AcDbDictionaryWithDefault
  3
ObjectDBX Classes
 90
        0
 91
        4
280
     0
281
     0
  0
CLASS
  1
VISUALSTYLE
  2
AcDbVisualStyle
  3
ObjectDBX Classes
 90
     4095
 91
        4
280
     0
281
     0
  0
CLASS
  1
MATERIAL
  2
AcDbMaterial
  3
ObjectDBX Classes
 90
     1153
 91
        4
280
     0
281
     0
  0
CLASS
  1
SUN
  2
AcDbSun
  3
SCENEOE
 90
     1024
 91
        4
280
     0
281
     0
  0
ENDSEC
  0
SECTION
  2
TABLES
  0
TABLE
  2
VPORT
  5
8
330
0
100
AcDbSymbolTable
 70
     1
  0
VPORT
  5
29
330
8
100
AcDbSymbolTableRecord
100
AcDbViewportTableRecord
  2
*Active
 70
     0
 10
0.0
 20
0.0
 11
1.0
 21
1.0
 12
0.0
 22
0.0
 13
0.0
 23
0.0
 14
0.5
 24
0.5
 15
0.5
 25
0.5
 16
0.0
 26
0.0
 36
1.0
 17
91.00082462281999
 27
-128.4993055234307
 37
0.0
 40
256.9986110468615
 41
0.7081814508812795
 42
50.0
 43
0.0
 44
0.0
 50
0.0
 51
0.0
 71
     0
 72
   100
 73
     1
 74
     3
 75
     0
 76
     0
 77
     0
 78
     0
281
     0
 65
     1
110
0.0
120
0.0
130
0.0
111
1.0
121
0.0
131
0.0
112
0.0
122
1.0
132
0.0
 79
     0
146
0.0
 60
     3
 61
     5
292
     1
282
     1
141
0.0
142
0.0
 63
   250
361
3F
  0
ENDTAB
  0
TABLE
  2
LTYPE
  5
5
330
0
100
AcDbSymbolTable
 70
     1
  0
LTYPE
  5
14
330
5
100
AcDbSymbolTableRecord
100
AcDbLinetypeTableRecord
  2
ByBlock
 70
     0
  3

 72
    65
 73
     0
 40
0.0
  0
LTYPE
  5
15
330
5
100
AcDbSymbolTableRecord
100
AcDbLinetypeTableRecord
  2
ByLayer
 70
     0
  3

 72
    65
 73
     0
 40
0.0
  0
LTYPE
  5
16
330
5
100
AcDbSymbolTableRecord
100
AcDbLinetypeTableRecord
  2
Continuous
 70
     0
  3
Solid line
 72
    65
 73
     0
 40
0.0
  0
ENDTAB
  0
TABLE
  2
LAYER
  5
2
330
0
100
AcDbSymbolTable
 70
     2
  0
LAYER
  5
10
330
2
100
AcDbSymbolTableRecord
100
AcDbLayerTableRecord
  2
0
 70
     0
 62
     7
  6
Continuous
370
    -3
390
F
347
3E
  0
LAYER
  5
40
330
2
100
AcDbSymbolTableRecord
100
AcDbLayerTableRecord
  2
_U+30EC_U+30A4_U+30E4_U+30FC 1
 70
     0
 62
     7
  6
Continuous
370
    -3
390
F
347
3E
  0
ENDTAB
  0
TABLE
  2
STYLE
  5
3
330
0
100
AcDbSymbolTable
 70
     1
  0
STYLE
  5
11
330
3
100
AcDbSymbolTableRecord
100
AcDbTextStyleTableRecord
  2
Standard
 70
     0
 40
0.0
 41
1.0
 50
0.0
 71
     0
 42
0.2
  3
txt
  4

  0
ENDTAB
  0
TABLE
  2
VIEW
  5
6
330
0
100
AcDbSymbolTable
 70
     0
  0
ENDTAB
  0
TABLE
  2
UCS
  5
7
330
0
100
AcDbSymbolTable
 70
     0
  0
ENDTAB
  0
TABLE
  2
APPID
  5
9
330
0
100
AcDbSymbolTable
 70
     1
  0
APPID
  5
12
330
9
100
AcDbSymbolTableRecord
100
AcDbRegAppTableRecord
  2
ACAD
 70
     0
  0
ENDTAB
  0
TABLE
  2
DIMSTYLE
  5
A
330
0
100
AcDbSymbolTable
 70
     1
100
AcDbDimStyleTable
  0
DIMSTYLE
105
27
330
A
100
AcDbSymbolTableRecord
100
AcDbDimStyleTableRecord
  2
Standard
 70
     0
178
     0
340
11
  0
ENDTAB
  0
TABLE
  2
BLOCK_RECORD
  5
1
330
0
100
AcDbSymbolTable
 70
     8
  0
BLOCK_RECORD
  5
1F
330
1
100
AcDbSymbolTableRecord
100
AcDbBlockTableRecord
  2
*Model_Space
340
22
 70
     0
280
     1
281
     0
  0
BLOCK_RECORD
  5
1B
330
1
100
AcDbSymbolTableRecord
100
AcDbBlockTableRecord
  2
*Paper_Space
340
1E
 70
     0
280
     1
281
     0
  0
BLOCK_RECORD
  5
23
330
1
100
AcDbSymbolTableRecord
100
AcDbBlockTableRecord
  2
*Paper_Space0
340
26
 70
     0
280
     1
281
     0
  0
BLOCK_RECORD
  5
47
330
1
100
AcDbSymbolTableRecord
100
AcDbBlockTableRecord
  2
block 2
340
0
102
{BLKREFS
331
48
102
}
 70
     0
280
     1
281
     0
  0
BLOCK_RECORD
  5
53
330
1
100
AcDbSymbolTableRecord
100
AcDbBlockTableRecord
  2
block 3
340
0
102
{BLKREFS
331
54
102
}
 70
     0
280
     1
281
     0
  0
BLOCK_RECORD
  5
70
330
1
100
AcDbSymbolTableRecord
100
AcDbBlockTableRecord
  2
block 4
340
0
102
{BLKREFS
331
71
102
}
 70
     0
280
     1
281
     0
  0
BLOCK_RECORD
  5
78
330
1
100
AcDbSymbolTableRecord
100
AcDbBlockTableRecord
  2
block 5
340
0
102
{BLKREFS
331
79
102
}
 70
     0
280
     1
281
     0
  0
BLOCK_RECORD
  5
8D
330
1
100
AcDbSymbolTableRecord
100
AcDbBlockTableRecord
  2
block 6
340
0
102
{BLKREFS
331
8E
102
}
 70
     0
280
     1
281
     0
  0
BLOCK_RECORD
  5
AD
330
1
100
AcDbSymbolTableRecord
100
AcDbBlockTableRecord
  2
block 7
340
0
102
{BLKREFS
331
AE
102
}
 70
     0
280
     1
281
     0
  0
BLOCK_RECORD
  5
B5
330
1
100
AcDbSymbolTableRecord
100
AcDbBlockTableRecord
  2
block 8
340
0
102
{BLKREFS
331
B6
102
}
 70
     0
280
     1
281
     0
  0
ENDTAB
  0
ENDSEC
  0
SECTION
  2
BLOCKS
  0
BLOCK
  5
20
330
1F
100
AcDbEntity
  8
0
100
AcDbBlockBegin
  2
*Model_Space
 70
     0
 10
0.0
 20
0.0
 30
0.0
  3
*Model_Space
  1

  0
ENDBLK
  5
21
330
1F
100
AcDbEntity
  8
0
100
AcDbBlockEnd
  0
BLOCK
  5
1C
330
1B
100
AcDbEntity
 67
     1
  8
0
100
AcDbBlockBegin
  2
*Paper_Space
 70
     0
 10
0.0
 20
0.0
 30
0.0
  3
*Paper_Space
  1

  0
ENDBLK
  5
1D
330
1B
100
AcDbEntity
 67
     1
  8
0
100
AcDbBlockEnd
  0
BLOCK
  5
24
330
23
100
AcDbEntity
  8
0
100
AcDbBlockBegin
  2
*Paper_Space0
 70
     0
 10
0.0
 20
0.0
 30
0.0
  3
*Paper_Space0
  1

  0
ENDBLK
  5
25
330
23
100
AcDbEntity
  8
0
100
AcDbBlockEnd
  0
BLOCK
  5
49
330
47
100
AcDbEntity
  8
0
100
AcDbBlockBegin
  2
block 2
 70
     0
 10
0.0
 20
0.0
 30
0.0
  3
block 2
  1

  0
SPLINE
  5
4B
330
47
100
AcDbEntity
  8
_U+30EC_U+30A4_U+30E4_U+30FC 1
370
     0
100
AcDbSpline
210
0.0
220
0.0
230
1.0
 70
    11
 71
     3
 72
    26
 73
    22
 74
     0
 42
0.0000000001
 43
0.0000000001
 12
1.0
 22
0.0
 32
0.0
 13
1.0
 23
0.0
 33
0.0
 40
0.0
 40
0.0
 40
0.0
 40
0.0
 40
1.0
 40
1.0
 40
1.0
 40
2.0
 40
2.0
 40
2.0
 40
3.0
 40
3.0
 40
3.0
 40
4.0
 40
4.0
 40
4.0
 40
5.0
 40
5.0
 40
5.0
 40
6.0
 40
6.0
 40
6.0
 40
7.0
 40
7.0
 40
7.0
 40
7.0
 10
86.11136743723952
 20
-151.2155761340711
 30
0.0
 10
86.11136743723952
 20
-151.2155761340711
 30
0.0
 10
86.11136743723952
 20
-150.1110785215
 30
0.0
 10
86.11136743723952
 20
-150.1110785215
 30
0.0
 10
86.11136743723952
 20
-150.1110785215
 30
0.0
 10
85.78132728975258
 20
-150.1110785215
 30
0.0
 10
85.78132728975258
 20
-150.1110785215
 30
0.0
 10
85.78132728975258
 20
-150.1110785215
 30
0.0
 10
85.78132728975258
 20
-149.9632839251828
 30
0.0
 10
85.78132728975258
 20
-149.9632839251828
 30
0.0
 10
86.11343449453068
 20
-149.9484700145962
 30
0.0
 10
86.15994328358154
 20
-149.7855169981439
 30
0.0
 10
86.18957110475469
 20
-149.6714843375821
 30
0.0
 10
86.18957110475469
 20
-149.6714843375821
 30
0.0
 10
86.33564315332929
 20
-149.6714843375821
 30
0.0
 10
86.33564315332929
 20
-149.6714843375821
 30
0.0
 10
86.33564315332929
 20
-149.6714843375821
 30
0.0
 10
86.33564315332929
 20
-151.2155761340711
 30
0.0
 10
86.33564315332929
 20
-151.2155761340711
 30
0.0
 10
86.33564315332929
 20
-151.2155761340711
 30
0.0
 10
86.11136743723952
 20
-151.2155761340711
 30
0.0
 10
86.11136743723952
 20
-151.2155761340711
 30
0.0
  0
HATCH
  5
4C
330
47
100
AcDbEntity
  8
_U+30EC_U+30A4_U+30E4_U+30FC 1
 62
   179
420
  2234388
100
AcDbHatch
 10
0.0
 20
0.0
 30
0.0
210
0.0
220
0.0
230
1.0
  2
SOLID
 70
     1
 71
     0
 91
        1
 92
        1
 93
        1
 72
     4
 94
        3
 73
     0
 74
     1
 95
       26
 96
       22
 40
0.0
 40
0.0
 40
0.0
 40
0.0
 40
1.0
 40
1.0
 40
1.0
 40
2.0
 40
2.0
 40
2.0
 40
3.0
 40
3.0
 40
3.0
 40
4.0
 40
4.0
 40
4.0
 40
5.0
 40
5.0
 40
5.0
 40
6.0
 40
6.0
 40
6.0
 40
7.0
 40
7.0
 40
7.0
 40
7.0
 10
86.11136743723952
 20
-151.2155761340711
 10
86.11136743723952
 20
-151.2155761340711
 10
86.11136743723952
 20
-150.1110785215
 10
86.11136743723952
 20
-150.1110785215
 10
86.11136743723952
 20
-150.1110785215
 10
85.78132728975258
 20
-150.1110785215
 10
85.78132728975258
 20
-150.1110785215
 10
85.78132728975258
 20
-150.1110785215
 10
85.78132728975258
 20
-149.9632839251828
 10
85.78132728975258
 20
-149.9632839251828
 10
86.11343449453068
 20
-149.9484700145962
 10
86.15994328358154
 20
-149.7855169981439
 10
86.18957110475469
 20
-149.6714843375821
 10
86.18957110475469
 20
-149.6714843375821
 10
86.33564315332929
 20
-149.6714843375821
 10
86.33564315332929
 20
-149.6714843375821
 10
86.33564315332929
 20
-149.6714843375821
 10
86.33564315332929
 20
-151.2155761340711
 10
86.33564315332929
 20
-151.2155761340711
 10
86.33564315332929
 20
-151.2155761340711
 10
86.11136743723952
 20
-151.2155761340711
 10
86.11136743723952
 20
-151.2155761340711
 97
        0
 97
        0
 75
     2
 76
     1
 98
        0
  0
SPLINE
  5
4D
330
47
100
AcDbEntity
  8
_U+30EC_U+30A4_U+30E4_U+30FC 1
370
     0
100
AcDbSpline
210
0.0
220
0.0
230
1.0
 70
    11
 71
     3
 72
    53
 73
    49
 74
     0
 42
0.0000000001
 43
0.0000000001
 12
1.0
 22
0.0
 32
0.0
 13
1.0
 23
0.0
 33
0.0
 40
0.0
 40
0.0
 40
0.0
 40
0.0
 40
1.0
 40
1.0
 40
1.0
 40
2.0
 40
2.0
 40
2.0
 40
3.0
 40
3.0
 40
3.0
 40
4.0
 40
4.0
 40
4.0
 40
5.0
 40
5.0
 40
5.0
 40
6.0
 40
6.0
 40
6.0
 40
7.0
 40
7.0
 40
7.0
 40
8.0
 40
8.0
 40
8.0
 40
9.0
 40
9.0
 40
9.0
 40
10.0
 40
10.0
 40
10.0
 40
11.0
 40
11.0
 40
11.0
 40
12.0
 40
12.0
 40
12.0
 40
13.0
 40
13.0
 40
13.0
 40
14.0
 40
14.0
 40
14.0
 40
15.0
 40
15.0
 40
15.0
 40
16.0
 40
16.0
 40
16.0
 40
16.0
 10
87.31783987617402
 20
-151.2665635472528
 30
0.0
 10
87.23946395388458
 20
-151.2665635472528
 30
0.0
 10
87.13800589184397
 20
-151.2493380698266
 30
0.0
 10
87.0363755750291
 20
-151.185948312898
 30
0.0
 10
86.86291501734678
 20
-151.07570525737
 30
0.0
 10
86.84172768011248
 20
-150.9447916289305
 30
0.0
 10
86.82277965494362
 20
-150.8369601402422
 30
0.0
 10
86.82277965494362
 20
-150.8369601402422
 30
0.0
 10
87.04481605896797
 20
-150.8369601402422
 30
0.0
 10
87.04481605896797
 20
-150.8369601402422
 30
0.0
 10
87.09993758673197
 20
-151.0357421497411
 30
0.0
 10
87.22688935536343
 20
-151.0653699709142
 30
0.0
 10
87.31990693346516
 20
-151.0653699709142
 30
0.0
 10
87.45960555539205
 20
-151.0653699709142
 30
0.0
 10
87.61187877584008
 20
-150.966151220939
 30
0.0
 10
87.61187877584008
 20
-150.7332627661361
 30
0.0
 10
87.61187877584008
 20
-150.4772921715821
 30
0.0
 10
87.43204479151005
 20
-150.4073567332315
 30
0.0
 10
87.3114664495263
 20
-150.4073567332315
 30
0.0
 10
87.279771571062
 20
-150.4073567332315
 30
0.0
 10
87.13800589184397
 20
-150.4073567332315
 30
0.0
 10
87.04912242832452
 20
-150.5365478139284
 30
0.0
 10
87.04912242832452
 20
-150.5365478139284
 30
0.0
 10
86.87359481335105
 20
-150.5175997887595
 30
0.0
 10
86.87359481335105
 20
-150.5175997887595
 30
0.0
 10
86.87359481335105
 20
-150.5175997887595
 30
0.0
 10
86.99417315533479
 20
-149.6714843375821
 30
0.0
 10
86.99417315533479
 20
-149.6714843375821
 30
0.0
 10
86.99417315533479
 20
-149.6714843375821
 30
0.0
 10
87.77259248022699
 20
-149.6714843375821
 30
0.0
 10
87.77259248022699
 20
-149.6714843375821
 30
0.0
 10
87.77259248022699
 20
-149.6714843375821
 30
0.0
 10
87.77259248022699
 20
-149.8657877229502
 30
0.0
 10
87.77259248022699
 20
-149.8657877229502
 30
0.0
 10
87.77259248022699
 20
-149.8657877229502
 30
0.0
 10
87.15695391701284
 20
-149.8657877229502
 30
0.0
 10
87.15695391701284
 20
-149.8657877229502
 30
0.0
 10
87.15695391701284
 20
-149.8657877229502
 30
0.0
 10
87.0914971027931
 20
-150.2888454485389
 30
0.0
 10
87.0914971027931
 20
-150.2888454485389
 30
0.0
 10
87.15281980243054
 20
-150.2550835127835
 30
0.0
 10
87.23532983930228
 20
-150.2151204051546
 30
0.0
 10
87.35366886922061
 20
-150.2151204051546
 30
0.0
 10
87.60757240648353
 20
-150.2151204051546
 30
0.0
 10
87.84459497586872
 20
-150.4011555613581
 30
0.0
 10
87.84459497586872
 20
-150.7139702314187
 30
0.0
 10
87.84459497586872
 20
-151.0316080351588
 30
0.0
 10
87.62031925977895
 20
-151.2665635472528
 30
0.0
 10
87.31783987617402
 20
-151.2665635472528
 30
0.0
  0
HATCH
  5
4E
330
47
100
AcDbEntity
  8
_U+30EC_U+30A4_U+30E4_U+30FC 1
 62
   179
420
  2234388
100
AcDbHatch
 10
0.0
 20
0.0
 30
0.0
210
0.0
220
0.0
230
1.0
  2
SOLID
 70
     1
 71
     0
 91
        1
 92
        1
 93
        1
 72
     4
 94
        3
 73
     0
 74
     1
 95
       53
 96
       49
 40
0.0
 40
0.0
 40
0.0
 40
0.0
 40
1.0
 40
1.0
 40
1.0
 40
2.0
 40
2.0
 40
2.0
 40
3.0
 40
3.0
 40
3.0
 40
4.0
 40
4.0
 40
4.0
 40
5.0
 40
5.0
 40
5.0
 40
6.0
 40
6.0
 40
6.0
 40
7.0
 40
7.0
 40
7.0
 40
8.0
 40
8.0
 40
8.0
 40
9.0
 40
9.0
 40
9.0
 40
10.0
 40
10.0
 40
10.0
 40
11.0
 40
11.0
 40
11.0
 40
12.0
 40
12.0
 40
12.0
 40
13.0
 40
13.0
 40
13.0
 40
14.0
 40
14.0
 40
14.0
 40
15.0
 40
15.0
 40
15.0
 40
16.0
 40
16.0
 40
16.0
 40
16.0
 10
87.31783987617402
 20
-151.2665635472528
 10
87.23946395388458
 20
-151.2665635472528
 10
87.13800589184397
 20
-151.2493380698266
 10
87.0363755750291
 20
-151.185948312898
 10
86.86291501734678
 20
-151.07570525737
 10
86.84172768011248
 20
-150.9447916289305
 10
86.82277965494362
 20
-150.8369601402422
 10
86.82277965494362
 20
-150.8369601402422
 10
87.04481605896797
 20
-150.8369601402422
 10
87.04481605896797
 20
-150.8369601402422
 10
87.09993758673197
 20
-151.0357421497411
 10
87.22688935536343
 20
-151.0653699709142
 10
87.31990693346516
 20
-151.0653699709142
 10
87.45960555539205
 20
-151.0653699709142
 10
87.61187877584008
 20
-150.966151220939
 10
87.61187877584008
 20
-150.7332627661361
 10
87.61187877584008
 20
-150.4772921715821
 10
87.43204479151005
 20
-150.4073567332315
 10
87.3114664495263
 20
-150.4073567332315
 10
87.279771571062
 20
-150.4073567332315
 10
87.13800589184397
 20
-150.4073567332315
 10
87.04912242832452
 20
-150.5365478139284
 10
87.04912242832452
 20
-150.5365478139284
 10
86.87359481335105
 20
-150.5175997887595
 10
86.87359481335105
 20
-150.5175997887595
 10
86.87359481335105
 20
-150.5175997887595
 10
86.99417315533479
 20
-149.6714843375821
 10
86.99417315533479
 20
-149.6714843375821
 10
86.99417315533479
 20
-149.6714843375821
 10
87.77259248022699
 20
-149.6714843375821
 10
87.77259248022699
 20
-149.6714843375821
 10
87.77259248022699
 20
-149.6714843375821
 10
87.77259248022699
 20
-149.8657877229502
 10
87.77259248022699
 20
-149.8657877229502
 10
87.77259248022699
 20
-149.8657877229502
 10
87.15695391701284
 20
-149.8657877229502
 10
87.15695391701284
 20
-149.8657877229502
 10
87.15695391701284
 20
-149.8657877229502
 10
87.0914971027931
 20
-150.2888454485389
 10
87.0914971027931
 20
-150.2888454485389
 10
87.15281980243054
 20
-150.2550835127835
 10
87.23532983930228
 20
-150.2151204051546
 10
87.35366886922061
 20
-150.2151204051546
 10
87.60757240648353
 20
-150.2151204051546
 10
87.84459497586872
 20
-150.4011555613581
 10
87.84459497586872
 20
-150.7139702314187
 10
87.84459497586872
 20
-151.0316080351588
 10
87.62031925977895
 20
-151.2665635472528
 10
87.31783987617402
 20
-151.2665635472528
 97
        0
 97
        0
 75
     2
 76
     1
 98
        0
  0
ENDBLK
  5
4A
330
47
100
AcDbEntity
  8
0
100
AcDbBlockEnd
  0
BLOCK
  5
55
330
53
100
AcDbEntity
  8
0
100
AcDbBlockBegin
  2
block 3
 70
     0
 10
0.0
 20
0.0
 30
0.0
  3
block 3
  1

  0
SPLINE
  5
57
330
53
100
AcDbEntity
  8
_U+30EC_U+30A4_U+30E4_U+30FC 1
370
     0
100
AcDbSpline
210
0.0
220
0.0
230
1.0
 70
    11
 71
     3
 72
    26
 73
    22
 74
     0
 42
0.0000000001
 43
0.0000000001
 12
1.0
 22
0.0
 32
0.0
 13
1.0
 23
0.0
 33
0.0
 40
0.0
 40
0.0
 40
0.0
 40
0.0
 40
1.0
 40
1.0
 40
1.0
 40
2.0
 40
2.0
 40
2.0
 40
3.0
 40
3.0
 40
3.0
 40
4.0
 40
4.0
 40
4.0
 40
5.0
 40
5.0
 40
5.0
 40
6.0
 40
6.0
 40
6.0
 40
7.0
 40
7.0
 40
7.0
 40
7.0
 10
73.47699650940854
 20
-151.2155761340711
 30
0.0
 10
73.47699650940854
 20
-151.2155761340711
 30
0.0
 10
73.47699650940854
 20
-150.1110785215
 30
0.0
 10
73.47699650940854
 20
-150.1110785215
 30
0.0
 10
73.47699650940854
 20
-150.1110785215
 30
0.0
 10
73.1469563619216
 20
-150.1110785215
 30
0.0
 10
73.1469563619216
 20
-150.1110785215
 30
0.0
 10
73.1469563619216
 20
-150.1110785215
 30
0.0
 10
73.1469563619216
 20
-149.9632839251828
 30
0.0
 10
73.1469563619216
 20
-149.9632839251828
 30
0.0
 10
73.47906356669968
 20
-149.9484700145962
 30
0.0
 10
73.52557235575055
 20
-149.7855169981439
 30
0.0
 10
73.5552001769237
 20
-149.6714843375821
 30
0.0
 10
73.5552001769237
 20
-149.6714843375821
 30
0.0
 10
73.7012722254983
 20
-149.6714843375821
 30
0.0
 10
73.7012722254983
 20
-149.6714843375821
 30
0.0
 10
73.7012722254983
 20
-149.6714843375821
 30
0.0
 10
73.7012722254983
 20
-151.2155761340711
 30
0.0
 10
73.7012722254983
 20
-151.2155761340711
 30
0.0
 10
73.7012722254983
 20
-151.2155761340711
 30
0.0
 10
73.47699650940854
 20
-151.2155761340711
 30
0.0
 10
73.47699650940854
 20
-151.2155761340711
 30
0.0
  0
HATCH
  5
58
330
53
100
AcDbEntity
  8
_U+30EC_U+30A4_U+30E4_U+30FC 1
 62
   179
420
  2234388
100
AcDbHatch
 10
0.0
 20
0.0
 30
0.0
210
0.0
220
0.0
230
1.0
  2
SOLID
 70
     1
 71
     0
 91
        1
 92
        1
 93
        1
 72
     4
 94
        3
 73
     0
 74
     1
 95
       26
 96
       22
 40
0.0
 40
0.0
 40
0.0
 40
0.0
 40
1.0
 40
1.0
 40
1.0
 40
2.0
 40
2.0
 40
2.0
 40
3.0
 40
3.0
 40
3.0
 40
4.0
 40
4.0
 40
4.0
 40
5.0
 40
5.0
 40
5.0
 40
6.0
 40
6.0
 40
6.0
 40
7.0
 40
7.0
 40
7.0
 40
7.0
 10
73.47699650940854
 20
-151.2155761340711
 10
73.47699650940854
 20
-151.2155761340711
 10
73.47699650940854
 20
-150.1110785215
 10
73.47699650940854
 20
-150.1110785215
 10
73.47699650940854
 20
-150.1110785215
 10
73.1469563619216
 20
-150.1110785215
 10
73.1469563619216
 20
-150.1110785215
 10
73.1469563619216
 20
-150.1110785215
 10
73.1469563619216
 20
-149.9632839251828
 10
73.1469563619216
 20
-149.9632839251828
 10
73.47906356669968
 20
-149.9484700145962
 10
73.52557235575055
 20
-149.7855169981439
 10
73.5552001769237
 20
-149.6714843375821
 10
73.5552001769237
 20
-149.6714843375821
 10
73.7012722254983
 20
-149.6714843375821
 10
73.7012722254983
 20
-149.6714843375821
 10
73.7012722254983
 20
-149.6714843375821
 10
73.7012722254983
 20
-151.2155761340711
 10
73.7012722254983
 20
-151.2155761340711
 10
73.7012722254983
 20
-151.2155761340711
 10
73.47699650940854
 20
-151.2155761340711
 10
73.47699650940854
 20
-151.2155761340711
 97
        0
 97
        0
 75
     2
 76
     1
 98
        0
  0
SPLINE
  5
59
330
53
100
AcDbEntity
  8
_U+30EC_U+30A4_U+30E4_U+30FC 1
370
     0
100
AcDbSpline
210
0.0
220
0.0
230
1.0
 70
    11
 71
     3
 72
    29
 73
    25
 74
     0
 42
0.0000000001
 43
0.0000000001
 12
1.0
 22
0.0
 32
0.0
 13
1.0
 23
0.0
 33
0.0
 40
0.0
 40
0.0
 40
0.0
 40
0.0
 40
1.0
 40
1.0
 40
1.0
 40
2.0
 40
2.0
 40
2.0
 40
3.0
 40
3.0
 40
3.0
 40
4.0
 40
4.0
 40
4.0
 40
5.0
 40
5.0
 40
5.0
 40
6.0
 40
6.0
 40
6.0
 40
7.0
 40
7.0
 40
7.0
 40
8.0
 40
8.0
 40
8.0
 40
8.0
 10
75.100153247284
 20
-151.0378092070322
 30
0.0
 10
74.99232175859568
 20
-151.2472710125354
 30
0.0
 10
74.81886120091335
 20
-151.2665635472528
 30
0.0
 10
74.7024169735119
 20
-151.2665635472528
 30
0.0
 10
74.541703269125
 20
-151.2665635472528
 30
0.0
 10
74.39993758990697
 20
-151.2197102486534
 30
0.0
 10
74.3046806997398
 20
-151.0378092070322
 30
0.0
 10
74.20115558040804
 20
-150.8431613121156
 30
0.0
 10
74.18203530046492
 20
-150.6064832522789
 30
0.0
 10
74.18203530046492
 20
-150.4431857262781
 30
0.0
 10
74.18203530046492
 20
-150.2995252445432
 30
0.0
 10
74.19891626834263
 20
-150.0476887645714
 30
0.0
 10
74.3046806997398
 20
-149.8489067550725
 30
0.0
 10
74.4126844432024
 20
-149.6459906309913
 30
0.0
 10
74.57339814758929
 20
-149.6225639816916
 30
0.0
 10
74.7024169735119
 20
-149.6225639816916
 30
0.0
 10
74.86106362060765
 20
-149.6225639816916
 30
0.0
 10
75.00489635711683
 20
-149.6670057134513
 30
0.0
 10
75.100153247284
 20
-149.8489067550725
 30
0.0
 10
75.19954425203345
 20
-150.041487592698
 30
0.0
 10
75.22279864655889
 20
-150.26989742337
 30
0.0
 10
75.22279864655889
 20
-150.4431857262781
 30
0.0
 10
75.22279864655889
 20
-150.6147514814435
 30
0.0
 10
75.20178356409886
 20
-150.8455728789553
 30
0.0
 10
75.100153247284
 20
-151.0378092070322
 30
0.0
  0
SPLINE
  5
5A
330
53
100
AcDbEntity
  8
_U+30EC_U+30A4_U+30E4_U+30FC 1
370
     0
100
AcDbSpline
210
0.0
220
0.0
230
1.0
 70
    11
 71
     3
 72
    17
 73
    13
 74
     0
 42
0.0000000001
 43
0.0000000001
 12
1.0
 22
0.0
 32
0.0
 13
1.0
 23
0.0
 33
0.0
 40
0.0
 40
0.0
 40
0.0
 40
0.0
 40
1.0
 40
1.0
 40
1.0
 40
2.0
 40
2.0
 40
2.0
 40
3.0
 40
3.0
 40
3.0
 40
4.0
 40
4.0
 40
4.0
 40
4.0
 10
74.7024169735119
 20
-149.8151448193171
 30
0.0
 10
74.45281980560554
 20
-149.8151448193171
 30
0.0
 10
74.40631101655468
 20
-150.0986761777531
 30
0.0
 10
74.40631101655468
 20
-150.4431857262781
 30
0.0
 10
74.40631101655468
 20
-150.7628905873093
 30
0.0
 10
74.44231226437553
 20
-151.0715711427877
 30
0.0
 10
74.7024169735119
 20
-151.0715711427877
 30
0.0
 10
74.9499470841271
 20
-151.0715711427877
 30
0.0
 10
74.99869518524339
 20
-150.7904513511913
 30
0.0
 10
74.99869518524339
 20
-150.4431857262781
 30
0.0
 10
74.99869518524339
 20
-150.124169884344
 30
0.0
 10
74.96045462535712
 20
-149.8151448193171
 30
0.0
 10
74.7024169735119
 20
-149.8151448193171
 30
0.0
  0
HATCH
  5
5B
330
53
100
AcDbEntity
  8
_U+30EC_U+30A4_U+30E4_U+30FC 1
 62
   179
420
  2234388
100
AcDbHatch
 10
0.0
 20
0.0
 30
0.0
210
0.0
220
0.0
230
1.0
  2
SOLID
 70
     1
 71
     0
 91
        2
 92
        1
 93
        1
 72
     4
 94
        3
 73
     0
 74
     1
 95
       29
 96
       25
 40
0.0
 40
0.0
 40
0.0
 40
0.0
 40
1.0
 40
1.0
 40
1.0
 40
2.0
 40
2.0
 40
2.0
 40
3.0
 40
3.0
 40
3.0
 40
4.0
 40
4.0
 40
4.0
 40
5.0
 40
5.0
 40
5.0
 40
6.0
 40
6.0
 40
6.0
 40
7.0
 40
7.0
 40
7.0
 40
8.0
 40
8.0
 40
8.0
 40
8.0
 10
75.100153247284
 20
-151.0378092070322
 10
74.99232175859568
 20
-151.2472710125354
 10
74.81886120091335
 20
-151.2665635472528
 10
74.7024169735119
 20
-151.2665635472528
 10
74.541703269125
 20
-151.2665635472528
 10
74.39993758990697
 20
-151.2197102486534
 10
74.3046806997398
 20
-151.0378092070322
 10
74.20115558040804
 20
-150.8431613121156
 10
74.18203530046492
 20
-150.6064832522789
 10
74.18203530046492
 20
-150.4431857262781
 10
74.18203530046492
 20
-150.2995252445432
 10
74.19891626834263
 20
-150.0476887645714
 10
74.3046806997398
 20
-149.8489067550725
 10
74.4126844432024
 20
-149.6459906309913
 10
74.57339814758929
 20
-149.6225639816916
 10
74.7024169735119
 20
-149.6225639816916
 10
74.86106362060765
 20
-149.6225639816916
 10
75.00489635711683
 20
-149.6670057134513
 10
75.100153247284
 20
-149.8489067550725
 10
75.19954425203345
 20
-150.041487592698
 10
75.22279864655889
 20
-150.26989742337
 10
75.22279864655889
 20
-150.4431857262781
 10
75.22279864655889
 20
-150.6147514814435
 10
75.20178356409886
 20
-150.8455728789553
 10
75.100153247284
 20
-151.0378092070322
 97
        0
 97
        0
 92
        1
 93
        1
 72
     4
 94
        3
 73
     0
 74
     1
 95
       17
 96
       13
 40
0.0
 40
0.0
 40
0.0
 40
0.0
 40
1.0
 40
1.0
 40
1.0
 40
2.0
 40
2.0
 40
2.0
 40
3.0
 40
3.0
 40
3.0
 40
4.0
 40
4.0
 40
4.0
 40
4.0
 10
74.7024169735119
 20
-149.8151448193171
 10
74.45281980560554
 20
-149.8151448193171
 10
74.40631101655468
 20
-150.0986761777531
 10
74.40631101655468
 20
-150.4431857262781
 10
74.40631101655468
 20
-150.7628905873093
 10
74.44231226437553
 20
-151.0715711427877
 10
74.7024169735119
 20
-151.0715711427877
 10
74.9499470841271
 20
-151.0715711427877
 10
74.99869518524339
 20
-150.7904513511913
 10
74.99869518524339
 20
-150.4431857262781
 10
74.99869518524339
 20
-150.124169884344
 10
74.96045462535712
 20
-149.8151448193171
 10
74.7024169735119
 20
-149.8151448193171
 97
        0
 97
        0
 75
     2
 76
     1
 98
        0
  0
ENDBLK
  5
56
330
53
100
AcDbEntity
  8
0
100
AcDbBlockEnd
  0
BLOCK
  5
72
330
70
100
AcDbEntity
  8
0
100
AcDbBlockBegin
  2
block 4
 70
     0
 10
0.0
 20
0.0
 30
0.0
  3
block 4
  1

  0
SPLINE
  5
74
330
70
100
AcDbEntity
  8
_U+30EC_U+30A4_U+30E4_U+30FC 1
370
     0
100
AcDbSpline
210
0.0
220
0.0
230
1.0
 70
    11
 71
     3
 72
    44
 73
    40
 74
     0
 42
0.0000000001
 43
0.0000000001
 12
1.0
 22
0.0
 32
0.0
 13
1.0
 23
0.0
 33
0.0
 40
0.0
 40
0.0
 40
0.0
 40
0.0
 40
1.0
 40
1.0
 40
1.0
 40
2.0
 40
2.0
 40
2.0
 40
3.0
 40
3.0
 40
3.0
 40
4.0
 40
4.0
 40
4.0
 40
5.0
 40
5.0
 40
5.0
 40
6.0
 40
6.0
 40
6.0
 40
7.0
 40
7.0
 40
7.0
 40
8.0
 40
8.0
 40
8.0
 40
9.0
 40
9.0
 40
9.0
 40
10.0
 40
10.0
 40
10.0
 40
11.0
 40
11.0
 40
11.0
 40
12.0
 40
12.0
 40
12.0
 40
13.0
 40
13.0
 40
13.0
 40
13.0
 10
63.8302123863862
 20
-135.3874294366393
 30
0.0
 10
63.98885903348196
 20
-135.6055039808556
 30
0.0
 10
64.06292858641483
 20
-135.6988660685059
 30
0.0
 10
64.20676132292401
 20
-135.7470974052993
 30
0.0
 10
64.20676132292401
 20
-135.7470974052993
 30
0.0
 10
64.20676132292401
 20
-134.9688503351814
 30
0.0
 10
64.20676132292401
 20
-134.9688503351814
 30
0.0
 10
64.20676132292401
 20
-134.9688503351814
 30
0.0
 10
64.41191675907064
 20
-134.9688503351814
 30
0.0
 10
64.41191675907064
 20
-134.9688503351814
 30
0.0
 10
64.41191675907064
 20
-134.9688503351814
 30
0.0
 10
64.41191675907064
 20
-135.9968668279799
 30
0.0
 10
64.41191675907064
 20
-135.9968668279799
 30
0.0
 10
64.0543158477017
 20
-135.9651719495156
 30
0.0
 10
63.97611218018653
 20
-135.8997151352959
 30
0.0
 10
63.67776691116389
 20
-135.514553460045
 30
0.0
 10
63.47898490166498
 20
-135.2585828654909
 30
0.0
 10
63.41128877537982
 20
-135.1931260512712
 30
0.0
 10
63.27382946551835
 20
-135.1931260512712
 30
0.0
 10
63.15531818082576
 20
-135.1931260512712
 30
0.0
 10
63.024232297612
 20
-135.2647840373644
 30
0.0
 10
63.024232297612
 20
-135.4618434991206
 30
0.0
 10
63.024232297612
 20
-135.721948208257
 30
0.0
 10
63.25470918557522
 20
-135.7305609469701
 30
0.0
 10
63.37115341297666
 20
-135.7346950615525
 30
0.0
 10
63.37115341297666
 20
-135.7346950615525
 30
0.0
 10
63.37115341297666
 20
-135.9586262680937
 30
0.0
 10
63.37115341297666
 20
-135.9586262680937
 30
0.0
 10
63.2442016443452
 20
-135.9503580389291
 30
0.0
 10
63.13206378630032
 20
-135.9400227524733
 30
0.0
 10
63.01355250160773
 20
-135.8594075181185
 30
0.0
 10
62.85283879722082
 20
-135.749508972139
 30
0.0
 10
62.81890460669111
 20
-135.563129306387
 30
0.0
 10
62.81890460669111
 20
-135.4466850789856
 30
0.0
 10
62.81890460669111
 20
-135.1696994019715
 30
0.0
 10
63.00304496037771
 20
-134.9623046537594
 30
0.0
 10
63.2758965228095
 20
-134.9623046537594
 30
0.0
 10
63.50430635348157
 20
-134.9623046537594
 30
0.0
 10
63.60386961300529
 20
-135.0787488811609
 30
0.0
 10
63.8302123863862
 20
-135.3874294366393
 30
0.0
  0
HATCH
  5
75
330
70
100
AcDbEntity
  8
_U+30EC_U+30A4_U+30E4_U+30FC 1
 62
   179
420
  2234388
100
AcDbHatch
 10
0.0
 20
0.0
 30
0.0
210
0.0
220
0.0
230
1.0
  2
SOLID
 70
     1
 71
     0
 91
        1
 92
        1
 93
        1
 72
     4
 94
        3
 73
     0
 74
     1
 95
       44
 96
       40
 40
0.0
 40
0.0
 40
0.0
 40
0.0
 40
1.0
 40
1.0
 40
1.0
 40
2.0
 40
2.0
 40
2.0
 40
3.0
 40
3.0
 40
3.0
 40
4.0
 40
4.0
 40
4.0
 40
5.0
 40
5.0
 40
5.0
 40
6.0
 40
6.0
 40
6.0
 40
7.0
 40
7.0
 40
7.0
 40
8.0
 40
8.0
 40
8.0
 40
9.0
 40
9.0
 40
9.0
 40
10.0
 40
10.0
 40
10.0
 40
11.0
 40
11.0
 40
11.0
 40
12.0
 40
12.0
 40
12.0
 40
13.0
 40
13.0
 40
13.0
 40
13.0
 10
63.8302123863862
 20
-135.3874294366393
 10
63.98885903348196
 20
-135.6055039808556
 10
64.06292858641483
 20
-135.6988660685059
 10
64.20676132292401
 20
-135.7470974052993
 10
64.20676132292401
 20
-135.7470974052993
 10
64.20676132292401
 20
-134.9688503351814
 10
64.20676132292401
 20
-134.9688503351814
 10
64.20676132292401
 20
-134.9688503351814
 10
64.41191675907064
 20
-134.9688503351814
 10
64.41191675907064
 20
-134.9688503351814
 10
64.41191675907064
 20
-134.9688503351814
 10
64.41191675907064
 20
-135.9968668279799
 10
64.41191675907064
 20
-135.9968668279799
 10
64.0543158477017
 20
-135.9651719495156
 10
63.97611218018653
 20
-135.8997151352959
 10
63.67776691116389
 20
-135.514553460045
 10
63.47898490166498
 20
-135.2585828654909
 10
63.41128877537982
 20
-135.1931260512712
 10
63.27382946551835
 20
-135.1931260512712
 10
63.15531818082576
 20
-135.1931260512712
 10
63.024232297612
 20
-135.2647840373644
 10
63.024232297612
 20
-135.4618434991206
 10
63.024232297612
 20
-135.721948208257
 10
63.25470918557522
 20
-135.7305609469701
 10
63.37115341297666
 20
-135.7346950615525
 10
63.37115341297666
 20
-135.7346950615525
 10
63.37115341297666
 20
-135.9586262680937
 10
63.37115341297666
 20
-135.9586262680937
 10
63.2442016443452
 20
-135.9503580389291
 10
63.13206378630032
 20
-135.9400227524733
 10
63.01355250160773
 20
-135.8594075181185
 10
62.85283879722082
 20
-135.749508972139
 10
62.81890460669111
 20
-135.563129306387
 10
62.81890460669111
 20
-135.4466850789856
 10
62.81890460669111
 20
-135.1696994019715
 10
63.00304496037771
 20
-134.9623046537594
 10
63.2758965228095
 20
-134.9623046537594
 10
63.50430635348157
 20
-134.9623046537594
 10
63.60386961300529
 20
-135.0787488811609
 10
63.8302123863862
 20
-135.3874294366393
 97
        0
 97
        0
 75
     2
 76
     1
 98
        0
  0
SPLINE
  5
76
330
70
100
AcDbEntity
  8
_U+30EC_U+30A4_U+30E4_U+30FC 1
370
     0
100
AcDbSpline
210
0.0
220
0.0
230
1.0
 70
    11
 71
     3
 72
    53
 73
    49
 74
     0
 42
0.0000000001
 43
0.0000000001
 12
1.0
 22
0.0
 32
0.0
 13
1.0
 23
0.0
 33
0.0
 40
0.0
 40
0.0
 40
0.0
 40
0.0
 40
1.0
 40
1.0
 40
1.0
 40
2.0
 40
2.0
 40
2.0
 40
3.0
 40
3.0
 40
3.0
 40
4.0
 40
4.0
 40
4.0
 40
5.0
 40
5.0
 40
5.0
 40
6.0
 40
6.0
 40
6.0
 40
7.0
 40
7.0
 40
7.0
 40
8.0
 40
8.0
 40
8.0
 40
9.0
 40
9.0
 40
9.0
 40
10.0
 40
10.0
 40
10.0
 40
11.0
 40
11.0
 40
11.0
 40
12.0
 40
12.0
 40
12.0
 40
13.0
 40
13.0
 40
13.0
 40
14.0
 40
14.0
 40
14.0
 40
15.0
 40
15.0
 40
15.0
 40
16.0
 40
16.0
 40
16.0
 40
16.0
 10
64.46273191747807
 20
-134.322894931697
 30
0.0
 10
64.46273191747807
 20
-134.4014431087608
 30
0.0
 10
64.44567869482609
 20
-134.5027289160271
 30
0.0
 10
64.38228893789748
 20
-134.604359232842
 30
0.0
 10
64.27221813714375
 20
-134.77764753575
 30
0.0
 10
64.14113225393
 20
-134.7990071277586
 30
0.0
 10
64.03330076524168
 20
-134.8179551529275
 30
0.0
 10
64.03330076524168
 20
-134.8179551529275
 30
0.0
 10
64.03330076524168
 20
-134.5957464941289
 30
0.0
 10
64.03330076524168
 20
-134.5957464941289
 30
0.0
 10
64.23208277474059
 20
-134.5406249663648
 30
0.0
 10
64.26171059591374
 20
-134.4138454525076
 30
0.0
 10
64.26171059591374
 20
-134.3208278744059
 30
0.0
 10
64.26171059591374
 20
-134.1813015072533
 30
0.0
 10
64.16231959116429
 20
-134.0286837772567
 30
0.0
 10
63.92960339113566
 20
-134.0286837772567
 30
0.0
 10
63.67363279658159
 20
-134.0286837772567
 30
0.0
 10
63.60386961300529
 20
-134.2085177615868
 30
0.0
 10
63.60386961300529
 20
-134.3290961035705
 30
0.0
 10
63.60386961300529
 20
-134.3607909820348
 30
0.0
 10
63.60386961300529
 20
-134.5027289160271
 30
0.0
 10
63.73288843892789
 20
-134.5916123795465
 30
0.0
 10
63.73288843892789
 20
-134.5916123795465
 30
0.0
 10
63.71376815898476
 20
-134.7673122492943
 30
0.0
 10
63.71376815898476
 20
-134.7673122492943
 30
0.0
 10
63.71376815898476
 20
-134.7673122492943
 30
0.0
 10
62.86765270780739
 20
-134.6467339073105
 30
0.0
 10
62.86765270780739
 20
-134.6467339073105
 30
0.0
 10
62.86765270780739
 20
-134.6467339073105
 30
0.0
 10
62.86765270780739
 20
-133.8681423276441
 30
0.0
 10
62.86765270780739
 20
-133.8681423276441
 30
0.0
 10
62.86765270780739
 20
-133.8681423276441
 30
0.0
 10
63.06230060272401
 20
-133.8681423276441
 30
0.0
 10
63.06230060272401
 20
-133.8681423276441
 30
0.0
 10
63.06230060272401
 20
-133.8681423276441
 30
0.0
 10
63.06230060272401
 20
-134.4837808908582
 30
0.0
 10
63.06230060272401
 20
-134.4837808908582
 30
0.0
 10
63.06230060272401
 20
-134.4837808908582
 30
0.0
 10
63.48535832831269
 20
-134.549237705078
 30
0.0
 10
63.48535832831269
 20
-134.549237705078
 30
0.0
 10
63.45142413778298
 20
-134.4879150054405
 30
0.0
 10
63.41128877537982
 20
-134.405577223343
 30
0.0
 10
63.41128877537982
 20
-134.2870659386505
 30
0.0
 10
63.41128877537982
 20
-134.0331624013876
 30
0.0
 10
63.59749618635757
 20
-133.7961398320024
 30
0.0
 10
63.91048311119252
 20
-133.7961398320024
 30
0.0
 10
64.22794866015829
 20
-133.7961398320024
 30
0.0
 10
64.46273191747807
 20
-134.0204155480921
 30
0.0
 10
64.46273191747807
 20
-134.322894931697
 30
0.0
  0
HATCH
  5
77
330
70
100
AcDbEntity
  8
_U+30EC_U+30A4_U+30E4_U+30FC 1
 62
   179
420
  2234388
100
AcDbHatch
 10
0.0
 20
0.0
 30
0.0
210
0.0
220
0.0
230
1.0
  2
SOLID
 70
     1
 71
     0
 91
        1
 92
        1
 93
        1
 72
     4
 94
        3
 73
     0
 74
     1
 95
       53
 96
       49
 40
0.0
 40
0.0
 40
0.0
 40
0.0
 40
1.0
 40
1.0
 40
1.0
 40
2.0
 40
2.0
 40
2.0
 40
3.0
 40
3.0
 40
3.0
 40
4.0
 40
4.0
 40
4.0
 40
5.0
 40
5.0
 40
5.0
 40
6.0
 40
6.0
 40
6.0
 40
7.0
 40
7.0
 40
7.0
 40
8.0
 40
8.0
 40
8.0
 40
9.0
 40
9.0
 40
9.0
 40
10.0
 40
10.0
 40
10.0
 40
11.0
 40
11.0
 40
11.0
 40
12.0
 40
12.0
 40
12.0
 40
13.0
 40
13.0
 40
13.0
 40
14.0
 40
14.0
 40
14.0
 40
15.0
 40
15.0
 40
15.0
 40
16.0
 40
16.0
 40
16.0
 40
16.0
 10
64.46273191747807
 20
-134.322894931697
 10
64.46273191747807
 20
-134.4014431087608
 10
64.44567869482609
 20
-134.5027289160271
 10
64.38228893789748
 20
-134.604359232842
 10
64.27221813714375
 20
-134.77764753575
 10
64.14113225393
 20
-134.7990071277586
 10
64.03330076524168
 20
-134.8179551529275
 10
64.03330076524168
 20
-134.8179551529275
 10
64.03330076524168
 20
-134.5957464941289
 10
64.03330076524168
 20
-134.5957464941289
 10
64.23208277474059
 20
-134.5406249663648
 10
64.26171059591374
 20
-134.4138454525076
 10
64.26171059591374
 20
-134.3208278744059
 10
64.26171059591374
 20
-134.1813015072533
 10
64.16231959116429
 20
-134.0286837772567
 10
63.92960339113566
 20
-134.0286837772567
 10
63.67363279658159
 20
-134.0286837772567
 10
63.60386961300529
 20
-134.2085177615868
 10
63.60386961300529
 20
-134.3290961035705
 10
63.60386961300529
 20
-134.3607909820348
 10
63.60386961300529
 20
-134.5027289160271
 10
63.73288843892789
 20
-134.5916123795465
 10
63.73288843892789
 20
-134.5916123795465
 10
63.71376815898476
 20
-134.7673122492943
 10
63.71376815898476
 20
-134.7673122492943
 10
63.71376815898476
 20
-134.7673122492943
 10
62.86765270780739
 20
-134.6467339073105
 10
62.86765270780739
 20
-134.6467339073105
 10
62.86765270780739
 20
-134.6467339073105
 10
62.86765270780739
 20
-133.8681423276441
 10
62.86765270780739
 20
-133.8681423276441
 10
62.86765270780739
 20
-133.8681423276441
 10
63.06230060272401
 20
-133.8681423276441
 10
63.06230060272401
 20
-133.8681423276441
 10
63.06230060272401
 20
-133.8681423276441
 10
63.06230060272401
 20
-134.4837808908582
 10
63.06230060272401
 20
-134.4837808908582
 10
63.06230060272401
 20
-134.4837808908582
 10
63.48535832831269
 20
-134.549237705078
 10
63.48535832831269
 20
-134.549237705078
 10
63.45142413778298
 20
-134.4879150054405
 10
63.41128877537982
 20
-134.405577223343
 10
63.41128877537982
 20
-134.2870659386505
 10
63.41128877537982
 20
-134.0331624013876
 10
63.59749618635757
 20
-133.7961398320024
 10
63.91048311119252
 20
-133.7961398320024
 10
64.22794866015829
 20
-133.7961398320024
 10
64.46273191747807
 20
-134.0204155480921
 10
64.46273191747807
 20
-134.322894931697
 97
        0
 97
        0
 75
     2
 76
     1
 98
        0
  0
ENDBLK
  5
73
330
70
100
AcDbEntity
  8
0
100
AcDbBlockEnd
  0
BLOCK
  5
7A
330
78
100
AcDbEntity
  8
0
100
AcDbBlockBegin
  2
block 5
 70
     0
 10
0.0
 20
0.0
 30
0.0
  3
block 5
  1

  0
SPLINE
  5
7C
330
78
100
AcDbEntity
  8
_U+30EC_U+30A4_U+30E4_U+30FC 1
370
     0
100
AcDbSpline
210
0.0
220
0.0
230
1.0
 70
    11
 71
     3
 72
    44
 73
    40
 74
     0
 42
0.0000000001
 43
0.0000000001
 12
1.0
 22
0.0
 32
0.0
 13
1.0
 23
0.0
 33
0.0
 40
0.0
 40
0.0
 40
0.0
 40
0.0
 40
1.0
 40
1.0
 40
1.0
 40
2.0
 40
2.0
 40
2.0
 40
3.0
 40
3.0
 40
3.0
 40
4.0
 40
4.0
 40
4.0
 40
5.0
 40
5.0
 40
5.0
 40
6.0
 40
6.0
 40
6.0
 40
7.0
 40
7.0
 40
7.0
 40
8.0
 40
8.0
 40
8.0
 40
9.0
 40
9.0
 40
9.0
 40
10.0
 40
10.0
 40
10.0
 40
11.0
 40
11.0
 40
11.0
 40
12.0
 40
12.0
 40
12.0
 40
13.0
 40
13.0
 40
13.0
 40
13.0
 10
63.8302123863862
 20
-113.193607556337
 30
0.0
 10
63.98885903348196
 20
-113.4115098457791
 30
0.0
 10
64.06292858641483
 20
-113.5046996786551
 30
0.0
 10
64.20676132292401
 20
-113.5532755249971
 30
0.0
 10
64.20676132292401
 20
-113.5532755249971
 30
0.0
 10
64.20676132292401
 20
-112.7748562001049
 30
0.0
 10
64.20676132292401
 20
-112.7748562001049
 30
0.0
 10
64.20676132292401
 20
-112.7748562001049
 30
0.0
 10
64.41191675907064
 20
-112.7748562001049
 30
0.0
 10
64.41191675907064
 20
-112.7748562001049
 30
0.0
 10
64.41191675907064
 20
-112.7748562001049
 30
0.0
 10
64.41191675907064
 20
-113.8028726929034
 30
0.0
 10
64.41191675907064
 20
-113.8028726929034
 30
0.0
 10
64.0543158477017
 20
-113.7711778144392
 30
0.0
 10
63.97611218018653
 20
-113.7057210002194
 30
0.0
 10
63.67776691116389
 20
-113.3205593249685
 30
0.0
 10
63.47898490166498
 20
-113.0645887304144
 30
0.0
 10
63.41128877537982
 20
-112.9991319161947
 30
0.0
 10
63.27382946551835
 20
-112.9991319161947
 30
0.0
 10
63.15531818082576
 20
-112.9991319161947
 30
0.0
 10
63.02406004283774
 20
-113.0709621570621
 30
0.0
 10
63.02406004283774
 20
-113.2676771092699
 30
0.0
 10
63.02406004283774
 20
-113.5279540731805
 30
0.0
 10
63.25470918557522
 20
-113.5363945571194
 30
0.0
 10
63.37115341297666
 20
-113.5407009264759
 30
0.0
 10
63.37115341297666
 20
-113.5407009264759
 30
0.0
 10
63.37115341297666
 20
-113.7648043877914
 30
0.0
 10
63.37115341297666
 20
-113.7648043877914
 30
0.0
 10
63.2442016443452
 20
-113.7563639038526
 30
0.0
 10
63.13206378630032
 20
-113.7458563626226
 30
0.0
 10
63.01355250160773
 20
-113.665413383042
 30
0.0
 10
62.85283879722082
 20
-113.5555148370625
 30
0.0
 10
62.81890460669111
 20
-113.3693074260848
 30
0.0
 10
62.81890460669111
 20
-113.2528631986833
 30
0.0
 10
62.81890460669111
 20
-112.975705266895
 30
0.0
 10
63.00304496037771
 20
-112.7684827734572
 30
0.0
 10
63.2758965228095
 20
-112.7684827734572
 30
0.0
 10
63.50430635348157
 20
-112.7684827734572
 30
0.0
 10
63.60386961300529
 20
-112.8847547460844
 30
0.0
 10
63.8302123863862
 20
-113.193607556337
 30
0.0
  0
HATCH
  5
7D
330
78
100
AcDbEntity
  8
_U+30EC_U+30A4_U+30E4_U+30FC 1
 62
   179
420
  2234388
100
AcDbHatch
 10
0.0
 20
0.0
 30
0.0
210
0.0
220
0.0
230
1.0
  2
SOLID
 70
     1
 71
     0
 91
        1
 92
        1
 93
        1
 72
     4
 94
        3
 73
     0
 74
     1
 95
       44
 96
       40
 40
0.0
 40
0.0
 40
0.0
 40
0.0
 40
1.0
 40
1.0
 40
1.0
 40
2.0
 40
2.0
 40
2.0
 40
3.0
 40
3.0
 40
3.0
 40
4.0
 40
4.0
 40
4.0
 40
5.0
 40
5.0
 40
5.0
 40
6.0
 40
6.0
 40
6.0
 40
7.0
 40
7.0
 40
7.0
 40
8.0
 40
8.0
 40
8.0
 40
9.0
 40
9.0
 40
9.0
 40
10.0
 40
10.0
 40
10.0
 40
11.0
 40
11.0
 40
11.0
 40
12.0
 40
12.0
 40
12.0
 40
13.0
 40
13.0
 40
13.0
 40
13.0
 10
63.8302123863862
 20
-113.193607556337
 10
63.98885903348196
 20
-113.4115098457791
 10
64.06292858641483
 20
-113.5046996786551
 10
64.20676132292401
 20
-113.5532755249971
 10
64.20676132292401
 20
-113.5532755249971
 10
64.20676132292401
 20
-112.7748562001049
 10
64.20676132292401
 20
-112.7748562001049
 10
64.20676132292401
 20
-112.7748562001049
 10
64.41191675907064
 20
-112.7748562001049
 10
64.41191675907064
 20
-112.7748562001049
 10
64.41191675907064
 20
-112.7748562001049
 10
64.41191675907064
 20
-113.8028726929034
 10
64.41191675907064
 20
-113.8028726929034
 10
64.0543158477017
 20
-113.7711778144392
 10
63.97611218018653
 20
-113.7057210002194
 10
63.67776691116389
 20
-113.3205593249685
 10
63.47898490166498
 20
-113.0645887304144
 10
63.41128877537982
 20
-112.9991319161947
 10
63.27382946551835
 20
-112.9991319161947
 10
63.15531818082576
 20
-112.9991319161947
 10
63.02406004283774
 20
-113.0709621570621
 10
63.02406004283774
 20
-113.2676771092699
 10
63.02406004283774
 20
-113.5279540731805
 10
63.25470918557522
 20
-113.5363945571194
 10
63.37115341297666
 20
-113.5407009264759
 10
63.37115341297666
 20
-113.5407009264759
 10
63.37115341297666
 20
-113.7648043877914
 10
63.37115341297666
 20
-113.7648043877914
 10
63.2442016443452
 20
-113.7563639038526
 10
63.13206378630032
 20
-113.7458563626226
 10
63.01355250160773
 20
-113.665413383042
 10
62.85283879722082
 20
-113.5555148370625
 10
62.81890460669111
 20
-113.3693074260848
 10
62.81890460669111
 20
-113.2528631986833
 10
62.81890460669111
 20
-112.975705266895
 10
63.00304496037771
 20
-112.7684827734572
 10
63.2758965228095
 20
-112.7684827734572
 10
63.50430635348157
 20
-112.7684827734572
 10
63.60386961300529
 20
-112.8847547460844
 10
63.8302123863862
 20
-113.193607556337
 97
        0
 97
        0
 75
     2
 76
     1
 98
        0
  0
SPLINE
  5
7E
330
78
100
AcDbEntity
  8
_U+30EC_U+30A4_U+30E4_U+30FC 1
370
     0
100
AcDbSpline
210
0.0
220
0.0
230
1.0
 70
    11
 71
     3
 72
    29
 73
    25
 74
     0
 42
0.0000000001
 43
0.0000000001
 12
1.0
 22
0.0
 32
0.0
 13
1.0
 23
0.0
 33
0.0
 40
0.0
 40
0.0
 40
0.0
 40
0.0
 40
1.0
 40
1.0
 40
1.0
 40
2.0
 40
2.0
 40
2.0
 40
3.0
 40
3.0
 40
3.0
 40
4.0
 40
4.0
 40
4.0
 40
5.0
 40
5.0
 40
5.0
 40
6.0
 40
6.0
 40
6.0
 40
7.0
 40
7.0
 40
7.0
 40
8.0
 40
8.0
 40
8.0
 40
8.0
 10
64.23414983203175
 20
-111.7122164976796
 30
0.0
 10
64.44361163753493
 20
-111.8200479863679
 30
0.0
 10
64.46273191747807
 20
-111.9935085440502
 30
0.0
 10
64.46273191747807
 20
-112.1099527714517
 30
0.0
 10
64.46273191747807
 20
-112.2706664758386
 30
0.0
 10
64.41622312842719
 20
-112.4124321550566
 30
0.0
 10
64.23414983203175
 20
-112.5076890452238
 30
0.0
 10
64.03967419188939
 20
-112.6112141645555
 30
0.0
 10
63.8026516225042
 20
-112.6303344444987
 30
0.0
 10
63.63969860605189
 20
-112.6303344444987
 30
0.0
 10
63.4958658695427
 20
-112.6303344444987
 30
0.0
 10
63.2442016443452
 20
-112.6134534766209
 30
0.0
 10
63.04524738007203
 20
-112.5076890452238
 30
0.0
 10
62.84215900121654
 20
-112.3996853017612
 30
0.0
 10
62.81890460669111
 20
-112.2389715973743
 30
0.0
 10
62.81890460669111
 20
-112.1099527714517
 30
0.0
 10
62.81890460669111
 20
-111.9513061243559
 30
0.0
 10
62.86334633845083
 20
-111.8074733878467
 30
0.0
 10
63.04524738007203
 20
-111.7122164976796
 30
0.0
 10
63.23782821769749
 20
-111.6128254929301
 30
0.0
 10
63.46623804836955
 20
-111.5895710984047
 30
0.0
 10
63.63969860605189
 20
-111.5895710984047
 30
0.0
 10
63.81109210644306
 20
-111.5895710984047
 30
0.0
 10
64.04174124918055
 20
-111.6105861808647
 30
0.0
 10
64.23414983203175
 20
-111.7122164976796
 30
0.0
  0
SPLINE
  5
7F
330
78
100
AcDbEntity
  8
_U+30EC_U+30A4_U+30E4_U+30FC 1
370
     0
100
AcDbSpline
210
0.0
220
0.0
230
1.0
 70
    11
 71
     3
 72
    17
 73
    13
 74
     0
 42
0.0000000001
 43
0.0000000001
 12
1.0
 22
0.0
 32
0.0
 13
1.0
 23
0.0
 33
0.0
 40
0.0
 40
0.0
 40
0.0
 40
0.0
 40
1.0
 40
1.0
 40
1.0
 40
2.0
 40
2.0
 40
2.0
 40
3.0
 40
3.0
 40
3.0
 40
4.0
 40
4.0
 40
4.0
 40
4.0
 10
63.01148544431658
 20
-112.1099527714517
 30
0.0
 10
63.01148544431658
 20
-112.359549939358
 30
0.0
 10
63.29484454797838
 20
-112.4060587284089
 30
0.0
 10
63.63969860605189
 20
-112.4060587284089
 30
0.0
 10
63.95923121230881
 20
-112.4060587284089
 30
0.0
 10
64.26808402256145
 20
-112.370057480588
 30
0.0
 10
64.26808402256145
 20
-112.1099527714517
 30
0.0
 10
64.26808402256145
 20
-111.8624226608365
 30
0.0
 10
63.98661972141655
 20
-111.8136745597202
 30
0.0
 10
63.63969860605189
 20
-111.8136745597202
 30
0.0
 10
63.32033825456922
 20
-111.8136745597202
 30
0.0
 10
63.01148544431658
 20
-111.8519151196065
 30
0.0
 10
63.01148544431658
 20
-112.1099527714517
 30
0.0
  0
HATCH
  5
80
330
78
100
AcDbEntity
  8
_U+30EC_U+30A4_U+30E4_U+30FC 1
 62
   179
420
  2234388
100
AcDbHatch
 10
0.0
 20
0.0
 30
0.0
210
0.0
220
0.0
230
1.0
  2
SOLID
 70
     1
 71
     0
 91
        2
 92
        1
 93
        1
 72
     4
 94
        3
 73
     0
 74
     1
 95
       29
 96
       25
 40
0.0
 40
0.0
 40
0.0
 40
0.0
 40
1.0
 40
1.0
 40
1.0
 40
2.0
 40
2.0
 40
2.0
 40
3.0
 40
3.0
 40
3.0
 40
4.0
 40
4.0
 40
4.0
 40
5.0
 40
5.0
 40
5.0
 40
6.0
 40
6.0
 40
6.0
 40
7.0
 40
7.0
 40
7.0
 40
8.0
 40
8.0
 40
8.0
 40
8.0
 10
64.23414983203175
 20
-111.7122164976796
 10
64.44361163753493
 20
-111.8200479863679
 10
64.46273191747807
 20
-111.9935085440502
 10
64.46273191747807
 20
-112.1099527714517
 10
64.46273191747807
 20
-112.2706664758386
 10
64.41622312842719
 20
-112.4124321550566
 10
64.23414983203175
 20
-112.5076890452238
 10
64.03967419188939
 20
-112.6112141645555
 10
63.8026516225042
 20
-112.6303344444987
 10
63.63969860605189
 20
-112.6303344444987
 10
63.4958658695427
 20
-112.6303344444987
 10
63.2442016443452
 20
-112.6134534766209
 10
63.04524738007203
 20
-112.5076890452238
 10
62.84215900121654
 20
-112.3996853017612
 10
62.81890460669111
 20
-112.2389715973743
 10
62.81890460669111
 20
-112.1099527714517
 10
62.81890460669111
 20
-111.9513061243559
 10
62.86334633845083
 20
-111.8074733878467
 10
63.04524738007203
 20
-111.7122164976796
 10
63.23782821769749
 20
-111.6128254929301
 10
63.46623804836955
 20
-111.5895710984047
 10
63.63969860605189
 20
-111.5895710984047
 10
63.81109210644306
 20
-111.5895710984047
 10
64.04174124918055
 20
-111.6105861808647
 10
64.23414983203175
 20
-111.7122164976796
 97
        0
 97
        0
 92
        1
 93
        1
 72
     4
 94
        3
 73
     0
 74
     1
 95
       17
 96
       13
 40
0.0
 40
0.0
 40
0.0
 40
0.0
 40
1.0
 40
1.0
 40
1.0
 40
2.0
 40
2.0
 40
2.0
 40
3.0
 40
3.0
 40
3.0
 40
4.0
 40
4.0
 40
4.0
 40
4.0
 10
63.01148544431658
 20
-112.1099527714517
 10
63.01148544431658
 20
-112.359549939358
 10
63.29484454797838
 20
-112.4060587284089
 10
63.63969860605189
 20
-112.4060587284089
 10
63.95923121230881
 20
-112.4060587284089
 10
64.26808402256145
 20
-112.370057480588
 10
64.26808402256145
 20
-112.1099527714517
 10
64.26808402256145
 20
-111.8624226608365
 10
63.98661972141655
 20
-111.8136745597202
 10
63.63969860605189
 20
-111.8136745597202
 10
63.32033825456922
 20
-111.8136745597202
 10
63.01148544431658
 20
-111.8519151196065
 10
63.01148544431658
 20
-112.1099527714517
 97
        0
 97
        0
 75
     2
 76
     1
 98
        0
  0
ENDBLK
  5
7B
330
78
100
AcDbEntity
  8
0
100
AcDbBlockEnd
  0
BLOCK
  5
8F
330
8D
100
AcDbEntity
  8
0
100
AcDbBlockBegin
  2
block 6
 70
     0
 10
0.0
 20
0.0
 30
0.0
  3
block 6
  1

  0
SPLINE
  5
91
330
8D
100
AcDbEntity
  8
_U+30EC_U+30A4_U+30E4_U+30FC 1
370
     0
100
AcDbSpline
210
0.0
220
0.0
230
1.0
 70
    11
 71
     3
 72
    44
 73
    40
 74
     0
 42
0.0000000001
 43
0.0000000001
 12
1.0
 22
0.0
 32
0.0
 13
1.0
 23
0.0
 33
0.0
 40
0.0
 40
0.0
 40
0.0
 40
0.0
 40
1.0
 40
1.0
 40
1.0
 40
2.0
 40
2.0
 40
2.0
 40
3.0
 40
3.0
 40
3.0
 40
4.0
 40
4.0
 40
4.0
 40
5.0
 40
5.0
 40
5.0
 40
6.0
 40
6.0
 40
6.0
 40
7.0
 40
7.0
 40
7.0
 40
8.0
 40
8.0
 40
8.0
 40
9.0
 40
9.0
 40
9.0
 40
10.0
 40
10.0
 40
10.0
 40
11.0
 40
11.0
 40
11.0
 40
12.0
 40
12.0
 40
12.0
 40
13.0
 40
13.0
 40
13.0
 40
13.0
 10
79.27371417288991
 20
-133.8078531566522
 30
0.0
 10
79.2502875235902
 20
-133.7634114248925
 30
0.0
 10
79.22927244113019
 20
-133.7103569544196
 30
0.0
 10
79.22703312906478
 20
-133.4798800664564
 30
0.0
 10
79.22289901448248
 20
-133.2366563251978
 30
0.0
 10
79.16364337213618
 20
-133.1667208868472
 30
0.0
 10
78.98587644509729
 20
-133.1667208868472
 30
0.0
 10
78.98587644509729
 20
-133.1667208868472
 30
0.0
 10
78.57763263009518
 20
-133.1667208868472
 30
0.0
 10
78.57763263009518
 20
-133.1667208868472
 30
0.0
 10
78.57763263009518
 20
-133.1667208868472
 30
0.0
 10
78.57763263009518
 20
-133.8078531566522
 30
0.0
 10
78.57763263009518
 20
-133.8078531566522
 30
0.0
 10
78.57763263009518
 20
-133.8078531566522
 30
0.0
 10
78.3428493727754
 20
-133.8078531566522
 30
0.0
 10
78.3428493727754
 20
-133.8078531566522
 30
0.0
 10
78.3428493727754
 20
-133.8078531566522
 30
0.0
 10
78.3428493727754
 20
-132.2634168506147
 30
0.0
 10
78.3428493727754
 20
-132.2634168506147
 30
0.0
 10
78.3428493727754
 20
-132.2634168506147
 30
0.0
 10
79.01774357833584
 20
-132.2634168506147
 30
0.0
 10
79.01774357833584
 20
-132.2634168506147
 30
0.0
 10
79.32435707652309
 20
-132.2634168506147
 30
0.0
 10
79.49144420755769
 20
-132.4349826057801
 30
0.0
 10
79.49144420755769
 20
-132.6909532003342
 30
0.0
 10
79.49144420755769
 20
-132.7415961039674
 30
0.0
 10
79.48300372361884
 20
-132.8242783956134
 30
0.0
 10
79.43856199185912
 20
-132.9045491204197
 30
0.0
 10
79.37947860428707
 20
-133.0082464945257
 30
0.0
 10
79.31384953529307
 20
-133.0271945196946
 30
0.0
 10
79.25252683565562
 20
-133.0440754875723
 30
0.0
 10
79.38998614551708
 20
-133.0864501620409
 30
0.0
 10
79.45768227180226
 20
-133.1350260083829
 30
0.0
 10
79.46198864115881
 20
-133.4502522452833
 30
0.0
 10
79.46612275574111
 20
-133.7210367504239
 30
0.0
 10
79.50212400356197
 20
-133.7530761384367
 30
0.0
 10
79.56982012984713
 20
-133.8078531566522
 30
0.0
 10
79.56982012984713
 20
-133.8078531566522
 30
0.0
 10
79.27371417288991
 20
-133.8078531566522
 30
0.0
 10
79.27371417288991
 20
-133.8078531566522
 30
0.0
  0
SPLINE
  5
92
330
8D
100
AcDbEntity
  8
_U+30EC_U+30A4_U+30E4_U+30FC 1
370
     0
100
AcDbSpline
210
0.0
220
0.0
230
1.0
 70
    11
 71
     3
 72
    20
 73
    16
 74
     0
 42
0.0000000001
 43
0.0000000001
 12
1.0
 22
0.0
 32
0.0
 13
1.0
 23
0.0
 33
0.0
 40
0.0
 40
0.0
 40
0.0
 40
0.0
 40
1.0
 40
1.0
 40
1.0
 40
2.0
 40
2.0
 40
2.0
 40
3.0
 40
3.0
 40
3.0
 40
4.0
 40
4.0
 40
4.0
 40
5.0
 40
5.0
 40
5.0
 40
5.0
 10
79.02187769291814
 20
-132.4749457134091
 30
0.0
 10
79.02187769291814
 20
-132.4749457134091
 30
0.0
 10
78.57763263009518
 20
-132.4749457134091
 30
0.0
 10
78.57763263009518
 20
-132.4749457134091
 30
0.0
 10
78.57763263009518
 20
-132.4749457134091
 30
0.0
 10
78.57763263009518
 20
-132.9551920240529
 30
0.0
 10
78.57763263009518
 20
-132.9551920240529
 30
0.0
 10
78.57763263009518
 20
-132.9551920240529
 30
0.0
 10
79.019810635627
 20
-132.9551920240529
 30
0.0
 10
79.019810635627
 20
-132.9551920240529
 30
0.0
 10
79.11920164037646
 20
-132.9551920240529
 30
0.0
 10
79.25459389294677
 20
-132.8793999233774
 30
0.0
 10
79.25459389294677
 20
-132.7078341682119
 30
0.0
 10
79.25459389294677
 20
-132.6292859911482
 30
0.0
 10
79.22065970241707
 20
-132.4749457134091
 30
0.0
 10
79.02187769291814
 20
-132.4749457134091
 30
0.0
  0
HATCH
  5
93
330
8D
100
AcDbEntity
  8
_U+30EC_U+30A4_U+30E4_U+30FC 1
 62
   179
420
  2234388
100
AcDbHatch
 10
0.0
 20
0.0
 30
0.0
210
0.0
220
0.0
230
1.0
  2
SOLID
 70
     1
 71
     0
 91
        2
 92
        1
 93
        1
 72
     4
 94
        3
 73
     0
 74
     1
 95
       44
 96
       40
 40
0.0
 40
0.0
 40
0.0
 40
0.0
 40
1.0
 40
1.0
 40
1.0
 40
2.0
 40
2.0
 40
2.0
 40
3.0
 40
3.0
 40
3.0
 40
4.0
 40
4.0
 40
4.0
 40
5.0
 40
5.0
 40
5.0
 40
6.0
 40
6.0
 40
6.0
 40
7.0
 40
7.0
 40
7.0
 40
8.0
 40
8.0
 40
8.0
 40
9.0
 40
9.0
 40
9.0
 40
10.0
 40
10.0
 40
10.0
 40
11.0
 40
11.0
 40
11.0
 40
12.0
 40
12.0
 40
12.0
 40
13.0
 40
13.0
 40
13.0
 40
13.0
 10
79.27371417288991
 20
-133.8078531566522
 10
79.2502875235902
 20
-133.7634114248925
 10
79.22927244113019
 20
-133.7103569544196
 10
79.22703312906478
 20
-133.4798800664564
 10
79.22289901448248
 20
-133.2366563251978
 10
79.16364337213618
 20
-133.1667208868472
 10
78.98587644509729
 20
-133.1667208868472
 10
78.98587644509729
 20
-133.1667208868472
 10
78.57763263009518
 20
-133.1667208868472
 10
78.57763263009518
 20
-133.1667208868472
 10
78.57763263009518
 20
-133.1667208868472
 10
78.57763263009518
 20
-133.8078531566522
 10
78.57763263009518
 20
-133.8078531566522
 10
78.57763263009518
 20
-133.8078531566522
 10
78.3428493727754
 20
-133.8078531566522
 10
78.3428493727754
 20
-133.8078531566522
 10
78.3428493727754
 20
-133.8078531566522
 10
78.3428493727754
 20
-132.2634168506147
 10
78.3428493727754
 20
-132.2634168506147
 10
78.3428493727754
 20
-132.2634168506147
 10
79.01774357833584
 20
-132.2634168506147
 10
79.01774357833584
 20
-132.2634168506147
 10
79.32435707652309
 20
-132.2634168506147
 10
79.49144420755769
 20
-132.4349826057801
 10
79.49144420755769
 20
-132.6909532003342
 10
79.49144420755769
 20
-132.7415961039674
 10
79.48300372361884
 20
-132.8242783956134
 10
79.43856199185912
 20
-132.9045491204197
 10
79.37947860428707
 20
-133.0082464945257
 10
79.31384953529307
 20
-133.0271945196946
 10
79.25252683565562
 20
-133.0440754875723
 10
79.38998614551708
 20
-133.0864501620409
 10
79.45768227180226
 20
-133.1350260083829
 10
79.46198864115881
 20
-133.4502522452833
 10
79.46612275574111
 20
-133.7210367504239
 10
79.50212400356197
 20
-133.7530761384367
 10
79.56982012984713
 20
-133.8078531566522
 10
79.56982012984713
 20
-133.8078531566522
 10
79.27371417288991
 20
-133.8078531566522
 10
79.27371417288991
 20
-133.8078531566522
 97
        0
 97
        0
 92
        1
 93
        1
 72
     4
 94
        3
 73
     0
 74
     1
 95
       20
 96
       16
 40
0.0
 40
0.0
 40
0.0
 40
0.0
 40
1.0
 40
1.0
 40
1.0
 40
2.0
 40
2.0
 40
2.0
 40
3.0
 40
3.0
 40
3.0
 40
4.0
 40
4.0
 40
4.0
 40
5.0
 40
5.0
 40
5.0
 40
5.0
 10
79.02187769291814
 20
-132.4749457134091
 10
79.02187769291814
 20
-132.4749457134091
 10
78.57763263009518
 20
-132.4749457134091
 10
78.57763263009518
 20
-132.4749457134091
 10
78.57763263009518
 20
-132.4749457134091
 10
78.57763263009518
 20
-132.9551920240529
 10
78.57763263009518
 20
-132.9551920240529
 10
78.57763263009518
 20
-132.9551920240529
 10
79.019810635627
 20
-132.9551920240529
 10
79.019810635627
 20
-132.9551920240529
 10
79.11920164037646
 20
-132.9551920240529
 10
79.25459389294677
 20
-132.8793999233774
 10
79.25459389294677
 20
-132.7078341682119
 10
79.25459389294677
 20
-132.6292859911482
 10
79.22065970241707
 20
-132.4749457134091
 10
79.02187769291814
 20
-132.4749457134091
 97
        0
 97
        0
 75
     2
 76
     1
 98
        0
  0
SPLINE
  5
94
330
8D
100
AcDbEntity
  8
_U+30EC_U+30A4_U+30E4_U+30FC 1
370
     0
100
AcDbSpline
210
0.0
220
0.0
230
1.0
 70
    11
 71
     3
 72
    26
 73
    22
 74
     0
 42
0.0000000001
 43
0.0000000001
 12
1.0
 22
0.0
 32
0.0
 13
1.0
 23
0.0
 33
0.0
 40
0.0
 40
0.0
 40
0.0
 40
0.0
 40
1.0
 40
1.0
 40
1.0
 40
2.0
 40
2.0
 40
2.0
 40
3.0
 40
3.0
 40
3.0
 40
4.0
 40
4.0
 40
4.0
 40
5.0
 40
5.0
 40
5.0
 40
6.0
 40
6.0
 40
6.0
 40
7.0
 40
7.0
 40
7.0
 40
7.0
 10
80.16082626034174
 20
-133.8078531566522
 30
0.0
 10
80.16082626034174
 20
-133.8078531566522
 30
0.0
 10
80.16082626034174
 20
-132.7037000536296
 30
0.0
 10
80.16082626034174
 20
-132.7037000536296
 30
0.0
 10
80.16082626034174
 20
-132.7037000536296
 30
0.0
 10
79.83078611285481
 20
-132.7037000536296
 30
0.0
 10
79.83078611285481
 20
-132.7037000536296
 30
0.0
 10
79.83078611285481
 20
-132.7037000536296
 30
0.0
 10
79.83078611285481
 20
-132.5555609477639
 30
0.0
 10
79.83078611285481
 20
-132.5555609477639
 30
0.0
 10
80.16289331763289
 20
-132.5407470371773
 30
0.0
 10
80.20940210668377
 20
-132.377794020725
 30
0.0
 10
80.23902992785692
 20
-132.2634168506147
 30
0.0
 10
80.23902992785692
 20
-132.2634168506147
 30
0.0
 10
80.3851019764315
 20
-132.2634168506147
 30
0.0
 10
80.3851019764315
 20
-132.2634168506147
 30
0.0
 10
80.3851019764315
 20
-132.2634168506147
 30
0.0
 10
80.3851019764315
 20
-133.8078531566522
 30
0.0
 10
80.3851019764315
 20
-133.8078531566522
 30
0.0
 10
80.3851019764315
 20
-133.8078531566522
 30
0.0
 10
80.16082626034174
 20
-133.8078531566522
 30
0.0
 10
80.16082626034174
 20
-133.8078531566522
 30
0.0
  0
HATCH
  5
95
330
8D
100
AcDbEntity
  8
_U+30EC_U+30A4_U+30E4_U+30FC 1
 62
   179
420
  2234388
100
AcDbHatch
 10
0.0
 20
0.0
 30
0.0
210
0.0
220
0.0
230
1.0
  2
SOLID
 70
     1
 71
     0
 91
        1
 92
        1
 93
        1
 72
     4
 94
        3
 73
     0
 74
     1
 95
       26
 96
       22
 40
0.0
 40
0.0
 40
0.0
 40
0.0
 40
1.0
 40
1.0
 40
1.0
 40
2.0
 40
2.0
 40
2.0
 40
3.0
 40
3.0
 40
3.0
 40
4.0
 40
4.0
 40
4.0
 40
5.0
 40
5.0
 40
5.0
 40
6.0
 40
6.0
 40
6.0
 40
7.0
 40
7.0
 40
7.0
 40
7.0
 10
80.16082626034174
 20
-133.8078531566522
 10
80.16082626034174
 20
-133.8078531566522
 10
80.16082626034174
 20
-132.7037000536296
 10
80.16082626034174
 20
-132.7037000536296
 10
80.16082626034174
 20
-132.7037000536296
 10
79.83078611285481
 20
-132.7037000536296
 10
79.83078611285481
 20
-132.7037000536296
 10
79.83078611285481
 20
-132.7037000536296
 10
79.83078611285481
 20
-132.5555609477639
 10
79.83078611285481
 20
-132.5555609477639
 10
80.16289331763289
 20
-132.5407470371773
 10
80.20940210668377
 20
-132.377794020725
 10
80.23902992785692
 20
-132.2634168506147
 10
80.23902992785692
 20
-132.2634168506147
 10
80.3851019764315
 20
-132.2634168506147
 10
80.3851019764315
 20
-132.2634168506147
 10
80.3851019764315
 20
-132.2634168506147
 10
80.3851019764315
 20
-133.8078531566522
 10
80.3851019764315
 20
-133.8078531566522
 10
80.3851019764315
 20
-133.8078531566522
 10
80.16082626034174
 20
-133.8078531566522
 10
80.16082626034174
 20
-133.8078531566522
 97
        0
 97
        0
 75
     2
 76
     1
 98
        0
  0
SPLINE
  5
96
330
8D
100
AcDbEntity
  8
_U+30EC_U+30A4_U+30E4_U+30FC 1
370
     0
100
AcDbSpline
210
0.0
220
0.0
230
1.0
 70
    11
 71
     3
 72
    29
 73
    25
 74
     0
 42
0.0000000001
 43
0.0000000001
 12
1.0
 22
0.0
 32
0.0
 13
1.0
 23
0.0
 33
0.0
 40
0.0
 40
0.0
 40
0.0
 40
0.0
 40
1.0
 40
1.0
 40
1.0
 40
2.0
 40
2.0
 40
2.0
 40
3.0
 40
3.0
 40
3.0
 40
4.0
 40
4.0
 40
4.0
 40
5.0
 40
5.0
 40
5.0
 40
6.0
 40
6.0
 40
6.0
 40
7.0
 40
7.0
 40
7.0
 40
8.0
 40
8.0
 40
8.0
 40
8.0
 10
81.7839829982172
 20
-133.6300862296133
 30
0.0
 10
81.67615150952888
 20
-133.8395480351165
 30
0.0
 10
81.50269095184656
 20
-133.8584960602854
 30
0.0
 10
81.38624672444512
 20
-133.8584960602854
 30
0.0
 10
81.22553302005821
 20
-133.8584960602854
 30
0.0
 10
81.08376734084017
 20
-133.812331780783
 30
0.0
 10
80.98851045067302
 20
-133.6300862296133
 30
0.0
 10
80.88498533134126
 20
-133.4354383346967
 30
0.0
 10
80.86586505139812
 20
-133.1984157653115
 30
0.0
 10
80.86586505139812
 20
-133.0358072584077
 30
0.0
 10
80.86586505139812
 20
-132.8918022671243
 30
0.0
 10
80.88274601927584
 20
-132.640310296701
 30
0.0
 10
80.98851045067302
 20
-132.4411837776536
 30
0.0
 10
81.0965141941356
 20
-132.2379231440239
 30
0.0
 10
81.2572278985225
 20
-132.2148410042727
 30
0.0
 10
81.38624672444512
 20
-132.2148410042727
 30
0.0
 10
81.54489337154087
 20
-132.2148410042727
 30
0.0
 10
81.68872610805005
 20
-132.2592827360324
 30
0.0
 10
81.7839829982172
 20
-132.4411837776536
 30
0.0
 10
81.88337400296666
 20
-132.6337646152791
 30
0.0
 10
81.9066283974921
 20
-132.8621744459511
 30
0.0
 10
81.9066283974921
 20
-133.0358072584077
 30
0.0
 10
81.9066283974921
 20
-133.2070285040246
 30
0.0
 10
81.88561331503207
 20
-133.4375053919879
 30
0.0
 10
81.7839829982172
 20
-133.6300862296133
 30
0.0
  0
SPLINE
  5
97
330
8D
100
AcDbEntity
  8
_U+30EC_U+30A4_U+30E4_U+30FC 1
370
     0
100
AcDbSpline
210
0.0
220
0.0
230
1.0
 70
    11
 71
     3
 72
    17
 73
    13
 74
     0
 42
0.0000000001
 43
0.0000000001
 12
1.0
 22
0.0
 32
0.0
 13
1.0
 23
0.0
 33
0.0
 40
0.0
 40
0.0
 40
0.0
 40
0.0
 40
1.0
 40
1.0
 40
1.0
 40
2.0
 40
2.0
 40
2.0
 40
3.0
 40
3.0
 40
3.0
 40
4.0
 40
4.0
 40
4.0
 40
4.0
 10
81.38624672444512
 20
-132.4074218418982
 30
0.0
 10
81.13664955653876
 20
-132.4074218418982
 30
0.0
 10
81.09014076748788
 20
-132.6909532003342
 30
0.0
 10
81.09014076748788
 20
-133.0358072584077
 30
0.0
 10
81.09014076748788
 20
-133.3551676098904
 30
0.0
 10
81.12614201530874
 20
-133.6641926749173
 30
0.0
 10
81.38624672444512
 20
-133.6641926749173
 30
0.0
 10
81.6337768350603
 20
-133.6641926749173
 30
0.0
 10
81.68252493617659
 20
-133.3823838642239
 30
0.0
 10
81.68252493617659
 20
-133.0358072584077
 30
0.0
 10
81.68252493617659
 20
-132.7161023973765
 30
0.0
 10
81.64428437629032
 20
-132.4074218418982
 30
0.0
 10
81.38624672444512
 20
-132.4074218418982
 30
0.0
  0
HATCH
  5
98
330
8D
100
AcDbEntity
  8
_U+30EC_U+30A4_U+30E4_U+30FC 1
 62
   179
420
  2234388
100
AcDbHatch
 10
0.0
 20
0.0
 30
0.0
210
0.0
220
0.0
230
1.0
  2
SOLID
 70
     1
 71
     0
 91
        2
 92
        1
 93
        1
 72
     4
 94
        3
 73
     0
 74
     1
 95
       29
 96
       25
 40
0.0
 40
0.0
 40
0.0
 40
0.0
 40
1.0
 40
1.0
 40
1.0
 40
2.0
 40
2.0
 40
2.0
 40
3.0
 40
3.0
 40
3.0
 40
4.0
 40
4.0
 40
4.0
 40
5.0
 40
5.0
 40
5.0
 40
6.0
 40
6.0
 40
6.0
 40
7.0
 40
7.0
 40
7.0
 40
8.0
 40
8.0
 40
8.0
 40
8.0
 10
81.7839829982172
 20
-133.6300862296133
 10
81.67615150952888
 20
-133.8395480351165
 10
81.50269095184656
 20
-133.8584960602854
 10
81.38624672444512
 20
-133.8584960602854
 10
81.22553302005821
 20
-133.8584960602854
 10
81.08376734084017
 20
-133.812331780783
 10
80.98851045067302
 20
-133.6300862296133
 10
80.88498533134126
 20
-133.4354383346967
 10
80.86586505139812
 20
-133.1984157653115
 10
80.86586505139812
 20
-133.0358072584077
 10
80.86586505139812
 20
-132.8918022671243
 10
80.88274601927584
 20
-132.640310296701
 10
80.98851045067302
 20
-132.4411837776536
 10
81.0965141941356
 20
-132.2379231440239
 10
81.2572278985225
 20
-132.2148410042727
 10
81.38624672444512
 20
-132.2148410042727
 10
81.54489337154087
 20
-132.2148410042727
 10
81.68872610805005
 20
-132.2592827360324
 10
81.7839829982172
 20
-132.4411837776536
 10
81.88337400296666
 20
-132.6337646152791
 10
81.9066283974921
 20
-132.8621744459511
 10
81.9066283974921
 20
-133.0358072584077
 10
81.9066283974921
 20
-133.2070285040246
 10
81.88561331503207
 20
-133.4375053919879
 10
81.7839829982172
 20
-133.6300862296133
 97
        0
 97
        0
 92
        1
 93
        1
 72
     4
 94
        3
 73
     0
 74
     1
 95
       17
 96
       13
 40
0.0
 40
0.0
 40
0.0
 40
0.0
 40
1.0
 40
1.0
 40
1.0
 40
2.0
 40
2.0
 40
2.0
 40
3.0
 40
3.0
 40
3.0
 40
4.0
 40
4.0
 40
4.0
 40
4.0
 10
81.38624672444512
 20
-132.4074218418982
 10
81.13664955653876
 20
-132.4074218418982
 10
81.09014076748788
 20
-132.6909532003342
 10
81.09014076748788
 20
-133.0358072584077
 10
81.09014076748788
 20
-133.3551676098904
 10
81.12614201530874
 20
-133.6641926749173
 10
81.38624672444512
 20
-133.6641926749173
 10
81.6337768350603
 20
-133.6641926749173
 10
81.68252493617659
 20
-133.3823838642239
 10
81.68252493617659
 20
-133.0358072584077
 10
81.68252493617659
 20
-132.7161023973765
 10
81.64428437629032
 20
-132.4074218418982
 10
81.38624672444512
 20
-132.4074218418982
 97
        0
 97
        0
 75
     2
 76
     1
 98
        0
  0
ENDBLK
  5
90
330
8D
100
AcDbEntity
  8
0
100
AcDbBlockEnd
  0
BLOCK
  5
AF
330
AD
100
AcDbEntity
  8
0
100
AcDbBlockBegin
  2
block 7
 70
     0
 10
0.0
 20
0.0
 30
0.0
  3
block 7
  1

  0
SPLINE
  5
B1
330
AD
100
AcDbEntity
  8
_U+30EC_U+30A4_U+30E4_U+30FC 1
370
     0
100
AcDbSpline
210
0.0
220
0.0
230
1.0
 70
    11
 71
     3
 72
    26
 73
    22
 74
     0
 42
0.0000000001
 43
0.0000000001
 12
1.0
 22
0.0
 32
0.0
 13
1.0
 23
0.0
 33
0.0
 40
0.0
 40
0.0
 40
0.0
 40
0.0
 40
1.0
 40
1.0
 40
1.0
 40
2.0
 40
2.0
 40
2.0
 40
3.0
 40
3.0
 40
3.0
 40
4.0
 40
4.0
 40
4.0
 40
5.0
 40
5.0
 40
5.0
 40
6.0
 40
6.0
 40
6.0
 40
7.0
 40
7.0
 40
7.0
 40
7.0
 10
117.6496663117334
 20
-141.9110622475083
 30
0.0
 10
117.6496663117334
 20
-141.9110622475083
 30
0.0
 10
116.5455132087108
 20
-141.9110622475083
 30
0.0
 10
116.5455132087108
 20
-141.9110622475083
 30
0.0
 10
116.5455132087108
 20
-141.9110622475083
 30
0.0
 10
116.5455132087108
 20
-142.2411023949953
 30
0.0
 10
116.5455132087108
 20
-142.2411023949953
 30
0.0
 10
116.5455132087108
 20
-142.2411023949953
 30
0.0
 10
116.3973741028451
 20
-142.2411023949953
 30
0.0
 10
116.3973741028451
 20
-142.2411023949953
 30
0.0
 10
116.3825601922585
 20
-141.9089951902172
 30
0.0
 10
116.2196071758062
 20
-141.8621418916178
 30
0.0
 10
116.1052300056959
 20
-141.8325140704447
 30
0.0
 10
116.1052300056959
 20
-141.8325140704447
 30
0.0
 10
116.1052300056959
 20
-141.6864420218701
 30
0.0
 10
116.1052300056959
 20
-141.6864420218701
 30
0.0
 10
116.1052300056959
 20
-141.6864420218701
 30
0.0
 10
117.6496663117334
 20
-141.6864420218701
 30
0.0
 10
117.6496663117334
 20
-141.6864420218701
 30
0.0
 10
117.6496663117334
 20
-141.6864420218701
 30
0.0
 10
117.6496663117334
 20
-141.9110622475083
 30
0.0
 10
117.6496663117334
 20
-141.9110622475083
 30
0.0
  0
HATCH
  5
B2
330
AD
100
AcDbEntity
  8
_U+30EC_U+30A4_U+30E4_U+30FC 1
 62
   179
420
  2234388
100
AcDbHatch
 10
0.0
 20
0.0
 30
0.0
210
0.0
220
0.0
230
1.0
  2
SOLID
 70
     1
 71
     0
 91
        1
 92
        1
 93
        1
 72
     4
 94
        3
 73
     0
 74
     1
 95
       26
 96
       22
 40
0.0
 40
0.0
 40
0.0
 40
0.0
 40
1.0
 40
1.0
 40
1.0
 40
2.0
 40
2.0
 40
2.0
 40
3.0
 40
3.0
 40
3.0
 40
4.0
 40
4.0
 40
4.0
 40
5.0
 40
5.0
 40
5.0
 40
6.0
 40
6.0
 40
6.0
 40
7.0
 40
7.0
 40
7.0
 40
7.0
 10
117.6496663117334
 20
-141.9110622475083
 10
117.6496663117334
 20
-141.9110622475083
 10
116.5455132087108
 20
-141.9110622475083
 10
116.5455132087108
 20
-141.9110622475083
 10
116.5455132087108
 20
-141.9110622475083
 10
116.5455132087108
 20
-142.2411023949953
 10
116.5455132087108
 20
-142.2411023949953
 10
116.5455132087108
 20
-142.2411023949953
 10
116.3973741028451
 20
-142.2411023949953
 10
116.3973741028451
 20
-142.2411023949953
 10
116.3825601922585
 20
-141.9089951902172
 10
116.2196071758062
 20
-141.8621418916178
 10
116.1052300056959
 20
-141.8325140704447
 10
116.1052300056959
 20
-141.8325140704447
 10
116.1052300056959
 20
-141.6864420218701
 10
116.1052300056959
 20
-141.6864420218701
 10
116.1052300056959
 20
-141.6864420218701
 10
117.6496663117334
 20
-141.6864420218701
 10
117.6496663117334
 20
-141.6864420218701
 10
117.6496663117334
 20
-141.6864420218701
 10
117.6496663117334
 20
-141.9110622475083
 10
117.6496663117334
 20
-141.9110622475083
 97
        0
 97
        0
 75
     2
 76
     1
 98
        0
  0
SPLINE
  5
B3
330
AD
100
AcDbEntity
  8
_U+30EC_U+30A4_U+30E4_U+30FC 1
370
     0
100
AcDbSpline
210
0.0
220
0.0
230
1.0
 70
    11
 71
     3
 72
    62
 73
    58
 74
     0
 42
0.0000000001
 43
0.0000000001
 12
1.0
 22
0.0
 32
0.0
 13
1.0
 23
0.0
 33
0.0
 40
0.0
 40
0.0
 40
0.0
 40
0.0
 40
1.0
 40
1.0
 40
1.0
 40
2.0
 40
2.0
 40
2.0
 40
3.0
 40
3.0
 40
3.0
 40
4.0
 40
4.0
 40
4.0
 40
5.0
 40
5.0
 40
5.0
 40
6.0
 40
6.0
 40
6.0
 40
7.0
 40
7.0
 40
7.0
 40
8.0
 40
8.0
 40
8.0
 40
9.0
 40
9.0
 40
9.0
 40
10.0
 40
10.0
 40
10.0
 40
11.0
 40
11.0
 40
11.0
 40
12.0
 40
12.0
 40
12.0
 40
13.0
 40
13.0
 40
13.0
 40
14.0
 40
14.0
 40
14.0
 40
15.0
 40
15.0
 40
15.0
 40
16.0
 40
16.0
 40
16.0
 40
17.0
 40
17.0
 40
17.0
 40
18.0
 40
18.0
 40
18.0
 40
19.0
 40
19.0
 40
19.0
 40
19.0
 10
117.7003092153666
 20
-140.6939100125696
 30
0.0
 10
117.7003092153666
 20
-140.789339157511
 30
0.0
 10
117.6792941329066
 20
-141.0070691921788
 30
0.0
 10
117.4929144671545
 20
-141.1317816487448
 30
0.0
 10
117.3809488638839
 20
-141.2058512016777
 30
0.0
 10
117.2813856043602
 20
-141.2103298258085
 30
0.0
 10
117.1969807649716
 20
-141.2144639403908
 30
0.0
 10
117.1969807649716
 20
-141.2144639403908
 30
0.0
 10
117.1969807649716
 20
-140.9943223388834
 30
0.0
 10
117.1969807649716
 20
-140.9943223388834
 30
0.0
 10
117.2710503179045
 20
-140.9922552815922
 30
0.0
 10
117.5060058299985
 20
-140.9815754855879
 30
0.0
 10
117.5060058299985
 20
-140.6980441271519
 30
0.0
 10
117.5060058299985
 20
-140.5605848172904
 30
0.0
 10
117.4360703916479
 20
-140.4083115968424
 30
0.0
 10
117.2076605609759
 20
-140.4083115968424
 30
0.0
 10
117.0912163335744
 20
-140.4083115968424
 30
0.0
 10
117.0422959776839
 20
-140.4462076471801
 30
0.0
 10
117.0106010992196
 20
-140.4779025256444
 30
0.0
 10
116.9368760558352
 20
-140.5523165881258
 30
0.0
 10
116.9241292025398
 20
-140.6687608155273
 30
0.0
 10
116.9241292025398
 20
-140.7235378337427
 30
0.0
 10
116.9241292025398
 20
-140.7424858589116
 30
0.0
 10
116.926196259831
 20
-140.7783148519582
 30
0.0
 10
116.9303303744133
 20
-140.8058756158402
 30
0.0
 10
116.9303303744133
 20
-140.8058756158402
 30
0.0
 10
116.7356824794966
 20
-140.8058756158402
 30
0.0
 10
116.7356824794966
 20
-140.8058756158402
 30
0.0
 10
116.7418836513701
 20
-140.7679795655025
 30
0.0
 10
116.7442952182098
 20
-140.7256048910339
 30
0.0
 10
116.7442952182098
 20
-140.7190592096119
 30
0.0
 10
116.7442952182098
 20
-140.6536023953922
 30
0.0
 10
116.7232801357497
 20
-140.4548203858932
 30
0.0
 10
116.4862575663646
 20
-140.4548203858932
 30
0.0
 10
116.3084906393257
 20
-140.4548203858932
 30
0.0
 10
116.2533691115617
 20
-140.5860785238813
 30
0.0
 10
116.2533691115617
 20
-140.6959770698607
 30
0.0
 10
116.2533691115617
 20
-140.9602158935794
 30
0.0
 10
116.4862575663646
 20
-140.9688286322925
 30
0.0
 10
116.5579155524577
 20
-140.9733072564233
 30
0.0
 10
116.5579155524577
 20
-140.9733072564233
 30
0.0
 10
116.5579155524577
 20
-141.1762233805046
 30
0.0
 10
116.5579155524577
 20
-141.1762233805046
 30
0.0
 10
116.4332030958917
 20
-141.1676106417914
 30
0.0
 10
116.0566541593539
 20
-141.1400498779094
 30
0.0
 10
116.0566541593539
 20
-140.6832302165653
 30
0.0
 10
116.0566541593539
 20
-140.4592990100241
 30
0.0
 10
116.1837781827596
 20
-140.2181423260566
 30
0.0
 10
116.4797118849426
 20
-140.2181423260566
 30
0.0
 10
116.6660915506946
 20
-140.2181423260566
 30
0.0
 10
116.7484293327921
 20
-140.3132269614495
 30
0.0
 10
116.8097520324295
 20
-140.4124457114247
 30
0.0
 10
116.8373127963115
 20
-140.3511230117872
 30
0.0
 10
116.9175835211178
 20
-140.169221970166
 30
0.0
 10
117.1949137076804
 20
-140.169221970166
 30
0.0
 10
117.5335665938805
 20
-140.169221970166
 30
0.0
 10
117.7003092153666
 20
-140.416579826007
 30
0.0
 10
117.7003092153666
 20
-140.6939100125696
 30
0.0
  0
HATCH
  5
B4
330
AD
100
AcDbEntity
  8
_U+30EC_U+30A4_U+30E4_U+30FC 1
 62
   179
420
  2234388
100
AcDbHatch
 10
0.0
 20
0.0
 30
0.0
210
0.0
220
0.0
230
1.0
  2
SOLID
 70
     1
 71
     0
 91
        1
 92
        1
 93
        1
 72
     4
 94
        3
 73
     0
 74
     1
 95
       62
 96
       58
 40
0.0
 40
0.0
 40
0.0
 40
0.0
 40
1.0
 40
1.0
 40
1.0
 40
2.0
 40
2.0
 40
2.0
 40
3.0
 40
3.0
 40
3.0
 40
4.0
 40
4.0
 40
4.0
 40
5.0
 40
5.0
 40
5.0
 40
6.0
 40
6.0
 40
6.0
 40
7.0
 40
7.0
 40
7.0
 40
8.0
 40
8.0
 40
8.0
 40
9.0
 40
9.0
 40
9.0
 40
10.0
 40
10.0
 40
10.0
 40
11.0
 40
11.0
 40
11.0
 40
12.0
 40
12.0
 40
12.0
 40
13.0
 40
13.0
 40
13.0
 40
14.0
 40
14.0
 40
14.0
 40
15.0
 40
15.0
 40
15.0
 40
16.0
 40
16.0
 40
16.0
 40
17.0
 40
17.0
 40
17.0
 40
18.0
 40
18.0
 40
18.0
 40
19.0
 40
19.0
 40
19.0
 40
19.0
 10
117.7003092153666
 20
-140.6939100125696
 10
117.7003092153666
 20
-140.789339157511
 10
117.6792941329066
 20
-141.0070691921788
 10
117.4929144671545
 20
-141.1317816487448
 10
117.3809488638839
 20
-141.2058512016777
 10
117.2813856043602
 20
-141.2103298258085
 10
117.1969807649716
 20
-141.2144639403908
 10
117.1969807649716
 20
-141.2144639403908
 10
117.1969807649716
 20
-140.9943223388834
 10
117.1969807649716
 20
-140.9943223388834
 10
117.2710503179045
 20
-140.9922552815922
 10
117.5060058299985
 20
-140.9815754855879
 10
117.5060058299985
 20
-140.6980441271519
 10
117.5060058299985
 20
-140.5605848172904
 10
117.4360703916479
 20
-140.4083115968424
 10
117.2076605609759
 20
-140.4083115968424
 10
117.0912163335744
 20
-140.4083115968424
 10
117.0422959776839
 20
-140.4462076471801
 10
117.0106010992196
 20
-140.4779025256444
 10
116.9368760558352
 20
-140.5523165881258
 10
116.9241292025398
 20
-140.6687608155273
 10
116.9241292025398
 20
-140.7235378337427
 10
116.9241292025398
 20
-140.7424858589116
 10
116.926196259831
 20
-140.7783148519582
 10
116.9303303744133
 20
-140.8058756158402
 10
116.9303303744133
 20
-140.8058756158402
 10
116.7356824794966
 20
-140.8058756158402
 10
116.7356824794966
 20
-140.8058756158402
 10
116.7418836513701
 20
-140.7679795655025
 10
116.7442952182098
 20
-140.7256048910339
 10
116.7442952182098
 20
-140.7190592096119
 10
116.7442952182098
 20
-140.6536023953922
 10
116.7232801357497
 20
-140.4548203858932
 10
116.4862575663646
 20
-140.4548203858932
 10
116.3084906393257
 20
-140.4548203858932
 10
116.2533691115617
 20
-140.5860785238813
 10
116.2533691115617
 20
-140.6959770698607
 10
116.2533691115617
 20
-140.9602158935794
 10
116.4862575663646
 20
-140.9688286322925
 10
116.5579155524577
 20
-140.9733072564233
 10
116.5579155524577
 20
-140.9733072564233
 10
116.5579155524577
 20
-141.1762233805046
 10
116.5579155524577
 20
-141.1762233805046
 10
116.4332030958917
 20
-141.1676106417914
 10
116.0566541593539
 20
-141.1400498779094
 10
116.0566541593539
 20
-140.6832302165653
 10
116.0566541593539
 20
-140.4592990100241
 10
116.1837781827596
 20
-140.2181423260566
 10
116.4797118849426
 20
-140.2181423260566
 10
116.6660915506946
 20
-140.2181423260566
 10
116.7484293327921
 20
-140.3132269614495
 10
116.8097520324295
 20
-140.4124457114247
 10
116.8373127963115
 20
-140.3511230117872
 10
116.9175835211178
 20
-140.169221970166
 10
117.1949137076804
 20
-140.169221970166
 10
117.5335665938805
 20
-140.169221970166
 10
117.7003092153666
 20
-140.416579826007
 10
117.7003092153666
 20
-140.6939100125696
 97
        0
 97
        0
 75
     2
 76
     1
 98
        0
  0
ENDBLK
  5
B0
330
AD
100
AcDbEntity
  8
0
100
AcDbBlockEnd
  0
BLOCK
  5
B7
330
B5
100
AcDbEntity
  8
0
100
AcDbBlockBegin
  2
block 8
 70
     0
 10
0.0
 20
0.0
 30
0.0
  3
block 8
  1

  0
SPLINE
  5
B9
330
B5
100
AcDbEntity
  8
_U+30EC_U+30A4_U+30E4_U+30FC 1
370
     0
100
AcDbSpline
210
0.0
220
0.0
230
1.0
 70
    11
 71
     3
 72
    26
 73
    22
 74
     0
 42
0.0000000001
 43
0.0000000001
 12
1.0
 22
0.0
 32
0.0
 13
1.0
 23
0.0
 33
0.0
 40
0.0
 40
0.0
 40
0.0
 40
0.0
 40
1.0
 40
1.0
 40
1.0
 40
2.0
 40
2.0
 40
2.0
 40
3.0
 40
3.0
 40
3.0
 40
4.0
 40
4.0
 40
4.0
 40
5.0
 40
5.0
 40
5.0
 40
6.0
 40
6.0
 40
6.0
 40
7.0
 40
7.0
 40
7.0
 40
7.0
 10
117.6496663117334
 20
-132.832546624778
 30
0.0
 10
117.6496663117334
 20
-132.832546624778
 30
0.0
 10
116.5455132087108
 20
-132.832546624778
 30
0.0
 10
116.5455132087108
 20
-132.832546624778
 30
0.0
 10
116.5455132087108
 20
-132.832546624778
 30
0.0
 10
116.5455132087108
 20
-133.1625867722649
 30
0.0
 10
116.5455132087108
 20
-133.1625867722649
 30
0.0
 10
116.5455132087108
 20
-133.1625867722649
 30
0.0
 10
116.3973741028451
 20
-133.1625867722649
 30
0.0
 10
116.3973741028451
 20
-133.1625867722649
 30
0.0
 10
116.3825601922585
 20
-132.8304795674868
 30
0.0
 10
116.2196071758062
 20
-132.7836262688874
 30
0.0
 10
116.1052300056959
 20
-132.7539984477143
 30
0.0
 10
116.1052300056959
 20
-132.7539984477143
 30
0.0
 10
116.1052300056959
 20
-132.6079263991397
 30
0.0
 10
116.1052300056959
 20
-132.6079263991397
 30
0.0
 10
116.1052300056959
 20
-132.6079263991397
 30
0.0
 10
117.6496663117334
 20
-132.6079263991397
 30
0.0
 10
117.6496663117334
 20
-132.6079263991397
 30
0.0
 10
117.6496663117334
 20
-132.6079263991397
 30
0.0
 10
117.6496663117334
 20
-132.832546624778
 30
0.0
 10
117.6496663117334
 20
-132.832546624778
 30
0.0
  0
HATCH
  5
BA
330
B5
100
AcDbEntity
  8
_U+30EC_U+30A4_U+30E4_U+30FC 1
 62
   179
420
  2234388
100
AcDbHatch
 10
0.0
 20
0.0
 30
0.0
210
0.0
220
0.0
230
1.0
  2
SOLID
 70
     1
 71
     0
 91
        1
 92
        1
 93
        1
 72
     4
 94
        3
 73
     0
 74
     1
 95
       26
 96
       22
 40
0.0
 40
0.0
 40
0.0
 40
0.0
 40
1.0
 40
1.0
 40
1.0
 40
2.0
 40
2.0
 40
2.0
 40
3.0
 40
3.0
 40
3.0
 40
4.0
 40
4.0
 40
4.0
 40
5.0
 40
5.0
 40
5.0
 40
6.0
 40
6.0
 40
6.0
 40
7.0
 40
7.0
 40
7.0
 40
7.0
 10
117.6496663117334
 20
-132.832546624778
 10
117.6496663117334
 20
-132.832546624778
 10
116.5455132087108
 20
-132.832546624778
 10
116.5455132087108
 20
-132.832546624778
 10
116.5455132087108
 20
-132.832546624778
 10
116.5455132087108
 20
-133.1625867722649
 10
116.5455132087108
 20
-133.1625867722649
 10
116.5455132087108
 20
-133.1625867722649
 10
116.3973741028451
 20
-133.1625867722649
 10
116.3973741028451
 20
-133.1625867722649
 10
116.3825601922585
 20
-132.8304795674868
 10
116.2196071758062
 20
-132.7836262688874
 10
116.1052300056959
 20
-132.7539984477143
 10
116.1052300056959
 20
-132.7539984477143
 10
116.1052300056959
 20
-132.6079263991397
 10
116.1052300056959
 20
-132.6079263991397
 10
116.1052300056959
 20
-132.6079263991397
 10
117.6496663117334
 20
-132.6079263991397
 10
117.6496663117334
 20
-132.6079263991397
 10
117.6496663117334
 20
-132.6079263991397
 10
117.6496663117334
 20
-132.832546624778
 10
117.6496663117334
 20
-132.832546624778
 97
        0
 97
        0
 75
     2
 76
     1
 98
        0
  0
ENDBLK
  5
B8
330
B5
100
AcDbEntity
  8
0
100
AcDbBlockEnd
  0
ENDSEC
  0
SECTION
  2
ENTITIES
  0
SPLINE
  5
41
330
1F
100
AcDbEntity
  8
_U+30EC_U+30A4_U+30E4_U+30FC 1
 62
   179
420
  2234388
370
    25
100
AcDbSpline
210
0.0
220
0.0
230
1.0
 70
    11
 71
     3
 72
    71
 73
    67
 74
     0
 42
0.0000000001
 43
0.0000000001
 12
1.0
 22
0.0
 32
0.0
 13
1.0
 23
0.0
 33
0.0
 40
0.0
 40
0.0
 40
0.0
 40
0.0
 40
1.0
 40
1.0
 40
1.0
 40
2.0
 40
2.0
 40
2.0
 40
3.0
 40
3.0
 40
3.0
 40
4.0
 40
4.0
 40
4.0
 40
5.0
 40
5.0
 40
5.0
 40
6.0
 40
6.0
 40
6.0
 40
7.0
 40
7.0
 40
7.0
 40
8.0
 40
8.0
 40
8.0
 40
9.0
 40
9.0
 40
9.0
 40
10.0
 40
10.0
 40
10.0
 40
11.0
 40
11.0
 40
11.0
 40
12.0
 40
12.0
 40
12.0
 40
13.0
 40
13.0
 40
13.0
 40
14.0
 40
14.0
 40
14.0
 40
15.0
 40
15.0
 40
15.0
 40
16.0
 40
16.0
 40
16.0
 40
17.0
 40
17.0
 40
17.0
 40
18.0
 40
18.0
 40
18.0
 40
19.0
 40
19.0
 40
19.0
 40
20.0
 40
20.0
 40
20.0
 40
21.0
 40
21.0
 40
21.0
 40
22.0
 40
22.0
 40
22.0
 40
22.0
 10
79.17571381339259
 20
-146.6980174633256
 30
0.0
 10
79.17571381339259
 20
-146.6980174633256
 30
0.0
 10
93.17640512287187
 20
-146.6980174633256
 30
0.0
 10
93.17640512287187
 20
-146.6980174633256
 30
0.0
 10
93.17640512287187
 20
-146.6980174633256
 30
0.0
 10
93.17640512287187
 20
-133.6979446887979
 30
0.0
 10
93.17640512287187
 20
-133.6979446887979
 30
0.0
 10
93.17640512287187
 20
-133.6979446887979
 30
0.0
 10
114.1763131982307
 20
-133.6979446887979
 30
0.0
 10
114.1763131982307
 20
-133.6979446887979
 30
0.0
 10
114.1763131982307
 20
-133.6979446887979
 30
0.0
 10
114.1763131982307
 20
-134.6980696885476
 30
0.0
 10
114.1763131982307
 20
-134.6980696885476
 30
0.0
 10
114.1763131982307
 20
-134.6980696885476
 30
0.0
 10
104.4590848350267
 20
-134.6980696885476
 30
0.0
 10
104.4590848350267
 20
-134.6980696885476
 30
0.0
 10
104.4590848350267
 20
-134.6980696885476
 30
0.0
 10
104.1765803977896
 20
-134.6980696885476
 30
0.0
 10
104.1765803977896
 20
-134.6980696885476
 30
0.0
 10
104.1765803977896
 20
-134.6980696885476
 30
0.0
 10
103.8934083073601
 20
-134.6980696885476
 30
0.0
 10
103.8934083073601
 20
-134.6980696885476
 30
0.0
 10
103.8934083073601
 20
-134.6980696885476
 30
0.0
 10
94.17649719867822
 20
-134.6980696885476
 30
0.0
 10
94.17649719867822
 20
-134.6980696885476
 30
0.0
 10
94.17649719867822
 20
-134.6980696885476
 30
0.0
 10
94.17649719867822
 20
-147.6981424630752
 30
0.0
 10
94.17649719867822
 20
-147.6981424630752
 30
0.0
 10
94.17649719867822
 20
-147.6981424630752
 30
0.0
 10
79.17620770226888
 20
-147.6981424630752
 30
0.0
 10
79.17620770226888
 20
-147.6981424630752
 30
0.0
 10
73.65304839873197
 20
-147.6981424630752
 30
0.0
 10
69.17580462406708
 20
-143.221216075306
 30
0.0
 10
69.17580462406708
 20
-137.6980566322419
 30
0.0
 10
69.17580462406708
 20
-137.6980566322419
 30
0.0
 10
69.17580462406708
 20
-122.6981219137699
 30
0.0
 10
69.17580462406708
 20
-122.6981219137699
 30
0.0
 10
69.17580462406708
 20
-122.6981219137699
 30
0.0
 10
82.17587707018538
 20
-122.6981219137699
 30
0.0
 10
82.17587707018538
 20
-122.6981219137699
 30
0.0
 10
82.17587707018538
 20
-122.6981219137699
 30
0.0
 10
82.17587707018538
 20
-112.9808580273103
 30
0.0
 10
82.17587707018538
 20
-112.9808580273103
 30
0.0
 10
82.17587707018538
 20
-112.9808580273103
 30
0.0
 10
82.17637095906167
 20
-112.6980360829366
 30
0.0
 10
82.17637095906167
 20
-112.6980360829366
 30
0.0
 10
82.17637095906167
 20
-112.6980360829366
 30
0.0
 10
82.17587707018538
 20
-112.415178860785
 30
0.0
 10
82.17587707018538
 20
-112.415178860785
 30
0.0
 10
82.17587707018538
 20
-112.415178860785
 30
0.0
 10
82.17587707018538
 20
-102.6979502521032
 30
0.0
 10
82.17587707018538
 20
-102.6979502521032
 30
0.0
 10
82.17587707018538
 20
-102.6979502521032
 30
0.0
 10
83.1757903780088
 20
-102.6979502521032
 30
0.0
 10
83.1757903780088
 20
-102.6979502521032
 30
0.0
 10
83.1757903780088
 20
-102.6979502521032
 30
0.0
 10
83.1757903780088
 20
-123.6978588579646
 30
0.0
 10
83.1757903780088
 20
-123.6978588579646
 30
0.0
 10
83.1757903780088
 20
-123.6978588579646
 30
0.0
 10
70.1757179318905
 20
-123.6978588579646
 30
0.0
 10
70.1757179318905
 20
-123.6978588579646
 30
0.0
 10
70.1757179318905
 20
-123.6978588579646
 30
0.0
 10
70.1757179318905
 20
-137.6980566322419
 30
0.0
 10
70.1757179318905
 20
-137.6980566322419
 30
0.0
 10
70.1757179318905
 20
-142.6686249643332
 30
0.0
 10
74.20511032909214
 20
-146.6980174633256
 30
0.0
 10
79.17571381339259
 20
-146.6980174633256
 30
0.0
  0
HATCH
  5
42
330
1F
100
AcDbEntity
  8
_U+30EC_U+30A4_U+30E4_U+30FC 1
 62
     9
420
 12566464
100
AcDbHatch
 10
0.0
 20
0.0
 30
0.0
210
0.0
220
0.0
230
1.0
  2
SOLID
 70
     1
 71
     0
 91
        1
 92
        1
 93
        1
 72
     4
 94
        3
 73
     0
 74
     1
 95
       71
 96
       67
 40
0.0
 40
0.0
 40
0.0
 40
0.0
 40
1.0
 40
1.0
 40
1.0
 40
2.0
 40
2.0
 40
2.0
 40
3.0
 40
3.0
 40
3.0
 40
4.0
 40
4.0
 40
4.0
 40
5.0
 40
5.0
 40
5.0
 40
6.0
 40
6.0
 40
6.0
 40
7.0
 40
7.0
 40
7.0
 40
8.0
 40
8.0
 40
8.0
 40
9.0
 40
9.0
 40
9.0
 40
10.0
 40
10.0
 40
10.0
 40
11.0
 40
11.0
 40
11.0
 40
12.0
 40
12.0
 40
12.0
 40
13.0
 40
13.0
 40
13.0
 40
14.0
 40
14.0
 40
14.0
 40
15.0
 40
15.0
 40
15.0
 40
16.0
 40
16.0
 40
16.0
 40
17.0
 40
17.0
 40
17.0
 40
18.0
 40
18.0
 40
18.0
 40
19.0
 40
19.0
 40
19.0
 40
20.0
 40
20.0
 40
20.0
 40
21.0
 40
21.0
 40
21.0
 40
22.0
 40
22.0
 40
22.0
 40
22.0
 10
79.17571381339259
 20
-146.6980174633256
 10
79.17571381339259
 20
-146.6980174633256
 10
93.17640512287187
 20
-146.6980174633256
 10
93.17640512287187
 20
-146.6980174633256
 10
93.17640512287187
 20
-146.6980174633256
 10
93.17640512287187
 20
-133.6979446887979
 10
93.17640512287187
 20
-133.6979446887979
 10
93.17640512287187
 20
-133.6979446887979
 10
114.1763131982307
 20
-133.6979446887979
 10
114.1763131982307
 20
-133.6979446887979
 10
114.1763131982307
 20
-133.6979446887979
 10
114.1763131982307
 20
-134.6980696885476
 10
114.1763131982307
 20
-134.6980696885476
 10
114.1763131982307
 20
-134.6980696885476
 10
104.4590848350267
 20
-134.6980696885476
 10
104.4590848350267
 20
-134.6980696885476
 10
104.4590848350267
 20
-134.6980696885476
 10
104.1765803977896
 20
-134.6980696885476
 10
104.1765803977896
 20
-134.6980696885476
 10
104.1765803977896
 20
-134.6980696885476
 10
103.8934083073601
 20
-134.6980696885476
 10
103.8934083073601
 20
-134.6980696885476
 10
103.8934083073601
 20
-134.6980696885476
 10
94.17649719867822
 20
-134.6980696885476
 10
94.17649719867822
 20
-134.6980696885476
 10
94.17649719867822
 20
-134.6980696885476
 10
94.17649719867822
 20
-147.6981424630752
 10
94.17649719867822
 20
-147.6981424630752
 10
94.17649719867822
 20
-147.6981424630752
 10
79.17620770226888
 20
-147.6981424630752
 10
79.17620770226888
 20
-147.6981424630752
 10
73.65304839873197
 20
-147.6981424630752
 10
69.17580462406708
 20
-143.221216075306
 10
69.17580462406708
 20
-137.6980566322419
 10
69.17580462406708
 20
-137.6980566322419
 10
69.17580462406708
 20
-122.6981219137699
 10
69.17580462406708
 20
-122.6981219137699
 10
69.17580462406708
 20
-122.6981219137699
 10
82.17587707018538
 20
-122.6981219137699
 10
82.17587707018538
 20
-122.6981219137699
 10
82.17587707018538
 20
-122.6981219137699
 10
82.17587707018538
 20
-112.9808580273103
 10
82.17587707018538
 20
-112.9808580273103
 10
82.17587707018538
 20
-112.9808580273103
 10
82.17637095906167
 20
-112.6980360829366
 10
82.17637095906167
 20
-112.6980360829366
 10
82.17637095906167
 20
-112.6980360829366
 10
82.17587707018538
 20
-112.415178860785
 10
82.17587707018538
 20
-112.415178860785
 10
82.17587707018538
 20
-112.415178860785
 10
82.17587707018538
 20
-102.6979502521032
 10
82.17587707018538
 20
-102.6979502521032
 10
82.17587707018538
 20
-102.6979502521032
 10
83.1757903780088
 20
-102.6979502521032
 10
83.1757903780088
 20
-102.6979502521032
 10
83.1757903780088
 20
-102.6979502521032
 10
83.1757903780088
 20
-123.6978588579646
 10
83.1757903780088
 20
-123.6978588579646
 10
83.1757903780088
 20
-123.6978588579646
 10
70.1757179318905
 20
-123.6978588579646
 10
70.1757179318905
 20
-123.6978588579646
 10
70.1757179318905
 20
-123.6978588579646
 10
70.1757179318905
 20
-137.6980566322419
 10
70.1757179318905
 20
-137.6980566322419
 10
70.1757179318905
 20
-142.6686249643332
 10
74.20511032909214
 20
-146.6980174633256
 10
79.17571381339259
 20
-146.6980174633256
 97
        0
 97
        0
 75
     2
 76
     1
 98
        0
  0
POLYLINE
  5
43
330
1F
100
AcDbEntity
  8
_U+30EC_U+30A4_U+30E4_U+30FC 1
 62
   179
420
  2234388
370
     9
100
AcDb2dPolyline
 66
     1
 10
0.0
 20
0.0
 30
0.0
  0
VERTEX
  5
44
330
43
100
AcDbEntity
  8
_U+30EC_U+30A4_U+30E4_U+30FC 1
 62
   179
420
  2234388
370
     9
100
AcDbVertex
100
AcDb2dVertex
 10
69.17580462406708
 20
-151.9572991286774
 30
0.0
  0
VERTEX
  5
45
330
43
100
AcDbEntity
  8
_U+30EC_U+30A4_U+30E4_U+30FC 1
 62
   179
420
  2234388
370
     9
100
AcDbVertex
100
AcDb2dVertex
 10
94.08106843312531
 20
-151.9572991286774
 30
0.0
  0
SEQEND
  5
46
330
43
100
AcDbEntity
  8
_U+30EC_U+30A4_U+30E4_U+30FC 1
 62
   179
420
  2234388
370
     9
  0
INSERT
  5
48
330
1F
100
AcDbEntity
  8
_U+30EC_U+30A4_U+30E4_U+30FC 1
100
AcDbBlockReference
  2
block 2
 10
0.0
 20
0.0
 30
0.0
  0
POLYLINE
  5
4F
330
1F
100
AcDbEntity
  8
_U+30EC_U+30A4_U+30E4_U+30FC 1
 62
   179
420
  2234388
370
     9
100
AcDb2dPolyline
 66
     1
 10
0.0
 20
0.0
 30
0.0
  0
VERTEX
  5
50
330
4F
100
AcDbEntity
  8
_U+30EC_U+30A4_U+30E4_U+30FC 1
 62
   179
420
  2234388
370
     9
100
AcDbVertex
100
AcDb2dVertex
 10
79.17603331353922
 20
-153.8975769059701
 30
0.0
  0
VERTEX
  5
51
330
4F
100
AcDbEntity
  8
_U+30EC_U+30A4_U+30E4_U+30FC 1
 62
   179
420
  2234388
370
     9
100
AcDbVertex
100
AcDb2dVertex
 10
79.17603331353922
 20
-150.9148055178272
 30
0.0
  0
SEQEND
  5
52
330
4F
100
AcDbEntity
  8
_U+30EC_U+30A4_U+30E4_U+30FC 1
 62
   179
420
  2234388
370
     9
  0
INSERT
  5
54
330
1F
100
AcDbEntity
  8
_U+30EC_U+30A4_U+30E4_U+30FC 1
100
AcDbBlockReference
  2
block 3
 10
0.0
 20
0.0
 30
0.0
  0
POLYLINE
  5
5C
330
1F
100
AcDbEntity
  8
_U+30EC_U+30A4_U+30E4_U+30FC 1
 62
   179
420
  2234388
370
     9
100
AcDb2dPolyline
 66
     1
 10
0.0
 20
0.0
 30
0.0
  0
VERTEX
  5
5D
330
5C
100
AcDbEntity
  8
_U+30EC_U+30A4_U+30E4_U+30FC 1
 62
   179
420
  2234388
370
     9
100
AcDbVertex
100
AcDb2dVertex
 10
65.15484361553924
 20
-122.5475563582519
 30
0.0
  0
VERTEX
  5
5E
330
5C
100
AcDbEntity
  8
_U+30EC_U+30A4_U+30E4_U+30FC 1
 62
   179
420
  2234388
370
     9
100
AcDbVertex
100
AcDb2dVertex
 10
65.15484361553924
 20
-102.8605455298404
 30
0.0
  0
SEQEND
  5
5F
330
5C
100
AcDbEntity
  8
_U+30EC_U+30A4_U+30E4_U+30FC 1
 62
   179
420
  2234388
370
     9
  0
POLYLINE
  5
60
330
1F
100
AcDbEntity
  8
_U+30EC_U+30A4_U+30E4_U+30FC 1
 62
   179
420
  2234388
370
     9
100
AcDb2dPolyline
 66
     1
 10
0.0
 20
0.0
 30
0.0
  0
VERTEX
  5
61
330
60
100
AcDbEntity
  8
_U+30EC_U+30A4_U+30E4_U+30FC 1
 62
   179
420
  2234388
370
     9
100
AcDbVertex
100
AcDb2dVertex
 10
65.15484361553924
 20
-147.7329263519559
 30
0.0
  0
VERTEX
  5
62
330
60
100
AcDbEntity
  8
_U+30EC_U+30A4_U+30E4_U+30FC 1
 62
   179
420
  2234388
370
     9
100
AcDbVertex
100
AcDb2dVertex
 10
65.15484361553924
 20
-122.5475563582519
 30
0.0
  0
SEQEND
  5
63
330
60
100
AcDbEntity
  8
_U+30EC_U+30A4_U+30E4_U+30FC 1
 62
   179
420
  2234388
370
     9
  0
POLYLINE
  5
64
330
1F
100
AcDbEntity
  8
_U+30EC_U+30A4_U+30E4_U+30FC 1
 62
   179
420
  2234388
370
     9
100
AcDb2dPolyline
 66
     1
 10
0.0
 20
0.0
 30
0.0
  0
VERTEX
  5
65
330
64
100
AcDbEntity
  8
_U+30EC_U+30A4_U+30E4_U+30FC 1
 62
   179
420
  2234388
370
     9
100
AcDbVertex
100
AcDb2dVertex
 10
75.67584084712624
 20
-147.6950380186317
 30
0.0
  0
VERTEX
  5
66
330
64
100
AcDbEntity
  8
_U+30EC_U+30A4_U+30E4_U+30FC 1
 62
   179
420
  2234388
370
     9
100
AcDbVertex
100
AcDb2dVertex
 10
63.68224337533062
 20
-147.6950380186317
 30
0.0
  0
SEQEND
  5
67
330
64
100
AcDbEntity
  8
_U+30EC_U+30A4_U+30E4_U+30FC 1
 62
   179
420
  2234388
370
     9
  0
POLYLINE
  5
68
330
1F
100
AcDbEntity
  8
_U+30EC_U+30A4_U+30E4_U+30FC 1
 62
   179
420
  2234388
370
     9
100
AcDb2dPolyline
 66
     1
 10
0.0
 20
0.0
 30
0.0
  0
VERTEX
  5
69
330
68
100
AcDbEntity
  8
_U+30EC_U+30A4_U+30E4_U+30FC 1
 62
   179
420
  2234388
370
     9
100
AcDbVertex
100
AcDb2dVertex
 10
68.56549908408172
 20
-122.6981219137699
 30
0.0
  0
VERTEX
  5
6A
330
68
100
AcDbEntity
  8
_U+30EC_U+30A4_U+30E4_U+30FC 1
 62
   179
420
  2234388
370
     9
100
AcDbVertex
100
AcDb2dVertex
 10
63.56064087843296
 20
-122.6981219137699
 30
0.0
  0
SEQEND
  5
6B
330
68
100
AcDbEntity
  8
_U+30EC_U+30A4_U+30E4_U+30FC 1
 62
   179
420
  2234388
370
     9
  0
POLYLINE
  5
6C
330
1F
100
AcDbEntity
  8
_U+30EC_U+30A4_U+30E4_U+30FC 1
 62
   179
420
  2234388
370
     9
100
AcDb2dPolyline
 66
     1
 10
0.0
 20
0.0
 30
0.0
  0
VERTEX
  5
6D
330
6C
100
AcDbEntity
  8
_U+30EC_U+30A4_U+30E4_U+30FC 1
 62
   179
420
  2234388
370
     9
100
AcDbVertex
100
AcDb2dVertex
 10
81.02589209952394
 20
-102.6979502521032
 30
0.0
  0
VERTEX
  5
6E
330
6C
100
AcDbEntity
  8
_U+30EC_U+30A4_U+30E4_U+30FC 1
 62
   179
420
  2234388
370
     9
100
AcDbVertex
100
AcDb2dVertex
 10
63.56081726731735
 20
-102.6979502521032
 30
0.0
  0
SEQEND
  5
6F
330
6C
100
AcDbEntity
  8
_U+30EC_U+30A4_U+30E4_U+30FC 1
 62
   179
420
  2234388
370
     9
  0
INSERT
  5
71
330
1F
100
AcDbEntity
  8
_U+30EC_U+30A4_U+30E4_U+30FC 1
100
AcDbBlockReference
  2
block 4
 10
0.0
 20
0.0
 30
0.0
  0
INSERT
  5
79
330
1F
100
AcDbEntity
  8
_U+30EC_U+30A4_U+30E4_U+30FC 1
100
AcDbBlockReference
  2
block 5
 10
0.0
 20
0.0
 30
0.0
  0
POLYLINE
  5
81
330
1F
100
AcDbEntity
  8
_U+30EC_U+30A4_U+30E4_U+30FC 1
 62
   179
420
  2234388
370
     9
100
AcDb2dPolyline
 66
     1
 10
0.0
 20
0.0
 30
0.0
  0
VERTEX
  5
82
330
81
100
AcDbEntity
  8
_U+30EC_U+30A4_U+30E4_U+30FC 1
 62
   179
420
  2234388
370
     9
100
AcDbVertex
100
AcDb2dVertex
 10
72.25156815670893
 20
-144.9131030193272
 30
0.0
  0
VERTEX
  5
83
330
81
100
AcDbEntity
  8
_U+30EC_U+30A4_U+30E4_U+30FC 1
 62
   179
420
  2234388
370
     9
100
AcDbVertex
100
AcDb2dVertex
 10
73.15471452255663
 20
-144.3912035750132
 30
0.0
  0
SEQEND
  5
84
330
81
100
AcDbEntity
  8
_U+30EC_U+30A4_U+30E4_U+30FC 1
 62
   179
420
  2234388
370
     9
  0
POLYLINE
  5
85
330
1F
100
AcDbEntity
  8
_U+30EC_U+30A4_U+30E4_U+30FC 1
 62
   179
420
  2234388
370
     9
100
AcDb2dPolyline
 66
     1
 10
0.0
 20
0.0
 30
0.0
  0
VERTEX
  5
86
330
85
100
AcDbEntity
  8
_U+30EC_U+30A4_U+30E4_U+30FC 1
 62
   179
420
  2234388
370
     9
100
AcDbVertex
100
AcDb2dVertex
 10
72.25156815670893
 20
-144.9131030193272
 30
0.0
  0
VERTEX
  5
87
330
85
100
AcDbEntity
  8
_U+30EC_U+30A4_U+30E4_U+30FC 1
 62
   179
420
  2234388
370
     9
100
AcDbVertex
100
AcDb2dVertex
 10
86.43916112808661
 20
-130.1998002452276
 30
0.0
  0
SEQEND
  5
88
330
85
100
AcDbEntity
  8
_U+30EC_U+30A4_U+30E4_U+30FC 1
 62
   179
420
  2234388
370
     9
  0
POLYLINE
  5
89
330
1F
100
AcDbEntity
  8
_U+30EC_U+30A4_U+30E4_U+30FC 1
 62
   179
420
  2234388
370
     9
100
AcDb2dPolyline
 66
     1
 10
0.0
 20
0.0
 30
0.0
  0
VERTEX
  5
8A
330
89
100
AcDbEntity
  8
_U+30EC_U+30A4_U+30E4_U+30FC 1
 62
   179
420
  2234388
370
     9
100
AcDbVertex
100
AcDb2dVertex
 10
72.25156815670893
 20
-144.9131030193272
 30
0.0
  0
VERTEX
  5
8B
330
89
100
AcDbEntity
  8
_U+30EC_U+30A4_U+30E4_U+30FC 1
 62
   179
420
  2234388
370
     9
100
AcDbVertex
100
AcDb2dVertex
 10
72.7733264767311
 20
-144.0101682973309
 30
0.0
  0
SEQEND
  5
8C
330
89
100
AcDbEntity
  8
_U+30EC_U+30A4_U+30E4_U+30FC 1
 62
   179
420
  2234388
370
     9
  0
INSERT
  5
8E
330
1F
100
AcDbEntity
  8
_U+30EC_U+30A4_U+30E4_U+30FC 1
100
AcDbBlockReference
  2
block 6
 10
0.0
 20
0.0
 30
0.0
  0
POLYLINE
  5
99
330
1F
100
AcDbEntity
  8
_U+30EC_U+30A4_U+30E4_U+30FC 1
 62
   179
420
  2234388
370
     9
100
AcDb2dPolyline
 66
     1
 10
0.0
 20
0.0
 30
0.0
  0
VERTEX
  5
9A
330
99
100
AcDbEntity
  8
_U+30EC_U+30A4_U+30E4_U+30FC 1
 62
   179
420
  2234388
370
     9
100
AcDbVertex
100
AcDb2dVertex
 10
118.393101146207
 20
-134.9088896884952
 30
0.0
  0
VERTEX
  5
9B
330
99
100
AcDbEntity
  8
_U+30EC_U+30A4_U+30E4_U+30FC 1
 62
   179
420
  2234388
370
     9
100
AcDbVertex
100
AcDb2dVertex
 10
118.393101146207
 20
-133.7568585776719
 30
0.0
  0
SEQEND
  5
9C
330
99
100
AcDbEntity
  8
_U+30EC_U+30A4_U+30E4_U+30FC 1
 62
   179
420
  2234388
370
     9
  0
POLYLINE
  5
9D
330
1F
100
AcDbEntity
  8
_U+30EC_U+30A4_U+30E4_U+30FC 1
 62
   179
420
  2234388
370
     9
100
AcDb2dPolyline
 66
     1
 10
0.0
 20
0.0
 30
0.0
  0
VERTEX
  5
9E
330
9D
100
AcDbEntity
  8
_U+30EC_U+30A4_U+30E4_U+30FC 1
 62
   179
420
  2234388
370
     9
100
AcDbVertex
100
AcDb2dVertex
 10
118.3924308684463
 20
-147.6895346852995
 30
0.0
  0
VERTEX
  5
9F
330
9D
100
AcDbEntity
  8
_U+30EC_U+30A4_U+30E4_U+30FC 1
 62
   179
420
  2234388
370
     9
100
AcDbVertex
100
AcDb2dVertex
 10
118.3924308684463
 20
-134.9088896884952
 30
0.0
  0
SEQEND
  5
A0
330
9D
100
AcDbEntity
  8
_U+30EC_U+30A4_U+30E4_U+30FC 1
 62
   179
420
  2234388
370
     9
  0
POLYLINE
  5
A1
330
1F
100
AcDbEntity
  8
_U+30EC_U+30A4_U+30E4_U+30FC 1
 62
   179
420
  2234388
370
     9
100
AcDb2dPolyline
 66
     1
 10
0.0
 20
0.0
 30
0.0
  0
VERTEX
  5
A2
330
A1
100
AcDbEntity
  8
_U+30EC_U+30A4_U+30E4_U+30FC 1
 62
   179
420
  2234388
370
     9
100
AcDbVertex
100
AcDb2dVertex
 10
119.7449808339399
 20
-147.6981424630752
 30
0.0
  0
VERTEX
  5
A3
330
A1
100
AcDbEntity
  8
_U+30EC_U+30A4_U+30E4_U+30FC 1
 62
   179
420
  2234388
370
     9
100
AcDbVertex
100
AcDb2dVertex
 10
95.32647979024111
 20
-147.6981424630752
 30
0.0
  0
SEQEND
  5
A4
330
A1
100
AcDbEntity
  8
_U+30EC_U+30A4_U+30E4_U+30FC 1
 62
   179
420
  2234388
370
     9
  0
POLYLINE
  5
A5
330
1F
100
AcDbEntity
  8
_U+30EC_U+30A4_U+30E4_U+30FC 1
 62
   179
420
  2234388
370
     9
100
AcDb2dPolyline
 66
     1
 10
0.0
 20
0.0
 30
0.0
  0
VERTEX
  5
A6
330
A5
100
AcDbEntity
  8
_U+30EC_U+30A4_U+30E4_U+30FC 1
 62
   179
420
  2234388
370
     9
100
AcDbVertex
100
AcDb2dVertex
 10
119.7449808339399
 20
-134.6980696885476
 30
0.0
  0
VERTEX
  5
A7
330
A5
100
AcDbEntity
  8
_U+30EC_U+30A4_U+30E4_U+30FC 1
 62
   179
420
  2234388
370
     9
100
AcDbVertex
100
AcDb2dVertex
 10
115.3262981688921
 20
-134.6980696885476
 30
0.0
  0
SEQEND
  5
A8
330
A5
100
AcDbEntity
  8
_U+30EC_U+30A4_U+30E4_U+30FC 1
 62
   179
420
  2234388
370
     9
  0
POLYLINE
  5
A9
330
1F
100
AcDbEntity
  8
_U+30EC_U+30A4_U+30E4_U+30FC 1
 62
   179
420
  2234388
370
     9
100
AcDb2dPolyline
 66
     1
 10
0.0
 20
0.0
 30
0.0
  0
VERTEX
  5
AA
330
A9
100
AcDbEntity
  8
_U+30EC_U+30A4_U+30E4_U+30FC 1
 62
   179
420
  2234388
370
     9
100
AcDbVertex
100
AcDb2dVertex
 10
119.7449808339399
 20
-133.7568585776719
 30
0.0
  0
VERTEX
  5
AB
330
A9
100
AcDbEntity
  8
_U+30EC_U+30A4_U+30E4_U+30FC 1
 62
   179
420
  2234388
370
     9
100
AcDbVertex
100
AcDb2dVertex
 10
115.3262981688921
 20
-133.7568585776719
 30
0.0
  0
SEQEND
  5
AC
330
A9
100
AcDbEntity
  8
_U+30EC_U+30A4_U+30E4_U+30FC 1
 62
   179
420
  2234388
370
     9
  0
INSERT
  5
AE
330
1F
100
AcDbEntity
  8
_U+30EC_U+30A4_U+30E4_U+30FC 1
100
AcDbBlockReference
  2
block 7
 10
0.0
 20
0.0
 30
0.0
  0
INSERT
  5
B6
330
1F
100
AcDbEntity
  8
_U+30EC_U+30A4_U+30E4_U+30FC 1
100
AcDbBlockReference
  2
block 8
 10
0.0
 20
0.0
 30
0.0
  0
SPLINE
  5
BB
330
1F
100
AcDbEntity
  8
_U+30EC_U+30A4_U+30E4_U+30FC 1
 62
   179
420
  2234388
370
     9
100
AcDbSpline
210
0.0
220
0.0
230
1.0
 70
    11
 71
     3
 72
    17
 73
    13
 74
     0
 42
0.0000000001
 43
0.0000000001
 12
1.0
 22
0.0
 32
0.0
 13
1.0
 23
0.0
 33
0.0
 40
0.0
 40
0.0
 40
0.0
 40
0.0
 40
1.0
 40
1.0
 40
1.0
 40
2.0
 40
2.0
 40
2.0
 40
3.0
 40
3.0
 40
3.0
 40
4.0
 40
4.0
 40
4.0
 40
4.0
 10
65.25923055732055
 20
-102.7289594187623
 30
0.0
 10
65.25923055732055
 20
-102.6738202521092
 30
0.0
 10
65.21446305846266
 20
-102.629723029898
 30
0.0
 10
65.15897111543393
 20
-102.629723029898
 30
0.0
 10
65.10439639460402
 20
-102.629723029898
 30
0.0
 10
65.05959361796927
 20
-102.6738202521092
 30
0.0
 10
65.05959361796927
 20
-102.7289594187623
 30
0.0
 10
65.05959361796927
 20
-102.7840633076372
 30
0.0
 10
65.10439639460402
 20
-102.8292188631817
 30
0.0
 10
65.15897111543393
 20
-102.8292188631817
 30
0.0
 10
65.21446305846266
 20
-102.8292188631817
 30
0.0
 10
65.25923055732055
 20
-102.7840633076372
 30
0.0
 10
65.25923055732055
 20
-102.7289594187623
 30
0.0
  0
SPLINE
  5
BC
330
1F
100
AcDbEntity
  8
_U+30EC_U+30A4_U+30E4_U+30FC 1
 62
   179
420
  2234388
370
     9
100
AcDbSpline
210
0.0
220
0.0
230
1.0
 70
    11
 71
     3
 72
    17
 73
    13
 74
     0
 42
0.0000000001
 43
0.0000000001
 12
1.0
 22
0.0
 32
0.0
 13
1.0
 23
0.0
 33
0.0
 40
0.0
 40
0.0
 40
0.0
 40
0.0
 40
1.0
 40
1.0
 40
1.0
 40
2.0
 40
2.0
 40
2.0
 40
3.0
 40
3.0
 40
3.0
 40
4.0
 40
4.0
 40
4.0
 40
4.0
 10
65.27612861244499
 20
-122.696746080437
 30
0.0
 10
65.27612861244499
 20
-122.6416069137839
 30
0.0
 10
65.23132583581024
 20
-122.5968394137954
 30
0.0
 10
65.17622194832717
 20
-122.5968394137954
 30
0.0
 10
65.1212591719516
 20
-122.5968394137954
 30
0.0
 10
65.07649167309371
 20
-122.6416069137839
 30
0.0
 10
65.07649167309371
 20
-122.696746080437
 30
0.0
 10
65.07649167309371
 20
-122.7525555248674
 30
0.0
 10
65.1212591719516
 20
-122.7966527470786
 30
0.0
 10
65.17622194832717
 20
-122.7966527470786
 30
0.0
 10
65.23132583581024
 20
-122.7966527470786
 30
0.0
 10
65.27612861244499
 20
-122.7525555248674
 30
0.0
 10
65.27612861244499
 20
-122.696746080437
 30
0.0
  0
SPLINE
  5
BD
330
1F
100
AcDbEntity
  8
_U+30EC_U+30A4_U+30E4_U+30FC 1
 62
   179
420
  2234388
370
     9
100
AcDbSpline
210
0.0
220
0.0
230
1.0
 70
    11
 71
     3
 72
    17
 73
    13
 74
     0
 42
0.0000000001
 43
0.0000000001
 12
1.0
 22
0.0
 32
0.0
 13
1.0
 23
0.0
 33
0.0
 40
0.0
 40
0.0
 40
0.0
 40
0.0
 40
1.0
 40
1.0
 40
1.0
 40
2.0
 40
2.0
 40
2.0
 40
3.0
 40
3.0
 40
3.0
 40
4.0
 40
4.0
 40
4.0
 40
4.0
 10
65.24840027981907
 20
-147.6933094075211
 30
0.0
 10
65.24840027981907
 20
-147.6385230186457
 30
0.0
 10
65.20395028095308
 20
-147.5937555186572
 30
0.0
 10
65.14849361570124
 20
-147.5937555186572
 30
0.0
 10
65.0931780615569
 20
-147.5937555186572
 30
0.0
 10
65.04872806269091
 20
-147.6385230186457
 30
0.0
 10
65.04872806269091
 20
-147.6933094075211
 30
0.0
 10
65.04872806269091
 20
-147.7491188519515
 30
0.0
 10
65.0931780615569
 20
-147.7939216297182
 30
0.0
 10
65.14849361570124
 20
-147.7939216297182
 30
0.0
 10
65.20395028095308
 20
-147.7939216297182
 30
0.0
 10
65.24840027981907
 20
-147.7491188519515
 30
0.0
 10
65.24840027981907
 20
-147.6933094075211
 30
0.0
  0
SPLINE
  5
BE
330
1F
100
AcDbEntity
  8
_U+30EC_U+30A4_U+30E4_U+30FC 1
 62
   179
420
  2234388
370
     9
100
AcDbSpline
210
0.0
220
0.0
230
1.0
 70
    11
 71
     3
 72
    17
 73
    13
 74
     0
 42
0.0000000001
 43
0.0000000001
 12
1.0
 22
0.0
 32
0.0
 13
1.0
 23
0.0
 33
0.0
 40
0.0
 40
0.0
 40
0.0
 40
0.0
 40
1.0
 40
1.0
 40
1.0
 40
2.0
 40
2.0
 40
2.0
 40
3.0
 40
3.0
 40
3.0
 40
4.0
 40
4.0
 40
4.0
 40
4.0
 10
69.29155276045502
 20
-151.9455869064581
 30
0.0
 10
69.29155276045502
 20
-151.8904830175832
 30
0.0
 10
69.2467499826883
 20
-151.8456802398165
 30
0.0
 10
69.19129156811643
 20
-151.8456802398165
 30
0.0
 10
69.13668331604919
 20
-151.8456802398165
 30
0.0
 10
69.09191407065175
 20
-151.8904830175832
 30
0.0
 10
69.09191407065175
 20
-151.9455869064581
 30
0.0
 10
69.09191407065175
 20
-152.0013963508886
 30
0.0
 10
69.13668331604919
 20
-152.0461991286553
 30
0.0
 10
69.19129156811643
 20
-152.0461991286553
 30
0.0
 10
69.2467499826883
 20
-152.0461991286553
 30
0.0
 10
69.29155276045502
 20
-152.0013963508886
 30
0.0
 10
69.29155276045502
 20
-151.9455869064581
 30
0.0
  0
SPLINE
  5
BF
330
1F
100
AcDbEntity
  8
_U+30EC_U+30A4_U+30E4_U+30FC 1
 62
   179
420
  2234388
370
     9
100
AcDbSpline
210
0.0
220
0.0
230
1.0
 70
    11
 71
     3
 72
    17
 73
    13
 74
     0
 42
0.0000000001
 43
0.0000000001
 12
1.0
 22
0.0
 32
0.0
 13
1.0
 23
0.0
 33
0.0
 40
0.0
 40
0.0
 40
0.0
 40
0.0
 40
1.0
 40
1.0
 40
1.0
 40
2.0
 40
2.0
 40
2.0
 40
3.0
 40
3.0
 40
3.0
 40
4.0
 40
4.0
 40
4.0
 40
4.0
 10
94.26401898401342
 20
-151.9393780175704
 30
0.0
 10
94.26401898401342
 20
-151.9945171842235
 30
0.0
 10
94.21921620737865
 20
-152.0392846842127
 30
0.0
 10
94.16411231989558
 20
-152.0392846842127
 30
0.0
 10
94.10897315463563
 20
-152.0392846842127
 30
0.0
 10
94.06420565577774
 20
-151.9945171842235
 30
0.0
 10
94.06420565577774
 20
-151.9393780175704
 30
0.0
 10
94.06420565577774
 20
-151.8842741286955
 30
0.0
 10
94.10897315463563
 20
-151.8394713509288
 30
0.0
 10
94.16411231989558
 20
-151.8394713509288
 30
0.0
 10
94.21921620737865
 20
-151.8394713509288
 30
0.0
 10
94.26401898401342
 20
-151.8842741286955
 30
0.0
 10
94.26401898401342
 20
-151.9393780175704
 30
0.0
  0
HATCH
  5
C0
330
1F
100
AcDbEntity
  8
_U+30EC_U+30A4_U+30E4_U+30FC 1
 62
   179
420
  2234388
100
AcDbHatch
 10
0.0
 20
0.0
 30
0.0
210
0.0
220
0.0
230
1.0
  2
SOLID
 70
     1
 71
     0
 91
        1
 92
        1
 93
        1
 72
     4
 94
        3
 73
     0
 74
     1
 95
       17
 96
       13
 40
0.0
 40
0.0
 40
0.0
 40
0.0
 40
1.0
 40
1.0
 40
1.0
 40
2.0
 40
2.0
 40
2.0
 40
3.0
 40
3.0
 40
3.0
 40
4.0
 40
4.0
 40
4.0
 40
4.0
 10
94.26401898401342
 20
-151.9393780175704
 10
94.26401898401342
 20
-151.9945171842235
 10
94.21921620737865
 20
-152.0392846842127
 10
94.16411231989558
 20
-152.0392846842127
 10
94.10897315463563
 20
-152.0392846842127
 10
94.06420565577774
 20
-151.9945171842235
 10
94.06420565577774
 20
-151.9393780175704
 10
94.06420565577774
 20
-151.8842741286955
 10
94.10897315463563
 20
-151.8394713509288
 10
94.16411231989558
 20
-151.8394713509288
 10
94.21921620737865
 20
-151.8394713509288
 10
94.26401898401342
 20
-151.8842741286955
 10
94.26401898401342
 20
-151.9393780175704
 97
        0
 97
        0
 75
     2
 76
     1
 98
        0
  0
SPLINE
  5
C1
330
1F
100
AcDbEntity
  8
_U+30EC_U+30A4_U+30E4_U+30FC 1
 62
   179
420
  2234388
370
     9
100
AcDbSpline
210
0.0
220
0.0
230
1.0
 70
    11
 71
     3
 72
    17
 73
    13
 74
     0
 42
0.0000000001
 43
0.0000000001
 12
1.0
 22
0.0
 32
0.0
 13
1.0
 23
0.0
 33
0.0
 40
0.0
 40
0.0
 40
0.0
 40
0.0
 40
1.0
 40
1.0
 40
1.0
 40
2.0
 40
2.0
 40
2.0
 40
3.0
 40
3.0
 40
3.0
 40
4.0
 40
4.0
 40
4.0
 40
4.0
 10
118.4923375325642
 20
-147.6895346852995
 30
0.0
 10
118.4923375325642
 20
-147.7446385741751
 30
0.0
 10
118.4475347559294
 20
-147.7894413519418
 30
0.0
 10
118.3924308684463
 20
-147.7894413519418
 30
0.0
 10
118.3372917031864
 20
-147.7894413519418
 30
0.0
 10
118.2925242043285
 20
-147.7446385741751
 30
0.0
 10
118.2925242043285
 20
-147.6895346852995
 30
0.0
 10
118.2925242043285
 20
-147.6343955186471
 30
0.0
 10
118.3372917031864
 20
-147.5896280186579
 30
0.0
 10
118.3924308684463
 20
-147.5896280186579
 30
0.0
 10
118.4475347559294
 20
-147.5896280186579
 30
0.0
 10
118.4923375325642
 20
-147.6343955186471
 30
0.0
 10
118.4923375325642
 20
-147.6895346852995
 30
0.0
  0
HATCH
  5
C2
330
1F
100
AcDbEntity
  8
_U+30EC_U+30A4_U+30E4_U+30FC 1
 62
   179
420
  2234388
100
AcDbHatch
 10
0.0
 20
0.0
 30
0.0
210
0.0
220
0.0
230
1.0
  2
SOLID
 70
     1
 71
     0
 91
        1
 92
        1
 93
        1
 72
     4
 94
        3
 73
     0
 74
     1
 95
       17
 96
       13
 40
0.0
 40
0.0
 40
0.0
 40
0.0
 40
1.0
 40
1.0
 40
1.0
 40
2.0
 40
2.0
 40
2.0
 40
3.0
 40
3.0
 40
3.0
 40
4.0
 40
4.0
 40
4.0
 40
4.0
 10
118.4923375325642
 20
-147.6895346852995
 10
118.4923375325642
 20
-147.7446385741751
 10
118.4475347559294
 20
-147.7894413519418
 10
118.3924308684463
 20
-147.7894413519418
 10
118.3372917031864
 20
-147.7894413519418
 10
118.2925242043285
 20
-147.7446385741751
 10
118.2925242043285
 20
-147.6895346852995
 10
118.2925242043285
 20
-147.6343955186471
 10
118.3372917031864
 20
-147.5896280186579
 10
118.3924308684463
 20
-147.5896280186579
 10
118.4475347559294
 20
-147.5896280186579
 10
118.4923375325642
 20
-147.6343955186471
 10
118.4923375325642
 20
-147.6895346852995
 97
        0
 97
        0
 75
     2
 76
     1
 98
        0
  0
SPLINE
  5
C3
330
1F
100
AcDbEntity
  8
_U+30EC_U+30A4_U+30E4_U+30FC 1
 62
   179
420
  2234388
370
     9
100
AcDbSpline
210
0.0
220
0.0
230
1.0
 70
    11
 71
     3
 72
    17
 73
    13
 74
     0
 42
0.0000000001
 43
0.0000000001
 12
1.0
 22
0.0
 32
0.0
 13
1.0
 23
0.0
 33
0.0
 40
0.0
 40
0.0
 40
0.0
 40
0.0
 40
1.0
 40
1.0
 40
1.0
 40
2.0
 40
2.0
 40
2.0
 40
3.0
 40
3.0
 40
3.0
 40
4.0
 40
4.0
 40
4.0
 40
4.0
 10
118.4923375325642
 20
-134.6980696885476
 30
0.0
 10
118.4923375325642
 20
-134.7531735774231
 30
0.0
 10
118.4475347559294
 20
-134.7979763551892
 30
0.0
 10
118.3924308684463
 20
-134.7979763551892
 30
0.0
 10
118.3372917031864
 20
-134.7979763551892
 30
0.0
 10
118.2925242043285
 20
-134.7531735774231
 30
0.0
 10
118.2925242043285
 20
-134.6980696885476
 30
0.0
 10
118.2925242043285
 20
-134.6429305218951
 30
0.0
 10
118.3372917031864
 20
-134.5981630219059
 30
0.0
 10
118.3924308684463
 20
-134.5981630219059
 30
0.0
 10
118.4475347559294
 20
-134.5981630219059
 30
0.0
 10
118.4923375325642
 20
-134.6429305218951
 30
0.0
 10
118.4923375325642
 20
-134.6980696885476
 30
0.0
  0
HATCH
  5
C4
330
1F
100
AcDbEntity
  8
_U+30EC_U+30A4_U+30E4_U+30FC 1
 62
   179
420
  2234388
100
AcDbHatch
 10
0.0
 20
0.0
 30
0.0
210
0.0
220
0.0
230
1.0
  2
SOLID
 70
     1
 71
     0
 91
        1
 92
        1
 93
        1
 72
     4
 94
        3
 73
     0
 74
     1
 95
       17
 96
       13
 40
0.0
 40
0.0
 40
0.0
 40
0.0
 40
1.0
 40
1.0
 40
1.0
 40
2.0
 40
2.0
 40
2.0
 40
3.0
 40
3.0
 40
3.0
 40
4.0
 40
4.0
 40
4.0
 40
4.0
 10
118.4923375325642
 20
-134.6980696885476
 10
118.4923375325642
 20
-134.7531735774231
 10
118.4475347559294
 20
-134.7979763551892
 10
118.3924308684463
 20
-134.7979763551892
 10
118.3372917031864
 20
-134.7979763551892
 10
118.2925242043285
 20
-134.7531735774231
 10
118.2925242043285
 20
-134.6980696885476
 10
118.2925242043285
 20
-134.6429305218951
 10
118.3372917031864
 20
-134.5981630219059
 10
118.3924308684463
 20
-134.5981630219059
 10
118.4475347559294
 20
-134.5981630219059
 10
118.4923375325642
 20
-134.6429305218951
 10
118.4923375325642
 20
-134.6980696885476
 97
        0
 97
        0
 75
     2
 76
     1
 98
        0
  0
SPLINE
  5
C5
330
1F
100
AcDbEntity
  8
_U+30EC_U+30A4_U+30E4_U+30FC 1
 62
   179
420
  2234388
370
     9
100
AcDbSpline
210
0.0
220
0.0
230
1.0
 70
    11
 71
     3
 72
    17
 73
    13
 74
     0
 42
0.0000000001
 43
0.0000000001
 12
1.0
 22
0.0
 32
0.0
 13
1.0
 23
0.0
 33
0.0
 40
0.0
 40
0.0
 40
0.0
 40
0.0
 40
1.0
 40
1.0
 40
1.0
 40
2.0
 40
2.0
 40
2.0
 40
3.0
 40
3.0
 40
3.0
 40
4.0
 40
4.0
 40
4.0
 40
4.0
 10
118.4923375325642
 20
-133.7568585776719
 30
0.0
 10
118.4923375325642
 20
-133.811997744325
 30
0.0
 10
118.4475347559294
 20
-133.8567652443135
 30
0.0
 10
118.3924308684463
 20
-133.8567652443135
 30
0.0
 10
118.3372917031864
 20
-133.8567652443135
 30
0.0
 10
118.2925242043285
 20
-133.811997744325
 30
0.0
 10
118.2925242043285
 20
-133.7568585776719
 30
0.0
 10
118.2925242043285
 20
-133.701754688797
 30
0.0
 10
118.3372917031864
 20
-133.6569519110302
 30
0.0
 10
118.3924308684463
 20
-133.6569519110302
 30
0.0
 10
118.4475347559294
 20
-133.6569519110302
 30
0.0
 10
118.4923375325642
 20
-133.701754688797
 30
0.0
 10
118.4923375325642
 20
-133.7568585776719
 30
0.0
  0
HATCH
  5
C6
330
1F
100
AcDbEntity
  8
_U+30EC_U+30A4_U+30E4_U+30FC 1
 62
   179
420
  2234388
100
AcDbHatch
 10
0.0
 20
0.0
 30
0.0
210
0.0
220
0.0
230
1.0
  2
SOLID
 70
     1
 71
     0
 91
        1
 92
        1
 93
        1
 72
     4
 94
        3
 73
     0
 74
     1
 95
       17
 96
       13
 40
0.0
 40
0.0
 40
0.0
 40
0.0
 40
1.0
 40
1.0
 40
1.0
 40
2.0
 40
2.0
 40
2.0
 40
3.0
 40
3.0
 40
3.0
 40
4.0
 40
4.0
 40
4.0
 40
4.0
 10
118.4923375325642
 20
-133.7568585776719
 10
118.4923375325642
 20
-133.811997744325
 10
118.4475347559294
 20
-133.8567652443135
 10
118.3924308684463
 20
-133.8567652443135
 10
118.3372917031864
 20
-133.8567652443135
 10
118.2925242043285
 20
-133.811997744325
 10
118.2925242043285
 20
-133.7568585776719
 10
118.2925242043285
 20
-133.701754688797
 10
118.3372917031864
 20
-133.6569519110302
 10
118.3924308684463
 20
-133.6569519110302
 10
118.4475347559294
 20
-133.6569519110302
 10
118.4923375325642
 20
-133.701754688797
 10
118.4923375325642
 20
-133.7568585776719
 97
        0
 97
        0
 75
     2
 76
     1
 98
        0
  0
SPLINE
  5
C7
330
1F
100
AcDbEntity
  8
_U+30EC_U+30A4_U+30E4_U+30FC 1
 62
   179
420
  2234388
370
     9
100
AcDbSpline
210
0.0
220
0.0
230
1.0
 70
    11
 71
     3
 72
    17
 73
    13
 74
     0
 42
0.0000000001
 43
0.0000000001
 12
1.0
 22
0.0
 32
0.0
 13
1.0
 23
0.0
 33
0.0
 40
0.0
 40
0.0
 40
0.0
 40
0.0
 40
1.0
 40
1.0
 40
1.0
 40
2.0
 40
2.0
 40
2.0
 40
3.0
 40
3.0
 40
3.0
 40
4.0
 40
4.0
 40
4.0
 40
4.0
 10
79.26546047776964
 20
-151.9393780175704
 30
0.0
 10
79.26546047776964
 20
-151.9945171842235
 30
0.0
 10
79.22065770113487
 20
-152.0392846842127
 30
0.0
 10
79.1655538136518
 20
-152.0392846842127
 30
0.0
 10
79.11023825950745
 20
-152.0392846842127
 30
0.0
 10
79.06547076064957
 20
-151.9945171842235
 30
0.0
 10
79.06547076064957
 20
-151.9393780175704
 30
0.0
 10
79.06547076064957
 20
-151.8842741286955
 30
0.0
 10
79.11023825950745
 20
-151.8394713509288
 30
0.0
 10
79.1655538136518
 20
-151.8394713509288
 30
0.0
 10
79.22065770113487
 20
-151.8394713509288
 30
0.0
 10
79.26546047776964
 20
-151.8842741286955
 30
0.0
 10
79.26546047776964
 20
-151.9393780175704
 30
0.0
  0
HATCH
  5
C8
330
1F
100
AcDbEntity
  8
_U+30EC_U+30A4_U+30E4_U+30FC 1
 62
   179
420
  2234388
100
AcDbHatch
 10
0.0
 20
0.0
 30
0.0
210
0.0
220
0.0
230
1.0
  2
SOLID
 70
     1
 71
     0
 91
        1
 92
        1
 93
        1
 72
     4
 94
        3
 73
     0
 74
     1
 95
       17
 96
       13
 40
0.0
 40
0.0
 40
0.0
 40
0.0
 40
1.0
 40
1.0
 40
1.0
 40
2.0
 40
2.0
 40
2.0
 40
3.0
 40
3.0
 40
3.0
 40
4.0
 40
4.0
 40
4.0
 40
4.0
 10
79.26546047776964
 20
-151.9393780175704
 10
79.26546047776964
 20
-151.9945171842235
 10
79.22065770113487
 20
-152.0392846842127
 10
79.1655538136518
 20
-152.0392846842127
 10
79.11023825950745
 20
-152.0392846842127
 10
79.06547076064957
 20
-151.9945171842235
 10
79.06547076064957
 20
-151.9393780175704
 10
79.06547076064957
 20
-151.8842741286955
 10
79.11023825950745
 20
-151.8394713509288
 10
79.1655538136518
 20
-151.8394713509288
 10
79.22065770113487
 20
-151.8394713509288
 10
79.26546047776964
 20
-151.8842741286955
 10
79.26546047776964
 20
-151.9393780175704
 97
        0
 97
        0
 75
     2
 76
     1
 98
        0
  0
POLYLINE
  5
C9
330
1F
100
AcDbEntity
  8
_U+30EC_U+30A4_U+30E4_U+30FC 1
 62
   179
420
  2234388
370
     9
100
AcDb2dPolyline
 66
     1
 10
0.0
 20
0.0
 30
0.0
  0
VERTEX
  5
CA
330
C9
100
AcDbEntity
  8
_U+30EC_U+30A4_U+30E4_U+30FC 1
 62
   179
420
  2234388
370
     9
100
AcDbVertex
100
AcDb2dVertex
 10
69.17580462406708
 20
-154.1070563503624
 30
0.0
  0
VERTEX
  5
CB
330
C9
100
AcDbEntity
  8
_U+30EC_U+30A4_U+30E4_U+30FC 1
 62
   179
420
  2234388
370
     9
100
AcDbVertex
100
AcDb2dVertex
 10
69.17580462406708
 20
-141.1982824647006
 30
0.0
  0
SEQEND
  5
CC
330
C9
100
AcDbEntity
  8
_U+30EC_U+30A4_U+30E4_U+30FC 1
 62
   179
420
  2234388
370
     9
  0
POLYLINE
  5
CD
330
1F
100
AcDbEntity
  8
_U+30EC_U+30A4_U+30E4_U+30FC 1
 62
   179
420
  2234388
370
     9
100
AcDb2dPolyline
 66
     1
 10
0.0
 20
0.0
 30
0.0
  0
VERTEX
  5
CE
330
CD
100
AcDbEntity
  8
_U+30EC_U+30A4_U+30E4_U+30FC 1
 62
   179
420
  2234388
370
     9
100
AcDbVertex
100
AcDb2dVertex
 10
94.175824541819
 20
-153.8975769059701
 30
0.0
  0
VERTEX
  5
CF
330
CD
100
AcDbEntity
  8
_U+30EC_U+30A4_U+30E4_U+30FC 1
 62
   179
420
  2234388
370
     9
100
AcDbVertex
100
AcDb2dVertex
 10
94.175824541819
 20
-150.9148055178272
 30
0.0
  0
SEQEND
  5
D0
330
CD
100
AcDbEntity
  8
_U+30EC_U+30A4_U+30E4_U+30FC 1
 62
   179
420
  2234388
370
     9
  0
ENDSEC
  0
SECTION
  2
OBJECTS
  0
DICTIONARY
  5
C
330
0
100
AcDbDictionary
281
     1
  3
ACAD_GROUP
350
D
  3
ACAD_LAYOUT
350
1A
  3
ACAD_MATERIAL
350
3B
  3
ACAD_MLEADERSTYLE
350
D2
  3
ACAD_MLINESTYLE
350
17
  3
ACAD_PLOTSETTINGS
350
19
  3
ACAD_PLOTSTYLENAME
350
E
  3
ACAD_TABLESTYLE
350
D1
  3
ACAD_VISUALSTYLE
350
2A
  0
SUN
  5
3F
330
29
100
AcDbSun
 90
        1
290
     0
 63
     7
421
 16777215
 40
1.0
291
     1
 91
  2455826
 92
 54000000
292
     0
 70
     2
 71
   256
280
     1
  0
DICTIONARY
  5
D
102
{ACAD_REACTORS
330
C
102
}
330
C
100
AcDbDictionary
281
     1
  0
DICTIONARY
  5
1A
102
{ACAD_REACTORS
330
C
102
}
330
C
100
AcDbDictionary
281
     1
  3
Layout1
350
1E
  3
Layout2
350
26
  3
Model
350
22
  0
DICTIONARY
  5
3B
102
{ACAD_REACTORS
330
C
102
}
330
C
100
AcDbDictionary
281
     1
  3
ByBlock
350
3D
  3
ByLayer
350
3C
  3
Global
350
3E
  0
DICTIONARY
  5
D2
102
{ACAD_REACTORS
330
C
102
}
330
C
100
AcDbDictionary
281
     1
  0
DICTIONARY
  5
17
102
{ACAD_REACTORS
330
C
102
}
330
C
100
AcDbDictionary
281
     1
  3
Standard
350
18
  0
DICTIONARY
  5
19
102
{ACAD_REACTORS
330
C
102
}
330
C
100
AcDbDictionary
281
     1
  0
ACDBDICTIONARYWDFLT
  5
E
102
{ACAD_REACTORS
330
C
102
}
330
C
100
AcDbDictionary
281
     1
  3
Normal
350
F
100
AcDbDictionaryWithDefault
340
F
  0
DICTIONARY
  5
D1
102
{ACAD_REACTORS
330
C
102
}
330
C
100
AcDbDictionary
281
     1
  0
DICTIONARY
  5
2A
102
{ACAD_REACTORS
330
C
102
}
330
C
100
AcDbDictionary
281
     1
  3
2dWireframe
350
2F
  3
3D Hidden
350
31
  3
3dWireframe
350
30
  3
Basic
350
32
  3
Brighten
350
36
  3
ColorChange
350
3A
  3
Conceptual
350
34
  3
Dim
350
35
  3
Facepattern
350
39
  3
Flat
350
2B
  3
FlatWithEdges
350
2C
  3
Gouraud
350
2D
  3
GouraudWithEdges
350
2E
  3
Linepattern
350
38
  3
Realistic
350
33
  3
Thicken
350
37
  0
LAYOUT
  5
1E
102
{ACAD_REACTORS
330
1A
102
}
330
1A
100
AcDbPlotSettings
  1

  2
none_device
  4

  6

 40
0.0
 41
0.0
 42
0.0
 43
0.0
 44
0.0
 45
0.0
 46
0.0
 47
0.0
 48
0.0
 49
0.0
140
0.0
141
0.0
142
1.0
143
1.0
 70
   688
 72
     0
 73
     0
 74
     5
  7

 75
    16
 76
     0
 77
     2
 78
   300
147
1.0
148
0.0
149
0.0
100
AcDbLayout
  1
Layout1
 70
     1
 71
     1
 10
0.0
 20
0.0
 11
12.0
 21
9.0
 12
0.0
 22
0.0
 32
0.0
 14
1.000000000000000E+20
 24
1.000000000000000E+20
 34
1.000000000000000E+20
 15
-1.000000000000000E+20
 25
-1.000000000000000E+20
 35
-1.000000000000000E+20
146
0.0
 13
0.0
 23
0.0
 33
0.0
 16
1.0
 26
0.0
 36
0.0
 17
0.0
 27
1.0
 37
0.0
 76
     0
330
1B
  0
LAYOUT
  5
26
102
{ACAD_REACTORS
330
1A
102
}
330
1A
100
AcDbPlotSettings
  1

  2
none_device
  4

  6

 40
0.0
 41
0.0
 42
0.0
 43
0.0
 44
0.0
 45
0.0
 46
0.0
 47
0.0
 48
0.0
 49
0.0
140
0.0
141
0.0
142
1.0
143
1.0
 70
   688
 72
     0
 73
     0
 74
     5
  7

 75
    16
 76
     0
 77
     2
 78
   300
147
1.0
148
0.0
149
0.0
100
AcDbLayout
  1
Layout2
 70
     1
 71
     2
 10
0.0
 20
0.0
 11
0.0
 21
0.0
 12
0.0
 22
0.0
 32
0.0
 14
0.0
 24
0.0
 34
0.0
 15
0.0
 25
0.0
 35
0.0
146
0.0
 13
0.0
 23
0.0
 33
0.0
 16
1.0
 26
0.0
 36
0.0
 17
0.0
 27
1.0
 37
0.0
 76
     0
330
23
  0
LAYOUT
  5
22
102
{ACAD_REACTORS
330
1A
102
}
330
1A
100
AcDbPlotSettings
  1

  2
none_device
  4

  6

 40
0.0
 41
0.0
 42
0.0
 43
0.0
 44
0.0
 45
0.0
 46
0.0
 47
0.0
 48
0.0
 49
0.0
140
0.0
141
0.0
142
1.0
143
1.0
 70
  1712
 72
     0
 73
     0
 74
     0
  7

 75
     0
 76
     0
 77
     2
 78
   300
147
1.0
148
0.0
149
0.0
100
AcDbLayout
  1
Model
 70
     1
 71
     0
 10
0.0
 20
0.0
 11
12.0
 21
9.0
 12
0.0
 22
0.0
 32
0.0
 14
1.000000000000000E+20
 24
1.000000000000000E+20
 34
1.000000000000000E+20
 15
-1.000000000000000E+20
 25
-1.000000000000000E+20
 35
-1.000000000000000E+20
146
0.0
 13
0.0
 23
0.0
 33
0.0
 16
1.0
 26
0.0
 36
0.0
 17
0.0
 27
1.0
 37
0.0
 76
     0
330
1F
331
29
  0
MATERIAL
  5
3D
102
{ACAD_REACTORS
330
3B
102
}
330
3B
100
AcDbMaterial
  1
ByBlock
 72
     1
 94
      127
  0
MATERIAL
  5
3C
102
{ACAD_REACTORS
330
3B
102
}
330
3B
100
AcDbMaterial
  1
ByLayer
 72
     1
 94
      127
  0
MATERIAL
  5
3E
102
{ACAD_REACTORS
330
3B
102
}
330
3B
100
AcDbMaterial
  1
Global
 72
     1
 94
      127
  0
MLINESTYLE
  5
18
102
{ACAD_REACTORS
330
17
102
}
330
17
100
AcDbMlineStyle
  2
Standard
 70
     0
  3

 62
   256
 51
90.0
 52
90.0
 71
     2
 49
0.5
 62
   256
  6
BYLAYER
 49
-0.5
 62
   256
  6
BYLAYER
  0
ACDBPLACEHOLDER
  5
F
102
{ACAD_REACTORS
330
E
102
}
330
E
  0
VISUALSTYLE
  5
2F
102
{ACAD_REACTORS
330
2A
102
}
330
2A
100
AcDbVisualStyle
  2
2dWireframe
 70
     4
177
     2
291
     0
 71
     0
176
     1
 72
     2
176
     1
 73
     0
176
     1
 90
        0
176
     1
 40
-0.6
176
     1
 41
-30.0
176
     1
 62
     5
 63
     7
421
 16777215
176
     1
 74
     1
176
     1
 91
        4
176
     1
 64
     7
176
     1
 65
   257
176
     1
 75
     1
176
     1
175
     1
176
     1
 42
1.0
176
     1
 92
        0
176
     1
 66
   257
176
     1
 43
1.0
176
     1
 76
     1
176
     1
 77
     6
176
     1
 78
     2
176
     1
 67
     7
176
     1
 79
     5
176
     1
170
     0
176
     1
171
     0
176
     1
290
     0
176
     1
 93
        1
176
     1
 44
0.0
176
     1
173
     0
176
     1
  0
VISUALSTYLE
  5
31
102
{ACAD_REACTORS
330
2A
102
}
330
2A
100
AcDbVisualStyle
  2
3D Hidden
 70
     6
177
     2
291
     0
 71
     1
176
     1
 72
     2
176
     1
 73
     2
176
     1
 90
        0
176
     1
 40
-0.6
176
     1
 41
-30.0
176
     1
 62
     5
 63
     7
421
 16777215
176
     1
 74
     2
176
     1
 91
        2
176
     1
 64
     7
176
     1
 65
   257
176
     1
 75
     2
176
     1
175
     1
176
     1
 42
40.0
176
     1
 92
        0
176
     1
 66
   257
176
     1
 43
1.0
176
     1
 76
     1
176
     1
 77
     6
176
     1
 78
     2
176
     1
 67
     7
176
     1
 79
     3
176
     1
170
     0
176
     1
171
     0
176
     1
290
     0
176
     1
 93
        1
176
     1
 44
0.0
176
     1
173
     0
176
     1
  0
VISUALSTYLE
  5
30
102
{ACAD_REACTORS
330
2A
102
}
330
2A
100
AcDbVisualStyle
  2
3dWireframe
 70
     5
177
     2
291
     0
 71
     0
176
     1
 72
     2
176
     1
 73
     0
176
     1
 90
        0
176
     1
 40
-0.6
176
     1
 41
-30.0
176
     1
 62
     5
 63
     7
421
 16777215
176
     1
 74
     1
176
     1
 91
        4
176
     1
 64
     7
176
     1
 65
   257
176
     1
 75
     1
176
     1
175
     1
176
     1
 42
1.0
176
     1
 92
        0
176
     1
 66
   257
176
     1
 43
1.0
176
     1
 76
     1
176
     1
 77
     6
176
     1
 78
     2
176
     1
 67
     7
176
     1
 79
     5
176
     1
170
     0
176
     1
171
     0
176
     1
290
     0
176
     1
 93
        1
176
     1
 44
0.0
176
     1
173
     0
176
     1
  0
VISUALSTYLE
  5
32
102
{ACAD_REACTORS
330
2A
102
}
330
2A
100
AcDbVisualStyle
  2
Basic
 70
     7
177
     2
291
     1
 71
     1
176
     1
 72
     0
176
     1
 73
     1
176
     1
 90
        0
176
     1
 40
-0.6
176
     1
 41
-30.0
176
     1
 62
     5
 63
     7
421
 16777215
176
     1
 74
     0
176
     1
 91
        4
176
     1
 64
     7
176
     1
 65
   257
176
     1
 75
     1
176
     1
175
     1
176
     1
 42
1.0
176
     1
 92
        8
176
     1
 66
     7
176
     1
 43
1.0
176
     1
 76
     1
176
     1
 77
     6
176
     1
 78
     2
176
     1
 67
     7
176
     1
 79
     5
176
     1
170
     0
176
     1
171
     0
176
     1
290
     0
176
     1
 93
        1
176
     1
 44
0.0
176
     1
173
     0
176
     1
  0
VISUALSTYLE
  5
36
102
{ACAD_REACTORS
330
2A
102
}
330
2A
100
AcDbVisualStyle
  2
Brighten
 70
    12
177
     2
291
     1
 71
     2
176
     1
 72
     2
176
     1
 73
     0
176
     1
 90
        0
176
     1
 40
-0.6
176
     1
 41
-30.0
176
     1
 62
     5
 63
     7
421
 16777215
176
     1
 74
     1
176
     1
 91
        4
176
     1
 64
     7
176
     1
 65
   257
176
     1
 75
     1
176
     1
175
     1
176
     1
 42
1.0
176
     1
 92
        8
176
     1
 66
     7
176
     1
 43
1.0
176
     1
 76
     1
176
     1
 77
     6
176
     1
 78
     2
176
     1
 67
     7
176
     1
 79
     5
176
     1
170
     0
176
     1
171
     0
176
     1
290
     0
176
     1
 93
        1
176
     1
 44
50.0
176
     1
173
     0
176
     1
  0
VISUALSTYLE
  5
3A
102
{ACAD_REACTORS
330
2A
102
}
330
2A
100
AcDbVisualStyle
  2
ColorChange
 70
    16
177
     2
291
     1
 71
     2
176
     1
 72
     2
176
     1
 73
     3
176
     1
 90
        0
176
     1
 40
-0.6
176
     1
 41
-30.0
176
     1
 62
     5
 63
     8
421
  8421504
176
     1
 74
     1
176
     1
 91
        4
176
     1
 64
     7
176
     1
 65
   257
176
     1
 75
     1
176
     1
175
     1
176
     1
 42
1.0
176
     1
 92
        8
176
     1
 66
     8
424
  8421504
176
     1
 43
1.0
176
     1
 76
     1
176
     1
 77
     6
176
     1
 78
     2
176
     1
 67
     7
176
     1
 79
     5
176
     1
170
     0
176
     1
171
     0
176
     1
290
     0
176
     1
 93
        1
176
     1
 44
0.0
176
     1
173
     0
176
     1
  0
VISUALSTYLE
  5
34
102
{ACAD_REACTORS
330
2A
102
}
330
2A
100
AcDbVisualStyle
  2
Conceptual
 70
     9
177
     2
291
     0
 71
     3
176
     1
 72
     2
176
     1
 73
     0
176
     1
 90
        0
176
     1
 40
-0.6
176
     1
 41
-30.0
176
     1
 62
     5
 63
     7
421
 16777215
176
     1
 74
     2
176
     1
 91
        2
176
     1
 64
     7
176
     1
 65
   257
176
     1
 75
     1
176
     1
175
     1
176
     1
 42
40.0
176
     1
 92
        8
176
     1
 66
     7
176
     1
 43
1.0
176
     1
 76
     1
176
     1
 77
     6
176
     1
 78
     2
176
     1
 67
     7
176
     1
 79
     3
176
     1
170
     0
176
     1
171
     0
176
     1
290
     0
176
     1
 93
        1
176
     1
 44
0.0
176
     1
173
     0
176
     1
  0
VISUALSTYLE
  5
35
102
{ACAD_REACTORS
330
2A
102
}
330
2A
100
AcDbVisualStyle
  2
Dim
 70
    11
177
     2
291
     1
 71
     2
176
     1
 72
     2
176
     1
 73
     0
176
     1
 90
        0
176
     1
 40
-0.6
176
     1
 41
-30.0
176
     1
 62
     5
 63
     7
421
 16777215
176
     1
 74
     1
176
     1
 91
        4
176
     1
 64
     7
176
     1
 65
   257
176
     1
 75
     1
176
     1
175
     1
176
     1
 42
1.0
176
     1
 92
        8
176
     1
 66
     7
176
     1
 43
1.0
176
     1
 76
     1
176
     1
 77
     6
176
     1
 78
     2
176
     1
 67
     7
176
     1
 79
     5
176
     1
170
     0
176
     1
171
     0
176
     1
290
     0
176
     1
 93
        1
176
     1
 44
-50.0
176
     1
173
     0
176
     1
  0
VISUALSTYLE
  5
39
102
{ACAD_REACTORS
330
2A
102
}
330
2A
100
AcDbVisualStyle
  2
Facepattern
 70
    15
177
     2
291
     1
 71
     2
176
     1
 72
     2
176
     1
 73
     0
176
     1
 90
        0
176
     1
 40
-0.6
176
     1
 41
-30.0
176
     1
 62
     5
 63
     7
421
 16777215
176
     1
 74
     1
176
     1
 91
        4
176
     1
 64
     7
176
     1
 65
   257
176
     1
 75
     1
176
     1
175
     1
176
     1
 42
1.0
176
     1
 92
        8
176
     1
 66
     7
176
     1
 43
1.0
176
     1
 76
     1
176
     1
 77
     6
176
     1
 78
     2
176
     1
 67
     7
176
     1
 79
     5
176
     1
170
     0
176
     1
171
     0
176
     1
290
     0
176
     1
 93
        1
176
     1
 44
0.0
176
     1
173
     0
176
     1
  0
VISUALSTYLE
  5
2B
102
{ACAD_REACTORS
330
2A
102
}
330
2A
100
AcDbVisualStyle
  2
Flat
 70
     0
177
     2
291
     1
 71
     2
176
     1
 72
     1
176
     1
 73
     1
176
     1
 90
        2
176
     1
 40
-0.6
176
     1
 41
30.0
176
     1
 62
     5
 63
     7
421
 16777215
176
     1
 74
     0
176
     1
 91
        4
176
     1
 64
     7
176
     1
 65
   257
176
     1
 75
     1
176
     1
175
     1
176
     1
 42
1.0
176
     1
 92
        8
176
     1
 66
     7
176
     1
 43
1.0
176
     1
 76
     1
176
     1
 77
     6
176
     1
 78
     2
176
     1
 67
     7
176
     1
 79
     5
176
     1
170
     0
176
     1
171
     0
176
     1
290
     0
176
     1
 93
       13
176
     1
 44
0.0
176
     1
173
     0
176
     1
  0
VISUALSTYLE
  5
2C
102
{ACAD_REACTORS
330
2A
102
}
330
2A
100
AcDbVisualStyle
  2
FlatWithEdges
 70
     1
177
     2
291
     1
 71
     2
176
     1
 72
     1
176
     1
 73
     1
176
     1
 90
        2
176
     1
 40
-0.6
176
     1
 41
30.0
176
     1
 62
     5
 63
     7
421
 16777215
176
     1
 74
     1
176
     1
 91
        4
176
     1
 64
     7
176
     1
 65
   257
176
     1
 75
     1
176
     1
175
     1
176
     1
 42
1.0
176
     1
 92
        0
176
     1
 66
   257
176
     1
 43
1.0
176
     1
 76
     1
176
     1
 77
     6
176
     1
 78
     2
176
     1
 67
     7
176
     1
 79
     5
176
     1
170
     0
176
     1
171
     0
176
     1
290
     0
176
     1
 93
       13
176
     1
 44
0.0
176
     1
173
     0
176
     1
  0
VISUALSTYLE
  5
2D
102
{ACAD_REACTORS
330
2A
102
}
330
2A
100
AcDbVisualStyle
  2
Gouraud
 70
     2
177
     2
291
     1
 71
     2
176
     1
 72
     2
176
     1
 73
     1
176
     1
 90
        2
176
     1
 40
-0.6
176
     1
 41
30.0
176
     1
 62
     5
 63
     7
421
 16777215
176
     1
 74
     0
176
     1
 91
        4
176
     1
 64
     7
176
     1
 65
   257
176
     1
 75
     1
176
     1
175
     1
176
     1
 42
1.0
176
     1
 92
        0
176
     1
 66
     7
176
     1
 43
1.0
176
     1
 76
     1
176
     1
 77
     6
176
     1
 78
     2
176
     1
 67
     7
176
     1
 79
     5
176
     1
170
     0
176
     1
171
     0
176
     1
290
     0
176
     1
 93
       13
176
     1
 44
0.0
176
     1
173
     0
176
     1
  0
VISUALSTYLE
  5
2E
102
{ACAD_REACTORS
330
2A
102
}
330
2A
100
AcDbVisualStyle
  2
GouraudWithEdges
 70
     3
177
     2
291
     1
 71
     2
176
     1
 72
     2
176
     1
 73
     1
176
     1
 90
        2
176
     1
 40
-0.6
176
     1
 41
30.0
176
     1
 62
     5
 63
     7
421
 16777215
176
     1
 74
     1
176
     1
 91
        4
176
     1
 64
     7
176
     1
 65
   257
176
     1
 75
     1
176
     1
175
     1
176
     1
 42
1.0
176
     1
 92
        0
176
     1
 66
   257
176
     1
 43
1.0
176
     1
 76
     1
176
     1
 77
     6
176
     1
 78
     2
176
     1
 67
     7
176
     1
 79
     5
176
     1
170
     0
176
     1
171
     0
176
     1
290
     0
176
     1
 93
       13
176
     1
 44
0.0
176
     1
173
     0
176
     1
  0
VISUALSTYLE
  5
38
102
{ACAD_REACTORS
330
2A
102
}
330
2A
100
AcDbVisualStyle
  2
Linepattern
 70
    14
177
     2
291
     1
 71
     2
176
     1
 72
     2
176
     1
 73
     0
176
     1
 90
        0
176
     1
 40
-0.6
176
     1
 41
-30.0
176
     1
 62
     5
 63
     7
421
 16777215
176
     1
 74
     1
176
     1
 91
        4
176
     1
 64
     7
176
     1
 65
   257
176
     1
 75
     7
176
     1
175
     7
176
     1
 42
1.0
176
     1
 92
        8
176
     1
 66
     7
176
     1
 43
1.0
176
     1
 76
     1
176
     1
 77
     6
176
     1
 78
     2
176
     1
 67
     7
176
     1
 79
     5
176
     1
170
     0
176
     1
171
     0
176
     1
290
     0
176
     1
 93
        1
176
     1
 44
0.0
176
     1
173
     0
176
     1
  0
VISUALSTYLE
  5
33
102
{ACAD_REACTORS
330
2A
102
}
330
2A
100
AcDbVisualStyle
  2
Realistic
 70
     8
177
     2
291
     0
 71
     2
176
     1
 72
     2
176
     1
 73
     0
176
     1
 90
        0
176
     1
 40
-0.6
176
     1
 41
-30.0
176
     1
 62
     5
 63
     7
421
 16777215
176
     1
 74
     1
176
     1
 91
        0
176
     1
 64
     7
176
     1
 65
   257
176
     1
 75
     1
176
     1
175
     1
176
     1
 42
1.0
176
     1
 92
        8
176
     1
 66
     8
424
  7895160
176
     1
 43
1.0
176
     1
 76
     1
176
     1
 77
     6
176
     1
 78
     2
176
     1
 67
     7
176
     1
 79
     5
176
     1
170
     0
176
     1
171
     0
176
     1
290
     0
176
     1
 93
       13
176
     1
 44
0.0
176
     1
173
     0
176
     1
  0
VISUALSTYLE
  5
37
102
{ACAD_REACTORS
330
2A
102
}
330
2A
100
AcDbVisualStyle
  2
Thicken
 70
    13
177
     2
291
     1
 71
     2
176
     1
 72
     2
176
     1
 73
     0
176
     1
 90
        0
176
     1
 40
-0.6
176
     1
 41
-30.0
176
     1
 62
     5
 63
     7
421
 16777215
176
     1
 74
     1
176
     1
 91
        4
176
     1
 64
     7
176
     1
 65
   257
176
     1
 75
     1
176
     1
175
     1
176
     1
 42
1.0
176
     1
 92
       12
176
     1
 66
     7
176
     1
 43
1.0
176
     1
 76
     1
176
     1
 77
     6
176
     1
 78
     2
176
     1
 67
     7
176
     1
 79
     5
176
     1
170
     0
176
     1
171
     0
176
     1
290
     0
176
     1
 93
        1
176
     1
 44
0.0
176
     1
173
     0
176
     1
  0
ENDSEC
  0
EOF
