  0
SECTION
  2
HEADER
  9
$ACADVER
  1
AC1024
  9
$ACADMAINTVER
 70
     6
  9
$DWGCODEPAGE
  3
UNDEFINED
  9
$INSBASE
 10
0.0
 20
0.0
 30
0.0
  9
$EXTMIN
 10
1.000000000000000E+20
 20
1.000000000000000E+20
 30
1.000000000000000E+20
  9
$EXTMAX
 10
-1.000000000000000E+20
 20
-1.000000000000000E+20
 30
-1.000000000000000E+20
  9
$LIMMIN
 10
0.0
 20
0.0
  9
$LIMMAX
 10
12.0
 20
9.0
  9
$ORTHOMODE
 70
     0
  9
$REGENMODE
 70
     1
  9
$FILLMODE
 70
     1
  9
$QTEXTMODE
 70
     0
  9
$MIRRTEXT
 70
     1
  9
$LTSCALE
 40
1.0
  9
$ATTMODE
 70
     1
  9
$TEXTSIZE
 40
0.2
  9
$TRACEWID
 40
0.05
  9
$TEXTSTYLE
  7
Standard
  9
$CLAYER
  8
0
  9
$CELTYPE
  6
ByLayer
  9
$CECOLOR
 62
   256
  9
$CELTSCALE
 40
1.0
  9
$DISPSILH
 70
     0
  9
$DIMSCALE
 40
1.0
  9
$DIMASZ
 40
0.18
  9
$DIMEXO
 40
0.0625
  9
$DIMDLI
 40
0.38
  9
$DIMRND
 40
0.0
  9
$DIMDLE
 40
0.0
  9
$DIMEXE
 40
0.18
  9
$DIMTP
 40
0.0
  9
$DIMTM
 40
0.0
  9
$DIMTXT
 40
0.18
  9
$DIMCEN
 40
0.09
  9
$DIMTSZ
 40
0.0
  9
$DIMTOL
 70
     0
  9
$DIMLIM
 70
     0
  9
$DIMTIH
 70
     1
  9
$DIMTOH
 70
     1
  9
$DIMSE1
 70
     0
  9
$DIMSE2
 70
     0
  9
$DIMTAD
 70
     0
  9
$DIMZIN
 70
     0
  9
$DIMBLK
  1

  9
$DIMASO
 70
     1
  9
$DIMSHO
 70
     1
  9
$DIMPOST
  1

  9
$DIMAPOST
  1

  9
$DIMALT
 70
     0
  9
$DIMALTD
 70
     2
  9
$DIMALTF
 40
25.4
  9
$DIMLFAC
 40
1.0
  9
$DIMTOFL
 70
     0
  9
$DIMTVP
 40
0.0
  9
$DIMTIX
 70
     0
  9
$DIMSOXD
 70
     0
  9
$DIMSAH
 70
     0
  9
$DIMBLK1
  1

  9
$DIMBLK2
  1

  9
$DIMSTYLE
  2
Standard
  9
$DIMCLRD
 70
     0
  9
$DIMCLRE
 70
     0
  9
$DIMCLRT
 70
     0
  9
$DIMTFAC
 40
1.0
  9
$DIMGAP
 40
0.09
  9
$DIMJUST
 70
     0
  9
$DIMSD1
 70
     0
  9
$DIMSD2
 70
     0
  9
$DIMTOLJ
 70
     1
  9
$DIMTZIN
 70
     0
  9
$DIMALTZ
 70
     0
  9
$DIMALTTZ
 70
     0
  9
$DIMUPT
 70
     0
  9
$DIMDEC
 70
     4
  9
$DIMTDEC
 70
     4
  9
$DIMALTU
 70
     2
  9
$DIMALTTD
 70
     2
  9
$DIMTXSTY
  7
Standard
  9
$DIMAUNIT
 70
     0
  9
$DIMADEC
 70
     0
  9
$DIMALTRND
 40
0.0
  9
$DIMAZIN
 70
     0
  9
$DIMDSEP
 70
    46
  9
$DIMATFIT
 70
     3
  9
$DIMFRAC
 70
     0
  9
$DIMLDRBLK
  1

  9
$DIMLUNIT
 70
     2
  9
$DIMLWD
 70
    -2
  9
$DIMLWE
 70
    -2
  9
$DIMTMOVE
 70
     0
  9
$DIMFXL
 40
1.0
  9
$DIMFXLON
 70
     0
  9
$DIMJOGANG
 40
0.7853981633974483
  9
$DIMTFILL
 70
     0
  9
$DIMTFILLCLR
 70
     0
  9
$DIMARCSYM
 70
     0
  9
$DIMLTYPE
  6

  9
$DIMLTEX1
  6

  9
$DIMLTEX2
  6

  9
$DIMTXTDIRECTION
 70
     0
  9
$LUNITS
 70
     2
  9
$LUPREC
 70
     4
  9
$SKETCHINC
 40
0.1
  9
$FILLETRAD
 40
0.5
  9
$AUNITS
 70
     0
  9
$AUPREC
 70
     0
  9
$MENU
  1
.
  9
$ELEVATION
 40
0.0
  9
$PELEVATION
 40
0.0
  9
$THICKNESS
 40
0.0
  9
$LIMCHECK
 70
     0
  9
$CHAMFERA
 40
0.5
  9
$CHAMFERB
 40
0.5
  9
$CHAMFERC
 40
1.0
  9
$CHAMFERD
 40
0.0
  9
$SKPOLY
 70
     0
  9
$TDCREATE
 40
2457917.618703704
  9
$TDUCREATE
 40
2457917.243703704
  9
$TDUPDATE
 40
2457917.618715278
  9
$TDUUPDATE
 40
2457917.243715278
  9
$TDINDWG
 40
0.0000000116
  9
$TDUSRTIMER
 40
0.0000000116
  9
$USRTIMER
 70
     1
  9
$ANGBASE
 50
0.0
  9
$ANGDIR
 70
     0
  9
$PDMODE
 70
     0
  9
$PDSIZE
 40
0.0
  9
$PLINEWID
 40
0.0
  9
$SPLFRAME
 70
     0
  9
$SPLINETYPE
 70
     6
  9
$SPLINESEGS
 70
     8
  9
$HANDSEED
  5
E5
  9
$SURFTAB1
 70
     6
  9
$SURFTAB2
 70
     6
  9
$SURFTYPE
 70
     6
  9
$SURFU
 70
     6
  9
$SURFV
 70
     6
  9
$UCSBASE
  2

  9
$UCSNAME
  2

  9
$UCSORG
 10
0.0
 20
0.0
 30
0.0
  9
$UCSXDIR
 10
1.0
 20
0.0
 30
0.0
  9
$UCSYDIR
 10
0.0
 20
1.0
 30
0.0
  9
$UCSORTHOREF
  2

  9
$UCSORTHOVIEW
 70
     0
  9
$UCSORGTOP
 10
0.0
 20
0.0
 30
0.0
  9
$UCSORGBOTTOM
 10
0.0
 20
0.0
 30
0.0
  9
$UCSORGLEFT
 10
0.0
 20
0.0
 30
0.0
  9
$UCSORGRIGHT
 10
0.0
 20
0.0
 30
0.0
  9
$UCSORGFRONT
 10
0.0
 20
0.0
 30
0.0
  9
$UCSORGBACK
 10
0.0
 20
0.0
 30
0.0
  9
$PUCSBASE
  2

  9
$PUCSNAME
  2

  9
$PUCSORG
 10
0.0
 20
0.0
 30
0.0
  9
$PUCSXDIR
 10
1.0
 20
0.0
 30
0.0
  9
$PUCSYDIR
 10
0.0
 20
1.0
 30
0.0
  9
$PUCSORTHOREF
  2

  9
$PUCSORTHOVIEW
 70
     0
  9
$PUCSORGTOP
 10
0.0
 20
0.0
 30
0.0
  9
$PUCSORGBOTTOM
 10
0.0
 20
0.0
 30
0.0
  9
$PUCSORGLEFT
 10
0.0
 20
0.0
 30
0.0
  9
$PUCSORGRIGHT
 10
0.0
 20
0.0
 30
0.0
  9
$PUCSORGFRONT
 10
0.0
 20
0.0
 30
0.0
  9
$PUCSORGBACK
 10
0.0
 20
0.0
 30
0.0
  9
$USERI1
 70
     0
  9
$USERI2
 70
     0
  9
$USERI3
 70
     0
  9
$USERI4
 70
     0
  9
$USERI5
 70
     0
  9
$USERR1
 40
0.0
  9
$USERR2
 40
0.0
  9
$USERR3
 40
0.0
  9
$USERR4
 40
0.0
  9
$USERR5
 40
0.0
  9
$WORLDVIEW
 70
     1
  9
$SHADEDGE
 70
     3
  9
$SHADEDIF
 70
    70
  9
$TILEMODE
 70
     1
  9
$MAXACTVP
 70
    64
  9
$PINSBASE
 10
0.0
 20
0.0
 30
0.0
  9
$PLIMCHECK
 70
     0
  9
$PEXTMIN
 10
1.000000000000000E+20
 20
1.000000000000000E+20
 30
1.000000000000000E+20
  9
$PEXTMAX
 10
-1.000000000000000E+20
 20
-1.000000000000000E+20
 30
-1.000000000000000E+20
  9
$PLIMMIN
 10
0.0
 20
0.0
  9
$PLIMMAX
 10
12.0
 20
9.0
  9
$UNITMODE
 70
     0
  9
$VISRETAIN
 70
     1
  9
$PLINEGEN
 70
     0
  9
$PSLTSCALE
 70
     1
  9
$TREEDEPTH
 70
  3020
  9
$CMLSTYLE
  2
Standard
  9
$CMLJUST
 70
     0
  9
$CMLSCALE
 40
1.0
  9
$PROXYGRAPHICS
 70
     1
  9
$MEASUREMENT
 70
     0
  9
$CELWEIGHT
370
    -1
  9
$ENDCAPS
280
     0
  9
$JOINSTYLE
280
     0
  9
$LWDISPLAY
290
     1
  9
$INSUNITS
 70
     1
  9
$HYPERLINKBASE
  1

  9
$STYLESHEET
  1

  9
$XEDIT
290
     1
  9
$CEPSNTYPE
380
     0
  9
$PSTYLEMODE
290
     1
  9
$FINGERPRINTGUID
  2
{0A32C7EA-9A3B-2717-A968-F3EDE769A39D}
  9
$VERSIONGUID
  2
{FAEB1C32-E019-11D5-929B-00C0DF256EC4}
  9
$EXTNAMES
290
     1
  9
$PSVPSCALE
 40
0.0
  9
$OLESTARTUP
290
     0
  9
$SORTENTS
280
   127
  9
$INDEXCTL
280
     0
  9
$HIDETEXT
280
     1
  9
$XCLIPFRAME
280
     2
  9
$HALOGAP
280
     0
  9
$OBSCOLOR
 70
   257
  9
$OBSLTYPE
280
     0
  9
$INTERSECTIONDISPLAY
280
     0
  9
$INTERSECTIONCOLOR
 70
   257
  9
$DIMASSOC
280
     2
  9
$PROJECTNAME
  1

  9
$CAMERADISPLAY
290
     0
  9
$LENSLENGTH
 40
50.0
  9
$CAMERAHEIGHT
 40
0.0
  9
$STEPSPERSEC
 40
2.0
  9
$STEPSIZE
 40
6.0
  9
$3DDWFPREC
 40
2.0
  9
$PSOLWIDTH
 40
0.25
  9
$PSOLHEIGHT
 40
4.0
  9
$LOFTANG1
 40
1.570796326794897
  9
$LOFTANG2
 40
1.570796326794897
  9
$LOFTMAG1
 40
0.0
  9
$LOFTMAG2
 40
0.0
  9
$LOFTPARAM
 70
     7
  9
$LOFTNORMALS
280
     1
  9
$LATITUDE
 40
37.795
  9
$LONGITUDE
 40
-122.394
  9
$NORTHDIRECTION
 40
0.0
  9
$TIMEZONE
 70
 -8000
  9
$LIGHTGLYPHDISPLAY
280
     1
  9
$TILEMODELIGHTSYNCH
280
     1
  9
$CMATERIAL
347
3C
  9
$SOLIDHIST
280
     1
  9
$SHOWHIST
280
     1
  9
$DWFFRAME
280
     2
  9
$DGNFRAME
280
     2
  9
$REALWORLDSCALE
290
     1
  9
$INTERFERECOLOR
 62
   256
  9
$CSHADOW
280
     0
  9
$SHADOWPLANELOCATION
 40
0.0
  0
ENDSEC
  0
SECTION
  2
CLASSES
  0
CLASS
  1
ACDBDICTIONARYWDFLT
  2
AcDbDictionaryWithDefault
  3
ObjectDBX Classes
 90
        0
 91
        4
280
     0
281
     0
  0
CLASS
  1
VISUALSTYLE
  2
AcDbVisualStyle
  3
ObjectDBX Classes
 90
     4095
 91
        4
280
     0
281
     0
  0
CLASS
  1
MATERIAL
  2
AcDbMaterial
  3
ObjectDBX Classes
 90
     1153
 91
        4
280
     0
281
     0
  0
CLASS
  1
SUN
  2
AcDbSun
  3
SCENEOE
 90
     1024
 91
        4
280
     0
281
     0
  0
ENDSEC
  0
SECTION
  2
TABLES
  0
TABLE
  2
VPORT
  5
8
330
0
100
AcDbSymbolTable
 70
     1
  0
VPORT
  5
29
330
8
100
AcDbSymbolTableRecord
100
AcDbViewportTableRecord
  2
*Active
 70
     0
 10
0.0
 20
0.0
 11
1.0
 21
1.0
 12
0.0
 22
0.0
 13
0.0
 23
0.0
 14
0.5
 24
0.5
 15
0.5
 25
0.5
 16
0.0
 26
0.0
 36
1.0
 17
91.00082462281999
 27
-128.4993055234307
 37
0.0
 40
256.9986110468615
 41
0.7081814508812795
 42
50.0
 43
0.0
 44
0.0
 50
0.0
 51
0.0
 71
     0
 72
   100
 73
     1
 74
     3
 75
     0
 76
     0
 77
     0
 78
     0
281
     0
 65
     1
110
0.0
120
0.0
130
0.0
111
1.0
121
0.0
131
0.0
112
0.0
122
1.0
132
0.0
 79
     0
146
0.0
 60
     3
 61
     5
292
     1
282
     1
141
0.0
142
0.0
 63
   250
361
3F
  0
ENDTAB
  0
TABLE
  2
LTYPE
  5
5
330
0
100
AcDbSymbolTable
 70
     1
  0
LTYPE
  5
14
330
5
100
AcDbSymbolTableRecord
100
AcDbLinetypeTableRecord
  2
ByBlock
 70
     0
  3

 72
    65
 73
     0
 40
0.0
  0
LTYPE
  5
15
330
5
100
AcDbSymbolTableRecord
100
AcDbLinetypeTableRecord
  2
ByLayer
 70
     0
  3

 72
    65
 73
     0
 40
0.0
  0
LTYPE
  5
16
330
5
100
AcDbSymbolTableRecord
100
AcDbLinetypeTableRecord
  2
Continuous
 70
     0
  3
Solid line
 72
    65
 73
     0
 40
0.0
  0
ENDTAB
  0
TABLE
  2
LAYER
  5
2
330
0
100
AcDbSymbolTable
 70
     2
  0
LAYER
  5
10
330
2
100
AcDbSymbolTableRecord
100
AcDbLayerTableRecord
  2
0
 70
     0
 62
     7
  6
Continuous
370
    -3
390
F
347
3E
  0
LAYER
  5
40
330
2
100
AcDbSymbolTableRecord
100
AcDbLayerTableRecord
  2
_U+30EC_U+30A4_U+30E4_U+30FC 1
 70
     0
 62
     7
  6
Continuous
370
    -3
390
F
347
3E
  0
ENDTAB
  0
TABLE
  2
STYLE
  5
3
330
0
100
AcDbSymbolTable
 70
     1
  0
STYLE
  5
11
330
3
100
AcDbSymbolTableRecord
100
AcDbTextStyleTableRecord
  2
Standard
 70
     0
 40
0.0
 41
1.0
 50
0.0
 71
     0
 42
0.2
  3
txt
  4

  0
ENDTAB
  0
TABLE
  2
VIEW
  5
6
330
0
100
AcDbSymbolTable
 70
     0
  0
ENDTAB
  0
TABLE
  2
UCS
  5
7
330
0
100
AcDbSymbolTable
 70
     0
  0
ENDTAB
  0
TABLE
  2
APPID
  5
9
330
0
100
AcDbSymbolTable
 70
     1
  0
APPID
  5
12
330
9
100
AcDbSymbolTableRecord
100
AcDbRegAppTableRecord
  2
ACAD
 70
     0
  0
ENDTAB
  0
TABLE
  2
DIMSTYLE
  5
A
330
0
100
AcDbSymbolTable
 70
     1
100
AcDbDimStyleTable
  0
DIMSTYLE
105
27
330
A
100
AcDbSymbolTableRecord
100
AcDbDimStyleTableRecord
  2
Standard
 70
     0
178
     0
340
11
  0
ENDTAB
  0
TABLE
  2
BLOCK_RECORD
  5
1
330
0
100
AcDbSymbolTable
 70
     6
  0
BLOCK_RECORD
  5
1F
330
1
100
AcDbSymbolTableRecord
100
AcDbBlockTableRecord
  2
*Model_Space
340
22
 70
     0
280
     1
281
     0
  0
BLOCK_RECORD
  5
1B
330
1
100
AcDbSymbolTableRecord
100
AcDbBlockTableRecord
  2
*Paper_Space
340
1E
 70
     0
280
     1
281
     0
  0
BLOCK_RECORD
  5
23
330
1
100
AcDbSymbolTableRecord
100
AcDbBlockTableRecord
  2
*Paper_Space0
340
26
 70
     0
280
     1
281
     0
  0
BLOCK_RECORD
  5
85
330
1
100
AcDbSymbolTableRecord
100
AcDbBlockTableRecord
  2
block 2
340
0
102
{BLKREFS
331
86
102
}
 70
     0
280
     1
281
     0
  0
BLOCK_RECORD
  5
99
330
1
100
AcDbSymbolTableRecord
100
AcDbBlockTableRecord
  2
block 3
340
0
102
{BLKREFS
331
9A
102
}
 70
     0
280
     1
281
     0
  0
BLOCK_RECORD
  5
AD
330
1
100
AcDbSymbolTableRecord
100
AcDbBlockTableRecord
  2
block 4
340
0
102
{BLKREFS
331
AE
102
}
 70
     0
280
     1
281
     0
  0
BLOCK_RECORD
  5
CA
330
1
100
AcDbSymbolTableRecord
100
AcDbBlockTableRecord
  2
block 5
340
0
102
{BLKREFS
331
CB
102
}
 70
     0
280
     1
281
     0
  0
BLOCK_RECORD
  5
DD
330
1
100
AcDbSymbolTableRecord
100
AcDbBlockTableRecord
  2
block 6
340
0
102
{BLKREFS
331
DE
102
}
 70
     0
280
     1
281
     0
  0
ENDTAB
  0
ENDSEC
  0
SECTION
  2
BLOCKS
  0
BLOCK
  5
20
330
1F
100
AcDbEntity
  8
0
100
AcDbBlockBegin
  2
*Model_Space
 70
     0
 10
0.0
 20
0.0
 30
0.0
  3
*Model_Space
  1

  0
ENDBLK
  5
21
330
1F
100
AcDbEntity
  8
0
100
AcDbBlockEnd
  0
BLOCK
  5
1C
330
1B
100
AcDbEntity
 67
     1
  8
0
100
AcDbBlockBegin
  2
*Paper_Space
 70
     0
 10
0.0
 20
0.0
 30
0.0
  3
*Paper_Space
  1

  0
ENDBLK
  5
1D
330
1B
100
AcDbEntity
 67
     1
  8
0
100
AcDbBlockEnd
  0
BLOCK
  5
24
330
23
100
AcDbEntity
  8
0
100
AcDbBlockBegin
  2
*Paper_Space0
 70
     0
 10
0.0
 20
0.0
 30
0.0
  3
*Paper_Space0
  1

  0
ENDBLK
  5
25
330
23
100
AcDbEntity
  8
0
100
AcDbBlockEnd
  0
BLOCK
  5
87
330
85
100
AcDbEntity
  8
0
100
AcDbBlockBegin
  2
block 2
 70
     0
 10
0.0
 20
0.0
 30
0.0
  3
block 2
  1

  0
SPLINE
  5
89
330
85
100
AcDbEntity
  8
_U+30EC_U+30A4_U+30E4_U+30FC 1
370
     0
100
AcDbSpline
210
0.0
220
0.0
230
1.0
 70
    11
 71
     3
 72
    26
 73
    22
 74
     0
 42
0.0000000001
 43
0.0000000001
 12
1.0
 22
0.0
 32
0.0
 13
1.0
 23
0.0
 33
0.0
 40
0.0
 40
0.0
 40
0.0
 40
0.0
 40
1.0
 40
1.0
 40
1.0
 40
2.0
 40
2.0
 40
2.0
 40
3.0
 40
3.0
 40
3.0
 40
4.0
 40
4.0
 40
4.0
 40
5.0
 40
5.0
 40
5.0
 40
6.0
 40
6.0
 40
6.0
 40
7.0
 40
7.0
 40
7.0
 40
7.0
 10
103.3363280991659
 20
-129.895258214054
 30
0.0
 10
103.3363280991659
 20
-129.895258214054
 30
0.0
 10
102.2321749961434
 20
-129.895258214054
 30
0.0
 10
102.2321749961434
 20
-129.895258214054
 30
0.0
 10
102.2321749961434
 20
-129.895258214054
 30
0.0
 10
102.2321749961434
 20
-130.247691482195
 30
0.0
 10
102.2321749961434
 20
-130.247691482195
 30
0.0
 10
102.2321749961434
 20
-130.247691482195
 30
0.0
 10
102.0840358902776
 20
-130.247691482195
 30
0.0
 10
102.0840358902776
 20
-130.247691482195
 30
0.0
 10
102.069221979691
 20
-129.8928466472143
 30
0.0
 10
101.9062689632387
 20
-129.8432372722267
 30
0.0
 10
101.7918917931284
 20
-129.8115423937624
 30
0.0
 10
101.7918917931284
 20
-129.8115423937624
 30
0.0
 10
101.7918917931284
 20
-129.6554795682806
 30
0.0
 10
101.7918917931284
 20
-129.6554795682806
 30
0.0
 10
101.7918917931284
 20
-129.6554795682806
 30
0.0
 10
103.3363280991659
 20
-129.6554795682806
 30
0.0
 10
103.3363280991659
 20
-129.6554795682806
 30
0.0
 10
103.3363280991659
 20
-129.6554795682806
 30
0.0
 10
103.3363280991659
 20
-129.895258214054
 30
0.0
 10
103.3363280991659
 20
-129.895258214054
 30
0.0
  0
HATCH
  5
8A
330
85
100
AcDbEntity
  8
_U+30EC_U+30A4_U+30E4_U+30FC 1
 62
   179
420
  2234388
100
AcDbHatch
 10
0.0
 20
0.0
 30
0.0
210
0.0
220
0.0
230
1.0
  2
SOLID
 70
     1
 71
     0
 91
        1
 92
        1
 93
        1
 72
     4
 94
        3
 73
     0
 74
     1
 95
       26
 96
       22
 40
0.0
 40
0.0
 40
0.0
 40
0.0
 40
1.0
 40
1.0
 40
1.0
 40
2.0
 40
2.0
 40
2.0
 40
3.0
 40
3.0
 40
3.0
 40
4.0
 40
4.0
 40
4.0
 40
5.0
 40
5.0
 40
5.0
 40
6.0
 40
6.0
 40
6.0
 40
7.0
 40
7.0
 40
7.0
 40
7.0
 10
103.3363280991659
 20
-129.895258214054
 10
103.3363280991659
 20
-129.895258214054
 10
102.2321749961434
 20
-129.895258214054
 10
102.2321749961434
 20
-129.895258214054
 10
102.2321749961434
 20
-129.895258214054
 10
102.2321749961434
 20
-130.247691482195
 10
102.2321749961434
 20
-130.247691482195
 10
102.2321749961434
 20
-130.247691482195
 10
102.0840358902776
 20
-130.247691482195
 10
102.0840358902776
 20
-130.247691482195
 10
102.069221979691
 20
-129.8928466472143
 10
101.9062689632387
 20
-129.8432372722267
 10
101.7918917931284
 20
-129.8115423937624
 10
101.7918917931284
 20
-129.8115423937624
 10
101.7918917931284
 20
-129.6554795682806
 10
101.7918917931284
 20
-129.6554795682806
 10
101.7918917931284
 20
-129.6554795682806
 10
103.3363280991659
 20
-129.6554795682806
 10
103.3363280991659
 20
-129.6554795682806
 10
103.3363280991659
 20
-129.6554795682806
 10
103.3363280991659
 20
-129.895258214054
 10
103.3363280991659
 20
-129.895258214054
 97
        0
 97
        0
 75
     2
 76
     1
 98
        0
  0
SPLINE
  5
8B
330
85
100
AcDbEntity
  8
_U+30EC_U+30A4_U+30E4_U+30FC 1
370
     0
100
AcDbSpline
210
0.0
220
0.0
230
1.0
 70
    11
 71
     3
 72
    62
 73
    58
 74
     0
 42
0.0000000001
 43
0.0000000001
 12
1.0
 22
0.0
 32
0.0
 13
1.0
 23
0.0
 33
0.0
 40
0.0
 40
0.0
 40
0.0
 40
0.0
 40
1.0
 40
1.0
 40
1.0
 40
2.0
 40
2.0
 40
2.0
 40
3.0
 40
3.0
 40
3.0
 40
4.0
 40
4.0
 40
4.0
 40
5.0
 40
5.0
 40
5.0
 40
6.0
 40
6.0
 40
6.0
 40
7.0
 40
7.0
 40
7.0
 40
8.0
 40
8.0
 40
8.0
 40
9.0
 40
9.0
 40
9.0
 40
10.0
 40
10.0
 40
10.0
 40
11.0
 40
11.0
 40
11.0
 40
12.0
 40
12.0
 40
12.0
 40
13.0
 40
13.0
 40
13.0
 40
14.0
 40
14.0
 40
14.0
 40
15.0
 40
15.0
 40
15.0
 40
16.0
 40
16.0
 40
16.0
 40
17.0
 40
17.0
 40
17.0
 40
18.0
 40
18.0
 40
18.0
 40
19.0
 40
19.0
 40
19.0
 40
19.0
 10
103.3869710027991
 20
-128.5943901588236
 30
0.0
 10
103.3869710027991
 20
-128.6960204756385
 30
0.0
 10
103.3659559203391
 20
-128.9289089304414
 30
0.0
 10
103.1799207641356
 20
-129.0622341257206
 30
0.0
 10
103.0676106513164
 20
-129.1414713218813
 30
0.0
 10
102.9683919013412
 20
-129.1459499460121
 30
0.0
 10
102.8836425524041
 20
-129.150428570143
 30
0.0
 10
102.8836425524041
 20
-129.150428570143
 30
0.0
 10
102.8836425524041
 20
-128.9154730580489
 30
0.0
 10
102.8836425524041
 20
-128.9154730580489
 30
0.0
 10
102.957712105337
 20
-128.9130614912092
 30
0.0
 10
103.1923231078825
 20
-128.9016926761079
 30
0.0
 10
103.1923231078825
 20
-128.5988687829545
 30
0.0
 10
103.1923231078825
 20
-128.4517632057343
 30
0.0
 10
103.1227321790804
 20
-128.2891546988305
 30
0.0
 10
102.8943223484084
 20
-128.2891546988305
 30
0.0
 10
102.7778781210069
 20
-128.2891546988305
 30
0.0
 10
102.7293022746649
 20
-128.3298068255564
 30
0.0
 10
102.6976073962006
 20
-128.3639132708604
 30
0.0
 10
102.6235378432677
 20
-128.4428059574726
 30
0.0
 10
102.6107909899723
 20
-128.5671739044901
 30
0.0
 10
102.6107909899723
 20
-128.6260850372879
 30
0.0
 10
102.6107909899723
 20
-128.6464111006509
 30
0.0
 10
102.6128580472635
 20
-128.6846516605372
 30
0.0
 10
102.6169921618458
 20
-128.7142794817103
 30
0.0
 10
102.6169921618458
 20
-128.7142794817103
 30
0.0
 10
102.4223442669291
 20
-128.7142794817103
 30
0.0
 10
102.4223442669291
 20
-128.7142794817103
 30
0.0
 10
102.4288899483511
 20
-128.6736273549844
 30
0.0
 10
102.4309570056423
 20
-128.6281520945791
 30
0.0
 10
102.4309570056423
 20
-128.6216064131571
 30
0.0
 10
102.4309570056423
 20
-128.551326465258
 30
0.0
 10
102.4095974136337
 20
-128.3387640738181
 30
0.0
 10
102.1729193537971
 20
-128.3387640738181
 30
0.0
 10
101.9951524267582
 20
-128.3387640738181
 30
0.0
 10
101.9400308989942
 20
-128.4789794600678
 30
0.0
 10
101.9400308989942
 20
-128.5964572161148
 30
0.0
 10
101.9400308989942
 20
-128.8792995554538
 30
0.0
 10
102.1729193537971
 20
-128.8882568037154
 30
0.0
 10
102.2445773398903
 20
-128.8927354278463
 30
0.0
 10
102.2445773398903
 20
-128.8927354278463
 30
0.0
 10
102.2445773398903
 20
-129.109776443417
 30
0.0
 10
102.2445773398903
 20
-129.109776443417
 30
0.0
 10
102.1198648833242
 20
-129.1008191951554
 30
0.0
 10
101.7433159467864
 20
-129.0715358835307
 30
0.0
 10
101.7433159467864
 20
-128.5830213437223
 30
0.0
 10
101.7433159467864
 20
-128.3432426979489
 30
0.0
 10
101.8704399701921
 20
-128.0855495556522
 30
0.0
 10
102.1663736723751
 20
-128.0855495556522
 30
0.0
 10
102.3527533381271
 20
-128.0855495556522
 30
0.0
 10
102.4350911202246
 20
-128.1875243820156
 30
0.0
 10
102.496413819862
 20
-128.2936333229613
 30
0.0
 10
102.523974583744
 20
-128.2281765087416
 30
0.0
 10
102.6042453085503
 20
-128.033528613825
 30
0.0
 10
102.8815754951129
 20
-128.033528613825
 30
0.0
 10
103.2198838717645
 20
-128.033528613825
 30
0.0
 10
103.3869710027991
 20
-128.2981119470921
 30
0.0
 10
103.3869710027991
 20
-128.5943901588236
 30
0.0
  0
HATCH
  5
8C
330
85
100
AcDbEntity
  8
_U+30EC_U+30A4_U+30E4_U+30FC 1
 62
   179
420
  2234388
100
AcDbHatch
 10
0.0
 20
0.0
 30
0.0
210
0.0
220
0.0
230
1.0
  2
SOLID
 70
     1
 71
     0
 91
        1
 92
        1
 93
        1
 72
     4
 94
        3
 73
     0
 74
     1
 95
       62
 96
       58
 40
0.0
 40
0.0
 40
0.0
 40
0.0
 40
1.0
 40
1.0
 40
1.0
 40
2.0
 40
2.0
 40
2.0
 40
3.0
 40
3.0
 40
3.0
 40
4.0
 40
4.0
 40
4.0
 40
5.0
 40
5.0
 40
5.0
 40
6.0
 40
6.0
 40
6.0
 40
7.0
 40
7.0
 40
7.0
 40
8.0
 40
8.0
 40
8.0
 40
9.0
 40
9.0
 40
9.0
 40
10.0
 40
10.0
 40
10.0
 40
11.0
 40
11.0
 40
11.0
 40
12.0
 40
12.0
 40
12.0
 40
13.0
 40
13.0
 40
13.0
 40
14.0
 40
14.0
 40
14.0
 40
15.0
 40
15.0
 40
15.0
 40
16.0
 40
16.0
 40
16.0
 40
17.0
 40
17.0
 40
17.0
 40
18.0
 40
18.0
 40
18.0
 40
19.0
 40
19.0
 40
19.0
 40
19.0
 10
103.3869710027991
 20
-128.5943901588236
 10
103.3869710027991
 20
-128.6960204756385
 10
103.3659559203391
 20
-128.9289089304414
 10
103.1799207641356
 20
-129.0622341257206
 10
103.0676106513164
 20
-129.1414713218813
 10
102.9683919013412
 20
-129.1459499460121
 10
102.8836425524041
 20
-129.150428570143
 10
102.8836425524041
 20
-129.150428570143
 10
102.8836425524041
 20
-128.9154730580489
 10
102.8836425524041
 20
-128.9154730580489
 10
102.957712105337
 20
-128.9130614912092
 10
103.1923231078825
 20
-128.9016926761079
 10
103.1923231078825
 20
-128.5988687829545
 10
103.1923231078825
 20
-128.4517632057343
 10
103.1227321790804
 20
-128.2891546988305
 10
102.8943223484084
 20
-128.2891546988305
 10
102.7778781210069
 20
-128.2891546988305
 10
102.7293022746649
 20
-128.3298068255564
 10
102.6976073962006
 20
-128.3639132708604
 10
102.6235378432677
 20
-128.4428059574726
 10
102.6107909899723
 20
-128.5671739044901
 10
102.6107909899723
 20
-128.6260850372879
 10
102.6107909899723
 20
-128.6464111006509
 10
102.6128580472635
 20
-128.6846516605372
 10
102.6169921618458
 20
-128.7142794817103
 10
102.6169921618458
 20
-128.7142794817103
 10
102.4223442669291
 20
-128.7142794817103
 10
102.4223442669291
 20
-128.7142794817103
 10
102.4288899483511
 20
-128.6736273549844
 10
102.4309570056423
 20
-128.6281520945791
 10
102.4309570056423
 20
-128.6216064131571
 10
102.4309570056423
 20
-128.551326465258
 10
102.4095974136337
 20
-128.3387640738181
 10
102.1729193537971
 20
-128.3387640738181
 10
101.9951524267582
 20
-128.3387640738181
 10
101.9400308989942
 20
-128.4789794600678
 10
101.9400308989942
 20
-128.5964572161148
 10
101.9400308989942
 20
-128.8792995554538
 10
102.1729193537971
 20
-128.8882568037154
 10
102.2445773398903
 20
-128.8927354278463
 10
102.2445773398903
 20
-128.8927354278463
 10
102.2445773398903
 20
-129.109776443417
 10
102.2445773398903
 20
-129.109776443417
 10
102.1198648833242
 20
-129.1008191951554
 10
101.7433159467864
 20
-129.0715358835307
 10
101.7433159467864
 20
-128.5830213437223
 10
101.7433159467864
 20
-128.3432426979489
 10
101.8704399701921
 20
-128.0855495556522
 10
102.1663736723751
 20
-128.0855495556522
 10
102.3527533381271
 20
-128.0855495556522
 10
102.4350911202246
 20
-128.1875243820156
 10
102.496413819862
 20
-128.2936333229613
 10
102.523974583744
 20
-128.2281765087416
 10
102.6042453085503
 20
-128.033528613825
 10
102.8815754951129
 20
-128.033528613825
 10
103.2198838717645
 20
-128.033528613825
 10
103.3869710027991
 20
-128.2981119470921
 10
103.3869710027991
 20
-128.5943901588236
 97
        0
 97
        0
 75
     2
 76
     1
 98
        0
  0
ENDBLK
  5
88
330
85
100
AcDbEntity
  8
0
100
AcDbBlockEnd
  0
BLOCK
  5
9B
330
99
100
AcDbEntity
  8
0
100
AcDbBlockBegin
  2
block 3
 70
     0
 10
0.0
 20
0.0
 30
0.0
  3
block 3
  1

  0
SPLINE
  5
9D
330
99
100
AcDbEntity
  8
_U+30EC_U+30A4_U+30E4_U+30FC 1
370
     0
100
AcDbSpline
210
0.0
220
0.0
230
1.0
 70
    11
 71
     3
 72
    26
 73
    22
 74
     0
 42
0.0000000001
 43
0.0000000001
 12
1.0
 22
0.0
 32
0.0
 13
1.0
 23
0.0
 33
0.0
 40
0.0
 40
0.0
 40
0.0
 40
0.0
 40
1.0
 40
1.0
 40
1.0
 40
2.0
 40
2.0
 40
2.0
 40
3.0
 40
3.0
 40
3.0
 40
4.0
 40
4.0
 40
4.0
 40
5.0
 40
5.0
 40
5.0
 40
6.0
 40
6.0
 40
6.0
 40
7.0
 40
7.0
 40
7.0
 40
7.0
 10
83.37131074304607
 20
-117.1225667024902
 30
0.0
 10
83.37131074304607
 20
-117.1225667024902
 30
0.0
 10
83.37131074304607
 20
-116.0182413446934
 30
0.0
 10
83.37131074304607
 20
-116.0182413446934
 30
0.0
 10
83.37131074304607
 20
-116.0182413446934
 30
0.0
 10
83.01887747490501
 20
-116.0182413446934
 30
0.0
 10
83.01887747490501
 20
-116.0182413446934
 30
0.0
 10
83.01887747490501
 20
-116.0182413446934
 30
0.0
 10
83.01887747490501
 20
-115.8702744936019
 30
0.0
 10
83.01887747490501
 20
-115.8702744936019
 30
0.0
 10
83.37372230988574
 20
-115.8554605830153
 30
0.0
 10
83.42333168487333
 20
-115.692507566563
 30
0.0
 10
83.45502656333764
 20
-115.578302651227
 30
0.0
 10
83.45502656333764
 20
-115.578302651227
 30
0.0
 10
83.61108938881945
 20
-115.578302651227
 30
0.0
 10
83.61108938881945
 20
-115.578302651227
 30
0.0
 10
83.61108938881945
 20
-115.578302651227
 30
0.0
 10
83.61108938881945
 20
-117.1225667024902
 30
0.0
 10
83.61108938881945
 20
-117.1225667024902
 30
0.0
 10
83.61108938881945
 20
-117.1225667024902
 30
0.0
 10
83.37131074304607
 20
-117.1225667024902
 30
0.0
 10
83.37131074304607
 20
-117.1225667024902
 30
0.0
  0
HATCH
  5
9E
330
99
100
AcDbEntity
  8
_U+30EC_U+30A4_U+30E4_U+30FC 1
 62
   179
420
  2234388
100
AcDbHatch
 10
0.0
 20
0.0
 30
0.0
210
0.0
220
0.0
230
1.0
  2
SOLID
 70
     1
 71
     0
 91
        1
 92
        1
 93
        1
 72
     4
 94
        3
 73
     0
 74
     1
 95
       26
 96
       22
 40
0.0
 40
0.0
 40
0.0
 40
0.0
 40
1.0
 40
1.0
 40
1.0
 40
2.0
 40
2.0
 40
2.0
 40
3.0
 40
3.0
 40
3.0
 40
4.0
 40
4.0
 40
4.0
 40
5.0
 40
5.0
 40
5.0
 40
6.0
 40
6.0
 40
6.0
 40
7.0
 40
7.0
 40
7.0
 40
7.0
 10
83.37131074304607
 20
-117.1225667024902
 10
83.37131074304607
 20
-117.1225667024902
 10
83.37131074304607
 20
-116.0182413446934
 10
83.37131074304607
 20
-116.0182413446934
 10
83.37131074304607
 20
-116.0182413446934
 10
83.01887747490501
 20
-116.0182413446934
 10
83.01887747490501
 20
-116.0182413446934
 10
83.01887747490501
 20
-116.0182413446934
 10
83.01887747490501
 20
-115.8702744936019
 10
83.01887747490501
 20
-115.8702744936019
 10
83.37372230988574
 20
-115.8554605830153
 10
83.42333168487333
 20
-115.692507566563
 10
83.45502656333764
 20
-115.578302651227
 10
83.45502656333764
 20
-115.578302651227
 10
83.61108938881945
 20
-115.578302651227
 10
83.61108938881945
 20
-115.578302651227
 10
83.61108938881945
 20
-115.578302651227
 10
83.61108938881945
 20
-117.1225667024902
 10
83.61108938881945
 20
-117.1225667024902
 10
83.61108938881945
 20
-117.1225667024902
 10
83.37131074304607
 20
-117.1225667024902
 10
83.37131074304607
 20
-117.1225667024902
 97
        0
 97
        0
 75
     2
 76
     1
 98
        0
  0
SPLINE
  5
9F
330
99
100
AcDbEntity
  8
_U+30EC_U+30A4_U+30E4_U+30FC 1
370
     0
100
AcDbSpline
210
0.0
220
0.0
230
1.0
 70
    11
 71
     3
 72
    53
 73
    49
 74
     0
 42
0.0000000001
 43
0.0000000001
 12
1.0
 22
0.0
 32
0.0
 13
1.0
 23
0.0
 33
0.0
 40
0.0
 40
0.0
 40
0.0
 40
0.0
 40
1.0
 40
1.0
 40
1.0
 40
2.0
 40
2.0
 40
2.0
 40
3.0
 40
3.0
 40
3.0
 40
4.0
 40
4.0
 40
4.0
 40
5.0
 40
5.0
 40
5.0
 40
6.0
 40
6.0
 40
6.0
 40
7.0
 40
7.0
 40
7.0
 40
8.0
 40
8.0
 40
8.0
 40
9.0
 40
9.0
 40
9.0
 40
10.0
 40
10.0
 40
10.0
 40
11.0
 40
11.0
 40
11.0
 40
12.0
 40
12.0
 40
12.0
 40
13.0
 40
13.0
 40
13.0
 40
14.0
 40
14.0
 40
14.0
 40
15.0
 40
15.0
 40
15.0
 40
16.0
 40
16.0
 40
16.0
 40
16.0
 10
84.66080998317508
 20
-117.1733818608976
 30
0.0
 10
84.57709416288351
 20
-117.1733818608976
 30
0.0
 10
84.46891816464667
 20
-117.1563286382456
 30
0.0
 10
84.36005314731277
 20
-117.0929388813171
 30
0.0
 10
84.17470701020633
 20
-116.9828680805633
 30
0.0
 10
84.1523138895522
 20
-116.8517821973496
 30
0.0
 10
84.13198782618923
 20
-116.7439507086612
 30
0.0
 10
84.13198782618923
 20
-116.7439507086612
 30
0.0
 10
84.36935490512295
 20
-116.7439507086612
 30
0.0
 10
84.36935490512295
 20
-116.7439507086612
 30
0.0
 10
84.4279215283722
 20
-116.9427327181602
 30
0.0
 10
84.56365829049103
 20
-116.9723605393333
 30
0.0
 10
84.66322155001475
 20
-116.9723605393333
 30
0.0
 10
84.81239418452607
 20
-116.9723605393333
 30
0.0
 10
84.97534720097839
 20
-116.8729695345838
 30
0.0
 10
84.97534720097839
 20
-116.6402533345552
 30
0.0
 10
84.97534720097839
 20
-116.3842827400012
 30
0.0
 10
84.78311087290145
 20
-116.3145195564248
 30
0.0
 10
84.6542643017531
 20
-116.3145195564248
 30
0.0
 10
84.62015785644913
 20
-116.3145195564248
 30
0.0
 10
84.46891816464667
 20
-116.3145195564248
 30
0.0
 10
84.37383352925377
 20
-116.4435383823475
 30
0.0
 10
84.37383352925377
 20
-116.4435383823475
 30
0.0
 10
84.18607582530765
 20
-116.4244181024043
 30
0.0
 10
84.18607582530765
 20
-116.4244181024043
 30
0.0
 10
84.18607582530765
 20
-116.4244181024043
 30
0.0
 10
84.314922396456
 20
-115.578302651227
 30
0.0
 10
84.314922396456
 20
-115.578302651227
 30
0.0
 10
84.314922396456
 20
-115.578302651227
 30
0.0
 10
85.14691295614384
 20
-115.578302651227
 30
0.0
 10
85.14691295614384
 20
-115.578302651227
 30
0.0
 10
85.14691295614384
 20
-115.578302651227
 30
0.0
 10
85.14691295614384
 20
-115.7729505461436
 30
0.0
 10
85.14691295614384
 20
-115.7729505461436
 30
0.0
 10
85.14691295614384
 20
-115.7729505461436
 30
0.0
 10
84.48924422800964
 20
-115.7729505461436
 30
0.0
 10
84.48924422800964
 20
-115.7729505461436
 30
0.0
 10
84.48924422800964
 20
-115.7729505461436
 30
0.0
 10
84.41896428011054
 20
-116.1960082717323
 30
0.0
 10
84.41896428011054
 20
-116.1960082717323
 30
0.0
 10
84.48442109433029
 20
-116.1620740812025
 30
0.0
 10
84.57261553875269
 20
-116.1219387187994
 30
0.0
 10
84.69939505260987
 20
-116.1219387187994
 30
0.0
 10
84.97052406729904
 20
-116.1219387187994
 30
0.0
 10
85.2237385854649
 20
-116.3081461297771
 30
0.0
 10
85.2237385854649
 20
-116.6211330546121
 30
0.0
 10
85.2237385854649
 20
-116.9385986035779
 30
0.0
 10
84.98430444924004
 20
-117.1733818608976
 30
0.0
 10
84.66080998317508
 20
-117.1733818608976
 30
0.0
  0
HATCH
  5
A0
330
99
100
AcDbEntity
  8
_U+30EC_U+30A4_U+30E4_U+30FC 1
 62
   179
420
  2234388
100
AcDbHatch
 10
0.0
 20
0.0
 30
0.0
210
0.0
220
0.0
230
1.0
  2
SOLID
 70
     1
 71
     0
 91
        1
 92
        1
 93
        1
 72
     4
 94
        3
 73
     0
 74
     1
 95
       53
 96
       49
 40
0.0
 40
0.0
 40
0.0
 40
0.0
 40
1.0
 40
1.0
 40
1.0
 40
2.0
 40
2.0
 40
2.0
 40
3.0
 40
3.0
 40
3.0
 40
4.0
 40
4.0
 40
4.0
 40
5.0
 40
5.0
 40
5.0
 40
6.0
 40
6.0
 40
6.0
 40
7.0
 40
7.0
 40
7.0
 40
8.0
 40
8.0
 40
8.0
 40
9.0
 40
9.0
 40
9.0
 40
10.0
 40
10.0
 40
10.0
 40
11.0
 40
11.0
 40
11.0
 40
12.0
 40
12.0
 40
12.0
 40
13.0
 40
13.0
 40
13.0
 40
14.0
 40
14.0
 40
14.0
 40
15.0
 40
15.0
 40
15.0
 40
16.0
 40
16.0
 40
16.0
 40
16.0
 10
84.66080998317508
 20
-117.1733818608976
 10
84.57709416288351
 20
-117.1733818608976
 10
84.46891816464667
 20
-117.1563286382456
 10
84.36005314731277
 20
-117.0929388813171
 10
84.17470701020633
 20
-116.9828680805633
 10
84.1523138895522
 20
-116.8517821973496
 10
84.13198782618923
 20
-116.7439507086612
 10
84.13198782618923
 20
-116.7439507086612
 10
84.36935490512295
 20
-116.7439507086612
 10
84.36935490512295
 20
-116.7439507086612
 10
84.4279215283722
 20
-116.9427327181602
 10
84.56365829049103
 20
-116.9723605393333
 10
84.66322155001475
 20
-116.9723605393333
 10
84.81239418452607
 20
-116.9723605393333
 10
84.97534720097839
 20
-116.8729695345838
 10
84.97534720097839
 20
-116.6402533345552
 10
84.97534720097839
 20
-116.3842827400012
 10
84.78311087290145
 20
-116.3145195564248
 10
84.6542643017531
 20
-116.3145195564248
 10
84.62015785644913
 20
-116.3145195564248
 10
84.46891816464667
 20
-116.3145195564248
 10
84.37383352925377
 20
-116.4435383823475
 10
84.37383352925377
 20
-116.4435383823475
 10
84.18607582530765
 20
-116.4244181024043
 10
84.18607582530765
 20
-116.4244181024043
 10
84.18607582530765
 20
-116.4244181024043
 10
84.314922396456
 20
-115.578302651227
 10
84.314922396456
 20
-115.578302651227
 10
84.314922396456
 20
-115.578302651227
 10
85.14691295614384
 20
-115.578302651227
 10
85.14691295614384
 20
-115.578302651227
 10
85.14691295614384
 20
-115.578302651227
 10
85.14691295614384
 20
-115.7729505461436
 10
85.14691295614384
 20
-115.7729505461436
 10
85.14691295614384
 20
-115.7729505461436
 10
84.48924422800964
 20
-115.7729505461436
 10
84.48924422800964
 20
-115.7729505461436
 10
84.48924422800964
 20
-115.7729505461436
 10
84.41896428011054
 20
-116.1960082717323
 10
84.41896428011054
 20
-116.1960082717323
 10
84.48442109433029
 20
-116.1620740812025
 10
84.57261553875269
 20
-116.1219387187994
 10
84.69939505260987
 20
-116.1219387187994
 10
84.97052406729904
 20
-116.1219387187994
 10
85.2237385854649
 20
-116.3081461297771
 10
85.2237385854649
 20
-116.6211330546121
 10
85.2237385854649
 20
-116.9385986035779
 10
84.98430444924004
 20
-117.1733818608976
 10
84.66080998317508
 20
-117.1733818608976
 97
        0
 97
        0
 75
     2
 76
     1
 98
        0
  0
ENDBLK
  5
9C
330
99
100
AcDbEntity
  8
0
100
AcDbBlockEnd
  0
BLOCK
  5
AF
330
AD
100
AcDbEntity
  8
0
100
AcDbBlockBegin
  2
block 4
 70
     0
 10
0.0
 20
0.0
 30
0.0
  3
block 4
  1

  0
SPLINE
  5
B1
330
AD
100
AcDbEntity
  8
_U+30EC_U+30A4_U+30E4_U+30FC 1
370
     0
100
AcDbSpline
210
0.0
220
0.0
230
1.0
 70
    11
 71
     3
 72
    44
 73
    40
 74
     0
 42
0.0000000001
 43
0.0000000001
 12
1.0
 22
0.0
 32
0.0
 13
1.0
 23
0.0
 33
0.0
 40
0.0
 40
0.0
 40
0.0
 40
0.0
 40
1.0
 40
1.0
 40
1.0
 40
2.0
 40
2.0
 40
2.0
 40
3.0
 40
3.0
 40
3.0
 40
4.0
 40
4.0
 40
4.0
 40
5.0
 40
5.0
 40
5.0
 40
6.0
 40
6.0
 40
6.0
 40
7.0
 40
7.0
 40
7.0
 40
8.0
 40
8.0
 40
8.0
 40
9.0
 40
9.0
 40
9.0
 40
10.0
 40
10.0
 40
10.0
 40
11.0
 40
11.0
 40
11.0
 40
12.0
 40
12.0
 40
12.0
 40
13.0
 40
13.0
 40
13.0
 40
13.0
 10
88.0228786672304
 20
-139.5408365536565
 30
0.0
 10
87.78999021242751
 20
-139.6996554555265
 30
0.0
 10
87.69042695290379
 20
-139.7737250084594
 30
0.0
 10
87.63840601107651
 20
-139.9173854901943
 30
0.0
 10
87.63840601107651
 20
-139.9173854901943
 30
0.0
 10
88.47074108031288
 20
-139.9173854901943
 30
0.0
 10
88.47074108031288
 20
-139.9173854901943
 30
0.0
 10
88.47074108031288
 20
-139.9173854901943
 30
0.0
 10
88.47074108031288
 20
-140.1227131811152
 30
0.0
 10
88.47074108031288
 20
-140.1227131811152
 30
0.0
 10
88.47074108031288
 20
-140.1227131811152
 30
0.0
 10
87.37175562051817
 20
-140.1227131811152
 30
0.0
 10
87.37175562051817
 20
-140.1227131811152
 30
0.0
 10
87.40586206582215
 20
-139.7651122697462
 30
0.0
 10
87.47579750417272
 20
-139.6869086022311
 30
0.0
 10
87.88714190511155
 20
-139.3885633332084
 30
0.0
 10
88.16068248664038
 20
-139.1897813237095
 30
0.0
 10
88.23096243453949
 20
-139.1219129426501
 30
0.0
 10
88.23096243453949
 20
-138.9844536327886
 30
0.0
 10
88.23096243453949
 20
-138.865942348096
 30
0.0
 10
88.15413680521841
 20
-138.7350287196565
 30
0.0
 10
87.94364147106965
 20
-138.7350287196565
 30
0.0
 10
87.66562226541
 20
-138.7350287196565
 30
0.0
 10
87.65666501714834
 20
-138.9655056076197
 30
0.0
 10
87.65218639301752
 20
-139.0819498350212
 30
0.0
 10
87.65218639301752
 20
-139.0819498350212
 30
0.0
 10
87.41240774724412
 20
-139.0819498350212
 30
0.0
 10
87.41240774724412
 20
-139.0819498350212
 30
0.0
 10
87.42136499550577
 20
-138.9548258116155
 30
0.0
 10
87.4327338106071
 20
-138.8428602083449
 30
0.0
 10
87.51886119773835
 20
-138.7243489236523
 30
0.0
 10
87.63633895378537
 20
-138.5634629644911
 30
0.0
 10
87.83512096328428
 20
-138.5297010287356
 30
0.0
 10
87.9594889103018
 20
-138.5297010287356
 30
0.0
 10
88.25576712203329
 20
-138.5297010287356
 30
0.0
 10
88.47728676173485
 20
-138.713669127648
 30
0.0
 10
88.47728676173485
 20
-138.9865206900798
 30
0.0
 10
88.47728676173485
 20
-139.2152750303003
 30
0.0
 10
88.35291881471733
 20
-139.3144937802755
 30
0.0
 10
88.0228786672304
 20
-139.5408365536565
 30
0.0
  0
HATCH
  5
B2
330
AD
100
AcDbEntity
  8
_U+30EC_U+30A4_U+30E4_U+30FC 1
 62
   179
420
  2234388
100
AcDbHatch
 10
0.0
 20
0.0
 30
0.0
210
0.0
220
0.0
230
1.0
  2
SOLID
 70
     1
 71
     0
 91
        1
 92
        1
 93
        1
 72
     4
 94
        3
 73
     0
 74
     1
 95
       44
 96
       40
 40
0.0
 40
0.0
 40
0.0
 40
0.0
 40
1.0
 40
1.0
 40
1.0
 40
2.0
 40
2.0
 40
2.0
 40
3.0
 40
3.0
 40
3.0
 40
4.0
 40
4.0
 40
4.0
 40
5.0
 40
5.0
 40
5.0
 40
6.0
 40
6.0
 40
6.0
 40
7.0
 40
7.0
 40
7.0
 40
8.0
 40
8.0
 40
8.0
 40
9.0
 40
9.0
 40
9.0
 40
10.0
 40
10.0
 40
10.0
 40
11.0
 40
11.0
 40
11.0
 40
12.0
 40
12.0
 40
12.0
 40
13.0
 40
13.0
 40
13.0
 40
13.0
 10
88.0228786672304
 20
-139.5408365536565
 10
87.78999021242751
 20
-139.6996554555265
 10
87.69042695290379
 20
-139.7737250084594
 10
87.63840601107651
 20
-139.9173854901943
 10
87.63840601107651
 20
-139.9173854901943
 10
88.47074108031288
 20
-139.9173854901943
 10
88.47074108031288
 20
-139.9173854901943
 10
88.47074108031288
 20
-139.9173854901943
 10
88.47074108031288
 20
-140.1227131811152
 10
88.47074108031288
 20
-140.1227131811152
 10
88.47074108031288
 20
-140.1227131811152
 10
87.37175562051817
 20
-140.1227131811152
 10
87.37175562051817
 20
-140.1227131811152
 10
87.40586206582215
 20
-139.7651122697462
 10
87.47579750417272
 20
-139.6869086022311
 10
87.88714190511155
 20
-139.3885633332084
 10
88.16068248664038
 20
-139.1897813237095
 10
88.23096243453949
 20
-139.1219129426501
 10
88.23096243453949
 20
-138.9844536327886
 10
88.23096243453949
 20
-138.865942348096
 10
88.15413680521841
 20
-138.7350287196565
 10
87.94364147106965
 20
-138.7350287196565
 10
87.66562226541
 20
-138.7350287196565
 10
87.65666501714834
 20
-138.9655056076197
 10
87.65218639301752
 20
-139.0819498350212
 10
87.65218639301752
 20
-139.0819498350212
 10
87.41240774724412
 20
-139.0819498350212
 10
87.41240774724412
 20
-139.0819498350212
 10
87.42136499550577
 20
-138.9548258116155
 10
87.4327338106071
 20
-138.8428602083449
 10
87.51886119773835
 20
-138.7243489236523
 10
87.63633895378537
 20
-138.5634629644911
 10
87.83512096328428
 20
-138.5297010287356
 10
87.9594889103018
 20
-138.5297010287356
 10
88.25576712203329
 20
-138.5297010287356
 10
88.47728676173485
 20
-138.713669127648
 10
88.47728676173485
 20
-138.9865206900798
 10
88.47728676173485
 20
-139.2152750303003
 10
88.35291881471733
 20
-139.3144937802755
 10
88.0228786672304
 20
-139.5408365536565
 97
        0
 97
        0
 75
     2
 76
     1
 98
        0
  0
POLYLINE
  5
B3
330
AD
100
AcDbEntity
  8
_U+30EC_U+30A4_U+30E4_U+30FC 1
370
     0
100
AcDb2dPolyline
 66
     1
 10
0.0
 20
0.0
 30
0.0
  0
VERTEX
  5
B4
330
B3
100
AcDbEntity
  8
_U+30EC_U+30A4_U+30E4_U+30FC 1
370
     0
100
AcDbVertex
100
AcDb2dVertex
 10
89.53630911390064
 20
-139.7757920657505
 30
0.0
  0
VERTEX
  5
B5
330
B3
100
AcDbEntity
  8
_U+30EC_U+30A4_U+30E4_U+30FC 1
370
     0
100
AcDbVertex
100
AcDb2dVertex
 10
89.53630911390064
 20
-140.1227131811152
 30
0.0
  0
VERTEX
  5
B6
330
B3
100
AcDbEntity
  8
_U+30EC_U+30A4_U+30E4_U+30FC 1
370
     0
100
AcDbVertex
100
AcDb2dVertex
 10
89.30342065909775
 20
-140.1227131811152
 30
0.0
  0
VERTEX
  5
B7
330
B3
100
AcDbEntity
  8
_U+30EC_U+30A4_U+30E4_U+30FC 1
370
     0
100
AcDbVertex
100
AcDb2dVertex
 10
89.30342065909775
 20
-139.7757920657505
 30
0.0
  0
VERTEX
  5
B8
330
B3
100
AcDbEntity
  8
_U+30EC_U+30A4_U+30E4_U+30FC 1
370
     0
100
AcDbVertex
100
AcDb2dVertex
 10
88.60234372784942
 20
-139.7757920657505
 30
0.0
  0
VERTEX
  5
B9
330
B3
100
AcDbEntity
  8
_U+30EC_U+30A4_U+30E4_U+30FC 1
370
     0
100
AcDbVertex
100
AcDb2dVertex
 10
88.60234372784942
 20
-139.5515163496607
 30
0.0
  0
VERTEX
  5
BA
330
B3
100
AcDbEntity
  8
_U+30EC_U+30A4_U+30E4_U+30FC 1
370
     0
100
AcDbVertex
100
AcDb2dVertex
 10
89.32822534659157
 20
-138.5782768750776
 30
0.0
  0
VERTEX
  5
BB
330
B3
100
AcDbEntity
  8
_U+30EC_U+30A4_U+30E4_U+30FC 1
370
     0
100
AcDbVertex
100
AcDb2dVertex
 10
89.53630911390064
 20
-138.5782768750776
 30
0.0
  0
VERTEX
  5
BC
330
B3
100
AcDbEntity
  8
_U+30EC_U+30A4_U+30E4_U+30FC 1
370
     0
100
AcDbVertex
100
AcDb2dVertex
 10
89.53630911390064
 20
-139.5770100562516
 30
0.0
  0
VERTEX
  5
BD
330
B3
100
AcDbEntity
  8
_U+30EC_U+30A4_U+30E4_U+30FC 1
370
     0
100
AcDbVertex
100
AcDb2dVertex
 10
89.75782875360221
 20
-139.5770100562516
 30
0.0
  0
VERTEX
  5
BE
330
B3
100
AcDbEntity
  8
_U+30EC_U+30A4_U+30E4_U+30FC 1
370
     0
100
AcDbVertex
100
AcDb2dVertex
 10
89.75782875360221
 20
-139.7757920657505
 30
0.0
  0
VERTEX
  5
BF
330
B3
100
AcDbEntity
  8
_U+30EC_U+30A4_U+30E4_U+30FC 1
370
     0
100
AcDbVertex
100
AcDb2dVertex
 10
89.53630911390064
 20
-139.7757920657505
 30
0.0
  0
SEQEND
  5
C0
330
B3
100
AcDbEntity
  8
_U+30EC_U+30A4_U+30E4_U+30FC 1
370
     0
  0
POLYLINE
  5
C1
330
AD
100
AcDbEntity
  8
_U+30EC_U+30A4_U+30E4_U+30FC 1
370
     0
100
AcDb2dPolyline
 66
     1
 10
0.0
 20
0.0
 30
0.0
  0
VERTEX
  5
C2
330
C1
100
AcDbEntity
  8
_U+30EC_U+30A4_U+30E4_U+30FC 1
370
     0
100
AcDbVertex
100
AcDb2dVertex
 10
89.30342065909775
 20
-138.92106387586
 30
0.0
  0
VERTEX
  5
C3
330
C1
100
AcDbEntity
  8
_U+30EC_U+30A4_U+30E4_U+30FC 1
370
     0
100
AcDbVertex
100
AcDb2dVertex
 10
88.81490611928933
 20
-139.5770100562516
 30
0.0
  0
VERTEX
  5
C4
330
C1
100
AcDbEntity
  8
_U+30EC_U+30A4_U+30E4_U+30FC 1
370
     0
100
AcDbVertex
100
AcDb2dVertex
 10
89.30342065909775
 20
-139.5770100562516
 30
0.0
  0
VERTEX
  5
C5
330
C1
100
AcDbEntity
  8
_U+30EC_U+30A4_U+30E4_U+30FC 1
370
     0
100
AcDbVertex
100
AcDb2dVertex
 10
89.30342065909775
 20
-138.92106387586
 30
0.0
  0
SEQEND
  5
C6
330
C1
100
AcDbEntity
  8
_U+30EC_U+30A4_U+30E4_U+30FC 1
370
     0
  0
HATCH
  5
C7
330
AD
100
AcDbEntity
  8
_U+30EC_U+30A4_U+30E4_U+30FC 1
 62
   179
420
  2234388
100
AcDbHatch
 10
0.0
 20
0.0
 30
0.0
210
0.0
220
0.0
230
1.0
  2
SOLID
 70
     1
 71
     0
 91
        2
 92
        1
 93
       11
 72
     1
 10
89.53630911390064
 20
-139.7757920657505
 11
89.53630911390064
 21
-140.1227131811152
 72
     1
 10
89.53630911390064
 20
-140.1227131811152
 11
89.30342065909775
 21
-140.1227131811152
 72
     1
 10
89.30342065909775
 20
-140.1227131811152
 11
89.30342065909775
 21
-139.7757920657505
 72
     1
 10
89.30342065909775
 20
-139.7757920657505
 11
88.60234372784942
 21
-139.7757920657505
 72
     1
 10
88.60234372784942
 20
-139.7757920657505
 11
88.60234372784942
 21
-139.5515163496607
 72
     1
 10
88.60234372784942
 20
-139.5515163496607
 11
89.32822534659157
 21
-138.5782768750776
 72
     1
 10
89.32822534659157
 20
-138.5782768750776
 11
89.53630911390064
 21
-138.5782768750776
 72
     1
 10
89.53630911390064
 20
-138.5782768750776
 11
89.53630911390064
 21
-139.5770100562516
 72
     1
 10
89.53630911390064
 20
-139.5770100562516
 11
89.75782875360221
 21
-139.5770100562516
 72
     1
 10
89.75782875360221
 20
-139.5770100562516
 11
89.75782875360221
 21
-139.7757920657505
 72
     1
 10
89.75782875360221
 20
-139.7757920657505
 11
89.53630911390064
 21
-139.7757920657505
 97
        0
 92
        1
 93
        3
 72
     1
 10
89.30342065909775
 20
-138.92106387586
 11
88.81490611928933
 21
-139.5770100562516
 72
     1
 10
88.81490611928933
 20
-139.5770100562516
 11
89.30342065909775
 21
-139.5770100562516
 72
     1
 10
89.30342065909775
 20
-139.5770100562516
 11
89.30342065909775
 21
-138.92106387586
 97
        0
 75
     2
 76
     1
 98
        0
  0
ENDBLK
  5
B0
330
AD
100
AcDbEntity
  8
0
100
AcDbBlockEnd
  0
BLOCK
  5
CC
330
CA
100
AcDbEntity
  8
0
100
AcDbBlockBegin
  2
block 5
 70
     0
 10
0.0
 20
0.0
 30
0.0
  3
block 5
  1

  0
SPLINE
  5
CE
330
CA
100
AcDbEntity
  8
_U+30EC_U+30A4_U+30E4_U+30FC 1
370
     0
100
AcDbSpline
210
0.0
220
0.0
230
1.0
 70
    11
 71
     3
 72
    26
 73
    22
 74
     0
 42
0.0000000001
 43
0.0000000001
 12
1.0
 22
0.0
 32
0.0
 13
1.0
 23
0.0
 33
0.0
 40
0.0
 40
0.0
 40
0.0
 40
0.0
 40
1.0
 40
1.0
 40
1.0
 40
2.0
 40
2.0
 40
2.0
 40
3.0
 40
3.0
 40
3.0
 40
4.0
 40
4.0
 40
4.0
 40
5.0
 40
5.0
 40
5.0
 40
6.0
 40
6.0
 40
6.0
 40
7.0
 40
7.0
 40
7.0
 40
7.0
 10
82.37791745987427
 20
-128.9829969295598
 30
0.0
 10
82.37791745987427
 20
-128.9829969295598
 30
0.0
 10
82.37791745987427
 20
-127.8788438265372
 30
0.0
 10
82.37791745987427
 20
-127.8788438265372
 30
0.0
 10
82.37791745987427
 20
-127.8788438265372
 30
0.0
 10
82.04787731238734
 20
-127.8788438265372
 30
0.0
 10
82.04787731238734
 20
-127.8788438265372
 30
0.0
 10
82.04787731238734
 20
-127.8788438265372
 30
0.0
 10
82.04787731238734
 20
-127.7307047206715
 30
0.0
 10
82.04787731238734
 20
-127.7307047206715
 30
0.0
 10
82.37998451716543
 20
-127.7160630648592
 30
0.0
 10
82.4264933062163
 20
-127.5531100484069
 30
0.0
 10
82.45612112738945
 20
-127.4389051330708
 30
0.0
 10
82.45612112738945
 20
-127.4389051330708
 30
0.0
 10
82.60219317596403
 20
-127.4389051330708
 30
0.0
 10
82.60219317596403
 20
-127.4389051330708
 30
0.0
 10
82.60219317596403
 20
-127.4389051330708
 30
0.0
 10
82.60219317596403
 20
-128.9829969295598
 30
0.0
 10
82.60219317596403
 20
-128.9829969295598
 30
0.0
 10
82.60219317596403
 20
-128.9829969295598
 30
0.0
 10
82.37791745987427
 20
-128.9829969295598
 30
0.0
 10
82.37791745987427
 20
-128.9829969295598
 30
0.0
  0
HATCH
  5
CF
330
CA
100
AcDbEntity
  8
_U+30EC_U+30A4_U+30E4_U+30FC 1
 62
   179
420
  2234388
100
AcDbHatch
 10
0.0
 20
0.0
 30
0.0
210
0.0
220
0.0
230
1.0
  2
SOLID
 70
     1
 71
     0
 91
        1
 92
        1
 93
        1
 72
     4
 94
        3
 73
     0
 74
     1
 95
       26
 96
       22
 40
0.0
 40
0.0
 40
0.0
 40
0.0
 40
1.0
 40
1.0
 40
1.0
 40
2.0
 40
2.0
 40
2.0
 40
3.0
 40
3.0
 40
3.0
 40
4.0
 40
4.0
 40
4.0
 40
5.0
 40
5.0
 40
5.0
 40
6.0
 40
6.0
 40
6.0
 40
7.0
 40
7.0
 40
7.0
 40
7.0
 10
82.37791745987427
 20
-128.9829969295598
 10
82.37791745987427
 20
-128.9829969295598
 10
82.37791745987427
 20
-127.8788438265372
 10
82.37791745987427
 20
-127.8788438265372
 10
82.37791745987427
 20
-127.8788438265372
 10
82.04787731238734
 20
-127.8788438265372
 10
82.04787731238734
 20
-127.8788438265372
 10
82.04787731238734
 20
-127.8788438265372
 10
82.04787731238734
 20
-127.7307047206715
 10
82.04787731238734
 20
-127.7307047206715
 10
82.37998451716543
 20
-127.7160630648592
 10
82.4264933062163
 20
-127.5531100484069
 10
82.45612112738945
 20
-127.4389051330708
 10
82.45612112738945
 20
-127.4389051330708
 10
82.60219317596403
 20
-127.4389051330708
 10
82.60219317596403
 20
-127.4389051330708
 10
82.60219317596403
 20
-127.4389051330708
 10
82.60219317596403
 20
-128.9829969295598
 10
82.60219317596403
 20
-128.9829969295598
 10
82.60219317596403
 20
-128.9829969295598
 10
82.37791745987427
 20
-128.9829969295598
 10
82.37791745987427
 20
-128.9829969295598
 97
        0
 97
        0
 75
     2
 76
     1
 98
        0
  0
ENDBLK
  5
CD
330
CA
100
AcDbEntity
  8
0
100
AcDbBlockEnd
  0
BLOCK
  5
DF
330
DD
100
AcDbEntity
  8
0
100
AcDbBlockBegin
  2
block 6
 70
     0
 10
0.0
 20
0.0
 30
0.0
  3
block 6
  1

  0
SPLINE
  5
E1
330
DD
100
AcDbEntity
  8
_U+30EC_U+30A4_U+30E4_U+30FC 1
370
     0
100
AcDbSpline
210
0.0
220
0.0
230
1.0
 70
    11
 71
     3
 72
    26
 73
    22
 74
     0
 42
0.0000000001
 43
0.0000000001
 12
1.0
 22
0.0
 32
0.0
 13
1.0
 23
0.0
 33
0.0
 40
0.0
 40
0.0
 40
0.0
 40
0.0
 40
1.0
 40
1.0
 40
1.0
 40
2.0
 40
2.0
 40
2.0
 40
3.0
 40
3.0
 40
3.0
 40
4.0
 40
4.0
 40
4.0
 40
5.0
 40
5.0
 40
5.0
 40
6.0
 40
6.0
 40
6.0
 40
7.0
 40
7.0
 40
7.0
 40
7.0
 10
103.3366726087145
 20
-136.232511359171
 30
0.0
 10
103.3366726087145
 20
-136.232511359171
 30
0.0
 10
102.2325195056919
 20
-136.232511359171
 30
0.0
 10
102.2325195056919
 20
-136.232511359171
 30
0.0
 10
102.2325195056919
 20
-136.232511359171
 30
0.0
 10
102.2325195056919
 20
-136.5849446273121
 30
0.0
 10
102.2325195056919
 20
-136.5849446273121
 30
0.0
 10
102.2325195056919
 20
-136.5849446273121
 30
0.0
 10
102.0843803998261
 20
-136.5849446273121
 30
0.0
 10
102.0843803998261
 20
-136.5849446273121
 30
0.0
 10
102.0695664892396
 20
-136.2300997923314
 30
0.0
 10
101.9066134727872
 20
-136.1804904173438
 30
0.0
 10
101.7922363026769
 20
-136.1487955388795
 30
0.0
 10
101.7922363026769
 20
-136.1487955388795
 30
0.0
 10
101.7922363026769
 20
-135.9927327133977
 30
0.0
 10
101.7922363026769
 20
-135.9927327133977
 30
0.0
 10
101.7922363026769
 20
-135.9927327133977
 30
0.0
 10
103.3366726087145
 20
-135.9927327133977
 30
0.0
 10
103.3366726087145
 20
-135.9927327133977
 30
0.0
 10
103.3366726087145
 20
-135.9927327133977
 30
0.0
 10
103.3366726087145
 20
-136.232511359171
 30
0.0
 10
103.3366726087145
 20
-136.232511359171
 30
0.0
  0
HATCH
  5
E2
330
DD
100
AcDbEntity
  8
_U+30EC_U+30A4_U+30E4_U+30FC 1
 62
   179
420
  2234388
100
AcDbHatch
 10
0.0
 20
0.0
 30
0.0
210
0.0
220
0.0
230
1.0
  2
SOLID
 70
     1
 71
     0
 91
        1
 92
        1
 93
        1
 72
     4
 94
        3
 73
     0
 74
     1
 95
       26
 96
       22
 40
0.0
 40
0.0
 40
0.0
 40
0.0
 40
1.0
 40
1.0
 40
1.0
 40
2.0
 40
2.0
 40
2.0
 40
3.0
 40
3.0
 40
3.0
 40
4.0
 40
4.0
 40
4.0
 40
5.0
 40
5.0
 40
5.0
 40
6.0
 40
6.0
 40
6.0
 40
7.0
 40
7.0
 40
7.0
 40
7.0
 10
103.3366726087145
 20
-136.232511359171
 10
103.3366726087145
 20
-136.232511359171
 10
102.2325195056919
 20
-136.232511359171
 10
102.2325195056919
 20
-136.232511359171
 10
102.2325195056919
 20
-136.232511359171
 10
102.2325195056919
 20
-136.5849446273121
 10
102.2325195056919
 20
-136.5849446273121
 10
102.2325195056919
 20
-136.5849446273121
 10
102.0843803998261
 20
-136.5849446273121
 10
102.0843803998261
 20
-136.5849446273121
 10
102.0695664892396
 20
-136.2300997923314
 10
101.9066134727872
 20
-136.1804904173438
 10
101.7922363026769
 20
-136.1487955388795
 10
101.7922363026769
 20
-136.1487955388795
 10
101.7922363026769
 20
-135.9927327133977
 10
101.7922363026769
 20
-135.9927327133977
 10
101.7922363026769
 20
-135.9927327133977
 10
103.3366726087145
 20
-135.9927327133977
 10
103.3366726087145
 20
-135.9927327133977
 10
103.3366726087145
 20
-135.9927327133977
 10
103.3366726087145
 20
-136.232511359171
 10
103.3366726087145
 20
-136.232511359171
 97
        0
 97
        0
 75
     2
 76
     1
 98
        0
  0
ENDBLK
  5
E0
330
DD
100
AcDbEntity
  8
0
100
AcDbBlockEnd
  0
ENDSEC
  0
SECTION
  2
ENTITIES
  0
SPLINE
  5
41
330
1F
100
AcDbEntity
  8
_U+30EC_U+30A4_U+30E4_U+30FC 1
370
     0
100
AcDbSpline
210
0.0
220
0.0
230
1.0
 70
    11
 71
     3
 72
    50
 73
    46
 74
     0
 42
0.0000000001
 43
0.0000000001
 12
1.0
 22
0.0
 32
0.0
 13
1.0
 23
0.0
 33
0.0
 40
0.0
 40
0.0
 40
0.0
 40
0.0
 40
1.0
 40
1.0
 40
1.0
 40
2.0
 40
2.0
 40
2.0
 40
3.0
 40
3.0
 40
3.0
 40
4.0
 40
4.0
 40
4.0
 40
5.0
 40
5.0
 40
5.0
 40
6.0
 40
6.0
 40
6.0
 40
7.0
 40
7.0
 40
7.0
 40
8.0
 40
8.0
 40
8.0
 40
9.0
 40
9.0
 40
9.0
 40
10.0
 40
10.0
 40
10.0
 40
11.0
 40
11.0
 40
11.0
 40
12.0
 40
12.0
 40
12.0
 40
13.0
 40
13.0
 40
13.0
 40
14.0
 40
14.0
 40
14.0
 40
15.0
 40
15.0
 40
15.0
 40
15.0
 10
100.1971413326469
 20
-136.2200941326119
 30
0.0
 10
100.1971413326469
 20
-136.2200941326119
 30
0.0
 10
94.54719369901125
 20
-136.2200941326119
 30
0.0
 10
94.54719369901125
 20
-136.2200941326119
 30
0.0
 10
94.36876108751908
 20
-135.9107432993555
 30
0.0
 10
94.03869982309511
 20
-135.7198905216257
 30
0.0
 10
93.6810889988852
 20
-135.7198905216257
 30
0.0
 10
93.6810889988852
 20
-135.7198905216257
 30
0.0
 10
84.54746089857012
 20
-135.7198905216257
 30
0.0
 10
84.54746089857012
 20
-135.7198905216257
 30
0.0
 10
84.54746089857012
 20
-135.7198905216257
 30
0.0
 10
84.54746089857012
 20
-122.7201705248755
 30
0.0
 10
84.54746089857012
 20
-122.7201705248755
 30
0.0
 10
84.54746089857012
 20
-122.7201705248755
 30
0.0
 10
91.54791238664039
 20
-122.7201705248755
 30
0.0
 10
91.54791238664039
 20
-122.7201705248755
 30
0.0
 10
91.54791238664039
 20
-122.7201705248755
 30
0.0
 10
91.54791238664039
 20
-122.1200249694701
 30
0.0
 10
91.54791238664039
 20
-122.1200249694701
 30
0.0
 10
86.56214164502599
 20
-121.5867308029368
 30
0.0
 10
81.53336291991062
 20
-121.5867308029368
 30
0.0
 10
76.5476252693296
 20
-122.1200249694701
 30
0.0
 10
76.5476252693296
 20
-122.1200249694701
 30
0.0
 10
76.5476252693296
 20
-122.7201705248755
 30
0.0
 10
76.5476252693296
 20
-122.7201705248755
 30
0.0
 10
76.5476252693296
 20
-122.7201705248755
 30
0.0
 10
83.54768870185421
 20
-122.7201705248755
 30
0.0
 10
83.54768870185421
 20
-122.7201705248755
 30
0.0
 10
83.54768870185421
 20
-122.7201705248755
 30
0.0
 10
83.54768870185421
 20
-135.7198905216257
 30
0.0
 10
83.54768870185421
 20
-135.7198905216257
 30
0.0
 10
83.54768870185421
 20
-135.7198905216257
 30
0.0
 10
77.54771496603742
 20
-135.7198905216257
 30
0.0
 10
77.54771496603742
 20
-135.7198905216257
 30
0.0
 10
76.99512386902407
 20
-135.7198905216257
 30
0.0
 10
76.5476252693296
 20
-136.1677419104028
 30
0.0
 10
76.5476252693296
 20
-136.7196627435976
 30
0.0
 10
76.5476252693296
 20
-136.7196627435976
 30
0.0
 10
100.5471674348281
 20
-136.7196627435976
 30
0.0
 10
100.5471674348281
 20
-136.7196627435976
 30
0.0
 10
100.5471674348281
 20
-136.7196627435976
 30
0.0
 10
100.5471674348281
 20
-136.5701202436351
 30
0.0
 10
100.5471674348281
 20
-136.5701202436351
 30
0.0
 10
100.5471674348281
 20
-136.3765157992395
 30
0.0
 10
100.3907810499289
 20
-136.2200941326119
 30
0.0
 10
100.1971413326469
 20
-136.2200941326119
 30
0.0
  0
HATCH
  5
42
330
1F
100
AcDbEntity
  8
_U+30EC_U+30A4_U+30E4_U+30FC 1
 62
   253
420
 11711154
100
AcDbHatch
 10
0.0
 20
0.0
 30
0.0
210
0.0
220
0.0
230
1.0
  2
SOLID
 70
     1
 71
     0
 91
        1
 92
        1
 93
        1
 72
     4
 94
        3
 73
     0
 74
     1
 95
       50
 96
       46
 40
0.0
 40
0.0
 40
0.0
 40
0.0
 40
1.0
 40
1.0
 40
1.0
 40
2.0
 40
2.0
 40
2.0
 40
3.0
 40
3.0
 40
3.0
 40
4.0
 40
4.0
 40
4.0
 40
5.0
 40
5.0
 40
5.0
 40
6.0
 40
6.0
 40
6.0
 40
7.0
 40
7.0
 40
7.0
 40
8.0
 40
8.0
 40
8.0
 40
9.0
 40
9.0
 40
9.0
 40
10.0
 40
10.0
 40
10.0
 40
11.0
 40
11.0
 40
11.0
 40
12.0
 40
12.0
 40
12.0
 40
13.0
 40
13.0
 40
13.0
 40
14.0
 40
14.0
 40
14.0
 40
15.0
 40
15.0
 40
15.0
 40
15.0
 10
100.1971413326469
 20
-136.2200941326119
 10
100.1971413326469
 20
-136.2200941326119
 10
94.54719369901125
 20
-136.2200941326119
 10
94.54719369901125
 20
-136.2200941326119
 10
94.36876108751908
 20
-135.9107432993555
 10
94.03869982309511
 20
-135.7198905216257
 10
93.6810889988852
 20
-135.7198905216257
 10
93.6810889988852
 20
-135.7198905216257
 10
84.54746089857012
 20
-135.7198905216257
 10
84.54746089857012
 20
-135.7198905216257
 10
84.54746089857012
 20
-135.7198905216257
 10
84.54746089857012
 20
-122.7201705248755
 10
84.54746089857012
 20
-122.7201705248755
 10
84.54746089857012
 20
-122.7201705248755
 10
91.54791238664039
 20
-122.7201705248755
 10
91.54791238664039
 20
-122.7201705248755
 10
91.54791238664039
 20
-122.7201705248755
 10
91.54791238664039
 20
-122.1200249694701
 10
91.54791238664039
 20
-122.1200249694701
 10
86.56214164502599
 20
-121.5867308029368
 10
81.53336291991062
 20
-121.5867308029368
 10
76.5476252693296
 20
-122.1200249694701
 10
76.5476252693296
 20
-122.1200249694701
 10
76.5476252693296
 20
-122.7201705248755
 10
76.5476252693296
 20
-122.7201705248755
 10
76.5476252693296
 20
-122.7201705248755
 10
83.54768870185421
 20
-122.7201705248755
 10
83.54768870185421
 20
-122.7201705248755
 10
83.54768870185421
 20
-122.7201705248755
 10
83.54768870185421
 20
-135.7198905216257
 10
83.54768870185421
 20
-135.7198905216257
 10
83.54768870185421
 20
-135.7198905216257
 10
77.54771496603742
 20
-135.7198905216257
 10
77.54771496603742
 20
-135.7198905216257
 10
76.99512386902407
 20
-135.7198905216257
 10
76.5476252693296
 20
-136.1677419104028
 10
76.5476252693296
 20
-136.7196627435976
 10
76.5476252693296
 20
-136.7196627435976
 10
100.5471674348281
 20
-136.7196627435976
 10
100.5471674348281
 20
-136.7196627435976
 10
100.5471674348281
 20
-136.7196627435976
 10
100.5471674348281
 20
-136.5701202436351
 10
100.5471674348281
 20
-136.5701202436351
 10
100.5471674348281
 20
-136.3765157992395
 10
100.3907810499289
 20
-136.2200941326119
 10
100.1971413326469
 20
-136.2200941326119
 97
        0
 97
        0
 75
     2
 76
     1
 98
        0
  0
POLYLINE
  5
43
330
1F
100
AcDbEntity
  8
_U+30EC_U+30A4_U+30E4_U+30FC 1
 62
   179
420
  2234388
370
    25
100
AcDb2dPolyline
 66
     1
 10
0.0
 20
0.0
 30
0.0
  0
VERTEX
  5
44
330
43
100
AcDbEntity
  8
_U+30EC_U+30A4_U+30E4_U+30FC 1
 62
   179
420
  2234388
370
    25
100
AcDbVertex
100
AcDb2dVertex
 10
77.54771496603742
 20
-135.7198905216257
 30
0.0
  0
VERTEX
  5
45
330
43
100
AcDbEntity
  8
_U+30EC_U+30A4_U+30E4_U+30FC 1
 62
   179
420
  2234388
370
    25
100
AcDbVertex
100
AcDb2dVertex
 10
83.54768870185421
 20
-135.7198905216257
 30
0.0
  0
SEQEND
  5
46
330
43
100
AcDbEntity
  8
_U+30EC_U+30A4_U+30E4_U+30FC 1
 62
   179
420
  2234388
370
    25
  0
POLYLINE
  5
47
330
1F
100
AcDbEntity
  8
_U+30EC_U+30A4_U+30E4_U+30FC 1
 62
   179
420
  2234388
370
    25
100
AcDb2dPolyline
 66
     1
 10
0.0
 20
0.0
 30
0.0
  0
VERTEX
  5
48
330
47
100
AcDbEntity
  8
_U+30EC_U+30A4_U+30E4_U+30FC 1
 62
   179
420
  2234388
370
    25
100
AcDbVertex
100
AcDb2dVertex
 10
76.5476252693296
 20
-136.7196627435976
 30
0.0
  0
VERTEX
  5
49
330
47
100
AcDbEntity
  8
_U+30EC_U+30A4_U+30E4_U+30FC 1
 62
   179
420
  2234388
370
    25
100
AcDbVertex
100
AcDb2dVertex
 10
100.5471674348281
 20
-136.7196627435976
 30
0.0
  0
SEQEND
  5
4A
330
47
100
AcDbEntity
  8
_U+30EC_U+30A4_U+30E4_U+30FC 1
 62
   179
420
  2234388
370
    25
  0
POLYLINE
  5
4B
330
1F
100
AcDbEntity
  8
_U+30EC_U+30A4_U+30E4_U+30FC 1
 62
   179
420
  2234388
370
    25
100
AcDb2dPolyline
 66
     1
 10
0.0
 20
0.0
 30
0.0
  0
VERTEX
  5
4C
330
4B
100
AcDbEntity
  8
_U+30EC_U+30A4_U+30E4_U+30FC 1
 62
   179
420
  2234388
370
    25
100
AcDbVertex
100
AcDb2dVertex
 10
83.54768870185421
 20
-122.7201705248755
 30
0.0
  0
VERTEX
  5
4D
330
4B
100
AcDbEntity
  8
_U+30EC_U+30A4_U+30E4_U+30FC 1
 62
   179
420
  2234388
370
    25
100
AcDbVertex
100
AcDb2dVertex
 10
83.54768870185421
 20
-135.7198905216257
 30
0.0
  0
SEQEND
  5
4E
330
4B
100
AcDbEntity
  8
_U+30EC_U+30A4_U+30E4_U+30FC 1
 62
   179
420
  2234388
370
    25
  0
POLYLINE
  5
4F
330
1F
100
AcDbEntity
  8
_U+30EC_U+30A4_U+30E4_U+30FC 1
 62
   179
420
  2234388
370
    25
100
AcDb2dPolyline
 66
     1
 10
0.0
 20
0.0
 30
0.0
  0
VERTEX
  5
50
330
4F
100
AcDbEntity
  8
_U+30EC_U+30A4_U+30E4_U+30FC 1
 62
   179
420
  2234388
370
    25
100
AcDbVertex
100
AcDb2dVertex
 10
84.54746089857012
 20
-122.7201705248755
 30
0.0
  0
VERTEX
  5
51
330
4F
100
AcDbEntity
  8
_U+30EC_U+30A4_U+30E4_U+30FC 1
 62
   179
420
  2234388
370
    25
100
AcDbVertex
100
AcDb2dVertex
 10
84.54746089857012
 20
-135.7198905216257
 30
0.0
  0
SEQEND
  5
52
330
4F
100
AcDbEntity
  8
_U+30EC_U+30A4_U+30E4_U+30FC 1
 62
   179
420
  2234388
370
    25
  0
POLYLINE
  5
53
330
1F
100
AcDbEntity
  8
_U+30EC_U+30A4_U+30E4_U+30FC 1
 62
   179
420
  2234388
370
    25
100
AcDb2dPolyline
 66
     1
 10
0.0
 20
0.0
 30
0.0
  0
VERTEX
  5
54
330
53
100
AcDbEntity
  8
_U+30EC_U+30A4_U+30E4_U+30FC 1
 62
   179
420
  2234388
370
    25
100
AcDbVertex
100
AcDb2dVertex
 10
84.54746089857012
 20
-135.7198905216257
 30
0.0
  0
VERTEX
  5
55
330
53
100
AcDbEntity
  8
_U+30EC_U+30A4_U+30E4_U+30FC 1
 62
   179
420
  2234388
370
    25
100
AcDbVertex
100
AcDb2dVertex
 10
93.6810889988852
 20
-135.7198905216257
 30
0.0
  0
SEQEND
  5
56
330
53
100
AcDbEntity
  8
_U+30EC_U+30A4_U+30E4_U+30FC 1
 62
   179
420
  2234388
370
    25
  0
POLYLINE
  5
57
330
1F
100
AcDbEntity
  8
_U+30EC_U+30A4_U+30E4_U+30FC 1
 62
   179
420
  2234388
370
    25
100
AcDb2dPolyline
 66
     1
 10
0.0
 20
0.0
 30
0.0
  0
VERTEX
  5
58
330
57
100
AcDbEntity
  8
_U+30EC_U+30A4_U+30E4_U+30FC 1
 62
   179
420
  2234388
370
    25
100
AcDbVertex
100
AcDb2dVertex
 10
84.54746089857012
 20
-122.7201705248755
 30
0.0
  0
VERTEX
  5
59
330
57
100
AcDbEntity
  8
_U+30EC_U+30A4_U+30E4_U+30FC 1
 62
   179
420
  2234388
370
    25
100
AcDbVertex
100
AcDb2dVertex
 10
91.54791238664039
 20
-122.7201705248755
 30
0.0
  0
SEQEND
  5
5A
330
57
100
AcDbEntity
  8
_U+30EC_U+30A4_U+30E4_U+30FC 1
 62
   179
420
  2234388
370
    25
  0
POLYLINE
  5
5B
330
1F
100
AcDbEntity
  8
_U+30EC_U+30A4_U+30E4_U+30FC 1
 62
   179
420
  2234388
370
    25
100
AcDb2dPolyline
 66
     1
 10
0.0
 20
0.0
 30
0.0
  0
VERTEX
  5
5C
330
5B
100
AcDbEntity
  8
_U+30EC_U+30A4_U+30E4_U+30FC 1
 62
   179
420
  2234388
370
    25
100
AcDbVertex
100
AcDb2dVertex
 10
76.5476252693296
 20
-122.7201705248755
 30
0.0
  0
VERTEX
  5
5D
330
5B
100
AcDbEntity
  8
_U+30EC_U+30A4_U+30E4_U+30FC 1
 62
   179
420
  2234388
370
    25
100
AcDbVertex
100
AcDb2dVertex
 10
83.54768870185421
 20
-122.7201705248755
 30
0.0
  0
SEQEND
  5
5E
330
5B
100
AcDbEntity
  8
_U+30EC_U+30A4_U+30E4_U+30FC 1
 62
   179
420
  2234388
370
    25
  0
POLYLINE
  5
5F
330
1F
100
AcDbEntity
  8
_U+30EC_U+30A4_U+30E4_U+30FC 1
 62
   179
420
  2234388
370
    25
100
AcDb2dPolyline
 66
     1
 10
0.0
 20
0.0
 30
0.0
  0
VERTEX
  5
60
330
5F
100
AcDbEntity
  8
_U+30EC_U+30A4_U+30E4_U+30FC 1
 62
   179
420
  2234388
370
    25
100
AcDbVertex
100
AcDb2dVertex
 10
94.54719369901125
 20
-136.2200941326119
 30
0.0
  0
VERTEX
  5
61
330
5F
100
AcDbEntity
  8
_U+30EC_U+30A4_U+30E4_U+30FC 1
 62
   179
420
  2234388
370
    25
100
AcDbVertex
100
AcDb2dVertex
 10
100.1971413326469
 20
-136.2200941326119
 30
0.0
  0
SEQEND
  5
62
330
5F
100
AcDbEntity
  8
_U+30EC_U+30A4_U+30E4_U+30FC 1
 62
   179
420
  2234388
370
    25
  0
POLYLINE
  5
63
330
1F
100
AcDbEntity
  8
_U+30EC_U+30A4_U+30E4_U+30FC 1
 62
   179
420
  2234388
370
    25
100
AcDb2dPolyline
 66
     1
 10
0.0
 20
0.0
 30
0.0
  0
VERTEX
  5
64
330
63
100
AcDbEntity
  8
_U+30EC_U+30A4_U+30E4_U+30FC 1
 62
   179
420
  2234388
370
    25
100
AcDbVertex
100
AcDb2dVertex
 10
91.54791238664039
 20
-122.1200249694701
 30
0.0
  0
VERTEX
  5
65
330
63
100
AcDbEntity
  8
_U+30EC_U+30A4_U+30E4_U+30FC 1
 62
   179
420
  2234388
370
    25
100
AcDbVertex
100
AcDb2dVertex
 10
91.54791238664039
 20
-122.7201705248755
 30
0.0
  0
SEQEND
  5
66
330
63
100
AcDbEntity
  8
_U+30EC_U+30A4_U+30E4_U+30FC 1
 62
   179
420
  2234388
370
    25
  0
POLYLINE
  5
67
330
1F
100
AcDbEntity
  8
_U+30EC_U+30A4_U+30E4_U+30FC 1
 62
   179
420
  2234388
370
    25
100
AcDb2dPolyline
 66
     1
 10
0.0
 20
0.0
 30
0.0
  0
VERTEX
  5
68
330
67
100
AcDbEntity
  8
_U+30EC_U+30A4_U+30E4_U+30FC 1
 62
   179
420
  2234388
370
    25
100
AcDbVertex
100
AcDb2dVertex
 10
76.5476252693296
 20
-122.1200249694701
 30
0.0
  0
VERTEX
  5
69
330
67
100
AcDbEntity
  8
_U+30EC_U+30A4_U+30E4_U+30FC 1
 62
   179
420
  2234388
370
    25
100
AcDbVertex
100
AcDb2dVertex
 10
76.5476252693296
 20
-122.7201705248755
 30
0.0
  0
SEQEND
  5
6A
330
67
100
AcDbEntity
  8
_U+30EC_U+30A4_U+30E4_U+30FC 1
 62
   179
420
  2234388
370
    25
  0
POLYLINE
  5
6B
330
1F
100
AcDbEntity
  8
_U+30EC_U+30A4_U+30E4_U+30FC 1
 62
   179
420
  2234388
370
    25
100
AcDb2dPolyline
 66
     1
 10
0.0
 20
0.0
 30
0.0
  0
VERTEX
  5
6C
330
6B
100
AcDbEntity
  8
_U+30EC_U+30A4_U+30E4_U+30FC 1
 62
   179
420
  2234388
370
    25
100
AcDbVertex
100
AcDb2dVertex
 10
100.5471674348281
 20
-136.5701202436351
 30
0.0
  0
VERTEX
  5
6D
330
6B
100
AcDbEntity
  8
_U+30EC_U+30A4_U+30E4_U+30FC 1
 62
   179
420
  2234388
370
    25
100
AcDbVertex
100
AcDb2dVertex
 10
100.5471674348281
 20
-136.7196627435976
 30
0.0
  0
SEQEND
  5
6E
330
6B
100
AcDbEntity
  8
_U+30EC_U+30A4_U+30E4_U+30FC 1
 62
   179
420
  2234388
370
    25
  0
SPLINE
  5
6F
330
1F
100
AcDbEntity
  8
_U+30EC_U+30A4_U+30E4_U+30FC 1
 62
   179
420
  2234388
370
    25
100
AcDbSpline
210
0.0
220
0.0
230
1.0
 70
     8
 71
     3
 72
     8
 73
     4
 74
     0
 42
0.0000000001
 43
0.0000000001
 12
1.0
 22
0.0
 32
0.0
 13
1.0
 23
0.0
 33
0.0
 40
0.0
 40
0.0
 40
0.0
 40
0.0
 40
1.0
 40
1.0
 40
1.0
 40
1.0
 10
91.54791238664039
 20
-122.1200249694701
 30
0.0
 10
86.56214164502599
 20
-121.5867308029368
 30
0.0
 10
81.53336291991062
 20
-121.5867308029368
 30
0.0
 10
76.5476252693296
 20
-122.1200249694701
 30
0.0
  0
SPLINE
  5
70
330
1F
100
AcDbEntity
  8
_U+30EC_U+30A4_U+30E4_U+30FC 1
 62
   179
420
  2234388
370
    25
100
AcDbSpline
210
0.0
220
0.0
230
1.0
 70
     8
 71
     3
 72
     8
 73
     4
 74
     0
 42
0.0000000001
 43
0.0000000001
 12
1.0
 22
0.0
 32
0.0
 13
1.0
 23
0.0
 33
0.0
 40
0.0
 40
0.0
 40
0.0
 40
0.0
 40
1.0
 40
1.0
 40
1.0
 40
1.0
 10
94.54719369901125
 20
-136.2200941326119
 30
0.0
 10
94.36876108751908
 20
-135.9107432993555
 30
0.0
 10
94.03869982309511
 20
-135.7198905216257
 30
0.0
 10
93.6810889988852
 20
-135.7198905216257
 30
0.0
  0
SPLINE
  5
71
330
1F
100
AcDbEntity
  8
_U+30EC_U+30A4_U+30E4_U+30FC 1
 62
   179
420
  2234388
370
    25
100
AcDbSpline
210
0.0
220
0.0
230
1.0
 70
     8
 71
     3
 72
     8
 73
     4
 74
     0
 42
0.0000000001
 43
0.0000000001
 12
1.0
 22
0.0
 32
0.0
 13
1.0
 23
0.0
 33
0.0
 40
0.0
 40
0.0
 40
0.0
 40
0.0
 40
1.0
 40
1.0
 40
1.0
 40
1.0
 10
77.54771496603742
 20
-135.7198905216257
 30
0.0
 10
76.99512386902407
 20
-135.7198905216257
 30
0.0
 10
76.5476252693296
 20
-136.1677419104028
 30
0.0
 10
76.5476252693296
 20
-136.7196627435976
 30
0.0
  0
SPLINE
  5
72
330
1F
100
AcDbEntity
  8
_U+30EC_U+30A4_U+30E4_U+30FC 1
 62
   179
420
  2234388
370
    25
100
AcDbSpline
210
0.0
220
0.0
230
1.0
 70
     8
 71
     3
 72
     8
 73
     4
 74
     0
 42
0.0000000001
 43
0.0000000001
 12
1.0
 22
0.0
 32
0.0
 13
1.0
 23
0.0
 33
0.0
 40
0.0
 40
0.0
 40
0.0
 40
0.0
 40
1.0
 40
1.0
 40
1.0
 40
1.0
 10
100.5471674348281
 20
-136.5701202436351
 30
0.0
 10
100.5471674348281
 20
-136.3765157992395
 30
0.0
 10
100.3907810499289
 20
-136.2200941326119
 30
0.0
 10
100.1971413326469
 20
-136.2200941326119
 30
0.0
  0
SPLINE
  5
73
330
1F
100
AcDbEntity
  8
_U+30EC_U+30A4_U+30E4_U+30FC 1
 62
   179
420
  2234388
370
     9
100
AcDbSpline
210
0.0
220
0.0
230
1.0
 70
    11
 71
     3
 72
    17
 73
    13
 74
     0
 42
0.0000000001
 43
0.0000000001
 12
1.0
 22
0.0
 32
0.0
 13
1.0
 23
0.0
 33
0.0
 40
0.0
 40
0.0
 40
0.0
 40
0.0
 40
1.0
 40
1.0
 40
1.0
 40
2.0
 40
2.0
 40
2.0
 40
3.0
 40
3.0
 40
3.0
 40
4.0
 40
4.0
 40
4.0
 40
4.0
 10
76.64753193344744
 20
-117.7199335816812
 30
0.0
 10
76.64753193344744
 20
-117.6648296928059
 30
0.0
 10
76.60272915681267
 20
-117.6200269150395
 30
0.0
 10
76.5476252693296
 20
-117.6200269150395
 30
0.0
 10
76.49213332630087
 20
-117.6200269150395
 30
0.0
 10
76.447365827443
 20
-117.6648296928059
 30
0.0
 10
76.447365827443
 20
-117.7199335816812
 30
0.0
 10
76.447365827443
 20
-117.7750727483339
 30
0.0
 10
76.49213332630087
 20
-117.8198402483228
 30
0.0
 10
76.5476252693296
 20
-117.8198402483228
 30
0.0
 10
76.60272915681267
 20
-117.8198402483228
 30
0.0
 10
76.64753193344744
 20
-117.7750727483339
 30
0.0
 10
76.64753193344744
 20
-117.7199335816812
 30
0.0
  0
SPLINE
  5
74
330
1F
100
AcDbEntity
  8
_U+30EC_U+30A4_U+30E4_U+30FC 1
 62
   179
420
  2234388
370
     9
100
AcDbSpline
210
0.0
220
0.0
230
1.0
 70
    11
 71
     3
 72
    17
 73
    13
 74
     0
 42
0.0000000001
 43
0.0000000001
 12
1.0
 22
0.0
 32
0.0
 13
1.0
 23
0.0
 33
0.0
 40
0.0
 40
0.0
 40
0.0
 40
0.0
 40
1.0
 40
1.0
 40
1.0
 40
2.0
 40
2.0
 40
2.0
 40
3.0
 40
3.0
 40
3.0
 40
4.0
 40
4.0
 40
4.0
 40
4.0
 10
91.64781905075823
 20
-117.7199335816812
 30
0.0
 10
91.64781905075823
 20
-117.6648296928059
 30
0.0
 10
91.60301627412348
 20
-117.6200269150395
 30
0.0
 10
91.54791238664039
 20
-117.6200269150395
 30
0.0
 10
91.49277322138045
 20
-117.6200269150395
 30
0.0
 10
91.44800572252257
 20
-117.6648296928059
 30
0.0
 10
91.44800572252257
 20
-117.7199335816812
 30
0.0
 10
91.44800572252257
 20
-117.7750727483339
 30
0.0
 10
91.49277322138045
 20
-117.8198402483228
 30
0.0
 10
91.54791238664039
 20
-117.8198402483228
 30
0.0
 10
91.60301627412348
 20
-117.8198402483228
 30
0.0
 10
91.64781905075823
 20
-117.7750727483339
 30
0.0
 10
91.64781905075823
 20
-117.7199335816812
 30
0.0
  0
SPLINE
  5
75
330
1F
100
AcDbEntity
  8
_U+30EC_U+30A4_U+30E4_U+30FC 1
 62
   179
420
  2234388
370
     9
100
AcDbSpline
210
0.0
220
0.0
230
1.0
 70
    11
 71
     3
 72
    17
 73
    13
 74
     0
 42
0.0000000001
 43
0.0000000001
 12
1.0
 22
0.0
 32
0.0
 13
1.0
 23
0.0
 33
0.0
 40
0.0
 40
0.0
 40
0.0
 40
0.0
 40
1.0
 40
1.0
 40
1.0
 40
2.0
 40
2.0
 40
2.0
 40
3.0
 40
3.0
 40
3.0
 40
4.0
 40
4.0
 40
4.0
 40
4.0
 10
104.4842378899406
 20
-122.7201705248755
 30
0.0
 10
104.4842378899406
 20
-122.664361080445
 30
0.0
 10
104.4394351133058
 20
-122.6195583026783
 30
0.0
 10
104.3843312258227
 20
-122.6195583026783
 30
0.0
 10
104.3291920605628
 20
-122.6195583026783
 30
0.0
 10
104.2844245617049
 20
-122.664361080445
 30
0.0
 10
104.2844245617049
 20
-122.7201705248755
 30
0.0
 10
104.2844245617049
 20
-122.7752744137507
 30
0.0
 10
104.3291920605628
 20
-122.8200771915171
 30
0.0
 10
104.3843312258227
 20
-122.8200771915171
 30
0.0
 10
104.4394351133058
 20
-122.8200771915171
 30
0.0
 10
104.4842378899406
 20
-122.7752744137507
 30
0.0
 10
104.4842378899406
 20
-122.7201705248755
 30
0.0
  0
SPLINE
  5
76
330
1F
100
AcDbEntity
  8
_U+30EC_U+30A4_U+30E4_U+30FC 1
 62
   179
420
  2234388
370
     9
100
AcDbSpline
210
0.0
220
0.0
230
1.0
 70
    11
 71
     3
 72
    17
 73
    13
 74
     0
 42
0.0000000001
 43
0.0000000001
 12
1.0
 22
0.0
 32
0.0
 13
1.0
 23
0.0
 33
0.0
 40
0.0
 40
0.0
 40
0.0
 40
0.0
 40
1.0
 40
1.0
 40
1.0
 40
2.0
 40
2.0
 40
2.0
 40
3.0
 40
3.0
 40
3.0
 40
4.0
 40
4.0
 40
4.0
 40
4.0
 10
104.4842378899406
 20
-135.7198905216257
 30
0.0
 10
104.4842378899406
 20
-135.6647513549726
 30
0.0
 10
104.4394351133058
 20
-135.6199838549841
 30
0.0
 10
104.3843312258227
 20
-135.6199838549841
 30
0.0
 10
104.3291920605628
 20
-135.6199838549841
 30
0.0
 10
104.2844245617049
 20
-135.6647513549726
 30
0.0
 10
104.2844245617049
 20
-135.7198905216257
 30
0.0
 10
104.2844245617049
 20
-135.7749944105006
 30
0.0
 10
104.3291920605628
 20
-135.8197971882674
 30
0.0
 10
104.3843312258227
 20
-135.8197971882674
 30
0.0
 10
104.4394351133058
 20
-135.8197971882674
 30
0.0
 10
104.4842378899406
 20
-135.7749944105006
 30
0.0
 10
104.4842378899406
 20
-135.7198905216257
 30
0.0
  0
SPLINE
  5
77
330
1F
100
AcDbEntity
  8
_U+30EC_U+30A4_U+30E4_U+30FC 1
 62
   179
420
  2234388
370
    25
100
AcDbSpline
210
0.0
220
0.0
230
1.0
 70
    11
 71
     3
 72
    17
 73
    13
 74
     0
 42
0.0000000001
 43
0.0000000001
 12
1.0
 22
0.0
 32
0.0
 13
1.0
 23
0.0
 33
0.0
 40
0.0
 40
0.0
 40
0.0
 40
0.0
 40
1.0
 40
1.0
 40
1.0
 40
2.0
 40
2.0
 40
2.0
 40
3.0
 40
3.0
 40
3.0
 40
4.0
 40
4.0
 40
4.0
 40
4.0
 10
100.6470740989459
 20
-140.7200921870425
 30
0.0
 10
100.6470740989459
 20
-140.6649882981669
 30
0.0
 10
100.602306600088
 20
-140.6201855204002
 30
0.0
 10
100.5471674348281
 20
-140.6201855204002
 30
0.0
 10
100.492063547345
 20
-140.6201855204002
 30
0.0
 10
100.4472607707102
 20
-140.6649882981669
 30
0.0
 10
100.4472607707102
 20
-140.7200921870425
 30
0.0
 10
100.4472607707102
 20
-140.7752313536949
 30
0.0
 10
100.492063547345
 20
-140.8199988536841
 30
0.0
 10
100.5471674348281
 20
-140.8199988536841
 30
0.0
 10
100.602306600088
 20
-140.8199988536841
 30
0.0
 10
100.6470740989459
 20
-140.7752313536949
 30
0.0
 10
100.6470740989459
 20
-140.7200921870425
 30
0.0
  0
SPLINE
  5
78
330
1F
100
AcDbEntity
  8
_U+30EC_U+30A4_U+30E4_U+30FC 1
 62
   179
420
  2234388
370
    25
100
AcDbSpline
210
0.0
220
0.0
230
1.0
 70
    11
 71
     3
 72
    17
 73
    13
 74
     0
 42
0.0000000001
 43
0.0000000001
 12
1.0
 22
0.0
 32
0.0
 13
1.0
 23
0.0
 33
0.0
 40
0.0
 40
0.0
 40
0.0
 40
0.0
 40
1.0
 40
1.0
 40
1.0
 40
2.0
 40
2.0
 40
2.0
 40
3.0
 40
3.0
 40
3.0
 40
4.0
 40
4.0
 40
4.0
 40
4.0
 10
76.64753193344744
 20
-140.7200921870425
 30
0.0
 10
76.64753193344744
 20
-140.6649882981669
 30
0.0
 10
76.60272915681267
 20
-140.6201855204002
 30
0.0
 10
76.5476252693296
 20
-140.6201855204002
 30
0.0
 10
76.49213332630087
 20
-140.6201855204002
 30
0.0
 10
76.447365827443
 20
-140.6649882981669
 30
0.0
 10
76.447365827443
 20
-140.7200921870425
 30
0.0
 10
76.447365827443
 20
-140.7752313536949
 30
0.0
 10
76.49213332630087
 20
-140.8199988536841
 30
0.0
 10
76.5476252693296
 20
-140.8199988536841
 30
0.0
 10
76.60272915681267
 20
-140.8199988536841
 30
0.0
 10
76.64753193344744
 20
-140.7752313536949
 30
0.0
 10
76.64753193344744
 20
-140.7200921870425
 30
0.0
  0
POLYLINE
  5
79
330
1F
100
AcDbEntity
  8
_U+30EC_U+30A4_U+30E4_U+30FC 1
 62
   179
420
  2234388
370
     9
100
AcDb2dPolyline
 66
     1
 10
0.0
 20
0.0
 30
0.0
  0
VERTEX
  5
7A
330
79
100
AcDbEntity
  8
_U+30EC_U+30A4_U+30E4_U+30FC 1
 62
   179
420
  2234388
370
     9
100
AcDbVertex
100
AcDb2dVertex
 10
104.3843312258227
 20
-135.7198905216257
 30
0.0
  0
VERTEX
  5
7B
330
79
100
AcDbEntity
  8
_U+30EC_U+30A4_U+30E4_U+30FC 1
 62
   179
420
  2234388
370
     9
100
AcDbVertex
100
AcDb2dVertex
 10
104.3843312258227
 20
-122.7201705248755
 30
0.0
  0
SEQEND
  5
7C
330
79
100
AcDbEntity
  8
_U+30EC_U+30A4_U+30E4_U+30FC 1
 62
   179
420
  2234388
370
     9
  0
POLYLINE
  5
7D
330
1F
100
AcDbEntity
  8
_U+30EC_U+30A4_U+30E4_U+30FC 1
 62
   179
420
  2234388
370
     9
100
AcDb2dPolyline
 66
     1
 10
0.0
 20
0.0
 30
0.0
  0
VERTEX
  5
7E
330
7D
100
AcDbEntity
  8
_U+30EC_U+30A4_U+30E4_U+30FC 1
 62
   179
420
  2234388
370
     9
100
AcDbVertex
100
AcDb2dVertex
 10
103.3886865290015
 20
-135.7198905216257
 30
0.0
  0
VERTEX
  5
7F
330
7D
100
AcDbEntity
  8
_U+30EC_U+30A4_U+30E4_U+30FC 1
 62
   179
420
  2234388
370
     9
100
AcDbVertex
100
AcDb2dVertex
 10
105.3841034225386
 20
-135.7198905216257
 30
0.0
  0
SEQEND
  5
80
330
7D
100
AcDbEntity
  8
_U+30EC_U+30A4_U+30E4_U+30FC 1
 62
   179
420
  2234388
370
     9
  0
POLYLINE
  5
81
330
1F
100
AcDbEntity
  8
_U+30EC_U+30A4_U+30E4_U+30FC 1
 62
   179
420
  2234388
370
     9
100
AcDb2dPolyline
 66
     1
 10
0.0
 20
0.0
 30
0.0
  0
VERTEX
  5
82
330
81
100
AcDbEntity
  8
_U+30EC_U+30A4_U+30E4_U+30FC 1
 62
   179
420
  2234388
370
     9
100
AcDbVertex
100
AcDb2dVertex
 10
102.8843201529801
 20
-122.7201705248755
 30
0.0
  0
VERTEX
  5
83
330
81
100
AcDbEntity
  8
_U+30EC_U+30A4_U+30E4_U+30FC 1
 62
   179
420
  2234388
370
     9
100
AcDbVertex
100
AcDb2dVertex
 10
105.3841034225386
 20
-122.7201705248755
 30
0.0
  0
SEQEND
  5
84
330
81
100
AcDbEntity
  8
_U+30EC_U+30A4_U+30E4_U+30FC 1
 62
   179
420
  2234388
370
     9
  0
INSERT
  5
86
330
1F
100
AcDbEntity
  8
_U+30EC_U+30A4_U+30E4_U+30FC 1
100
AcDbBlockReference
  2
block 2
 10
0.0
 20
0.0
 30
0.0
  0
POLYLINE
  5
8D
330
1F
100
AcDbEntity
  8
_U+30EC_U+30A4_U+30E4_U+30FC 1
 62
   179
420
  2234388
370
     9
100
AcDb2dPolyline
 66
     1
 10
0.0
 20
0.0
 30
0.0
  0
VERTEX
  5
8E
330
8D
100
AcDbEntity
  8
_U+30EC_U+30A4_U+30E4_U+30FC 1
 62
   179
420
  2234388
370
     9
100
AcDbVertex
100
AcDb2dVertex
 10
76.5476252693296
 20
-117.7199335816812
 30
0.0
  0
VERTEX
  5
8F
330
8D
100
AcDbEntity
  8
_U+30EC_U+30A4_U+30E4_U+30FC 1
 62
   179
420
  2234388
370
     9
100
AcDbVertex
100
AcDb2dVertex
 10
91.54791238664039
 20
-117.7199335816812
 30
0.0
  0
SEQEND
  5
90
330
8D
100
AcDbEntity
  8
_U+30EC_U+30A4_U+30E4_U+30FC 1
 62
   179
420
  2234388
370
     9
  0
POLYLINE
  5
91
330
1F
100
AcDbEntity
  8
_U+30EC_U+30A4_U+30E4_U+30FC 1
 62
   179
420
  2234388
370
     9
100
AcDb2dPolyline
 66
     1
 10
0.0
 20
0.0
 30
0.0
  0
VERTEX
  5
92
330
91
100
AcDbEntity
  8
_U+30EC_U+30A4_U+30E4_U+30FC 1
 62
   179
420
  2234388
370
     9
100
AcDbVertex
100
AcDb2dVertex
 10
76.5476252693296
 20
-119.5796016367718
 30
0.0
  0
VERTEX
  5
93
330
91
100
AcDbEntity
  8
_U+30EC_U+30A4_U+30E4_U+30FC 1
 62
   179
420
  2234388
370
     9
100
AcDbVertex
100
AcDb2dVertex
 10
76.5476252693296
 20
-116.7201966374865
 30
0.0
  0
SEQEND
  5
94
330
91
100
AcDbEntity
  8
_U+30EC_U+30A4_U+30E4_U+30FC 1
 62
   179
420
  2234388
370
     9
  0
POLYLINE
  5
95
330
1F
100
AcDbEntity
  8
_U+30EC_U+30A4_U+30E4_U+30FC 1
 62
   179
420
  2234388
370
     9
100
AcDb2dPolyline
 66
     1
 10
0.0
 20
0.0
 30
0.0
  0
VERTEX
  5
96
330
95
100
AcDbEntity
  8
_U+30EC_U+30A4_U+30E4_U+30FC 1
 62
   179
420
  2234388
370
     9
100
AcDbVertex
100
AcDb2dVertex
 10
91.54791238664039
 20
-119.5796016367718
 30
0.0
  0
VERTEX
  5
97
330
95
100
AcDbEntity
  8
_U+30EC_U+30A4_U+30E4_U+30FC 1
 62
   179
420
  2234388
370
     9
100
AcDbVertex
100
AcDb2dVertex
 10
91.54791238664039
 20
-116.7201966374865
 30
0.0
  0
SEQEND
  5
98
330
95
100
AcDbEntity
  8
_U+30EC_U+30A4_U+30E4_U+30FC 1
 62
   179
420
  2234388
370
     9
  0
INSERT
  5
9A
330
1F
100
AcDbEntity
  8
_U+30EC_U+30A4_U+30E4_U+30FC 1
100
AcDbBlockReference
  2
block 3
 10
0.0
 20
0.0
 30
0.0
  0
POLYLINE
  5
A1
330
1F
100
AcDbEntity
  8
_U+30EC_U+30A4_U+30E4_U+30FC 1
 62
   179
420
  2234388
370
     9
100
AcDb2dPolyline
 66
     1
 10
0.0
 20
0.0
 30
0.0
  0
VERTEX
  5
A2
330
A1
100
AcDbEntity
  8
_U+30EC_U+30A4_U+30E4_U+30FC 1
 62
   179
420
  2234388
370
     9
100
AcDbVertex
100
AcDb2dVertex
 10
76.5476252693296
 20
-140.7200921870425
 30
0.0
  0
VERTEX
  5
A3
330
A1
100
AcDbEntity
  8
_U+30EC_U+30A4_U+30E4_U+30FC 1
 62
   179
420
  2234388
370
     9
100
AcDbVertex
100
AcDb2dVertex
 10
100.5471674348281
 20
-140.7200921870425
 30
0.0
  0
SEQEND
  5
A4
330
A1
100
AcDbEntity
  8
_U+30EC_U+30A4_U+30E4_U+30FC 1
 62
   179
420
  2234388
370
     9
  0
POLYLINE
  5
A5
330
1F
100
AcDbEntity
  8
_U+30EC_U+30A4_U+30E4_U+30FC 1
 62
   179
420
  2234388
370
     9
100
AcDb2dPolyline
 66
     1
 10
0.0
 20
0.0
 30
0.0
  0
VERTEX
  5
A6
330
A5
100
AcDbEntity
  8
_U+30EC_U+30A4_U+30E4_U+30FC 1
 62
   179
420
  2234388
370
     9
100
AcDbVertex
100
AcDb2dVertex
 10
76.5476252693296
 20
-139.2600507985181
 30
0.0
  0
VERTEX
  5
A7
330
A5
100
AcDbEntity
  8
_U+30EC_U+30A4_U+30E4_U+30FC 1
 62
   179
420
  2234388
370
     9
100
AcDbVertex
100
AcDb2dVertex
 10
76.5476252693296
 20
-141.7198644090144
 30
0.0
  0
SEQEND
  5
A8
330
A5
100
AcDbEntity
  8
_U+30EC_U+30A4_U+30E4_U+30FC 1
 62
   179
420
  2234388
370
     9
  0
POLYLINE
  5
A9
330
1F
100
AcDbEntity
  8
_U+30EC_U+30A4_U+30E4_U+30FC 1
 62
   179
420
  2234388
370
     9
100
AcDb2dPolyline
 66
     1
 10
0.0
 20
0.0
 30
0.0
  0
VERTEX
  5
AA
330
A9
100
AcDbEntity
  8
_U+30EC_U+30A4_U+30E4_U+30FC 1
 62
   179
420
  2234388
370
     9
100
AcDbVertex
100
AcDb2dVertex
 10
100.5471674348281
 20
-139.2600507985181
 30
0.0
  0
VERTEX
  5
AB
330
A9
100
AcDbEntity
  8
_U+30EC_U+30A4_U+30E4_U+30FC 1
 62
   179
420
  2234388
370
     9
100
AcDbVertex
100
AcDb2dVertex
 10
100.5471674348281
 20
-141.7198644090144
 30
0.0
  0
SEQEND
  5
AC
330
A9
100
AcDbEntity
  8
_U+30EC_U+30A4_U+30E4_U+30FC 1
 62
   179
420
  2234388
370
     9
  0
INSERT
  5
AE
330
1F
100
AcDbEntity
  8
_U+30EC_U+30A4_U+30E4_U+30FC 1
100
AcDbBlockReference
  2
block 4
 10
0.0
 20
0.0
 30
0.0
  0
SPLINE
  5
C8
330
1F
100
AcDbEntity
  8
_U+30EC_U+30A4_U+30E4_U+30FC 1
 62
   179
420
  2234388
370
     9
100
AcDbSpline
210
0.0
220
0.0
230
1.0
 70
    11
 71
     3
 72
    17
 73
    13
 74
     0
 42
0.0000000001
 43
0.0000000001
 12
1.0
 22
0.0
 32
0.0
 13
1.0
 23
0.0
 33
0.0
 40
0.0
 40
0.0
 40
0.0
 40
0.0
 40
1.0
 40
1.0
 40
1.0
 40
2.0
 40
2.0
 40
2.0
 40
3.0
 40
3.0
 40
3.0
 40
4.0
 40
4.0
 40
4.0
 40
4.0
 10
83.65313609019798
 20
-129.2200305232504
 30
0.0
 10
83.65313609019798
 20
-129.1648913565974
 30
0.0
 10
83.60833331243126
 20
-129.1201238566088
 30
0.0
 10
83.55322731282403
 20
-129.1201238566088
 30
0.0
 10
83.49808814756408
 20
-129.1201238566088
 30
0.0
 10
83.45328537092932
 20
-129.1648913565974
 30
0.0
 10
83.45328537092932
 20
-129.2200305232504
 30
0.0
 10
83.45328537092932
 20
-129.2751344121253
 30
0.0
 10
83.49808814756408
 20
-129.3199371898921
 30
0.0
 10
83.55322731282403
 20
-129.3199371898921
 30
0.0
 10
83.60833331243126
 20
-129.3199371898921
 30
0.0
 10
83.65313609019798
 20
-129.2751344121253
 30
0.0
 10
83.65313609019798
 20
-129.2200305232504
 30
0.0
  0
SPLINE
  5
C9
330
1F
100
AcDbEntity
  8
_U+30EC_U+30A4_U+30E4_U+30FC 1
 62
   179
420
  2234388
370
     9
100
AcDbSpline
210
0.0
220
0.0
230
1.0
 70
    11
 71
     3
 72
    17
 73
    13
 74
     0
 42
0.0000000001
 43
0.0000000001
 12
1.0
 22
0.0
 32
0.0
 13
1.0
 23
0.0
 33
0.0
 40
0.0
 40
0.0
 40
0.0
 40
0.0
 40
1.0
 40
1.0
 40
1.0
 40
2.0
 40
2.0
 40
2.0
 40
3.0
 40
3.0
 40
3.0
 40
4.0
 40
4.0
 40
4.0
 40
4.0
 10
84.6528708958809
 20
-129.2200305232504
 30
0.0
 10
84.6528708958809
 20
-129.1648913565974
 30
0.0
 10
84.60810553440348
 20
-129.1201238566088
 30
0.0
 10
84.55296423176306
 20
-129.1201238566088
 30
0.0
 10
84.49786034427999
 20
-129.1201238566088
 30
0.0
 10
84.45305756764522
 20
-129.1648913565974
 30
0.0
 10
84.45305756764522
 20
-129.2200305232504
 30
0.0
 10
84.45305756764522
 20
-129.2751344121253
 30
0.0
 10
84.49786034427999
 20
-129.3199371898921
 30
0.0
 10
84.55296423176306
 20
-129.3199371898921
 30
0.0
 10
84.60810553440348
 20
-129.3199371898921
 30
0.0
 10
84.6528708958809
 20
-129.2751344121253
 30
0.0
 10
84.6528708958809
 20
-129.2200305232504
 30
0.0
  0
INSERT
  5
CB
330
1F
100
AcDbEntity
  8
_U+30EC_U+30A4_U+30E4_U+30FC 1
100
AcDbBlockReference
  2
block 5
 10
0.0
 20
0.0
 30
0.0
  0
POLYLINE
  5
D0
330
1F
100
AcDbEntity
  8
_U+30EC_U+30A4_U+30E4_U+30FC 1
 62
   179
420
  2234388
370
     9
100
AcDb2dPolyline
 66
     1
 10
0.0
 20
0.0
 30
0.0
  0
VERTEX
  5
D1
330
D0
100
AcDbEntity
  8
_U+30EC_U+30A4_U+30E4_U+30FC 1
 62
   179
420
  2234388
370
     9
100
AcDbVertex
100
AcDb2dVertex
 10
85.41423587645686
 20
-129.2200305232504
 30
0.0
  0
VERTEX
  5
D2
330
D0
100
AcDbEntity
  8
_U+30EC_U+30A4_U+30E4_U+30FC 1
 62
   179
420
  2234388
370
     9
100
AcDbVertex
100
AcDb2dVertex
 10
81.57537875217204
 20
-129.2200305232504
 30
0.0
  0
SEQEND
  5
D3
330
D0
100
AcDbEntity
  8
_U+30EC_U+30A4_U+30E4_U+30FC 1
 62
   179
420
  2234388
370
     9
  0
SPLINE
  5
D4
330
1F
100
AcDbEntity
  8
_U+30EC_U+30A4_U+30E4_U+30FC 1
 62
   179
420
  2234388
370
     9
100
AcDbSpline
210
0.0
220
0.0
230
1.0
 70
    11
 71
     3
 72
    17
 73
    13
 74
     0
 42
0.0000000001
 43
0.0000000001
 12
1.0
 22
0.0
 32
0.0
 13
1.0
 23
0.0
 33
0.0
 40
0.0
 40
0.0
 40
0.0
 40
0.0
 40
1.0
 40
1.0
 40
1.0
 40
2.0
 40
2.0
 40
2.0
 40
3.0
 40
3.0
 40
3.0
 40
4.0
 40
4.0
 40
4.0
 40
4.0
 10
104.4842378899406
 20
-136.7099966324893
 30
0.0
 10
104.4842378899406
 20
-136.6545399658366
 30
0.0
 10
104.4394351133058
 20
-136.6097371880699
 30
0.0
 10
104.3843312258227
 20
-136.6097371880699
 30
0.0
 10
104.3291920605628
 20
-136.6097371880699
 30
0.0
 10
104.2844245617049
 20
-136.6545399658366
 30
0.0
 10
104.2844245617049
 20
-136.7099966324893
 30
0.0
 10
104.2844245617049
 20
-136.7651357991423
 30
0.0
 10
104.3291920605628
 20
-136.8099032991309
 30
0.0
 10
104.3843312258227
 20
-136.8099032991309
 30
0.0
 10
104.4394351133058
 20
-136.8099032991309
 30
0.0
 10
104.4842378899406
 20
-136.7651357991423
 30
0.0
 10
104.4842378899406
 20
-136.7099966324893
 30
0.0
  0
POLYLINE
  5
D5
330
1F
100
AcDbEntity
  8
_U+30EC_U+30A4_U+30E4_U+30FC 1
 62
   179
420
  2234388
370
     9
100
AcDb2dPolyline
 66
     1
 10
0.0
 20
0.0
 30
0.0
  0
VERTEX
  5
D6
330
D5
100
AcDbEntity
  8
_U+30EC_U+30A4_U+30E4_U+30FC 1
 62
   179
420
  2234388
370
     9
100
AcDbVertex
100
AcDb2dVertex
 10
104.3843312258227
 20
-135.0625596884564
 30
0.0
  0
VERTEX
  5
D7
330
D5
100
AcDbEntity
  8
_U+30EC_U+30A4_U+30E4_U+30FC 1
 62
   179
420
  2234388
370
     9
100
AcDbVertex
100
AcDb2dVertex
 10
104.3843312258227
 20
-136.7099966324893
 30
0.0
  0
SEQEND
  5
D8
330
D5
100
AcDbEntity
  8
_U+30EC_U+30A4_U+30E4_U+30FC 1
 62
   179
420
  2234388
370
     9
  0
POLYLINE
  5
D9
330
1F
100
AcDbEntity
  8
_U+30EC_U+30A4_U+30E4_U+30FC 1
 62
   179
420
  2234388
370
     9
100
AcDb2dPolyline
 66
     1
 10
0.0
 20
0.0
 30
0.0
  0
VERTEX
  5
DA
330
D9
100
AcDbEntity
  8
_U+30EC_U+30A4_U+30E4_U+30FC 1
 62
   179
420
  2234388
370
     9
100
AcDbVertex
100
AcDb2dVertex
 10
103.3886865290015
 20
-136.7099966324893
 30
0.0
  0
VERTEX
  5
DB
330
D9
100
AcDbEntity
  8
_U+30EC_U+30A4_U+30E4_U+30FC 1
 62
   179
420
  2234388
370
     9
100
AcDbVertex
100
AcDb2dVertex
 10
105.3841034225386
 20
-136.7099966324893
 30
0.0
  0
SEQEND
  5
DC
330
D9
100
AcDbEntity
  8
_U+30EC_U+30A4_U+30E4_U+30FC 1
 62
   179
420
  2234388
370
     9
  0
INSERT
  5
DE
330
1F
100
AcDbEntity
  8
_U+30EC_U+30A4_U+30E4_U+30FC 1
100
AcDbBlockReference
  2
block 6
 10
0.0
 20
0.0
 30
0.0
  0
ENDSEC
  0
SECTION
  2
OBJECTS
  0
DICTIONARY
  5
C
330
0
100
AcDbDictionary
281
     1
  3
ACAD_GROUP
350
D
  3
ACAD_LAYOUT
350
1A
  3
ACAD_MATERIAL
350
3B
  3
ACAD_MLEADERSTYLE
350
E4
  3
ACAD_MLINESTYLE
350
17
  3
ACAD_PLOTSETTINGS
350
19
  3
ACAD_PLOTSTYLENAME
350
E
  3
ACAD_TABLESTYLE
350
E3
  3
ACAD_VISUALSTYLE
350
2A
  0
SUN
  5
3F
330
29
100
AcDbSun
 90
        1
290
     0
 63
     7
421
 16777215
 40
1.0
291
     1
 91
  2455826
 92
 54000000
292
     0
 70
     2
 71
   256
280
     1
  0
DICTIONARY
  5
D
102
{ACAD_REACTORS
330
C
102
}
330
C
100
AcDbDictionary
281
     1
  0
DICTIONARY
  5
1A
102
{ACAD_REACTORS
330
C
102
}
330
C
100
AcDbDictionary
281
     1
  3
Layout1
350
1E
  3
Layout2
350
26
  3
Model
350
22
  0
DICTIONARY
  5
3B
102
{ACAD_REACTORS
330
C
102
}
330
C
100
AcDbDictionary
281
     1
  3
ByBlock
350
3D
  3
ByLayer
350
3C
  3
Global
350
3E
  0
DICTIONARY
  5
E4
102
{ACAD_REACTORS
330
C
102
}
330
C
100
AcDbDictionary
281
     1
  0
DICTIONARY
  5
17
102
{ACAD_REACTORS
330
C
102
}
330
C
100
AcDbDictionary
281
     1
  3
Standard
350
18
  0
DICTIONARY
  5
19
102
{ACAD_REACTORS
330
C
102
}
330
C
100
AcDbDictionary
281
     1
  0
ACDBDICTIONARYWDFLT
  5
E
102
{ACAD_REACTORS
330
C
102
}
330
C
100
AcDbDictionary
281
     1
  3
Normal
350
F
100
AcDbDictionaryWithDefault
340
F
  0
DICTIONARY
  5
E3
102
{ACAD_REACTORS
330
C
102
}
330
C
100
AcDbDictionary
281
     1
  0
DICTIONARY
  5
2A
102
{ACAD_REACTORS
330
C
102
}
330
C
100
AcDbDictionary
281
     1
  3
2dWireframe
350
2F
  3
3D Hidden
350
31
  3
3dWireframe
350
30
  3
Basic
350
32
  3
Brighten
350
36
  3
ColorChange
350
3A
  3
Conceptual
350
34
  3
Dim
350
35
  3
Facepattern
350
39
  3
Flat
350
2B
  3
FlatWithEdges
350
2C
  3
Gouraud
350
2D
  3
GouraudWithEdges
350
2E
  3
Linepattern
350
38
  3
Realistic
350
33
  3
Thicken
350
37
  0
LAYOUT
  5
1E
102
{ACAD_REACTORS
330
1A
102
}
330
1A
100
AcDbPlotSettings
  1

  2
none_device
  4

  6

 40
0.0
 41
0.0
 42
0.0
 43
0.0
 44
0.0
 45
0.0
 46
0.0
 47
0.0
 48
0.0
 49
0.0
140
0.0
141
0.0
142
1.0
143
1.0
 70
   688
 72
     0
 73
     0
 74
     5
  7

 75
    16
 76
     0
 77
     2
 78
   300
147
1.0
148
0.0
149
0.0
100
AcDbLayout
  1
Layout1
 70
     1
 71
     1
 10
0.0
 20
0.0
 11
12.0
 21
9.0
 12
0.0
 22
0.0
 32
0.0
 14
1.000000000000000E+20
 24
1.000000000000000E+20
 34
1.000000000000000E+20
 15
-1.000000000000000E+20
 25
-1.000000000000000E+20
 35
-1.000000000000000E+20
146
0.0
 13
0.0
 23
0.0
 33
0.0
 16
1.0
 26
0.0
 36
0.0
 17
0.0
 27
1.0
 37
0.0
 76
     0
330
1B
  0
LAYOUT
  5
26
102
{ACAD_REACTORS
330
1A
102
}
330
1A
100
AcDbPlotSettings
  1

  2
none_device
  4

  6

 40
0.0
 41
0.0
 42
0.0
 43
0.0
 44
0.0
 45
0.0
 46
0.0
 47
0.0
 48
0.0
 49
0.0
140
0.0
141
0.0
142
1.0
143
1.0
 70
   688
 72
     0
 73
     0
 74
     5
  7

 75
    16
 76
     0
 77
     2
 78
   300
147
1.0
148
0.0
149
0.0
100
AcDbLayout
  1
Layout2
 70
     1
 71
     2
 10
0.0
 20
0.0
 11
0.0
 21
0.0
 12
0.0
 22
0.0
 32
0.0
 14
0.0
 24
0.0
 34
0.0
 15
0.0
 25
0.0
 35
0.0
146
0.0
 13
0.0
 23
0.0
 33
0.0
 16
1.0
 26
0.0
 36
0.0
 17
0.0
 27
1.0
 37
0.0
 76
     0
330
23
  0
LAYOUT
  5
22
102
{ACAD_REACTORS
330
1A
102
}
330
1A
100
AcDbPlotSettings
  1

  2
none_device
  4

  6

 40
0.0
 41
0.0
 42
0.0
 43
0.0
 44
0.0
 45
0.0
 46
0.0
 47
0.0
 48
0.0
 49
0.0
140
0.0
141
0.0
142
1.0
143
1.0
 70
  1712
 72
     0
 73
     0
 74
     0
  7

 75
     0
 76
     0
 77
     2
 78
   300
147
1.0
148
0.0
149
0.0
100
AcDbLayout
  1
Model
 70
     1
 71
     0
 10
0.0
 20
0.0
 11
12.0
 21
9.0
 12
0.0
 22
0.0
 32
0.0
 14
1.000000000000000E+20
 24
1.000000000000000E+20
 34
1.000000000000000E+20
 15
-1.000000000000000E+20
 25
-1.000000000000000E+20
 35
-1.000000000000000E+20
146
0.0
 13
0.0
 23
0.0
 33
0.0
 16
1.0
 26
0.0
 36
0.0
 17
0.0
 27
1.0
 37
0.0
 76
     0
330
1F
331
29
  0
MATERIAL
  5
3D
102
{ACAD_REACTORS
330
3B
102
}
330
3B
100
AcDbMaterial
  1
ByBlock
 72
     1
 94
      127
  0
MATERIAL
  5
3C
102
{ACAD_REACTORS
330
3B
102
}
330
3B
100
AcDbMaterial
  1
ByLayer
 72
     1
 94
      127
  0
MATERIAL
  5
3E
102
{ACAD_REACTORS
330
3B
102
}
330
3B
100
AcDbMaterial
  1
Global
 72
     1
 94
      127
  0
MLINESTYLE
  5
18
102
{ACAD_REACTORS
330
17
102
}
330
17
100
AcDbMlineStyle
  2
Standard
 70
     0
  3

 62
   256
 51
90.0
 52
90.0
 71
     2
 49
0.5
 62
   256
  6
BYLAYER
 49
-0.5
 62
   256
  6
BYLAYER
  0
ACDBPLACEHOLDER
  5
F
102
{ACAD_REACTORS
330
E
102
}
330
E
  0
VISUALSTYLE
  5
2F
102
{ACAD_REACTORS
330
2A
102
}
330
2A
100
AcDbVisualStyle
  2
2dWireframe
 70
     4
177
     2
291
     0
 71
     0
176
     1
 72
     2
176
     1
 73
     0
176
     1
 90
        0
176
     1
 40
-0.6
176
     1
 41
-30.0
176
     1
 62
     5
 63
     7
421
 16777215
176
     1
 74
     1
176
     1
 91
        4
176
     1
 64
     7
176
     1
 65
   257
176
     1
 75
     1
176
     1
175
     1
176
     1
 42
1.0
176
     1
 92
        0
176
     1
 66
   257
176
     1
 43
1.0
176
     1
 76
     1
176
     1
 77
     6
176
     1
 78
     2
176
     1
 67
     7
176
     1
 79
     5
176
     1
170
     0
176
     1
171
     0
176
     1
290
     0
176
     1
 93
        1
176
     1
 44
0.0
176
     1
173
     0
176
     1
  0
VISUALSTYLE
  5
31
102
{ACAD_REACTORS
330
2A
102
}
330
2A
100
AcDbVisualStyle
  2
3D Hidden
 70
     6
177
     2
291
     0
 71
     1
176
     1
 72
     2
176
     1
 73
     2
176
     1
 90
        0
176
     1
 40
-0.6
176
     1
 41
-30.0
176
     1
 62
     5
 63
     7
421
 16777215
176
     1
 74
     2
176
     1
 91
        2
176
     1
 64
     7
176
     1
 65
   257
176
     1
 75
     2
176
     1
175
     1
176
     1
 42
40.0
176
     1
 92
        0
176
     1
 66
   257
176
     1
 43
1.0
176
     1
 76
     1
176
     1
 77
     6
176
     1
 78
     2
176
     1
 67
     7
176
     1
 79
     3
176
     1
170
     0
176
     1
171
     0
176
     1
290
     0
176
     1
 93
        1
176
     1
 44
0.0
176
     1
173
     0
176
     1
  0
VISUALSTYLE
  5
30
102
{ACAD_REACTORS
330
2A
102
}
330
2A
100
AcDbVisualStyle
  2
3dWireframe
 70
     5
177
     2
291
     0
 71
     0
176
     1
 72
     2
176
     1
 73
     0
176
     1
 90
        0
176
     1
 40
-0.6
176
     1
 41
-30.0
176
     1
 62
     5
 63
     7
421
 16777215
176
     1
 74
     1
176
     1
 91
        4
176
     1
 64
     7
176
     1
 65
   257
176
     1
 75
     1
176
     1
175
     1
176
     1
 42
1.0
176
     1
 92
        0
176
     1
 66
   257
176
     1
 43
1.0
176
     1
 76
     1
176
     1
 77
     6
176
     1
 78
     2
176
     1
 67
     7
176
     1
 79
     5
176
     1
170
     0
176
     1
171
     0
176
     1
290
     0
176
     1
 93
        1
176
     1
 44
0.0
176
     1
173
     0
176
     1
  0
VISUALSTYLE
  5
32
102
{ACAD_REACTORS
330
2A
102
}
330
2A
100
AcDbVisualStyle
  2
Basic
 70
     7
177
     2
291
     1
 71
     1
176
     1
 72
     0
176
     1
 73
     1
176
     1
 90
        0
176
     1
 40
-0.6
176
     1
 41
-30.0
176
     1
 62
     5
 63
     7
421
 16777215
176
     1
 74
     0
176
     1
 91
        4
176
     1
 64
     7
176
     1
 65
   257
176
     1
 75
     1
176
     1
175
     1
176
     1
 42
1.0
176
     1
 92
        8
176
     1
 66
     7
176
     1
 43
1.0
176
     1
 76
     1
176
     1
 77
     6
176
     1
 78
     2
176
     1
 67
     7
176
     1
 79
     5
176
     1
170
     0
176
     1
171
     0
176
     1
290
     0
176
     1
 93
        1
176
     1
 44
0.0
176
     1
173
     0
176
     1
  0
VISUALSTYLE
  5
36
102
{ACAD_REACTORS
330
2A
102
}
330
2A
100
AcDbVisualStyle
  2
Brighten
 70
    12
177
     2
291
     1
 71
     2
176
     1
 72
     2
176
     1
 73
     0
176
     1
 90
        0
176
     1
 40
-0.6
176
     1
 41
-30.0
176
     1
 62
     5
 63
     7
421
 16777215
176
     1
 74
     1
176
     1
 91
        4
176
     1
 64
     7
176
     1
 65
   257
176
     1
 75
     1
176
     1
175
     1
176
     1
 42
1.0
176
     1
 92
        8
176
     1
 66
     7
176
     1
 43
1.0
176
     1
 76
     1
176
     1
 77
     6
176
     1
 78
     2
176
     1
 67
     7
176
     1
 79
     5
176
     1
170
     0
176
     1
171
     0
176
     1
290
     0
176
     1
 93
        1
176
     1
 44
50.0
176
     1
173
     0
176
     1
  0
VISUALSTYLE
  5
3A
102
{ACAD_REACTORS
330
2A
102
}
330
2A
100
AcDbVisualStyle
  2
ColorChange
 70
    16
177
     2
291
     1
 71
     2
176
     1
 72
     2
176
     1
 73
     3
176
     1
 90
        0
176
     1
 40
-0.6
176
     1
 41
-30.0
176
     1
 62
     5
 63
     8
421
  8421504
176
     1
 74
     1
176
     1
 91
        4
176
     1
 64
     7
176
     1
 65
   257
176
     1
 75
     1
176
     1
175
     1
176
     1
 42
1.0
176
     1
 92
        8
176
     1
 66
     8
424
  8421504
176
     1
 43
1.0
176
     1
 76
     1
176
     1
 77
     6
176
     1
 78
     2
176
     1
 67
     7
176
     1
 79
     5
176
     1
170
     0
176
     1
171
     0
176
     1
290
     0
176
     1
 93
        1
176
     1
 44
0.0
176
     1
173
     0
176
     1
  0
VISUALSTYLE
  5
34
102
{ACAD_REACTORS
330
2A
102
}
330
2A
100
AcDbVisualStyle
  2
Conceptual
 70
     9
177
     2
291
     0
 71
     3
176
     1
 72
     2
176
     1
 73
     0
176
     1
 90
        0
176
     1
 40
-0.6
176
     1
 41
-30.0
176
     1
 62
     5
 63
     7
421
 16777215
176
     1
 74
     2
176
     1
 91
        2
176
     1
 64
     7
176
     1
 65
   257
176
     1
 75
     1
176
     1
175
     1
176
     1
 42
40.0
176
     1
 92
        8
176
     1
 66
     7
176
     1
 43
1.0
176
     1
 76
     1
176
     1
 77
     6
176
     1
 78
     2
176
     1
 67
     7
176
     1
 79
     3
176
     1
170
     0
176
     1
171
     0
176
     1
290
     0
176
     1
 93
        1
176
     1
 44
0.0
176
     1
173
     0
176
     1
  0
VISUALSTYLE
  5
35
102
{ACAD_REACTORS
330
2A
102
}
330
2A
100
AcDbVisualStyle
  2
Dim
 70
    11
177
     2
291
     1
 71
     2
176
     1
 72
     2
176
     1
 73
     0
176
     1
 90
        0
176
     1
 40
-0.6
176
     1
 41
-30.0
176
     1
 62
     5
 63
     7
421
 16777215
176
     1
 74
     1
176
     1
 91
        4
176
     1
 64
     7
176
     1
 65
   257
176
     1
 75
     1
176
     1
175
     1
176
     1
 42
1.0
176
     1
 92
        8
176
     1
 66
     7
176
     1
 43
1.0
176
     1
 76
     1
176
     1
 77
     6
176
     1
 78
     2
176
     1
 67
     7
176
     1
 79
     5
176
     1
170
     0
176
     1
171
     0
176
     1
290
     0
176
     1
 93
        1
176
     1
 44
-50.0
176
     1
173
     0
176
     1
  0
VISUALSTYLE
  5
39
102
{ACAD_REACTORS
330
2A
102
}
330
2A
100
AcDbVisualStyle
  2
Facepattern
 70
    15
177
     2
291
     1
 71
     2
176
     1
 72
     2
176
     1
 73
     0
176
     1
 90
        0
176
     1
 40
-0.6
176
     1
 41
-30.0
176
     1
 62
     5
 63
     7
421
 16777215
176
     1
 74
     1
176
     1
 91
        4
176
     1
 64
     7
176
     1
 65
   257
176
     1
 75
     1
176
     1
175
     1
176
     1
 42
1.0
176
     1
 92
        8
176
     1
 66
     7
176
     1
 43
1.0
176
     1
 76
     1
176
     1
 77
     6
176
     1
 78
     2
176
     1
 67
     7
176
     1
 79
     5
176
     1
170
     0
176
     1
171
     0
176
     1
290
     0
176
     1
 93
        1
176
     1
 44
0.0
176
     1
173
     0
176
     1
  0
VISUALSTYLE
  5
2B
102
{ACAD_REACTORS
330
2A
102
}
330
2A
100
AcDbVisualStyle
  2
Flat
 70
     0
177
     2
291
     1
 71
     2
176
     1
 72
     1
176
     1
 73
     1
176
     1
 90
        2
176
     1
 40
-0.6
176
     1
 41
30.0
176
     1
 62
     5
 63
     7
421
 16777215
176
     1
 74
     0
176
     1
 91
        4
176
     1
 64
     7
176
     1
 65
   257
176
     1
 75
     1
176
     1
175
     1
176
     1
 42
1.0
176
     1
 92
        8
176
     1
 66
     7
176
     1
 43
1.0
176
     1
 76
     1
176
     1
 77
     6
176
     1
 78
     2
176
     1
 67
     7
176
     1
 79
     5
176
     1
170
     0
176
     1
171
     0
176
     1
290
     0
176
     1
 93
       13
176
     1
 44
0.0
176
     1
173
     0
176
     1
  0
VISUALSTYLE
  5
2C
102
{ACAD_REACTORS
330
2A
102
}
330
2A
100
AcDbVisualStyle
  2
FlatWithEdges
 70
     1
177
     2
291
     1
 71
     2
176
     1
 72
     1
176
     1
 73
     1
176
     1
 90
        2
176
     1
 40
-0.6
176
     1
 41
30.0
176
     1
 62
     5
 63
     7
421
 16777215
176
     1
 74
     1
176
     1
 91
        4
176
     1
 64
     7
176
     1
 65
   257
176
     1
 75
     1
176
     1
175
     1
176
     1
 42
1.0
176
     1
 92
        0
176
     1
 66
   257
176
     1
 43
1.0
176
     1
 76
     1
176
     1
 77
     6
176
     1
 78
     2
176
     1
 67
     7
176
     1
 79
     5
176
     1
170
     0
176
     1
171
     0
176
     1
290
     0
176
     1
 93
       13
176
     1
 44
0.0
176
     1
173
     0
176
     1
  0
VISUALSTYLE
  5
2D
102
{ACAD_REACTORS
330
2A
102
}
330
2A
100
AcDbVisualStyle
  2
Gouraud
 70
     2
177
     2
291
     1
 71
     2
176
     1
 72
     2
176
     1
 73
     1
176
     1
 90
        2
176
     1
 40
-0.6
176
     1
 41
30.0
176
     1
 62
     5
 63
     7
421
 16777215
176
     1
 74
     0
176
     1
 91
        4
176
     1
 64
     7
176
     1
 65
   257
176
     1
 75
     1
176
     1
175
     1
176
     1
 42
1.0
176
     1
 92
        0
176
     1
 66
     7
176
     1
 43
1.0
176
     1
 76
     1
176
     1
 77
     6
176
     1
 78
     2
176
     1
 67
     7
176
     1
 79
     5
176
     1
170
     0
176
     1
171
     0
176
     1
290
     0
176
     1
 93
       13
176
     1
 44
0.0
176
     1
173
     0
176
     1
  0
VISUALSTYLE
  5
2E
102
{ACAD_REACTORS
330
2A
102
}
330
2A
100
AcDbVisualStyle
  2
GouraudWithEdges
 70
     3
177
     2
291
     1
 71
     2
176
     1
 72
     2
176
     1
 73
     1
176
     1
 90
        2
176
     1
 40
-0.6
176
     1
 41
30.0
176
     1
 62
     5
 63
     7
421
 16777215
176
     1
 74
     1
176
     1
 91
        4
176
     1
 64
     7
176
     1
 65
   257
176
     1
 75
     1
176
     1
175
     1
176
     1
 42
1.0
176
     1
 92
        0
176
     1
 66
   257
176
     1
 43
1.0
176
     1
 76
     1
176
     1
 77
     6
176
     1
 78
     2
176
     1
 67
     7
176
     1
 79
     5
176
     1
170
     0
176
     1
171
     0
176
     1
290
     0
176
     1
 93
       13
176
     1
 44
0.0
176
     1
173
     0
176
     1
  0
VISUALSTYLE
  5
38
102
{ACAD_REACTORS
330
2A
102
}
330
2A
100
AcDbVisualStyle
  2
Linepattern
 70
    14
177
     2
291
     1
 71
     2
176
     1
 72
     2
176
     1
 73
     0
176
     1
 90
        0
176
     1
 40
-0.6
176
     1
 41
-30.0
176
     1
 62
     5
 63
     7
421
 16777215
176
     1
 74
     1
176
     1
 91
        4
176
     1
 64
     7
176
     1
 65
   257
176
     1
 75
     7
176
     1
175
     7
176
     1
 42
1.0
176
     1
 92
        8
176
     1
 66
     7
176
     1
 43
1.0
176
     1
 76
     1
176
     1
 77
     6
176
     1
 78
     2
176
     1
 67
     7
176
     1
 79
     5
176
     1
170
     0
176
     1
171
     0
176
     1
290
     0
176
     1
 93
        1
176
     1
 44
0.0
176
     1
173
     0
176
     1
  0
VISUALSTYLE
  5
33
102
{ACAD_REACTORS
330
2A
102
}
330
2A
100
AcDbVisualStyle
  2
Realistic
 70
     8
177
     2
291
     0
 71
     2
176
     1
 72
     2
176
     1
 73
     0
176
     1
 90
        0
176
     1
 40
-0.6
176
     1
 41
-30.0
176
     1
 62
     5
 63
     7
421
 16777215
176
     1
 74
     1
176
     1
 91
        0
176
     1
 64
     7
176
     1
 65
   257
176
     1
 75
     1
176
     1
175
     1
176
     1
 42
1.0
176
     1
 92
        8
176
     1
 66
     8
424
  7895160
176
     1
 43
1.0
176
     1
 76
     1
176
     1
 77
     6
176
     1
 78
     2
176
     1
 67
     7
176
     1
 79
     5
176
     1
170
     0
176
     1
171
     0
176
     1
290
     0
176
     1
 93
       13
176
     1
 44
0.0
176
     1
173
     0
176
     1
  0
VISUALSTYLE
  5
37
102
{ACAD_REACTORS
330
2A
102
}
330
2A
100
AcDbVisualStyle
  2
Thicken
 70
    13
177
     2
291
     1
 71
     2
176
     1
 72
     2
176
     1
 73
     0
176
     1
 90
        0
176
     1
 40
-0.6
176
     1
 41
-30.0
176
     1
 62
     5
 63
     7
421
 16777215
176
     1
 74
     1
176
     1
 91
        4
176
     1
 64
     7
176
     1
 65
   257
176
     1
 75
     1
176
     1
175
     1
176
     1
 42
1.0
176
     1
 92
       12
176
     1
 66
     7
176
     1
 43
1.0
176
     1
 76
     1
176
     1
 77
     6
176
     1
 78
     2
176
     1
 67
     7
176
     1
 79
     5
176
     1
170
     0
176
     1
171
     0
176
     1
290
     0
176
     1
 93
        1
176
     1
 44
0.0
176
     1
173
     0
176
     1
  0
ENDSEC
  0
EOF
