  0
SECTION
  2
HEADER
  9
$ACADVER
  1
AC1024
  9
$ACADMAINTVER
 70
     6
  9
$DWGCODEPAGE
  3
UNDEFINED
  9
$INSBASE
 10
0.0
 20
0.0
 30
0.0
  9
$EXTMIN
 10
1.000000000000000E+20
 20
1.000000000000000E+20
 30
1.000000000000000E+20
  9
$EXTMAX
 10
-1.000000000000000E+20
 20
-1.000000000000000E+20
 30
-1.000000000000000E+20
  9
$LIMMIN
 10
0.0
 20
0.0
  9
$LIMMAX
 10
12.0
 20
9.0
  9
$ORTHOMODE
 70
     0
  9
$REGENMODE
 70
     1
  9
$FILLMODE
 70
     1
  9
$QTEXTMODE
 70
     0
  9
$MIRRTEXT
 70
     1
  9
$LTSCALE
 40
1.0
  9
$ATTMODE
 70
     1
  9
$TEXTSIZE
 40
0.2
  9
$TRACEWID
 40
0.05
  9
$TEXTSTYLE
  7
Standard
  9
$CLAYER
  8
0
  9
$CELTYPE
  6
ByLayer
  9
$CECOLOR
 62
   256
  9
$CELTSCALE
 40
1.0
  9
$DISPSILH
 70
     0
  9
$DIMSCALE
 40
1.0
  9
$DIMASZ
 40
0.18
  9
$DIMEXO
 40
0.0625
  9
$DIMDLI
 40
0.38
  9
$DIMRND
 40
0.0
  9
$DIMDLE
 40
0.0
  9
$DIMEXE
 40
0.18
  9
$DIMTP
 40
0.0
  9
$DIMTM
 40
0.0
  9
$DIMTXT
 40
0.18
  9
$DIMCEN
 40
0.09
  9
$DIMTSZ
 40
0.0
  9
$DIMTOL
 70
     0
  9
$DIMLIM
 70
     0
  9
$DIMTIH
 70
     1
  9
$DIMTOH
 70
     1
  9
$DIMSE1
 70
     0
  9
$DIMSE2
 70
     0
  9
$DIMTAD
 70
     0
  9
$DIMZIN
 70
     0
  9
$DIMBLK
  1

  9
$DIMASO
 70
     1
  9
$DIMSHO
 70
     1
  9
$DIMPOST
  1

  9
$DIMAPOST
  1

  9
$DIMALT
 70
     0
  9
$DIMALTD
 70
     2
  9
$DIMALTF
 40
25.4
  9
$DIMLFAC
 40
1.0
  9
$DIMTOFL
 70
     0
  9
$DIMTVP
 40
0.0
  9
$DIMTIX
 70
     0
  9
$DIMSOXD
 70
     0
  9
$DIMSAH
 70
     0
  9
$DIMBLK1
  1

  9
$DIMBLK2
  1

  9
$DIMSTYLE
  2
Standard
  9
$DIMCLRD
 70
     0
  9
$DIMCLRE
 70
     0
  9
$DIMCLRT
 70
     0
  9
$DIMTFAC
 40
1.0
  9
$DIMGAP
 40
0.09
  9
$DIMJUST
 70
     0
  9
$DIMSD1
 70
     0
  9
$DIMSD2
 70
     0
  9
$DIMTOLJ
 70
     1
  9
$DIMTZIN
 70
     0
  9
$DIMALTZ
 70
     0
  9
$DIMALTTZ
 70
     0
  9
$DIMUPT
 70
     0
  9
$DIMDEC
 70
     4
  9
$DIMTDEC
 70
     4
  9
$DIMALTU
 70
     2
  9
$DIMALTTD
 70
     2
  9
$DIMTXSTY
  7
Standard
  9
$DIMAUNIT
 70
     0
  9
$DIMADEC
 70
     0
  9
$DIMALTRND
 40
0.0
  9
$DIMAZIN
 70
     0
  9
$DIMDSEP
 70
    46
  9
$DIMATFIT
 70
     3
  9
$DIMFRAC
 70
     0
  9
$DIMLDRBLK
  1

  9
$DIMLUNIT
 70
     2
  9
$DIMLWD
 70
    -2
  9
$DIMLWE
 70
    -2
  9
$DIMTMOVE
 70
     0
  9
$DIMFXL
 40
1.0
  9
$DIMFXLON
 70
     0
  9
$DIMJOGANG
 40
0.7853981633974483
  9
$DIMTFILL
 70
     0
  9
$DIMTFILLCLR
 70
     0
  9
$DIMARCSYM
 70
     0
  9
$DIMLTYPE
  6

  9
$DIMLTEX1
  6

  9
$DIMLTEX2
  6

  9
$DIMTXTDIRECTION
 70
     0
  9
$LUNITS
 70
     2
  9
$LUPREC
 70
     4
  9
$SKETCHINC
 40
0.1
  9
$FILLETRAD
 40
0.5
  9
$AUNITS
 70
     0
  9
$AUPREC
 70
     0
  9
$MENU
  1
.
  9
$ELEVATION
 40
0.0
  9
$PELEVATION
 40
0.0
  9
$THICKNESS
 40
0.0
  9
$LIMCHECK
 70
     0
  9
$CHAMFERA
 40
0.5
  9
$CHAMFERB
 40
0.5
  9
$CHAMFERC
 40
1.0
  9
$CHAMFERD
 40
0.0
  9
$SKPOLY
 70
     0
  9
$TDCREATE
 40
2457917.61866897
  9
$TDUCREATE
 40
2457917.243668981
  9
$TDUPDATE
 40
2457917.61866897
  9
$TDUUPDATE
 40
2457917.243668981
  9
$TDINDWG
 40
0.0000000116
  9
$TDUSRTIMER
 40
0.0000000116
  9
$USRTIMER
 70
     1
  9
$ANGBASE
 50
0.0
  9
$ANGDIR
 70
     0
  9
$PDMODE
 70
     0
  9
$PDSIZE
 40
0.0
  9
$PLINEWID
 40
0.0
  9
$SPLFRAME
 70
     0
  9
$SPLINETYPE
 70
     6
  9
$SPLINESEGS
 70
     8
  9
$HANDSEED
  5
DB
  9
$SURFTAB1
 70
     6
  9
$SURFTAB2
 70
     6
  9
$SURFTYPE
 70
     6
  9
$SURFU
 70
     6
  9
$SURFV
 70
     6
  9
$UCSBASE
  2

  9
$UCSNAME
  2

  9
$UCSORG
 10
0.0
 20
0.0
 30
0.0
  9
$UCSXDIR
 10
1.0
 20
0.0
 30
0.0
  9
$UCSYDIR
 10
0.0
 20
1.0
 30
0.0
  9
$UCSORTHOREF
  2

  9
$UCSORTHOVIEW
 70
     0
  9
$UCSORGTOP
 10
0.0
 20
0.0
 30
0.0
  9
$UCSORGBOTTOM
 10
0.0
 20
0.0
 30
0.0
  9
$UCSORGLEFT
 10
0.0
 20
0.0
 30
0.0
  9
$UCSORGRIGHT
 10
0.0
 20
0.0
 30
0.0
  9
$UCSORGFRONT
 10
0.0
 20
0.0
 30
0.0
  9
$UCSORGBACK
 10
0.0
 20
0.0
 30
0.0
  9
$PUCSBASE
  2

  9
$PUCSNAME
  2

  9
$PUCSORG
 10
0.0
 20
0.0
 30
0.0
  9
$PUCSXDIR
 10
1.0
 20
0.0
 30
0.0
  9
$PUCSYDIR
 10
0.0
 20
1.0
 30
0.0
  9
$PUCSORTHOREF
  2

  9
$PUCSORTHOVIEW
 70
     0
  9
$PUCSORGTOP
 10
0.0
 20
0.0
 30
0.0
  9
$PUCSORGBOTTOM
 10
0.0
 20
0.0
 30
0.0
  9
$PUCSORGLEFT
 10
0.0
 20
0.0
 30
0.0
  9
$PUCSORGRIGHT
 10
0.0
 20
0.0
 30
0.0
  9
$PUCSORGFRONT
 10
0.0
 20
0.0
 30
0.0
  9
$PUCSORGBACK
 10
0.0
 20
0.0
 30
0.0
  9
$USERI1
 70
     0
  9
$USERI2
 70
     0
  9
$USERI3
 70
     0
  9
$USERI4
 70
     0
  9
$USERI5
 70
     0
  9
$USERR1
 40
0.0
  9
$USERR2
 40
0.0
  9
$USERR3
 40
0.0
  9
$USERR4
 40
0.0
  9
$USERR5
 40
0.0
  9
$WORLDVIEW
 70
     1
  9
$SHADEDGE
 70
     3
  9
$SHADEDIF
 70
    70
  9
$TILEMODE
 70
     1
  9
$MAXACTVP
 70
    64
  9
$PINSBASE
 10
0.0
 20
0.0
 30
0.0
  9
$PLIMCHECK
 70
     0
  9
$PEXTMIN
 10
1.000000000000000E+20
 20
1.000000000000000E+20
 30
1.000000000000000E+20
  9
$PEXTMAX
 10
-1.000000000000000E+20
 20
-1.000000000000000E+20
 30
-1.000000000000000E+20
  9
$PLIMMIN
 10
0.0
 20
0.0
  9
$PLIMMAX
 10
12.0
 20
9.0
  9
$UNITMODE
 70
     0
  9
$VISRETAIN
 70
     1
  9
$PLINEGEN
 70
     0
  9
$PSLTSCALE
 70
     1
  9
$TREEDEPTH
 70
  3020
  9
$CMLSTYLE
  2
Standard
  9
$CMLJUST
 70
     0
  9
$CMLSCALE
 40
1.0
  9
$PROXYGRAPHICS
 70
     1
  9
$MEASUREMENT
 70
     0
  9
$CELWEIGHT
370
    -1
  9
$ENDCAPS
280
     0
  9
$JOINSTYLE
280
     0
  9
$LWDISPLAY
290
     1
  9
$INSUNITS
 70
     1
  9
$HYPERLINKBASE
  1

  9
$STYLESHEET
  1

  9
$XEDIT
290
     1
  9
$CEPSNTYPE
380
     0
  9
$PSTYLEMODE
290
     1
  9
$FINGERPRINTGUID
  2
{EAF14BD2-8DFE-400A-0B69-1436F871F9F6}
  9
$VERSIONGUID
  2
{FAEB1C32-E019-11D5-929B-00C0DF256EC4}
  9
$EXTNAMES
290
     1
  9
$PSVPSCALE
 40
0.0
  9
$OLESTARTUP
290
     0
  9
$SORTENTS
280
   127
  9
$INDEXCTL
280
     0
  9
$HIDETEXT
280
     1
  9
$XCLIPFRAME
280
     2
  9
$HALOGAP
280
     0
  9
$OBSCOLOR
 70
   257
  9
$OBSLTYPE
280
     0
  9
$INTERSECTIONDISPLAY
280
     0
  9
$INTERSECTIONCOLOR
 70
   257
  9
$DIMASSOC
280
     2
  9
$PROJECTNAME
  1

  9
$CAMERADISPLAY
290
     0
  9
$LENSLENGTH
 40
50.0
  9
$CAMERAHEIGHT
 40
0.0
  9
$STEPSPERSEC
 40
2.0
  9
$STEPSIZE
 40
6.0
  9
$3DDWFPREC
 40
2.0
  9
$PSOLWIDTH
 40
0.25
  9
$PSOLHEIGHT
 40
4.0
  9
$LOFTANG1
 40
1.570796326794897
  9
$LOFTANG2
 40
1.570796326794897
  9
$LOFTMAG1
 40
0.0
  9
$LOFTMAG2
 40
0.0
  9
$LOFTPARAM
 70
     7
  9
$LOFTNORMALS
280
     1
  9
$LATITUDE
 40
37.795
  9
$LONGITUDE
 40
-122.394
  9
$NORTHDIRECTION
 40
0.0
  9
$TIMEZONE
 70
 -8000
  9
$LIGHTGLYPHDISPLAY
280
     1
  9
$TILEMODELIGHTSYNCH
280
     1
  9
$CMATERIAL
347
3C
  9
$SOLIDHIST
280
     1
  9
$SHOWHIST
280
     1
  9
$DWFFRAME
280
     2
  9
$DGNFRAME
280
     2
  9
$REALWORLDSCALE
290
     1
  9
$INTERFERECOLOR
 62
   256
  9
$CSHADOW
280
     0
  9
$SHADOWPLANELOCATION
 40
0.0
  0
ENDSEC
  0
SECTION
  2
CLASSES
  0
CLASS
  1
ACDBDICTIONARYWDFLT
  2
AcDbDictionaryWithDefault
  3
ObjectDBX Classes
 90
        0
 91
        4
280
     0
281
     0
  0
CLASS
  1
VISUALSTYLE
  2
AcDbVisualStyle
  3
ObjectDBX Classes
 90
     4095
 91
        4
280
     0
281
     0
  0
CLASS
  1
MATERIAL
  2
AcDbMaterial
  3
ObjectDBX Classes
 90
     1153
 91
        4
280
     0
281
     0
  0
CLASS
  1
SUN
  2
AcDbSun
  3
SCENEOE
 90
     1024
 91
        4
280
     0
281
     0
  0
ENDSEC
  0
SECTION
  2
TABLES
  0
TABLE
  2
VPORT
  5
8
330
0
100
AcDbSymbolTable
 70
     1
  0
VPORT
  5
29
330
8
100
AcDbSymbolTableRecord
100
AcDbViewportTableRecord
  2
*Active
 70
     0
 10
0.0
 20
0.0
 11
1.0
 21
1.0
 12
0.0
 22
0.0
 13
0.0
 23
0.0
 14
0.5
 24
0.5
 15
0.5
 25
0.5
 16
0.0
 26
0.0
 36
1.0
 17
91.00082462281999
 27
-128.4993055234307
 37
0.0
 40
256.9986110468615
 41
0.7081814508812795
 42
50.0
 43
0.0
 44
0.0
 50
0.0
 51
0.0
 71
     0
 72
   100
 73
     1
 74
     3
 75
     0
 76
     0
 77
     0
 78
     0
281
     0
 65
     1
110
0.0
120
0.0
130
0.0
111
1.0
121
0.0
131
0.0
112
0.0
122
1.0
132
0.0
 79
     0
146
0.0
 60
     3
 61
     5
292
     1
282
     1
141
0.0
142
0.0
 63
   250
361
3F
  0
ENDTAB
  0
TABLE
  2
LTYPE
  5
5
330
0
100
AcDbSymbolTable
 70
     1
  0
LTYPE
  5
14
330
5
100
AcDbSymbolTableRecord
100
AcDbLinetypeTableRecord
  2
ByBlock
 70
     0
  3

 72
    65
 73
     0
 40
0.0
  0
LTYPE
  5
15
330
5
100
AcDbSymbolTableRecord
100
AcDbLinetypeTableRecord
  2
ByLayer
 70
     0
  3

 72
    65
 73
     0
 40
0.0
  0
LTYPE
  5
16
330
5
100
AcDbSymbolTableRecord
100
AcDbLinetypeTableRecord
  2
Continuous
 70
     0
  3
Solid line
 72
    65
 73
     0
 40
0.0
  0
ENDTAB
  0
TABLE
  2
LAYER
  5
2
330
0
100
AcDbSymbolTable
 70
     2
  0
LAYER
  5
10
330
2
100
AcDbSymbolTableRecord
100
AcDbLayerTableRecord
  2
0
 70
     0
 62
     7
  6
Continuous
370
    -3
390
F
347
3E
  0
LAYER
  5
40
330
2
100
AcDbSymbolTableRecord
100
AcDbLayerTableRecord
  2
_U+30EC_U+30A4_U+30E4_U+30FC 1
 70
     0
 62
     7
  6
Continuous
370
    -3
390
F
347
3E
  0
ENDTAB
  0
TABLE
  2
STYLE
  5
3
330
0
100
AcDbSymbolTable
 70
     1
  0
STYLE
  5
11
330
3
100
AcDbSymbolTableRecord
100
AcDbTextStyleTableRecord
  2
Standard
 70
     0
 40
0.0
 41
1.0
 50
0.0
 71
     0
 42
0.2
  3
txt
  4

  0
ENDTAB
  0
TABLE
  2
VIEW
  5
6
330
0
100
AcDbSymbolTable
 70
     0
  0
ENDTAB
  0
TABLE
  2
UCS
  5
7
330
0
100
AcDbSymbolTable
 70
     0
  0
ENDTAB
  0
TABLE
  2
APPID
  5
9
330
0
100
AcDbSymbolTable
 70
     1
  0
APPID
  5
12
330
9
100
AcDbSymbolTableRecord
100
AcDbRegAppTableRecord
  2
ACAD
 70
     0
  0
ENDTAB
  0
TABLE
  2
DIMSTYLE
  5
A
330
0
100
AcDbSymbolTable
 70
     1
100
AcDbDimStyleTable
  0
DIMSTYLE
105
27
330
A
100
AcDbSymbolTableRecord
100
AcDbDimStyleTableRecord
  2
Standard
 70
     0
178
     0
340
11
  0
ENDTAB
  0
TABLE
  2
BLOCK_RECORD
  5
1
330
0
100
AcDbSymbolTable
 70
     6
  0
BLOCK_RECORD
  5
1F
330
1
100
AcDbSymbolTableRecord
100
AcDbBlockTableRecord
  2
*Model_Space
340
22
 70
     0
280
     1
281
     0
  0
BLOCK_RECORD
  5
1B
330
1
100
AcDbSymbolTableRecord
100
AcDbBlockTableRecord
  2
*Paper_Space
340
1E
 70
     0
280
     1
281
     0
  0
BLOCK_RECORD
  5
23
330
1
100
AcDbSymbolTableRecord
100
AcDbBlockTableRecord
  2
*Paper_Space0
340
26
 70
     0
280
     1
281
     0
  0
BLOCK_RECORD
  5
4A
330
1
100
AcDbSymbolTableRecord
100
AcDbBlockTableRecord
  2
block 2
340
0
102
{BLKREFS
331
4B
102
}
 70
     0
280
     1
281
     0
  0
BLOCK_RECORD
  5
94
330
1
100
AcDbSymbolTableRecord
100
AcDbBlockTableRecord
  2
block 3
340
0
102
{BLKREFS
331
95
102
}
 70
     0
280
     1
281
     0
  0
BLOCK_RECORD
  5
B1
330
1
100
AcDbSymbolTableRecord
100
AcDbBlockTableRecord
  2
block 4
340
0
102
{BLKREFS
331
B2
102
}
 70
     0
280
     1
281
     0
  0
BLOCK_RECORD
  5
C5
330
1
100
AcDbSymbolTableRecord
100
AcDbBlockTableRecord
  2
block 5
340
0
102
{BLKREFS
331
C6
102
}
 70
     0
280
     1
281
     0
  0
BLOCK_RECORD
  5
CF
330
1
100
AcDbSymbolTableRecord
100
AcDbBlockTableRecord
  2
block 6
340
0
102
{BLKREFS
331
D0
102
}
 70
     0
280
     1
281
     0
  0
ENDTAB
  0
ENDSEC
  0
SECTION
  2
BLOCKS
  0
BLOCK
  5
20
330
1F
100
AcDbEntity
  8
0
100
AcDbBlockBegin
  2
*Model_Space
 70
     0
 10
0.0
 20
0.0
 30
0.0
  3
*Model_Space
  1

  0
ENDBLK
  5
21
330
1F
100
AcDbEntity
  8
0
100
AcDbBlockEnd
  0
BLOCK
  5
1C
330
1B
100
AcDbEntity
 67
     1
  8
0
100
AcDbBlockBegin
  2
*Paper_Space
 70
     0
 10
0.0
 20
0.0
 30
0.0
  3
*Paper_Space
  1

  0
ENDBLK
  5
1D
330
1B
100
AcDbEntity
 67
     1
  8
0
100
AcDbBlockEnd
  0
BLOCK
  5
24
330
23
100
AcDbEntity
  8
0
100
AcDbBlockBegin
  2
*Paper_Space0
 70
     0
 10
0.0
 20
0.0
 30
0.0
  3
*Paper_Space0
  1

  0
ENDBLK
  5
25
330
23
100
AcDbEntity
  8
0
100
AcDbBlockEnd
  0
BLOCK
  5
4C
330
4A
100
AcDbEntity
  8
0
100
AcDbBlockBegin
  2
block 2
 70
     0
 10
0.0
 20
0.0
 30
0.0
  3
block 2
  1

  0
SPLINE
  5
4E
330
4A
100
AcDbEntity
  8
_U+30EC_U+30A4_U+30E4_U+30FC 1
370
     0
100
AcDbSpline
210
0.0
220
0.0
230
1.0
 70
    11
 71
     3
 72
    26
 73
    22
 74
     0
 42
0.0000000001
 43
0.0000000001
 12
1.0
 22
0.0
 32
0.0
 13
1.0
 23
0.0
 33
0.0
 40
0.0
 40
0.0
 40
0.0
 40
0.0
 40
1.0
 40
1.0
 40
1.0
 40
2.0
 40
2.0
 40
2.0
 40
3.0
 40
3.0
 40
3.0
 40
4.0
 40
4.0
 40
4.0
 40
5.0
 40
5.0
 40
5.0
 40
6.0
 40
6.0
 40
6.0
 40
7.0
 40
7.0
 40
7.0
 40
7.0
 10
102.3324272747641
 20
-133.0650905700323
 30
0.0
 10
102.3324272747641
 20
-133.0650905700323
 30
0.0
 10
101.2282741717415
 20
-133.0650905700323
 30
0.0
 10
101.2282741717415
 20
-133.0650905700323
 30
0.0
 10
101.2282741717415
 20
-133.0650905700323
 30
0.0
 10
101.2282741717415
 20
-133.4175238381734
 30
0.0
 10
101.2282741717415
 20
-133.4175238381734
 30
0.0
 10
101.2282741717415
 20
-133.4175238381734
 30
0.0
 10
101.0801350658758
 20
-133.4175238381734
 30
0.0
 10
101.0801350658758
 20
-133.4175238381734
 30
0.0
 10
101.0653211552892
 20
-133.0626790031927
 30
0.0
 10
100.9023681388369
 20
-133.0130696282051
 30
0.0
 10
100.7879909687266
 20
-132.9813747497408
 30
0.0
 10
100.7879909687266
 20
-132.9813747497408
 30
0.0
 10
100.7879909687266
 20
-132.825311924259
 30
0.0
 10
100.7879909687266
 20
-132.825311924259
 30
0.0
 10
100.7879909687266
 20
-132.825311924259
 30
0.0
 10
102.3324272747641
 20
-132.825311924259
 30
0.0
 10
102.3324272747641
 20
-132.825311924259
 30
0.0
 10
102.3324272747641
 20
-132.825311924259
 30
0.0
 10
102.3324272747641
 20
-133.0650905700323
 30
0.0
 10
102.3324272747641
 20
-133.0650905700323
 30
0.0
  0
HATCH
  5
4F
330
4A
100
AcDbEntity
  8
_U+30EC_U+30A4_U+30E4_U+30FC 1
 62
   179
420
  2234388
100
AcDbHatch
 10
0.0
 20
0.0
 30
0.0
210
0.0
220
0.0
230
1.0
  2
SOLID
 70
     1
 71
     0
 91
        1
 92
        1
 93
        1
 72
     4
 94
        3
 73
     0
 74
     1
 95
       26
 96
       22
 40
0.0
 40
0.0
 40
0.0
 40
0.0
 40
1.0
 40
1.0
 40
1.0
 40
2.0
 40
2.0
 40
2.0
 40
3.0
 40
3.0
 40
3.0
 40
4.0
 40
4.0
 40
4.0
 40
5.0
 40
5.0
 40
5.0
 40
6.0
 40
6.0
 40
6.0
 40
7.0
 40
7.0
 40
7.0
 40
7.0
 10
102.3324272747641
 20
-133.0650905700323
 10
102.3324272747641
 20
-133.0650905700323
 10
101.2282741717415
 20
-133.0650905700323
 10
101.2282741717415
 20
-133.0650905700323
 10
101.2282741717415
 20
-133.0650905700323
 10
101.2282741717415
 20
-133.4175238381734
 10
101.2282741717415
 20
-133.4175238381734
 10
101.2282741717415
 20
-133.4175238381734
 10
101.0801350658758
 20
-133.4175238381734
 10
101.0801350658758
 20
-133.4175238381734
 10
101.0653211552892
 20
-133.0626790031927
 10
100.9023681388369
 20
-133.0130696282051
 10
100.7879909687266
 20
-132.9813747497408
 10
100.7879909687266
 20
-132.9813747497408
 10
100.7879909687266
 20
-132.825311924259
 10
100.7879909687266
 20
-132.825311924259
 10
100.7879909687266
 20
-132.825311924259
 10
102.3324272747641
 20
-132.825311924259
 10
102.3324272747641
 20
-132.825311924259
 10
102.3324272747641
 20
-132.825311924259
 10
102.3324272747641
 20
-133.0650905700323
 10
102.3324272747641
 20
-133.0650905700323
 97
        0
 97
        0
 75
     2
 76
     1
 98
        0
  0
ENDBLK
  5
4D
330
4A
100
AcDbEntity
  8
0
100
AcDbBlockEnd
  0
BLOCK
  5
96
330
94
100
AcDbEntity
  8
0
100
AcDbBlockBegin
  2
block 3
 70
     0
 10
0.0
 20
0.0
 30
0.0
  3
block 3
  1

  0
SPLINE
  5
98
330
94
100
AcDbEntity
  8
_U+30EC_U+30A4_U+30E4_U+30FC 1
370
     0
100
AcDbSpline
210
0.0
220
0.0
230
1.0
 70
    11
 71
     3
 72
    32
 73
    28
 74
     0
 42
0.0000000001
 43
0.0000000001
 12
1.0
 22
0.0
 32
0.0
 13
1.0
 23
0.0
 33
0.0
 40
0.0
 40
0.0
 40
0.0
 40
0.0
 40
1.0
 40
1.0
 40
1.0
 40
2.0
 40
2.0
 40
2.0
 40
3.0
 40
3.0
 40
3.0
 40
4.0
 40
4.0
 40
4.0
 40
5.0
 40
5.0
 40
5.0
 40
6.0
 40
6.0
 40
6.0
 40
7.0
 40
7.0
 40
7.0
 40
8.0
 40
8.0
 40
8.0
 40
9.0
 40
9.0
 40
9.0
 40
9.0
 10
102.3830701783973
 20
-130.0637233832827
 30
0.0
 10
102.3830701783973
 20
-130.6156276800197
 30
0.0
 10
101.8290988243691
 20
-130.6245849282814
 30
0.0
 10
101.6151583947351
 20
-130.6245849282814
 30
0.0
 10
101.3846815067719
 20
-130.6245849282814
 30
0.0
 10
100.7373480650934
 20
-130.6042588649184
 30
0.0
 10
100.7373480650934
 20
-130.0230712565567
 30
0.0
 10
100.7373480650934
 20
-129.8377251194503
 30
0.0
 10
100.807283503444
 20
-129.5755533530228
 30
0.0
 10
101.1393907082221
 20
-129.5349012262968
 30
0.0
 10
101.1393907082221
 20
-129.5349012262968
 30
0.0
 10
101.1393907082221
 20
-129.7633110569689
 30
0.0
 10
101.1393907082221
 20
-129.7633110569689
 30
0.0
 10
101.082202123167
 20
-129.7743353625217
 30
0.0
 10
100.9340630173012
 20
-129.8084418078257
 30
0.0
 10
100.9340630173012
 20
-130.0254828233964
 30
0.0
 10
100.9340630173012
 20
-130.3376084743601
 30
0.0
 10
101.262036107497
 20
-130.3803276583772
 30
0.0
 10
101.4670192888694
 20
-130.3941080403181
 30
0.0
 10
101.3888156213542
 20
-130.2945447807944
 30
0.0
 10
101.3295599790079
 20
-130.2221977756042
 30
0.0
 10
101.3295599790079
 20
-130.0278943902361
 30
0.0
 10
101.3295599790079
 20
-129.8356580621592
 30
0.0
 10
101.4377359772447
 20
-129.5121635960942
 30
0.0
 10
101.8439127349557
 20
-129.5121635960942
 30
0.0
 10
102.1632730864384
 20
-129.5121635960942
 30
0.0
 10
102.3830701783973
 20
-129.7247259875341
 30
0.0
 10
102.3830701783973
 20
-130.0637233832827
 30
0.0
  0
SPLINE
  5
99
330
94
100
AcDbEntity
  8
_U+30EC_U+30A4_U+30E4_U+30FC 1
370
     0
100
AcDbSpline
210
0.0
220
0.0
230
1.0
 70
    11
 71
     3
 72
    17
 73
    13
 74
     0
 42
0.0000000001
 43
0.0000000001
 12
1.0
 22
0.0
 32
0.0
 13
1.0
 23
0.0
 33
0.0
 40
0.0
 40
0.0
 40
0.0
 40
0.0
 40
1.0
 40
1.0
 40
1.0
 40
2.0
 40
2.0
 40
2.0
 40
3.0
 40
3.0
 40
3.0
 40
4.0
 40
4.0
 40
4.0
 40
4.0
 10
101.5242078739245
 20
-130.0458088867594
 30
0.0
 10
101.5242078739245
 20
-130.3262396592587
 30
0.0
 10
101.7357367367188
 20
-130.3668917859847
 30
0.0
 10
101.8521809641203
 20
-130.3668917859847
 30
0.0
 10
102.027880833868
 20
-130.3668917859847
 30
0.0
 10
102.1908338503203
 20
-130.2652614691698
 30
0.0
 10
102.1908338503203
 20
-130.068546516962
 30
0.0
 10
102.1908338503203
 20
-129.9396999458137
 30
0.0
 10
102.1315782079741
 20
-129.7519422418676
 30
0.0
 10
101.8459797922468
 20
-129.7519422418676
 30
0.0
 10
101.6217040761571
 20
-129.7519422418676
 30
0.0
 10
101.5242078739245
 20
-129.9011148763789
 30
0.0
 10
101.5242078739245
 20
-130.0458088867594
 30
0.0
  0
HATCH
  5
9A
330
94
100
AcDbEntity
  8
_U+30EC_U+30A4_U+30E4_U+30FC 1
 62
   179
420
  2234388
100
AcDbHatch
 10
0.0
 20
0.0
 30
0.0
210
0.0
220
0.0
230
1.0
  2
SOLID
 70
     1
 71
     0
 91
        2
 92
        1
 93
        1
 72
     4
 94
        3
 73
     0
 74
     1
 95
       32
 96
       28
 40
0.0
 40
0.0
 40
0.0
 40
0.0
 40
1.0
 40
1.0
 40
1.0
 40
2.0
 40
2.0
 40
2.0
 40
3.0
 40
3.0
 40
3.0
 40
4.0
 40
4.0
 40
4.0
 40
5.0
 40
5.0
 40
5.0
 40
6.0
 40
6.0
 40
6.0
 40
7.0
 40
7.0
 40
7.0
 40
8.0
 40
8.0
 40
8.0
 40
9.0
 40
9.0
 40
9.0
 40
9.0
 10
102.3830701783973
 20
-130.0637233832827
 10
102.3830701783973
 20
-130.6156276800197
 10
101.8290988243691
 20
-130.6245849282814
 10
101.6151583947351
 20
-130.6245849282814
 10
101.3846815067719
 20
-130.6245849282814
 10
100.7373480650934
 20
-130.6042588649184
 10
100.7373480650934
 20
-130.0230712565567
 10
100.7373480650934
 20
-129.8377251194503
 10
100.807283503444
 20
-129.5755533530228
 10
101.1393907082221
 20
-129.5349012262968
 10
101.1393907082221
 20
-129.5349012262968
 10
101.1393907082221
 20
-129.7633110569689
 10
101.1393907082221
 20
-129.7633110569689
 10
101.082202123167
 20
-129.7743353625217
 10
100.9340630173012
 20
-129.8084418078257
 10
100.9340630173012
 20
-130.0254828233964
 10
100.9340630173012
 20
-130.3376084743601
 10
101.262036107497
 20
-130.3803276583772
 10
101.4670192888694
 20
-130.3941080403181
 10
101.3888156213542
 20
-130.2945447807944
 10
101.3295599790079
 20
-130.2221977756042
 10
101.3295599790079
 20
-130.0278943902361
 10
101.3295599790079
 20
-129.8356580621592
 10
101.4377359772447
 20
-129.5121635960942
 10
101.8439127349557
 20
-129.5121635960942
 10
102.1632730864384
 20
-129.5121635960942
 10
102.3830701783973
 20
-129.7247259875341
 10
102.3830701783973
 20
-130.0637233832827
 97
        0
 97
        0
 92
        1
 93
        1
 72
     4
 94
        3
 73
     0
 74
     1
 95
       17
 96
       13
 40
0.0
 40
0.0
 40
0.0
 40
0.0
 40
1.0
 40
1.0
 40
1.0
 40
2.0
 40
2.0
 40
2.0
 40
3.0
 40
3.0
 40
3.0
 40
4.0
 40
4.0
 40
4.0
 40
4.0
 10
101.5242078739245
 20
-130.0458088867594
 10
101.5242078739245
 20
-130.3262396592587
 10
101.7357367367188
 20
-130.3668917859847
 10
101.8521809641203
 20
-130.3668917859847
 10
102.027880833868
 20
-130.3668917859847
 10
102.1908338503203
 20
-130.2652614691698
 10
102.1908338503203
 20
-130.068546516962
 10
102.1908338503203
 20
-129.9396999458137
 10
102.1315782079741
 20
-129.7519422418676
 10
101.8459797922468
 20
-129.7519422418676
 10
101.6217040761571
 20
-129.7519422418676
 10
101.5242078739245
 20
-129.9011148763789
 10
101.5242078739245
 20
-130.0458088867594
 97
        0
 97
        0
 75
     2
 76
     1
 98
        0
  0
POLYLINE
  5
9B
330
94
100
AcDbEntity
  8
_U+30EC_U+30A4_U+30E4_U+30FC 1
370
     0
100
AcDb2dPolyline
 66
     1
 10
0.0
 20
0.0
 30
0.0
  0
VERTEX
  5
9C
330
9B
100
AcDbEntity
  8
_U+30EC_U+30A4_U+30E4_U+30FC 1
370
     0
100
AcDbVertex
100
AcDb2dVertex
 10
102.3324272747641
 20
-129.2809976890339
 30
0.0
  0
VERTEX
  5
9D
330
9B
100
AcDbEntity
  8
_U+30EC_U+30A4_U+30E4_U+30FC 1
370
     0
100
AcDbVertex
100
AcDb2dVertex
 10
102.0805907947924
 20
-129.2809976890339
 30
0.0
  0
VERTEX
  5
9E
330
9B
100
AcDbEntity
  8
_U+30EC_U+30A4_U+30E4_U+30FC 1
370
     0
100
AcDbVertex
100
AcDb2dVertex
 10
102.0805907947924
 20
-129.0119357316359
 30
0.0
  0
VERTEX
  5
9F
330
9B
100
AcDbEntity
  8
_U+30EC_U+30A4_U+30E4_U+30FC 1
370
     0
100
AcDbVertex
100
AcDb2dVertex
 10
102.3324272747641
 20
-129.0119357316359
 30
0.0
  0
VERTEX
  5
A0
330
9B
100
AcDbEntity
  8
_U+30EC_U+30A4_U+30E4_U+30FC 1
370
     0
100
AcDbVertex
100
AcDb2dVertex
 10
102.3324272747641
 20
-129.2809976890339
 30
0.0
  0
SEQEND
  5
A1
330
9B
100
AcDbEntity
  8
_U+30EC_U+30A4_U+30E4_U+30FC 1
370
     0
  0
HATCH
  5
A2
330
94
100
AcDbEntity
  8
_U+30EC_U+30A4_U+30E4_U+30FC 1
 62
   179
420
  2234388
100
AcDbHatch
 10
0.0
 20
0.0
 30
0.0
210
0.0
220
0.0
230
1.0
  2
SOLID
 70
     1
 71
     0
 91
        1
 92
        1
 93
        4
 72
     1
 10
102.3324272747641
 20
-129.2809976890339
 11
102.0805907947924
 21
-129.2809976890339
 72
     1
 10
102.0805907947924
 20
-129.2809976890339
 11
102.0805907947924
 21
-129.0119357316359
 72
     1
 10
102.0805907947924
 20
-129.0119357316359
 11
102.3324272747641
 21
-129.0119357316359
 72
     1
 10
102.3324272747641
 20
-129.0119357316359
 11
102.3324272747641
 21
-129.2809976890339
 97
        0
 75
     2
 76
     1
 98
        0
  0
SPLINE
  5
A3
330
94
100
AcDbEntity
  8
_U+30EC_U+30A4_U+30E4_U+30FC 1
370
     0
100
AcDbSpline
210
0.0
220
0.0
230
1.0
 70
    11
 71
     3
 72
    53
 73
    49
 74
     0
 42
0.0000000001
 43
0.0000000001
 12
1.0
 22
0.0
 32
0.0
 13
1.0
 23
0.0
 33
0.0
 40
0.0
 40
0.0
 40
0.0
 40
0.0
 40
1.0
 40
1.0
 40
1.0
 40
2.0
 40
2.0
 40
2.0
 40
3.0
 40
3.0
 40
3.0
 40
4.0
 40
4.0
 40
4.0
 40
5.0
 40
5.0
 40
5.0
 40
6.0
 40
6.0
 40
6.0
 40
7.0
 40
7.0
 40
7.0
 40
8.0
 40
8.0
 40
8.0
 40
9.0
 40
9.0
 40
9.0
 40
10.0
 40
10.0
 40
10.0
 40
11.0
 40
11.0
 40
11.0
 40
12.0
 40
12.0
 40
12.0
 40
13.0
 40
13.0
 40
13.0
 40
14.0
 40
14.0
 40
14.0
 40
15.0
 40
15.0
 40
15.0
 40
16.0
 40
16.0
 40
16.0
 40
16.0
 10
102.3830701783973
 20
-128.2450574766193
 30
0.0
 10
102.3830701783973
 20
-128.3287732969109
 30
0.0
 10
102.3661892105196
 20
-128.4369492951477
 30
0.0
 10
102.302799453591
 20
-128.5458143124816
 30
0.0
 10
102.1929009076115
 20
-128.7311604495881
 30
0.0
 10
102.0616427696235
 20
-128.7535535702422
 30
0.0
 10
101.9538112809352
 20
-128.7738796336051
 30
0.0
 10
101.9538112809352
 20
-128.7738796336051
 30
0.0
 10
101.9538112809352
 20
-128.5365125546714
 30
0.0
 10
101.9538112809352
 20
-128.5365125546714
 30
0.0
 10
102.1525932904341
 20
-128.4779459314222
 30
0.0
 10
102.1822211116072
 20
-128.3422091693033
 30
0.0
 10
102.1822211116072
 20
-128.2426459097796
 30
0.0
 10
102.1822211116072
 20
-128.0934732752683
 30
0.0
 10
102.0826578520835
 20
-127.930520258816
 30
0.0
 10
101.8501139068291
 20
-127.930520258816
 30
0.0
 10
101.5941433122751
 20
-127.930520258816
 30
0.0
 10
101.5242078739245
 20
-128.1227565868929
 30
0.0
 10
101.5242078739245
 20
-128.2516031580413
 30
0.0
 10
101.5242078739245
 20
-128.2857096033453
 30
0.0
 10
101.5242078739245
 20
-128.4369492951477
 30
0.0
 10
101.6533989546214
 20
-128.5320339305406
 30
0.0
 10
101.6533989546214
 20
-128.5320339305406
 30
0.0
 10
101.6344509294525
 20
-128.7197916344867
 30
0.0
 10
101.6344509294525
 20
-128.7197916344867
 30
0.0
 10
101.6344509294525
 20
-128.7197916344867
 30
0.0
 10
100.7879909687266
 20
-128.5909450633384
 30
0.0
 10
100.7879909687266
 20
-128.5909450633384
 30
0.0
 10
100.7879909687266
 20
-128.5909450633384
 30
0.0
 10
100.7879909687266
 20
-127.7589545036505
 30
0.0
 10
100.7879909687266
 20
-127.7589545036505
 30
0.0
 10
100.7879909687266
 20
-127.7589545036505
 30
0.0
 10
100.9826388636432
 20
-127.7589545036505
 30
0.0
 10
100.9826388636432
 20
-127.7589545036505
 30
0.0
 10
100.9826388636432
 20
-127.7589545036505
 30
0.0
 10
100.9826388636432
 20
-128.4166232317847
 30
0.0
 10
100.9826388636432
 20
-128.4166232317847
 30
0.0
 10
100.9826388636432
 20
-128.4166232317847
 30
0.0
 10
101.4056965892319
 20
-128.4869031796838
 30
0.0
 10
101.4056965892319
 20
-128.4869031796838
 30
0.0
 10
101.3719346534765
 20
-128.4214463654641
 30
0.0
 10
101.331627036299
 20
-128.3332519210417
 30
0.0
 10
101.331627036299
 20
-128.2064724071845
 30
0.0
 10
101.331627036299
 20
-127.9353433924953
 30
0.0
 10
101.5180067020511
 20
-127.6821288743295
 30
0.0
 10
101.8311658816603
 20
-127.6821288743295
 30
0.0
 10
102.1484591758518
 20
-127.6821288743295
 30
0.0
 10
102.3830701783973
 20
-127.9215630105543
 30
0.0
 10
102.3830701783973
 20
-128.2450574766193
 30
0.0
  0
HATCH
  5
A4
330
94
100
AcDbEntity
  8
_U+30EC_U+30A4_U+30E4_U+30FC 1
 62
   179
420
  2234388
100
AcDbHatch
 10
0.0
 20
0.0
 30
0.0
210
0.0
220
0.0
230
1.0
  2
SOLID
 70
     1
 71
     0
 91
        1
 92
        1
 93
        1
 72
     4
 94
        3
 73
     0
 74
     1
 95
       53
 96
       49
 40
0.0
 40
0.0
 40
0.0
 40
0.0
 40
1.0
 40
1.0
 40
1.0
 40
2.0
 40
2.0
 40
2.0
 40
3.0
 40
3.0
 40
3.0
 40
4.0
 40
4.0
 40
4.0
 40
5.0
 40
5.0
 40
5.0
 40
6.0
 40
6.0
 40
6.0
 40
7.0
 40
7.0
 40
7.0
 40
8.0
 40
8.0
 40
8.0
 40
9.0
 40
9.0
 40
9.0
 40
10.0
 40
10.0
 40
10.0
 40
11.0
 40
11.0
 40
11.0
 40
12.0
 40
12.0
 40
12.0
 40
13.0
 40
13.0
 40
13.0
 40
14.0
 40
14.0
 40
14.0
 40
15.0
 40
15.0
 40
15.0
 40
16.0
 40
16.0
 40
16.0
 40
16.0
 10
102.3830701783973
 20
-128.2450574766193
 10
102.3830701783973
 20
-128.3287732969109
 10
102.3661892105196
 20
-128.4369492951477
 10
102.302799453591
 20
-128.5458143124816
 10
102.1929009076115
 20
-128.7311604495881
 10
102.0616427696235
 20
-128.7535535702422
 10
101.9538112809352
 20
-128.7738796336051
 10
101.9538112809352
 20
-128.7738796336051
 10
101.9538112809352
 20
-128.5365125546714
 10
101.9538112809352
 20
-128.5365125546714
 10
102.1525932904341
 20
-128.4779459314222
 10
102.1822211116072
 20
-128.3422091693033
 10
102.1822211116072
 20
-128.2426459097796
 10
102.1822211116072
 20
-128.0934732752683
 10
102.0826578520835
 20
-127.930520258816
 10
101.8501139068291
 20
-127.930520258816
 10
101.5941433122751
 20
-127.930520258816
 10
101.5242078739245
 20
-128.1227565868929
 10
101.5242078739245
 20
-128.2516031580413
 10
101.5242078739245
 20
-128.2857096033453
 10
101.5242078739245
 20
-128.4369492951477
 10
101.6533989546214
 20
-128.5320339305406
 10
101.6533989546214
 20
-128.5320339305406
 10
101.6344509294525
 20
-128.7197916344867
 10
101.6344509294525
 20
-128.7197916344867
 10
101.6344509294525
 20
-128.7197916344867
 10
100.7879909687266
 20
-128.5909450633384
 10
100.7879909687266
 20
-128.5909450633384
 10
100.7879909687266
 20
-128.5909450633384
 10
100.7879909687266
 20
-127.7589545036505
 10
100.7879909687266
 20
-127.7589545036505
 10
100.7879909687266
 20
-127.7589545036505
 10
100.9826388636432
 20
-127.7589545036505
 10
100.9826388636432
 20
-127.7589545036505
 10
100.9826388636432
 20
-127.7589545036505
 10
100.9826388636432
 20
-128.4166232317847
 10
100.9826388636432
 20
-128.4166232317847
 10
100.9826388636432
 20
-128.4166232317847
 10
101.4056965892319
 20
-128.4869031796838
 10
101.4056965892319
 20
-128.4869031796838
 10
101.3719346534765
 20
-128.4214463654641
 10
101.331627036299
 20
-128.3332519210417
 10
101.331627036299
 20
-128.2064724071845
 10
101.331627036299
 20
-127.9353433924953
 10
101.5180067020511
 20
-127.6821288743295
 10
101.8311658816603
 20
-127.6821288743295
 10
102.1484591758518
 20
-127.6821288743295
 10
102.3830701783973
 20
-127.9215630105543
 10
102.3830701783973
 20
-128.2450574766193
 97
        0
 97
        0
 75
     2
 76
     1
 98
        0
  0
ENDBLK
  5
97
330
94
100
AcDbEntity
  8
0
100
AcDbBlockEnd
  0
BLOCK
  5
B3
330
B1
100
AcDbEntity
  8
0
100
AcDbBlockBegin
  2
block 4
 70
     0
 10
0.0
 20
0.0
 30
0.0
  3
block 4
  1

  0
SPLINE
  5
B5
330
B1
100
AcDbEntity
  8
_U+30EC_U+30A4_U+30E4_U+30FC 1
370
     0
100
AcDbSpline
210
0.0
220
0.0
230
1.0
 70
    11
 71
     3
 72
    26
 73
    22
 74
     0
 42
0.0000000001
 43
0.0000000001
 12
1.0
 22
0.0
 32
0.0
 13
1.0
 23
0.0
 33
0.0
 40
0.0
 40
0.0
 40
0.0
 40
0.0
 40
1.0
 40
1.0
 40
1.0
 40
2.0
 40
2.0
 40
2.0
 40
3.0
 40
3.0
 40
3.0
 40
4.0
 40
4.0
 40
4.0
 40
5.0
 40
5.0
 40
5.0
 40
6.0
 40
6.0
 40
6.0
 40
7.0
 40
7.0
 40
7.0
 40
7.0
 10
83.26864689758563
 20
-120.4477728648533
 30
0.0
 10
83.26864689758563
 20
-120.4477728648533
 30
0.0
 10
83.26864689758563
 20
-119.3436197618308
 30
0.0
 10
83.26864689758563
 20
-119.3436197618308
 30
0.0
 10
83.26864689758563
 20
-119.3436197618308
 30
0.0
 10
82.91621362944456
 20
-119.3436197618308
 30
0.0
 10
82.91621362944456
 20
-119.3436197618308
 30
0.0
 10
82.91621362944456
 20
-119.3436197618308
 30
0.0
 10
82.91621362944456
 20
-119.195480655965
 30
0.0
 10
82.91621362944456
 20
-119.195480655965
 30
0.0
 10
83.2710584644253
 20
-119.1806667453784
 30
0.0
 10
83.32066783941289
 20
-119.0177137289261
 30
0.0
 10
83.35236271787718
 20
-118.9033365588158
 30
0.0
 10
83.35236271787718
 20
-118.9033365588158
 30
0.0
 10
83.50842554335901
 20
-118.9033365588158
 30
0.0
 10
83.50842554335901
 20
-118.9033365588158
 30
0.0
 10
83.50842554335901
 20
-118.9033365588158
 30
0.0
 10
83.50842554335901
 20
-120.4477728648533
 30
0.0
 10
83.50842554335901
 20
-120.4477728648533
 30
0.0
 10
83.50842554335901
 20
-120.4477728648533
 30
0.0
 10
83.26864689758563
 20
-120.4477728648533
 30
0.0
 10
83.26864689758563
 20
-120.4477728648533
 30
0.0
  0
HATCH
  5
B6
330
B1
100
AcDbEntity
  8
_U+30EC_U+30A4_U+30E4_U+30FC 1
 62
   179
420
  2234388
100
AcDbHatch
 10
0.0
 20
0.0
 30
0.0
210
0.0
220
0.0
230
1.0
  2
SOLID
 70
     1
 71
     0
 91
        1
 92
        1
 93
        1
 72
     4
 94
        3
 73
     0
 74
     1
 95
       26
 96
       22
 40
0.0
 40
0.0
 40
0.0
 40
0.0
 40
1.0
 40
1.0
 40
1.0
 40
2.0
 40
2.0
 40
2.0
 40
3.0
 40
3.0
 40
3.0
 40
4.0
 40
4.0
 40
4.0
 40
5.0
 40
5.0
 40
5.0
 40
6.0
 40
6.0
 40
6.0
 40
7.0
 40
7.0
 40
7.0
 40
7.0
 10
83.26864689758563
 20
-120.4477728648533
 10
83.26864689758563
 20
-120.4477728648533
 10
83.26864689758563
 20
-119.3436197618308
 10
83.26864689758563
 20
-119.3436197618308
 10
83.26864689758563
 20
-119.3436197618308
 10
82.91621362944456
 20
-119.3436197618308
 10
82.91621362944456
 20
-119.3436197618308
 10
82.91621362944456
 20
-119.3436197618308
 10
82.91621362944456
 20
-119.195480655965
 10
82.91621362944456
 20
-119.195480655965
 10
83.2710584644253
 20
-119.1806667453784
 10
83.32066783941289
 20
-119.0177137289261
 10
83.35236271787718
 20
-118.9033365588158
 10
83.35236271787718
 20
-118.9033365588158
 10
83.50842554335901
 20
-118.9033365588158
 10
83.50842554335901
 20
-118.9033365588158
 10
83.50842554335901
 20
-118.9033365588158
 10
83.50842554335901
 20
-120.4477728648533
 10
83.50842554335901
 20
-120.4477728648533
 10
83.50842554335901
 20
-120.4477728648533
 10
83.26864689758563
 20
-120.4477728648533
 10
83.26864689758563
 20
-120.4477728648533
 97
        0
 97
        0
 75
     2
 76
     1
 98
        0
  0
SPLINE
  5
B7
330
B1
100
AcDbEntity
  8
_U+30EC_U+30A4_U+30E4_U+30FC 1
370
     0
100
AcDbSpline
210
0.0
220
0.0
230
1.0
 70
    11
 71
     3
 72
    62
 73
    58
 74
     0
 42
0.0000000001
 43
0.0000000001
 12
1.0
 22
0.0
 32
0.0
 13
1.0
 23
0.0
 33
0.0
 40
0.0
 40
0.0
 40
0.0
 40
0.0
 40
1.0
 40
1.0
 40
1.0
 40
2.0
 40
2.0
 40
2.0
 40
3.0
 40
3.0
 40
3.0
 40
4.0
 40
4.0
 40
4.0
 40
5.0
 40
5.0
 40
5.0
 40
6.0
 40
6.0
 40
6.0
 40
7.0
 40
7.0
 40
7.0
 40
8.0
 40
8.0
 40
8.0
 40
9.0
 40
9.0
 40
9.0
 40
10.0
 40
10.0
 40
10.0
 40
11.0
 40
11.0
 40
11.0
 40
12.0
 40
12.0
 40
12.0
 40
13.0
 40
13.0
 40
13.0
 40
14.0
 40
14.0
 40
14.0
 40
15.0
 40
15.0
 40
15.0
 40
16.0
 40
16.0
 40
16.0
 40
17.0
 40
17.0
 40
17.0
 40
18.0
 40
18.0
 40
18.0
 40
19.0
 40
19.0
 40
19.0
 40
19.0
 10
84.56951495281596
 20
-120.4984157684865
 30
0.0
 10
84.46788463600109
 20
-120.4984157684865
 30
0.0
 10
84.2349961811982
 20
-120.4774006860265
 30
0.0
 10
84.10167098591903
 20
-120.291365529823
 30
0.0
 10
84.02243378975828
 20
-120.1790554170039
 30
0.0
 10
84.01795516562746
 20
-120.0798366670287
 30
0.0
 10
84.01347654149663
 20
-119.9950873180915
 30
0.0
 10
84.01347654149663
 20
-119.9950873180915
 30
0.0
 10
84.24843205359068
 20
-119.9950873180915
 30
0.0
 10
84.24843205359068
 20
-119.9950873180915
 30
0.0
 10
84.25084362043035
 20
-120.0691568710244
 30
0.0
 10
84.26221243553168
 20
-120.3037678735699
 30
0.0
 10
84.56503632868514
 20
-120.3037678735699
 30
0.0
 10
84.7121419059053
 20
-120.3037678735699
 30
0.0
 10
84.87475041280909
 20
-120.2341769447679
 30
0.0
 10
84.87475041280909
 20
-120.0057671140958
 30
0.0
 10
84.87475041280909
 20
-119.8893228866943
 30
0.0
 10
84.83409828608315
 20
-119.8407470403523
 30
0.0
 10
84.8003363503277
 20
-119.809052161888
 30
0.0
 10
84.72109915416695
 20
-119.7349826089551
 30
0.0
 10
84.59673120714943
 20
-119.7222357556597
 30
0.0
 10
84.53782007435166
 20
-119.7222357556597
 30
0.0
 10
84.51749401098868
 20
-119.7222357556597
 30
0.0
 10
84.47925345110241
 20
-119.7243028129509
 30
0.0
 10
84.44962562992926
 20
-119.7284369275332
 30
0.0
 10
84.44962562992926
 20
-119.7284369275332
 30
0.0
 10
84.44962562992926
 20
-119.5337890326166
 30
0.0
 10
84.44962562992926
 20
-119.5337890326166
 30
0.0
 10
84.49027775665522
 20
-119.5403347140385
 30
0.0
 10
84.53575301706051
 20
-119.5424017713297
 30
0.0
 10
84.54229869848248
 20
-119.5424017713297
 30
0.0
 10
84.61257864638158
 20
-119.5424017713297
 30
0.0
 10
84.8251410378215
 20
-119.5210421793211
 30
0.0
 10
84.8251410378215
 20
-119.2843641194845
 30
0.0
 10
84.8251410378215
 20
-119.1065971924456
 30
0.0
 10
84.68492565157183
 20
-119.0514756646816
 30
0.0
 10
84.56744789552481
 20
-119.0514756646816
 30
0.0
 10
84.2846055561858
 20
-119.0514756646816
 30
0.0
 10
84.27564830792414
 20
-119.2843641194845
 30
0.0
 10
84.27116968379332
 20
-119.3560221055777
 30
0.0
 10
84.27116968379332
 20
-119.3560221055777
 30
0.0
 10
84.05412866822259
 20
-119.3560221055777
 30
0.0
 10
84.05412866822259
 20
-119.3560221055777
 30
0.0
 10
84.06308591648423
 20
-119.2313096490116
 30
0.0
 10
84.09236922810885
 20
-118.8547607124738
 30
0.0
 10
84.58088376791729
 20
-118.8547607124738
 30
0.0
 10
84.82066241369067
 20
-118.8547607124738
 30
0.0
 10
85.07835555598736
 20
-118.9818847358795
 30
0.0
 10
85.07835555598736
 20
-119.2778184380625
 30
0.0
 10
85.07835555598736
 20
-119.4641981038145
 30
0.0
 10
84.97638072962397
 20
-119.546535885912
 30
0.0
 10
84.87027178867827
 20
-119.6078585855494
 30
0.0
 10
84.93572860289801
 20
-119.6354193494314
 30
0.0
 10
85.13037649781464
 20
-119.7156900742378
 30
0.0
 10
85.13037649781464
 20
-119.9930202608004
 30
0.0
 10
85.13037649781464
 20
-120.3313286374519
 30
0.0
 10
84.86579316454744
 20
-120.4984157684865
 30
0.0
 10
84.56951495281596
 20
-120.4984157684865
 30
0.0
  0
HATCH
  5
B8
330
B1
100
AcDbEntity
  8
_U+30EC_U+30A4_U+30E4_U+30FC 1
 62
   179
420
  2234388
100
AcDbHatch
 10
0.0
 20
0.0
 30
0.0
210
0.0
220
0.0
230
1.0
  2
SOLID
 70
     1
 71
     0
 91
        1
 92
        1
 93
        1
 72
     4
 94
        3
 73
     0
 74
     1
 95
       62
 96
       58
 40
0.0
 40
0.0
 40
0.0
 40
0.0
 40
1.0
 40
1.0
 40
1.0
 40
2.0
 40
2.0
 40
2.0
 40
3.0
 40
3.0
 40
3.0
 40
4.0
 40
4.0
 40
4.0
 40
5.0
 40
5.0
 40
5.0
 40
6.0
 40
6.0
 40
6.0
 40
7.0
 40
7.0
 40
7.0
 40
8.0
 40
8.0
 40
8.0
 40
9.0
 40
9.0
 40
9.0
 40
10.0
 40
10.0
 40
10.0
 40
11.0
 40
11.0
 40
11.0
 40
12.0
 40
12.0
 40
12.0
 40
13.0
 40
13.0
 40
13.0
 40
14.0
 40
14.0
 40
14.0
 40
15.0
 40
15.0
 40
15.0
 40
16.0
 40
16.0
 40
16.0
 40
17.0
 40
17.0
 40
17.0
 40
18.0
 40
18.0
 40
18.0
 40
19.0
 40
19.0
 40
19.0
 40
19.0
 10
84.56951495281596
 20
-120.4984157684865
 10
84.46788463600109
 20
-120.4984157684865
 10
84.2349961811982
 20
-120.4774006860265
 10
84.10167098591903
 20
-120.291365529823
 10
84.02243378975828
 20
-120.1790554170039
 10
84.01795516562746
 20
-120.0798366670287
 10
84.01347654149663
 20
-119.9950873180915
 10
84.01347654149663
 20
-119.9950873180915
 10
84.24843205359068
 20
-119.9950873180915
 10
84.24843205359068
 20
-119.9950873180915
 10
84.25084362043035
 20
-120.0691568710244
 10
84.26221243553168
 20
-120.3037678735699
 10
84.56503632868514
 20
-120.3037678735699
 10
84.7121419059053
 20
-120.3037678735699
 10
84.87475041280909
 20
-120.2341769447679
 10
84.87475041280909
 20
-120.0057671140958
 10
84.87475041280909
 20
-119.8893228866943
 10
84.83409828608315
 20
-119.8407470403523
 10
84.8003363503277
 20
-119.809052161888
 10
84.72109915416695
 20
-119.7349826089551
 10
84.59673120714943
 20
-119.7222357556597
 10
84.53782007435166
 20
-119.7222357556597
 10
84.51749401098868
 20
-119.7222357556597
 10
84.47925345110241
 20
-119.7243028129509
 10
84.44962562992926
 20
-119.7284369275332
 10
84.44962562992926
 20
-119.7284369275332
 10
84.44962562992926
 20
-119.5337890326166
 10
84.44962562992926
 20
-119.5337890326166
 10
84.49027775665522
 20
-119.5403347140385
 10
84.53575301706051
 20
-119.5424017713297
 10
84.54229869848248
 20
-119.5424017713297
 10
84.61257864638158
 20
-119.5424017713297
 10
84.8251410378215
 20
-119.5210421793211
 10
84.8251410378215
 20
-119.2843641194845
 10
84.8251410378215
 20
-119.1065971924456
 10
84.68492565157183
 20
-119.0514756646816
 10
84.56744789552481
 20
-119.0514756646816
 10
84.2846055561858
 20
-119.0514756646816
 10
84.27564830792414
 20
-119.2843641194845
 10
84.27116968379332
 20
-119.3560221055777
 10
84.27116968379332
 20
-119.3560221055777
 10
84.05412866822259
 20
-119.3560221055777
 10
84.05412866822259
 20
-119.3560221055777
 10
84.06308591648423
 20
-119.2313096490116
 10
84.09236922810885
 20
-118.8547607124738
 10
84.58088376791729
 20
-118.8547607124738
 10
84.82066241369067
 20
-118.8547607124738
 10
85.07835555598736
 20
-118.9818847358795
 10
85.07835555598736
 20
-119.2778184380625
 10
85.07835555598736
 20
-119.4641981038145
 10
84.97638072962397
 20
-119.546535885912
 10
84.87027178867827
 20
-119.6078585855494
 10
84.93572860289801
 20
-119.6354193494314
 10
85.13037649781464
 20
-119.7156900742378
 10
85.13037649781464
 20
-119.9930202608004
 10
85.13037649781464
 20
-120.3313286374519
 10
84.86579316454744
 20
-120.4984157684865
 10
84.56951495281596
 20
-120.4984157684865
 97
        0
 97
        0
 75
     2
 76
     1
 98
        0
  0
ENDBLK
  5
B4
330
B1
100
AcDbEntity
  8
0
100
AcDbBlockEnd
  0
BLOCK
  5
C7
330
C5
100
AcDbEntity
  8
0
100
AcDbBlockBegin
  2
block 5
 70
     0
 10
0.0
 20
0.0
 30
0.0
  3
block 5
  1

  0
SPLINE
  5
C9
330
C5
100
AcDbEntity
  8
_U+30EC_U+30A4_U+30E4_U+30FC 1
370
     0
100
AcDbSpline
210
0.0
220
0.0
230
1.0
 70
    11
 71
     3
 72
    44
 73
    40
 74
     0
 42
0.0000000001
 43
0.0000000001
 12
1.0
 22
0.0
 32
0.0
 13
1.0
 23
0.0
 33
0.0
 40
0.0
 40
0.0
 40
0.0
 40
0.0
 40
1.0
 40
1.0
 40
1.0
 40
2.0
 40
2.0
 40
2.0
 40
3.0
 40
3.0
 40
3.0
 40
4.0
 40
4.0
 40
4.0
 40
5.0
 40
5.0
 40
5.0
 40
6.0
 40
6.0
 40
6.0
 40
7.0
 40
7.0
 40
7.0
 40
8.0
 40
8.0
 40
8.0
 40
9.0
 40
9.0
 40
9.0
 40
10.0
 40
10.0
 40
10.0
 40
11.0
 40
11.0
 40
11.0
 40
12.0
 40
12.0
 40
12.0
 40
13.0
 40
13.0
 40
13.0
 40
13.0
 10
87.92021482176995
 20
-136.3658365544502
 30
0.0
 10
87.68732636696706
 20
-136.5246554563202
 30
0.0
 10
87.58776310744334
 20
-136.5987250092531
 30
0.0
 10
87.53574216561607
 20
-136.742385490988
 30
0.0
 10
87.53574216561607
 20
-136.742385490988
 30
0.0
 10
88.36807723485244
 20
-136.742385490988
 30
0.0
 10
88.36807723485244
 20
-136.742385490988
 30
0.0
 10
88.36807723485244
 20
-136.742385490988
 30
0.0
 10
88.36807723485244
 20
-136.9477131819089
 30
0.0
 10
88.36807723485244
 20
-136.9477131819089
 30
0.0
 10
88.36807723485244
 20
-136.9477131819089
 30
0.0
 10
87.26909177505773
 20
-136.9477131819089
 30
0.0
 10
87.26909177505773
 20
-136.9477131819089
 30
0.0
 10
87.30319822036171
 20
-136.59011227054
 30
0.0
 10
87.37313365871228
 20
-136.5119086030248
 30
0.0
 10
87.78447805965111
 20
-136.2135633340022
 30
0.0
 10
88.05801864117994
 20
-136.0147813245032
 30
0.0
 10
88.12829858907904
 20
-135.9469129434438
 30
0.0
 10
88.12829858907904
 20
-135.8094536335824
 30
0.0
 10
88.12829858907904
 20
-135.6909423488898
 30
0.0
 10
88.05147295975797
 20
-135.5600287204503
 30
0.0
 10
87.8409776256092
 20
-135.5600287204503
 30
0.0
 10
87.56295841994954
 20
-135.5600287204503
 30
0.0
 10
87.55400117168789
 20
-135.7905056084135
 30
0.0
 10
87.54952254755707
 20
-135.9069498358149
 30
0.0
 10
87.54952254755707
 20
-135.9069498358149
 30
0.0
 10
87.30974390178368
 20
-135.9069498358149
 30
0.0
 10
87.30974390178368
 20
-135.9069498358149
 30
0.0
 10
87.31870115004533
 20
-135.7798258124092
 30
0.0
 10
87.33006996514665
 20
-135.6678602091386
 30
0.0
 10
87.4161973522779
 20
-135.549348924446
 30
0.0
 10
87.53367510832491
 20
-135.3884629652848
 30
0.0
 10
87.73245711782383
 20
-135.3547010295294
 30
0.0
 10
87.85682506484136
 20
-135.3547010295294
 30
0.0
 10
88.15310327657284
 20
-135.3547010295294
 30
0.0
 10
88.3746229162744
 20
-135.5386691284417
 30
0.0
 10
88.3746229162744
 20
-135.8115206908735
 30
0.0
 10
88.3746229162744
 20
-136.0402750310941
 30
0.0
 10
88.25025496925689
 20
-136.1394937810693
 30
0.0
 10
87.92021482176995
 20
-136.3658365544502
 30
0.0
  0
HATCH
  5
CA
330
C5
100
AcDbEntity
  8
_U+30EC_U+30A4_U+30E4_U+30FC 1
 62
   179
420
  2234388
100
AcDbHatch
 10
0.0
 20
0.0
 30
0.0
210
0.0
220
0.0
230
1.0
  2
SOLID
 70
     1
 71
     0
 91
        1
 92
        1
 93
        1
 72
     4
 94
        3
 73
     0
 74
     1
 95
       44
 96
       40
 40
0.0
 40
0.0
 40
0.0
 40
0.0
 40
1.0
 40
1.0
 40
1.0
 40
2.0
 40
2.0
 40
2.0
 40
3.0
 40
3.0
 40
3.0
 40
4.0
 40
4.0
 40
4.0
 40
5.0
 40
5.0
 40
5.0
 40
6.0
 40
6.0
 40
6.0
 40
7.0
 40
7.0
 40
7.0
 40
8.0
 40
8.0
 40
8.0
 40
9.0
 40
9.0
 40
9.0
 40
10.0
 40
10.0
 40
10.0
 40
11.0
 40
11.0
 40
11.0
 40
12.0
 40
12.0
 40
12.0
 40
13.0
 40
13.0
 40
13.0
 40
13.0
 10
87.92021482176995
 20
-136.3658365544502
 10
87.68732636696706
 20
-136.5246554563202
 10
87.58776310744334
 20
-136.5987250092531
 10
87.53574216561607
 20
-136.742385490988
 10
87.53574216561607
 20
-136.742385490988
 10
88.36807723485244
 20
-136.742385490988
 10
88.36807723485244
 20
-136.742385490988
 10
88.36807723485244
 20
-136.742385490988
 10
88.36807723485244
 20
-136.9477131819089
 10
88.36807723485244
 20
-136.9477131819089
 10
88.36807723485244
 20
-136.9477131819089
 10
87.26909177505773
 20
-136.9477131819089
 10
87.26909177505773
 20
-136.9477131819089
 10
87.30319822036171
 20
-136.59011227054
 10
87.37313365871228
 20
-136.5119086030248
 10
87.78447805965111
 20
-136.2135633340022
 10
88.05801864117994
 20
-136.0147813245032
 10
88.12829858907904
 20
-135.9469129434438
 10
88.12829858907904
 20
-135.8094536335824
 10
88.12829858907904
 20
-135.6909423488898
 10
88.05147295975797
 20
-135.5600287204503
 10
87.8409776256092
 20
-135.5600287204503
 10
87.56295841994954
 20
-135.5600287204503
 10
87.55400117168789
 20
-135.7905056084135
 10
87.54952254755707
 20
-135.9069498358149
 10
87.54952254755707
 20
-135.9069498358149
 10
87.30974390178368
 20
-135.9069498358149
 10
87.30974390178368
 20
-135.9069498358149
 10
87.31870115004533
 20
-135.7798258124092
 10
87.33006996514665
 20
-135.6678602091386
 10
87.4161973522779
 20
-135.549348924446
 10
87.53367510832491
 20
-135.3884629652848
 10
87.73245711782383
 20
-135.3547010295294
 10
87.85682506484136
 20
-135.3547010295294
 10
88.15310327657284
 20
-135.3547010295294
 10
88.3746229162744
 20
-135.5386691284417
 10
88.3746229162744
 20
-135.8115206908735
 10
88.3746229162744
 20
-136.0402750310941
 10
88.25025496925689
 20
-136.1394937810693
 10
87.92021482176995
 20
-136.3658365544502
 97
        0
 97
        0
 75
     2
 76
     1
 98
        0
  0
SPLINE
  5
CB
330
C5
100
AcDbEntity
  8
_U+30EC_U+30A4_U+30E4_U+30FC 1
370
     0
100
AcDbSpline
210
0.0
220
0.0
230
1.0
 70
    11
 71
     3
 72
    44
 73
    40
 74
     0
 42
0.0000000001
 43
0.0000000001
 12
1.0
 22
0.0
 32
0.0
 13
1.0
 23
0.0
 33
0.0
 40
0.0
 40
0.0
 40
0.0
 40
0.0
 40
1.0
 40
1.0
 40
1.0
 40
2.0
 40
2.0
 40
2.0
 40
3.0
 40
3.0
 40
3.0
 40
4.0
 40
4.0
 40
4.0
 40
5.0
 40
5.0
 40
5.0
 40
6.0
 40
6.0
 40
6.0
 40
7.0
 40
7.0
 40
7.0
 40
8.0
 40
8.0
 40
8.0
 40
9.0
 40
9.0
 40
9.0
 40
10.0
 40
10.0
 40
10.0
 40
11.0
 40
11.0
 40
11.0
 40
12.0
 40
12.0
 40
12.0
 40
13.0
 40
13.0
 40
13.0
 40
13.0
 10
89.17801918343467
 20
-136.3658365544502
 30
0.0
 10
88.94513072863178
 20
-136.5246554563202
 30
0.0
 10
88.84556746910806
 20
-136.5987250092531
 30
0.0
 10
88.79389103682931
 20
-136.742385490988
 30
0.0
 10
88.79389103682931
 20
-136.742385490988
 30
0.0
 10
89.62553708696862
 20
-136.742385490988
 30
0.0
 10
89.62553708696862
 20
-136.742385490988
 30
0.0
 10
89.62553708696862
 20
-136.742385490988
 30
0.0
 10
89.62553708696862
 20
-136.9477131819089
 30
0.0
 10
89.62553708696862
 20
-136.9477131819089
 30
0.0
 10
89.62553708696862
 20
-136.9477131819089
 30
0.0
 10
88.52689613672244
 20
-136.9477131819089
 30
0.0
 10
88.52689613672244
 20
-136.9477131819089
 30
0.0
 10
88.56100258202642
 20
-136.59011227054
 30
0.0
 10
88.63093802037699
 20
-136.5119086030248
 30
0.0
 10
89.04228242131582
 20
-136.2135633340022
 30
0.0
 10
89.31582300284465
 20
-136.0147813245032
 30
0.0
 10
89.38610295074376
 20
-135.9469129434438
 30
0.0
 10
89.38610295074376
 20
-135.8094536335824
 30
0.0
 10
89.38610295074376
 20
-135.6909423488898
 30
0.0
 10
89.30927732142268
 20
-135.5600287204503
 30
0.0
 10
89.09878198727392
 20
-135.5600287204503
 30
0.0
 10
88.82076278161426
 20
-135.5600287204503
 30
0.0
 10
88.81180553335261
 20
-135.7905056084135
 30
0.0
 10
88.80732690922179
 20
-135.9069498358149
 30
0.0
 10
88.80732690922179
 20
-135.9069498358149
 30
0.0
 10
88.5675482634484
 20
-135.9069498358149
 30
0.0
 10
88.5675482634484
 20
-135.9069498358149
 30
0.0
 10
88.57685002125856
 20
-135.7798258124092
 30
0.0
 10
88.58787432681137
 20
-135.6678602091386
 30
0.0
 10
88.67400171394262
 20
-135.549348924446
 30
0.0
 10
88.79147946998964
 20
-135.3884629652848
 30
0.0
 10
88.99026147948855
 20
-135.3547010295294
 30
0.0
 10
89.11462942650607
 20
-135.3547010295294
 30
0.0
 10
89.41090763823756
 20
-135.3547010295294
 30
0.0
 10
89.63242727793912
 20
-135.5386691284417
 30
0.0
 10
89.63242727793912
 20
-135.8115206908735
 30
0.0
 10
89.63242727793912
 20
-136.0402750310941
 30
0.0
 10
89.5080593309216
 20
-136.1394937810693
 30
0.0
 10
89.17801918343467
 20
-136.3658365544502
 30
0.0
  0
HATCH
  5
CC
330
C5
100
AcDbEntity
  8
_U+30EC_U+30A4_U+30E4_U+30FC 1
 62
   179
420
  2234388
100
AcDbHatch
 10
0.0
 20
0.0
 30
0.0
210
0.0
220
0.0
230
1.0
  2
SOLID
 70
     1
 71
     0
 91
        1
 92
        1
 93
        1
 72
     4
 94
        3
 73
     0
 74
     1
 95
       44
 96
       40
 40
0.0
 40
0.0
 40
0.0
 40
0.0
 40
1.0
 40
1.0
 40
1.0
 40
2.0
 40
2.0
 40
2.0
 40
3.0
 40
3.0
 40
3.0
 40
4.0
 40
4.0
 40
4.0
 40
5.0
 40
5.0
 40
5.0
 40
6.0
 40
6.0
 40
6.0
 40
7.0
 40
7.0
 40
7.0
 40
8.0
 40
8.0
 40
8.0
 40
9.0
 40
9.0
 40
9.0
 40
10.0
 40
10.0
 40
10.0
 40
11.0
 40
11.0
 40
11.0
 40
12.0
 40
12.0
 40
12.0
 40
13.0
 40
13.0
 40
13.0
 40
13.0
 10
89.17801918343467
 20
-136.3658365544502
 10
88.94513072863178
 20
-136.5246554563202
 10
88.84556746910806
 20
-136.5987250092531
 10
88.79389103682931
 20
-136.742385490988
 10
88.79389103682931
 20
-136.742385490988
 10
89.62553708696862
 20
-136.742385490988
 10
89.62553708696862
 20
-136.742385490988
 10
89.62553708696862
 20
-136.742385490988
 10
89.62553708696862
 20
-136.9477131819089
 10
89.62553708696862
 20
-136.9477131819089
 10
89.62553708696862
 20
-136.9477131819089
 10
88.52689613672244
 20
-136.9477131819089
 10
88.52689613672244
 20
-136.9477131819089
 10
88.56100258202642
 20
-136.59011227054
 10
88.63093802037699
 20
-136.5119086030248
 10
89.04228242131582
 20
-136.2135633340022
 10
89.31582300284465
 20
-136.0147813245032
 10
89.38610295074376
 20
-135.9469129434438
 10
89.38610295074376
 20
-135.8094536335824
 10
89.38610295074376
 20
-135.6909423488898
 10
89.30927732142268
 20
-135.5600287204503
 10
89.09878198727392
 20
-135.5600287204503
 10
88.82076278161426
 20
-135.5600287204503
 10
88.81180553335261
 20
-135.7905056084135
 10
88.80732690922179
 20
-135.9069498358149
 10
88.80732690922179
 20
-135.9069498358149
 10
88.5675482634484
 20
-135.9069498358149
 10
88.5675482634484
 20
-135.9069498358149
 10
88.57685002125856
 20
-135.7798258124092
 10
88.58787432681137
 20
-135.6678602091386
 10
88.67400171394262
 20
-135.549348924446
 10
88.79147946998964
 20
-135.3884629652848
 10
88.99026147948855
 20
-135.3547010295294
 10
89.11462942650607
 20
-135.3547010295294
 10
89.41090763823756
 20
-135.3547010295294
 10
89.63242727793912
 20
-135.5386691284417
 10
89.63242727793912
 20
-135.8115206908735
 10
89.63242727793912
 20
-136.0402750310941
 10
89.5080593309216
 20
-136.1394937810693
 10
89.17801918343467
 20
-136.3658365544502
 97
        0
 97
        0
 75
     2
 76
     1
 98
        0
  0
ENDBLK
  5
C8
330
C5
100
AcDbEntity
  8
0
100
AcDbBlockEnd
  0
BLOCK
  5
D1
330
CF
100
AcDbEntity
  8
0
100
AcDbBlockBegin
  2
block 6
 70
     0
 10
0.0
 20
0.0
 30
0.0
  3
block 6
  1

  0
SPLINE
  5
D3
330
CF
100
AcDbEntity
  8
_U+30EC_U+30A4_U+30E4_U+30FC 1
370
     0
100
AcDbSpline
210
0.0
220
0.0
230
1.0
 70
    11
 71
     3
 72
    26
 73
    22
 74
     0
 42
0.0000000001
 43
0.0000000001
 12
1.0
 22
0.0
 32
0.0
 13
1.0
 23
0.0
 33
0.0
 40
0.0
 40
0.0
 40
0.0
 40
0.0
 40
1.0
 40
1.0
 40
1.0
 40
2.0
 40
2.0
 40
2.0
 40
3.0
 40
3.0
 40
3.0
 40
4.0
 40
4.0
 40
4.0
 40
5.0
 40
5.0
 40
5.0
 40
6.0
 40
6.0
 40
6.0
 40
7.0
 40
7.0
 40
7.0
 40
7.0
 10
82.28214380538432
 20
-128.7192748701639
 30
0.0
 10
82.28214380538432
 20
-128.7192748701639
 30
0.0
 10
82.28214380538432
 20
-127.6149495123671
 30
0.0
 10
82.28214380538432
 20
-127.6149495123671
 30
0.0
 10
82.28214380538432
 20
-127.6149495123671
 30
0.0
 10
81.9521036578974
 20
-127.6149495123671
 30
0.0
 10
81.9521036578974
 20
-127.6149495123671
 30
0.0
 10
81.9521036578974
 20
-127.6149495123671
 30
0.0
 10
81.9521036578974
 20
-127.4668104065014
 30
0.0
 10
81.9521036578974
 20
-127.4668104065014
 30
0.0
 10
82.28421086267548
 20
-127.452168750689
 30
0.0
 10
82.33071965172635
 20
-127.2892157342367
 30
0.0
 10
82.3603474728995
 20
-127.1750108189007
 30
0.0
 10
82.3603474728995
 20
-127.1750108189007
 30
0.0
 10
82.50641952147409
 20
-127.1750108189007
 30
0.0
 10
82.50641952147409
 20
-127.1750108189007
 30
0.0
 10
82.50641952147409
 20
-127.1750108189007
 30
0.0
 10
82.50641952147409
 20
-128.7192748701639
 30
0.0
 10
82.50641952147409
 20
-128.7192748701639
 30
0.0
 10
82.50641952147409
 20
-128.7192748701639
 30
0.0
 10
82.28214380538432
 20
-128.7192748701639
 30
0.0
 10
82.28214380538432
 20
-128.7192748701639
 30
0.0
  0
HATCH
  5
D4
330
CF
100
AcDbEntity
  8
_U+30EC_U+30A4_U+30E4_U+30FC 1
 62
   179
420
  2234388
100
AcDbHatch
 10
0.0
 20
0.0
 30
0.0
210
0.0
220
0.0
230
1.0
  2
SOLID
 70
     1
 71
     0
 91
        1
 92
        1
 93
        1
 72
     4
 94
        3
 73
     0
 74
     1
 95
       26
 96
       22
 40
0.0
 40
0.0
 40
0.0
 40
0.0
 40
1.0
 40
1.0
 40
1.0
 40
2.0
 40
2.0
 40
2.0
 40
3.0
 40
3.0
 40
3.0
 40
4.0
 40
4.0
 40
4.0
 40
5.0
 40
5.0
 40
5.0
 40
6.0
 40
6.0
 40
6.0
 40
7.0
 40
7.0
 40
7.0
 40
7.0
 10
82.28214380538432
 20
-128.7192748701639
 10
82.28214380538432
 20
-128.7192748701639
 10
82.28214380538432
 20
-127.6149495123671
 10
82.28214380538432
 20
-127.6149495123671
 10
82.28214380538432
 20
-127.6149495123671
 10
81.9521036578974
 20
-127.6149495123671
 10
81.9521036578974
 20
-127.6149495123671
 10
81.9521036578974
 20
-127.6149495123671
 10
81.9521036578974
 20
-127.4668104065014
 10
81.9521036578974
 20
-127.4668104065014
 10
82.28421086267548
 20
-127.452168750689
 10
82.33071965172635
 20
-127.2892157342367
 10
82.3603474728995
 20
-127.1750108189007
 10
82.3603474728995
 20
-127.1750108189007
 10
82.50641952147409
 20
-127.1750108189007
 10
82.50641952147409
 20
-127.1750108189007
 10
82.50641952147409
 20
-127.1750108189007
 10
82.50641952147409
 20
-128.7192748701639
 10
82.50641952147409
 20
-128.7192748701639
 10
82.50641952147409
 20
-128.7192748701639
 10
82.28214380538432
 20
-128.7192748701639
 10
82.28214380538432
 20
-128.7192748701639
 97
        0
 97
        0
 75
     2
 76
     1
 98
        0
  0
ENDBLK
  5
D2
330
CF
100
AcDbEntity
  8
0
100
AcDbBlockEnd
  0
ENDSEC
  0
SECTION
  2
ENTITIES
  0
SPLINE
  5
41
330
1F
100
AcDbEntity
  8
_U+30EC_U+30A4_U+30E4_U+30FC 1
 62
   179
420
  2234388
370
     9
100
AcDbSpline
210
0.0
220
0.0
230
1.0
 70
    11
 71
     3
 72
    17
 73
    13
 74
     0
 42
0.0000000001
 43
0.0000000001
 12
1.0
 22
0.0
 32
0.0
 13
1.0
 23
0.0
 33
0.0
 40
0.0
 40
0.0
 40
0.0
 40
0.0
 40
1.0
 40
1.0
 40
1.0
 40
2.0
 40
2.0
 40
2.0
 40
3.0
 40
3.0
 40
3.0
 40
4.0
 40
4.0
 40
4.0
 40
4.0
 10
103.3811018069728
 20
-133.542581355503
 30
0.0
 10
103.3811018069728
 20
-133.4871246888503
 30
0.0
 10
103.3363343081149
 20
-133.4423219110836
 30
0.0
 10
103.281195142855
 20
-133.4423219110836
 30
0.0
 10
103.2260912553719
 20
-133.4423219110836
 30
0.0
 10
103.1812884787371
 20
-133.4871246888503
 30
0.0
 10
103.1812884787371
 20
-133.542581355503
 30
0.0
 10
103.1812884787371
 20
-133.5976852443785
 30
0.0
 10
103.2260912553719
 20
-133.6424880221452
 30
0.0
 10
103.281195142855
 20
-133.6424880221452
 30
0.0
 10
103.3363343081149
 20
-133.6424880221452
 30
0.0
 10
103.3811018069728
 20
-133.5976852443785
 30
0.0
 10
103.3811018069728
 20
-133.542581355503
 30
0.0
  0
POLYLINE
  5
42
330
1F
100
AcDbEntity
  8
_U+30EC_U+30A4_U+30E4_U+30FC 1
 62
   179
420
  2234388
370
     9
100
AcDb2dPolyline
 66
     1
 10
0.0
 20
0.0
 30
0.0
  0
VERTEX
  5
43
330
42
100
AcDbEntity
  8
_U+30EC_U+30A4_U+30E4_U+30FC 1
 62
   179
420
  2234388
370
     9
100
AcDbVertex
100
AcDb2dVertex
 10
103.281195142855
 20
-131.8951444114707
 30
0.0
  0
VERTEX
  5
44
330
42
100
AcDbEntity
  8
_U+30EC_U+30A4_U+30E4_U+30FC 1
 62
   179
420
  2234388
370
     9
100
AcDbVertex
100
AcDb2dVertex
 10
103.281195142855
 20
-133.542581355503
 30
0.0
  0
SEQEND
  5
45
330
42
100
AcDbEntity
  8
_U+30EC_U+30A4_U+30E4_U+30FC 1
 62
   179
420
  2234388
370
     9
  0
POLYLINE
  5
46
330
1F
100
AcDbEntity
  8
_U+30EC_U+30A4_U+30E4_U+30FC 1
 62
   179
420
  2234388
370
     9
100
AcDb2dPolyline
 66
     1
 10
0.0
 20
0.0
 30
0.0
  0
VERTEX
  5
47
330
46
100
AcDbEntity
  8
_U+30EC_U+30A4_U+30E4_U+30FC 1
 62
   179
420
  2234388
370
     9
100
AcDbVertex
100
AcDb2dVertex
 10
102.2855857238106
 20
-133.542581355503
 30
0.0
  0
VERTEX
  5
48
330
46
100
AcDbEntity
  8
_U+30EC_U+30A4_U+30E4_U+30FC 1
 62
   179
420
  2234388
370
     9
100
AcDbVertex
100
AcDb2dVertex
 10
104.2816728951084
 20
-133.542581355503
 30
0.0
  0
SEQEND
  5
49
330
46
100
AcDbEntity
  8
_U+30EC_U+30A4_U+30E4_U+30FC 1
 62
   179
420
  2234388
370
     9
  0
INSERT
  5
4B
330
1F
100
AcDbEntity
  8
_U+30EC_U+30A4_U+30E4_U+30FC 1
100
AcDbBlockReference
  2
block 2
 10
0.0
 20
0.0
 30
0.0
  0
SPLINE
  5
50
330
1F
100
AcDbEntity
  8
_U+30EC_U+30A4_U+30E4_U+30FC 1
370
     0
100
AcDbSpline
210
0.0
220
0.0
230
1.0
 70
    11
 71
     3
 72
    50
 73
    46
 74
     0
 42
0.0000000001
 43
0.0000000001
 12
1.0
 22
0.0
 32
0.0
 13
1.0
 23
0.0
 33
0.0
 40
0.0
 40
0.0
 40
0.0
 40
0.0
 40
1.0
 40
1.0
 40
1.0
 40
2.0
 40
2.0
 40
2.0
 40
3.0
 40
3.0
 40
3.0
 40
4.0
 40
4.0
 40
4.0
 40
5.0
 40
5.0
 40
5.0
 40
6.0
 40
6.0
 40
6.0
 40
7.0
 40
7.0
 40
7.0
 40
8.0
 40
8.0
 40
8.0
 40
9.0
 40
9.0
 40
9.0
 40
10.0
 40
10.0
 40
10.0
 40
11.0
 40
11.0
 40
11.0
 40
12.0
 40
12.0
 40
12.0
 40
13.0
 40
13.0
 40
13.0
 40
14.0
 40
14.0
 40
14.0
 40
15.0
 40
15.0
 40
15.0
 40
15.0
 10
99.0954163607542
 20
-133.0450941334057
 30
0.0
 10
99.0954163607542
 20
-133.0450941334057
 30
0.0
 10
93.44476317158103
 20
-133.0450941334057
 30
0.0
 10
93.44476317158103
 20
-133.0450941334057
 30
0.0
 10
93.26633053223912
 20
-132.7357433001493
 30
0.0
 10
92.9362692956649
 20
-132.5448905224195
 30
0.0
 10
92.57936402699254
 20
-132.5448905224195
 30
0.0
 10
92.57936402699254
 20
-132.5448905224195
 30
0.0
 10
84.44462617897143
 20
-132.5448905224195
 30
0.0
 10
84.44462617897143
 20
-132.5448905224195
 30
0.0
 10
84.44462617897143
 20
-132.5448905224195
 30
0.0
 10
84.44462617897143
 20
-126.0446777462667
 30
0.0
 10
84.44462617897143
 20
-126.0446777462667
 30
0.0
 10
84.44462617897143
 20
-126.0446777462667
 30
0.0
 10
90.44459991478824
 20
-126.0446777462667
 30
0.0
 10
90.44459991478824
 20
-126.0446777462667
 30
0.0
 10
90.44459991478824
 20
-126.0446777462667
 30
0.0
 10
90.44459991478824
 20
-125.4452377464166
 30
0.0
 10
90.44459991478824
 20
-125.4452377464166
 30
0.0
 10
86.12790530269407
 20
-124.9112380243277
 30
0.0
 10
81.7615748585329
 20
-124.9112380243277
 30
0.0
 10
77.44488024643873
 20
-125.4452377464166
 30
0.0
 10
77.44488024643873
 20
-125.4452377464166
 30
0.0
 10
77.44488024643873
 20
-126.0446777462667
 30
0.0
 10
77.44488024643873
 20
-126.0446777462667
 30
0.0
 10
77.44488024643873
 20
-126.0446777462667
 30
0.0
 10
83.44485398225552
 20
-126.0446777462667
 30
0.0
 10
83.44485398225552
 20
-126.0446777462667
 30
0.0
 10
83.44485398225552
 20
-126.0446777462667
 30
0.0
 10
83.44485398225552
 20
-132.5448905224195
 30
0.0
 10
83.44485398225552
 20
-132.5448905224195
 30
0.0
 10
83.44485398225552
 20
-132.5448905224195
 30
0.0
 10
78.44465244315464
 20
-132.5448905224195
 30
0.0
 10
78.44465244315464
 20
-132.5448905224195
 30
0.0
 10
77.89273162390197
 20
-132.5448905224195
 30
0.0
 10
77.44488024643873
 20
-132.9927419111965
 30
0.0
 10
77.44488024643873
 20
-133.5446627443914
 30
0.0
 10
77.44488024643873
 20
-133.5446627443914
 30
0.0
 10
99.44473690739784
 20
-133.5446627443914
 30
0.0
 10
99.44473690739784
 20
-133.5446627443914
 30
0.0
 10
99.44473690739784
 20
-133.5446627443914
 30
0.0
 10
99.44473690739784
 20
-133.3951202444288
 30
0.0
 10
99.44473690739784
 20
-133.3951202444288
 30
0.0
 10
99.44473690739784
 20
-133.2015158000333
 30
0.0
 10
99.2883505224987
 20
-133.0450941334057
 30
0.0
 10
99.0954163607542
 20
-133.0450941334057
 30
0.0
  0
HATCH
  5
51
330
1F
100
AcDbEntity
  8
_U+30EC_U+30A4_U+30E4_U+30FC 1
 62
   253
420
 11711154
100
AcDbHatch
 10
0.0
 20
0.0
 30
0.0
210
0.0
220
0.0
230
1.0
  2
SOLID
 70
     1
 71
     0
 91
        1
 92
        1
 93
        1
 72
     4
 94
        3
 73
     0
 74
     1
 95
       50
 96
       46
 40
0.0
 40
0.0
 40
0.0
 40
0.0
 40
1.0
 40
1.0
 40
1.0
 40
2.0
 40
2.0
 40
2.0
 40
3.0
 40
3.0
 40
3.0
 40
4.0
 40
4.0
 40
4.0
 40
5.0
 40
5.0
 40
5.0
 40
6.0
 40
6.0
 40
6.0
 40
7.0
 40
7.0
 40
7.0
 40
8.0
 40
8.0
 40
8.0
 40
9.0
 40
9.0
 40
9.0
 40
10.0
 40
10.0
 40
10.0
 40
11.0
 40
11.0
 40
11.0
 40
12.0
 40
12.0
 40
12.0
 40
13.0
 40
13.0
 40
13.0
 40
14.0
 40
14.0
 40
14.0
 40
15.0
 40
15.0
 40
15.0
 40
15.0
 10
99.0954163607542
 20
-133.0450941334057
 10
99.0954163607542
 20
-133.0450941334057
 10
93.44476317158103
 20
-133.0450941334057
 10
93.44476317158103
 20
-133.0450941334057
 10
93.26633053223912
 20
-132.7357433001493
 10
92.9362692956649
 20
-132.5448905224195
 10
92.57936402699254
 20
-132.5448905224195
 10
92.57936402699254
 20
-132.5448905224195
 10
84.44462617897143
 20
-132.5448905224195
 10
84.44462617897143
 20
-132.5448905224195
 10
84.44462617897143
 20
-132.5448905224195
 10
84.44462617897143
 20
-126.0446777462667
 10
84.44462617897143
 20
-126.0446777462667
 10
84.44462617897143
 20
-126.0446777462667
 10
90.44459991478824
 20
-126.0446777462667
 10
90.44459991478824
 20
-126.0446777462667
 10
90.44459991478824
 20
-126.0446777462667
 10
90.44459991478824
 20
-125.4452377464166
 10
90.44459991478824
 20
-125.4452377464166
 10
86.12790530269407
 20
-124.9112380243277
 10
81.7615748585329
 20
-124.9112380243277
 10
77.44488024643873
 20
-125.4452377464166
 10
77.44488024643873
 20
-125.4452377464166
 10
77.44488024643873
 20
-126.0446777462667
 10
77.44488024643873
 20
-126.0446777462667
 10
77.44488024643873
 20
-126.0446777462667
 10
83.44485398225552
 20
-126.0446777462667
 10
83.44485398225552
 20
-126.0446777462667
 10
83.44485398225552
 20
-126.0446777462667
 10
83.44485398225552
 20
-132.5448905224195
 10
83.44485398225552
 20
-132.5448905224195
 10
83.44485398225552
 20
-132.5448905224195
 10
78.44465244315464
 20
-132.5448905224195
 10
78.44465244315464
 20
-132.5448905224195
 10
77.89273162390197
 20
-132.5448905224195
 10
77.44488024643873
 20
-132.9927419111965
 10
77.44488024643873
 20
-133.5446627443914
 10
77.44488024643873
 20
-133.5446627443914
 10
99.44473690739784
 20
-133.5446627443914
 10
99.44473690739784
 20
-133.5446627443914
 10
99.44473690739784
 20
-133.5446627443914
 10
99.44473690739784
 20
-133.3951202444288
 10
99.44473690739784
 20
-133.3951202444288
 10
99.44473690739784
 20
-133.2015158000333
 10
99.2883505224987
 20
-133.0450941334057
 10
99.0954163607542
 20
-133.0450941334057
 97
        0
 97
        0
 75
     2
 76
     1
 98
        0
  0
POLYLINE
  5
52
330
1F
100
AcDbEntity
  8
_U+30EC_U+30A4_U+30E4_U+30FC 1
 62
   179
420
  2234388
370
    25
100
AcDb2dPolyline
 66
     1
 10
0.0
 20
0.0
 30
0.0
  0
VERTEX
  5
53
330
52
100
AcDbEntity
  8
_U+30EC_U+30A4_U+30E4_U+30FC 1
 62
   179
420
  2234388
370
    25
100
AcDbVertex
100
AcDb2dVertex
 10
78.44465244315464
 20
-132.5448905224195
 30
0.0
  0
VERTEX
  5
54
330
52
100
AcDbEntity
  8
_U+30EC_U+30A4_U+30E4_U+30FC 1
 62
   179
420
  2234388
370
    25
100
AcDbVertex
100
AcDb2dVertex
 10
83.44485398225552
 20
-132.5448905224195
 30
0.0
  0
SEQEND
  5
55
330
52
100
AcDbEntity
  8
_U+30EC_U+30A4_U+30E4_U+30FC 1
 62
   179
420
  2234388
370
    25
  0
POLYLINE
  5
56
330
1F
100
AcDbEntity
  8
_U+30EC_U+30A4_U+30E4_U+30FC 1
 62
   179
420
  2234388
370
    25
100
AcDb2dPolyline
 66
     1
 10
0.0
 20
0.0
 30
0.0
  0
VERTEX
  5
57
330
56
100
AcDbEntity
  8
_U+30EC_U+30A4_U+30E4_U+30FC 1
 62
   179
420
  2234388
370
    25
100
AcDbVertex
100
AcDb2dVertex
 10
77.44488024643873
 20
-133.5446627443914
 30
0.0
  0
VERTEX
  5
58
330
56
100
AcDbEntity
  8
_U+30EC_U+30A4_U+30E4_U+30FC 1
 62
   179
420
  2234388
370
    25
100
AcDbVertex
100
AcDb2dVertex
 10
99.44473690739784
 20
-133.5446627443914
 30
0.0
  0
SEQEND
  5
59
330
56
100
AcDbEntity
  8
_U+30EC_U+30A4_U+30E4_U+30FC 1
 62
   179
420
  2234388
370
    25
  0
POLYLINE
  5
5A
330
1F
100
AcDbEntity
  8
_U+30EC_U+30A4_U+30E4_U+30FC 1
 62
   179
420
  2234388
370
    25
100
AcDb2dPolyline
 66
     1
 10
0.0
 20
0.0
 30
0.0
  0
VERTEX
  5
5B
330
5A
100
AcDbEntity
  8
_U+30EC_U+30A4_U+30E4_U+30FC 1
 62
   179
420
  2234388
370
    25
100
AcDbVertex
100
AcDb2dVertex
 10
83.44485398225552
 20
-126.0446777462667
 30
0.0
  0
VERTEX
  5
5C
330
5A
100
AcDbEntity
  8
_U+30EC_U+30A4_U+30E4_U+30FC 1
 62
   179
420
  2234388
370
    25
100
AcDbVertex
100
AcDb2dVertex
 10
83.44485398225552
 20
-132.5448905224195
 30
0.0
  0
SEQEND
  5
5D
330
5A
100
AcDbEntity
  8
_U+30EC_U+30A4_U+30E4_U+30FC 1
 62
   179
420
  2234388
370
    25
  0
POLYLINE
  5
5E
330
1F
100
AcDbEntity
  8
_U+30EC_U+30A4_U+30E4_U+30FC 1
 62
   179
420
  2234388
370
    25
100
AcDb2dPolyline
 66
     1
 10
0.0
 20
0.0
 30
0.0
  0
VERTEX
  5
5F
330
5E
100
AcDbEntity
  8
_U+30EC_U+30A4_U+30E4_U+30FC 1
 62
   179
420
  2234388
370
    25
100
AcDbVertex
100
AcDb2dVertex
 10
84.44462617897143
 20
-126.0446777462667
 30
0.0
  0
VERTEX
  5
60
330
5E
100
AcDbEntity
  8
_U+30EC_U+30A4_U+30E4_U+30FC 1
 62
   179
420
  2234388
370
    25
100
AcDbVertex
100
AcDb2dVertex
 10
84.44462617897143
 20
-132.5448905224195
 30
0.0
  0
SEQEND
  5
61
330
5E
100
AcDbEntity
  8
_U+30EC_U+30A4_U+30E4_U+30FC 1
 62
   179
420
  2234388
370
    25
  0
POLYLINE
  5
62
330
1F
100
AcDbEntity
  8
_U+30EC_U+30A4_U+30E4_U+30FC 1
 62
   179
420
  2234388
370
    25
100
AcDb2dPolyline
 66
     1
 10
0.0
 20
0.0
 30
0.0
  0
VERTEX
  5
63
330
62
100
AcDbEntity
  8
_U+30EC_U+30A4_U+30E4_U+30FC 1
 62
   179
420
  2234388
370
    25
100
AcDbVertex
100
AcDb2dVertex
 10
84.44462617897143
 20
-132.5448905224195
 30
0.0
  0
VERTEX
  5
64
330
62
100
AcDbEntity
  8
_U+30EC_U+30A4_U+30E4_U+30FC 1
 62
   179
420
  2234388
370
    25
100
AcDbVertex
100
AcDb2dVertex
 10
92.57936402699254
 20
-132.5448905224195
 30
0.0
  0
SEQEND
  5
65
330
62
100
AcDbEntity
  8
_U+30EC_U+30A4_U+30E4_U+30FC 1
 62
   179
420
  2234388
370
    25
  0
POLYLINE
  5
66
330
1F
100
AcDbEntity
  8
_U+30EC_U+30A4_U+30E4_U+30FC 1
 62
   179
420
  2234388
370
    25
100
AcDb2dPolyline
 66
     1
 10
0.0
 20
0.0
 30
0.0
  0
VERTEX
  5
67
330
66
100
AcDbEntity
  8
_U+30EC_U+30A4_U+30E4_U+30FC 1
 62
   179
420
  2234388
370
    25
100
AcDbVertex
100
AcDb2dVertex
 10
77.44488024643873
 20
-125.4452377464166
 30
0.0
  0
VERTEX
  5
68
330
66
100
AcDbEntity
  8
_U+30EC_U+30A4_U+30E4_U+30FC 1
 62
   179
420
  2234388
370
    25
100
AcDbVertex
100
AcDb2dVertex
 10
77.44488024643873
 20
-126.0446777462667
 30
0.0
  0
SEQEND
  5
69
330
66
100
AcDbEntity
  8
_U+30EC_U+30A4_U+30E4_U+30FC 1
 62
   179
420
  2234388
370
    25
  0
POLYLINE
  5
6A
330
1F
100
AcDbEntity
  8
_U+30EC_U+30A4_U+30E4_U+30FC 1
 62
   179
420
  2234388
370
    25
100
AcDb2dPolyline
 66
     1
 10
0.0
 20
0.0
 30
0.0
  0
VERTEX
  5
6B
330
6A
100
AcDbEntity
  8
_U+30EC_U+30A4_U+30E4_U+30FC 1
 62
   179
420
  2234388
370
    25
100
AcDbVertex
100
AcDb2dVertex
 10
84.44462617897143
 20
-126.0446777462667
 30
0.0
  0
VERTEX
  5
6C
330
6A
100
AcDbEntity
  8
_U+30EC_U+30A4_U+30E4_U+30FC 1
 62
   179
420
  2234388
370
    25
100
AcDbVertex
100
AcDb2dVertex
 10
90.44459991478824
 20
-126.0446777462667
 30
0.0
  0
SEQEND
  5
6D
330
6A
100
AcDbEntity
  8
_U+30EC_U+30A4_U+30E4_U+30FC 1
 62
   179
420
  2234388
370
    25
  0
POLYLINE
  5
6E
330
1F
100
AcDbEntity
  8
_U+30EC_U+30A4_U+30E4_U+30FC 1
 62
   179
420
  2234388
370
    25
100
AcDb2dPolyline
 66
     1
 10
0.0
 20
0.0
 30
0.0
  0
VERTEX
  5
6F
330
6E
100
AcDbEntity
  8
_U+30EC_U+30A4_U+30E4_U+30FC 1
 62
   179
420
  2234388
370
    25
100
AcDbVertex
100
AcDb2dVertex
 10
77.44488024643873
 20
-126.0446777462667
 30
0.0
  0
VERTEX
  5
70
330
6E
100
AcDbEntity
  8
_U+30EC_U+30A4_U+30E4_U+30FC 1
 62
   179
420
  2234388
370
    25
100
AcDbVertex
100
AcDb2dVertex
 10
83.44485398225552
 20
-126.0446777462667
 30
0.0
  0
SEQEND
  5
71
330
6E
100
AcDbEntity
  8
_U+30EC_U+30A4_U+30E4_U+30FC 1
 62
   179
420
  2234388
370
    25
  0
POLYLINE
  5
72
330
1F
100
AcDbEntity
  8
_U+30EC_U+30A4_U+30E4_U+30FC 1
 62
   179
420
  2234388
370
    25
100
AcDb2dPolyline
 66
     1
 10
0.0
 20
0.0
 30
0.0
  0
VERTEX
  5
73
330
72
100
AcDbEntity
  8
_U+30EC_U+30A4_U+30E4_U+30FC 1
 62
   179
420
  2234388
370
    25
100
AcDbVertex
100
AcDb2dVertex
 10
90.44459991478824
 20
-125.4452377464166
 30
0.0
  0
VERTEX
  5
74
330
72
100
AcDbEntity
  8
_U+30EC_U+30A4_U+30E4_U+30FC 1
 62
   179
420
  2234388
370
    25
100
AcDbVertex
100
AcDb2dVertex
 10
90.44459991478824
 20
-126.0446777462667
 30
0.0
  0
SEQEND
  5
75
330
72
100
AcDbEntity
  8
_U+30EC_U+30A4_U+30E4_U+30FC 1
 62
   179
420
  2234388
370
    25
  0
POLYLINE
  5
76
330
1F
100
AcDbEntity
  8
_U+30EC_U+30A4_U+30E4_U+30FC 1
 62
   179
420
  2234388
370
    25
100
AcDb2dPolyline
 66
     1
 10
0.0
 20
0.0
 30
0.0
  0
VERTEX
  5
77
330
76
100
AcDbEntity
  8
_U+30EC_U+30A4_U+30E4_U+30FC 1
 62
   179
420
  2234388
370
    25
100
AcDbVertex
100
AcDb2dVertex
 10
99.44473690739784
 20
-133.3951202444288
 30
0.0
  0
VERTEX
  5
78
330
76
100
AcDbEntity
  8
_U+30EC_U+30A4_U+30E4_U+30FC 1
 62
   179
420
  2234388
370
    25
100
AcDbVertex
100
AcDb2dVertex
 10
99.44473690739784
 20
-133.5446627443914
 30
0.0
  0
SEQEND
  5
79
330
76
100
AcDbEntity
  8
_U+30EC_U+30A4_U+30E4_U+30FC 1
 62
   179
420
  2234388
370
    25
  0
POLYLINE
  5
7A
330
1F
100
AcDbEntity
  8
_U+30EC_U+30A4_U+30E4_U+30FC 1
 62
   179
420
  2234388
370
    25
100
AcDb2dPolyline
 66
     1
 10
0.0
 20
0.0
 30
0.0
  0
VERTEX
  5
7B
330
7A
100
AcDbEntity
  8
_U+30EC_U+30A4_U+30E4_U+30FC 1
 62
   179
420
  2234388
370
    25
100
AcDbVertex
100
AcDb2dVertex
 10
93.44476317158103
 20
-133.0450941334057
 30
0.0
  0
VERTEX
  5
7C
330
7A
100
AcDbEntity
  8
_U+30EC_U+30A4_U+30E4_U+30FC 1
 62
   179
420
  2234388
370
    25
100
AcDbVertex
100
AcDb2dVertex
 10
99.0954163607542
 20
-133.0450941334057
 30
0.0
  0
SEQEND
  5
7D
330
7A
100
AcDbEntity
  8
_U+30EC_U+30A4_U+30E4_U+30FC 1
 62
   179
420
  2234388
370
    25
  0
SPLINE
  5
7E
330
1F
100
AcDbEntity
  8
_U+30EC_U+30A4_U+30E4_U+30FC 1
 62
   179
420
  2234388
370
    25
100
AcDbSpline
210
0.0
220
0.0
230
1.0
 70
     8
 71
     3
 72
     8
 73
     4
 74
     0
 42
0.0000000001
 43
0.0000000001
 12
1.0
 22
0.0
 32
0.0
 13
1.0
 23
0.0
 33
0.0
 40
0.0
 40
0.0
 40
0.0
 40
0.0
 40
1.0
 40
1.0
 40
1.0
 40
1.0
 10
90.44459991478824
 20
-125.4452377464166
 30
0.0
 10
86.12790530269407
 20
-124.9112380243277
 30
0.0
 10
81.7615748585329
 20
-124.9112380243277
 30
0.0
 10
77.44488024643873
 20
-125.4452377464166
 30
0.0
  0
SPLINE
  5
7F
330
1F
100
AcDbEntity
  8
_U+30EC_U+30A4_U+30E4_U+30FC 1
 62
   179
420
  2234388
370
    25
100
AcDbSpline
210
0.0
220
0.0
230
1.0
 70
     8
 71
     3
 72
     8
 73
     4
 74
     0
 42
0.0000000001
 43
0.0000000001
 12
1.0
 22
0.0
 32
0.0
 13
1.0
 23
0.0
 33
0.0
 40
0.0
 40
0.0
 40
0.0
 40
0.0
 40
1.0
 40
1.0
 40
1.0
 40
1.0
 10
78.44465244315464
 20
-132.5448905224195
 30
0.0
 10
77.89273162390197
 20
-132.5448905224195
 30
0.0
 10
77.44488024643873
 20
-132.9927419111965
 30
0.0
 10
77.44488024643873
 20
-133.5446627443914
 30
0.0
  0
SPLINE
  5
80
330
1F
100
AcDbEntity
  8
_U+30EC_U+30A4_U+30E4_U+30FC 1
 62
   179
420
  2234388
370
    25
100
AcDbSpline
210
0.0
220
0.0
230
1.0
 70
     8
 71
     3
 72
     8
 73
     4
 74
     0
 42
0.0000000001
 43
0.0000000001
 12
1.0
 22
0.0
 32
0.0
 13
1.0
 23
0.0
 33
0.0
 40
0.0
 40
0.0
 40
0.0
 40
0.0
 40
1.0
 40
1.0
 40
1.0
 40
1.0
 10
93.44476317158103
 20
-133.0450941334057
 30
0.0
 10
93.26633053223912
 20
-132.7357433001493
 30
0.0
 10
92.9362692956649
 20
-132.5448905224195
 30
0.0
 10
92.57936402699254
 20
-132.5448905224195
 30
0.0
  0
SPLINE
  5
81
330
1F
100
AcDbEntity
  8
_U+30EC_U+30A4_U+30E4_U+30FC 1
 62
   179
420
  2234388
370
    25
100
AcDbSpline
210
0.0
220
0.0
230
1.0
 70
     8
 71
     3
 72
     8
 73
     4
 74
     0
 42
0.0000000001
 43
0.0000000001
 12
1.0
 22
0.0
 32
0.0
 13
1.0
 23
0.0
 33
0.0
 40
0.0
 40
0.0
 40
0.0
 40
0.0
 40
1.0
 40
1.0
 40
1.0
 40
1.0
 10
99.44473690739784
 20
-133.3951202444288
 30
0.0
 10
99.44473690739784
 20
-133.2015158000333
 30
0.0
 10
99.2883505224987
 20
-133.0450941334057
 30
0.0
 10
99.0954163607542
 20
-133.0450941334057
 30
0.0
  0
SPLINE
  5
82
330
1F
100
AcDbEntity
  8
_U+30EC_U+30A4_U+30E4_U+30FC 1
 62
   179
420
  2234388
370
     9
100
AcDbSpline
210
0.0
220
0.0
230
1.0
 70
    11
 71
     3
 72
    17
 73
    13
 74
     0
 42
0.0000000001
 43
0.0000000001
 12
1.0
 22
0.0
 32
0.0
 13
1.0
 23
0.0
 33
0.0
 40
0.0
 40
0.0
 40
0.0
 40
0.0
 40
1.0
 40
1.0
 40
1.0
 40
2.0
 40
2.0
 40
2.0
 40
3.0
 40
3.0
 40
3.0
 40
4.0
 40
4.0
 40
4.0
 40
4.0
 10
77.54478886950265
 20
-137.5450921878362
 30
0.0
 10
77.54478886950265
 20
-137.4899882989607
 30
0.0
 10
77.50001941169867
 20
-137.445185521194
 30
0.0
 10
77.44488024643873
 20
-137.445185521194
 30
0.0
 10
77.38977635895566
 20
-137.445185521194
 30
0.0
 10
77.34497358232089
 20
-137.4899882989607
 30
0.0
 10
77.34497358232089
 20
-137.5450921878362
 30
0.0
 10
77.34497358232089
 20
-137.6002313544887
 30
0.0
 10
77.38977635895566
 20
-137.6449988544779
 30
0.0
 10
77.44488024643873
 20
-137.6449988544779
 30
0.0
 10
77.50001941169867
 20
-137.6449988544779
 30
0.0
 10
77.54478886950265
 20
-137.6002313544887
 30
0.0
 10
77.54478886950265
 20
-137.5450921878362
 30
0.0
  0
SPLINE
  5
83
330
1F
100
AcDbEntity
  8
_U+30EC_U+30A4_U+30E4_U+30FC 1
 62
   179
420
  2234388
370
     9
100
AcDbSpline
210
0.0
220
0.0
230
1.0
 70
    11
 71
     3
 72
    17
 73
    13
 74
     0
 42
0.0000000001
 43
0.0000000001
 12
1.0
 22
0.0
 32
0.0
 13
1.0
 23
0.0
 33
0.0
 40
0.0
 40
0.0
 40
0.0
 40
0.0
 40
1.0
 40
1.0
 40
1.0
 40
2.0
 40
2.0
 40
2.0
 40
3.0
 40
3.0
 40
3.0
 40
4.0
 40
4.0
 40
4.0
 40
4.0
 10
99.54534912705323
 20
-137.5450921878362
 30
0.0
 10
99.54534912705323
 20
-137.4899882989607
 30
0.0
 10
99.50054635041847
 20
-137.445185521194
 30
0.0
 10
99.44473690739784
 20
-137.445185521194
 30
0.0
 10
99.38963301991477
 20
-137.445185521194
 30
0.0
 10
99.34483024328
 20
-137.4899882989607
 30
0.0
 10
99.34483024328
 20
-137.5450921878362
 30
0.0
 10
99.34483024328
 20
-137.6002313544887
 30
0.0
 10
99.38963301991477
 20
-137.6449988544779
 30
0.0
 10
99.44473690739784
 20
-137.6449988544779
 30
0.0
 10
99.50054635041847
 20
-137.6449988544779
 30
0.0
 10
99.54534912705323
 20
-137.6002313544887
 30
0.0
 10
99.54534912705323
 20
-137.5450921878362
 30
0.0
  0
SPLINE
  5
84
330
1F
100
AcDbEntity
  8
_U+30EC_U+30A4_U+30E4_U+30FC 1
 62
   179
420
  2234388
370
     9
100
AcDbSpline
210
0.0
220
0.0
230
1.0
 70
    11
 71
     3
 72
    17
 73
    13
 74
     0
 42
0.0000000001
 43
0.0000000001
 12
1.0
 22
0.0
 32
0.0
 13
1.0
 23
0.0
 33
0.0
 40
0.0
 40
0.0
 40
0.0
 40
0.0
 40
1.0
 40
1.0
 40
1.0
 40
2.0
 40
2.0
 40
2.0
 40
3.0
 40
3.0
 40
3.0
 40
4.0
 40
4.0
 40
4.0
 40
4.0
 10
103.3818073625104
 20
-132.5448905224195
 30
0.0
 10
103.3818073625104
 20
-132.4897513557664
 30
0.0
 10
103.3370045858756
 20
-132.4449838557778
 30
0.0
 10
103.2819006983925
 20
-132.4449838557778
 30
0.0
 10
103.2267615331326
 20
-132.4449838557778
 30
0.0
 10
103.1819940342747
 20
-132.4897513557664
 30
0.0
 10
103.1819940342747
 20
-132.5448905224195
 30
0.0
 10
103.1819940342747
 20
-132.5999944112944
 30
0.0
 10
103.2267615331326
 20
-132.6447971890611
 30
0.0
 10
103.2819006983925
 20
-132.6447971890611
 30
0.0
 10
103.3370045858756
 20
-132.6447971890611
 30
0.0
 10
103.3818073625104
 20
-132.5999944112944
 30
0.0
 10
103.3818073625104
 20
-132.5448905224195
 30
0.0
  0
SPLINE
  5
85
330
1F
100
AcDbEntity
  8
_U+30EC_U+30A4_U+30E4_U+30FC 1
 62
   179
420
  2234388
370
     9
100
AcDbSpline
210
0.0
220
0.0
230
1.0
 70
    11
 71
     3
 72
    17
 73
    13
 74
     0
 42
0.0000000001
 43
0.0000000001
 12
1.0
 22
0.0
 32
0.0
 13
1.0
 23
0.0
 33
0.0
 40
0.0
 40
0.0
 40
0.0
 40
0.0
 40
1.0
 40
1.0
 40
1.0
 40
2.0
 40
2.0
 40
2.0
 40
3.0
 40
3.0
 40
3.0
 40
4.0
 40
4.0
 40
4.0
 40
4.0
 10
103.3818073625104
 20
-126.0446777462667
 30
0.0
 10
103.3818073625104
 20
-125.9895385796137
 30
0.0
 10
103.3370045858756
 20
-125.9447710796248
 30
0.0
 10
103.2819006983925
 20
-125.9447710796248
 30
0.0
 10
103.2267615331326
 20
-125.9447710796248
 30
0.0
 10
103.1819940342747
 20
-125.9895385796137
 30
0.0
 10
103.1819940342747
 20
-126.0446777462667
 30
0.0
 10
103.1819940342747
 20
-126.0997816351417
 30
0.0
 10
103.2267615331326
 20
-126.1445844129084
 30
0.0
 10
103.2819006983925
 20
-126.1445844129084
 30
0.0
 10
103.3370045858756
 20
-126.1445844129084
 30
0.0
 10
103.3818073625104
 20
-126.0997816351417
 30
0.0
 10
103.3818073625104
 20
-126.0446777462667
 30
0.0
  0
SPLINE
  5
86
330
1F
100
AcDbEntity
  8
_U+30EC_U+30A4_U+30E4_U+30FC 1
 62
   179
420
  2234388
370
     9
100
AcDbSpline
210
0.0
220
0.0
230
1.0
 70
    11
 71
     3
 72
    17
 73
    13
 74
     0
 42
0.0000000001
 43
0.0000000001
 12
1.0
 22
0.0
 32
0.0
 13
1.0
 23
0.0
 33
0.0
 40
0.0
 40
0.0
 40
0.0
 40
0.0
 40
1.0
 40
1.0
 40
1.0
 40
2.0
 40
2.0
 40
2.0
 40
3.0
 40
3.0
 40
3.0
 40
4.0
 40
4.0
 40
4.0
 40
4.0
 10
90.54521213444363
 20
-121.0451463586276
 30
0.0
 10
90.54521213444363
 20
-120.9893369141972
 30
0.0
 10
90.50040935780888
 20
-120.9445694142083
 30
0.0
 10
90.44459991478824
 20
-120.9445694142083
 30
0.0
 10
90.38949602730517
 20
-120.9445694142083
 30
0.0
 10
90.3446932506704
 20
-120.9893369141972
 30
0.0
 10
90.3446932506704
 20
-121.0451463586276
 30
0.0
 10
90.3446932506704
 20
-121.1002855252804
 30
0.0
 10
90.38949602730517
 20
-121.1450530252693
 30
0.0
 10
90.44459991478824
 20
-121.1450530252693
 30
0.0
 10
90.50040935780888
 20
-121.1450530252693
 30
0.0
 10
90.54521213444363
 20
-121.1002855252804
 30
0.0
 10
90.54521213444363
 20
-121.0451463586276
 30
0.0
  0
SPLINE
  5
87
330
1F
100
AcDbEntity
  8
_U+30EC_U+30A4_U+30E4_U+30FC 1
 62
   179
420
  2234388
370
     9
100
AcDbSpline
210
0.0
220
0.0
230
1.0
 70
    11
 71
     3
 72
    17
 73
    13
 74
     0
 42
0.0000000001
 43
0.0000000001
 12
1.0
 22
0.0
 32
0.0
 13
1.0
 23
0.0
 33
0.0
 40
0.0
 40
0.0
 40
0.0
 40
0.0
 40
1.0
 40
1.0
 40
1.0
 40
2.0
 40
2.0
 40
2.0
 40
3.0
 40
3.0
 40
3.0
 40
4.0
 40
4.0
 40
4.0
 40
4.0
 10
77.54478886950265
 20
-121.0451463586276
 30
0.0
 10
77.54478886950265
 20
-120.9893369141972
 30
0.0
 10
77.50001941169867
 20
-120.9445694142083
 30
0.0
 10
77.44488024643873
 20
-120.9445694142083
 30
0.0
 10
77.38977635895566
 20
-120.9445694142083
 30
0.0
 10
77.34497358232089
 20
-120.9893369141972
 30
0.0
 10
77.34497358232089
 20
-121.0451463586276
 30
0.0
 10
77.34497358232089
 20
-121.1002855252804
 30
0.0
 10
77.38977635895566
 20
-121.1450530252693
 30
0.0
 10
77.44488024643873
 20
-121.1450530252693
 30
0.0
 10
77.50001941169867
 20
-121.1450530252693
 30
0.0
 10
77.54478886950265
 20
-121.1002855252804
 30
0.0
 10
77.54478886950265
 20
-121.0451463586276
 30
0.0
  0
POLYLINE
  5
88
330
1F
100
AcDbEntity
  8
_U+30EC_U+30A4_U+30E4_U+30FC 1
 62
   179
420
  2234388
370
     9
100
AcDb2dPolyline
 66
     1
 10
0.0
 20
0.0
 30
0.0
  0
VERTEX
  5
89
330
88
100
AcDbEntity
  8
_U+30EC_U+30A4_U+30E4_U+30FC 1
 62
   179
420
  2234388
370
     9
100
AcDbVertex
100
AcDb2dVertex
 10
103.2819006983925
 20
-132.5448905224195
 30
0.0
  0
VERTEX
  5
8A
330
88
100
AcDbEntity
  8
_U+30EC_U+30A4_U+30E4_U+30FC 1
 62
   179
420
  2234388
370
     9
100
AcDbVertex
100
AcDb2dVertex
 10
103.2819006983925
 20
-126.0446777462667
 30
0.0
  0
SEQEND
  5
8B
330
88
100
AcDbEntity
  8
_U+30EC_U+30A4_U+30E4_U+30FC 1
 62
   179
420
  2234388
370
     9
  0
POLYLINE
  5
8C
330
1F
100
AcDbEntity
  8
_U+30EC_U+30A4_U+30E4_U+30FC 1
 62
   179
420
  2234388
370
     9
100
AcDb2dPolyline
 66
     1
 10
0.0
 20
0.0
 30
0.0
  0
VERTEX
  5
8D
330
8C
100
AcDbEntity
  8
_U+30EC_U+30A4_U+30E4_U+30FC 1
 62
   179
420
  2234388
370
     9
100
AcDbVertex
100
AcDb2dVertex
 10
102.2855857238106
 20
-132.5448905224195
 30
0.0
  0
VERTEX
  5
8E
330
8C
100
AcDbEntity
  8
_U+30EC_U+30A4_U+30E4_U+30FC 1
 62
   179
420
  2234388
370
     9
100
AcDbVertex
100
AcDb2dVertex
 10
104.2816728951084
 20
-132.5448905224195
 30
0.0
  0
SEQEND
  5
8F
330
8C
100
AcDbEntity
  8
_U+30EC_U+30A4_U+30E4_U+30FC 1
 62
   179
420
  2234388
370
     9
  0
POLYLINE
  5
90
330
1F
100
AcDbEntity
  8
_U+30EC_U+30A4_U+30E4_U+30FC 1
 62
   179
420
  2234388
370
     9
100
AcDb2dPolyline
 66
     1
 10
0.0
 20
0.0
 30
0.0
  0
VERTEX
  5
91
330
90
100
AcDbEntity
  8
_U+30EC_U+30A4_U+30E4_U+30FC 1
 62
   179
420
  2234388
370
     9
100
AcDbVertex
100
AcDb2dVertex
 10
102.2855857238106
 20
-126.0446777462667
 30
0.0
  0
VERTEX
  5
92
330
90
100
AcDbEntity
  8
_U+30EC_U+30A4_U+30E4_U+30FC 1
 62
   179
420
  2234388
370
     9
100
AcDbVertex
100
AcDb2dVertex
 10
104.2816728951084
 20
-126.0446777462667
 30
0.0
  0
SEQEND
  5
93
330
90
100
AcDbEntity
  8
_U+30EC_U+30A4_U+30E4_U+30FC 1
 62
   179
420
  2234388
370
     9
  0
INSERT
  5
95
330
1F
100
AcDbEntity
  8
_U+30EC_U+30A4_U+30E4_U+30FC 1
100
AcDbBlockReference
  2
block 3
 10
0.0
 20
0.0
 30
0.0
  0
POLYLINE
  5
A5
330
1F
100
AcDbEntity
  8
_U+30EC_U+30A4_U+30E4_U+30FC 1
 62
   179
420
  2234388
370
     9
100
AcDb2dPolyline
 66
     1
 10
0.0
 20
0.0
 30
0.0
  0
VERTEX
  5
A6
330
A5
100
AcDbEntity
  8
_U+30EC_U+30A4_U+30E4_U+30FC 1
 62
   179
420
  2234388
370
     9
100
AcDbVertex
100
AcDb2dVertex
 10
77.44488024643873
 20
-121.0451463586276
 30
0.0
  0
VERTEX
  5
A7
330
A5
100
AcDbEntity
  8
_U+30EC_U+30A4_U+30E4_U+30FC 1
 62
   179
420
  2234388
370
     9
100
AcDbVertex
100
AcDb2dVertex
 10
90.44459991478824
 20
-121.0451463586276
 30
0.0
  0
SEQEND
  5
A8
330
A5
100
AcDbEntity
  8
_U+30EC_U+30A4_U+30E4_U+30FC 1
 62
   179
420
  2234388
370
     9
  0
POLYLINE
  5
A9
330
1F
100
AcDbEntity
  8
_U+30EC_U+30A4_U+30E4_U+30FC 1
 62
   179
420
  2234388
370
     9
100
AcDb2dPolyline
 66
     1
 10
0.0
 20
0.0
 30
0.0
  0
VERTEX
  5
AA
330
A9
100
AcDbEntity
  8
_U+30EC_U+30A4_U+30E4_U+30FC 1
 62
   179
420
  2234388
370
     9
100
AcDbVertex
100
AcDb2dVertex
 10
77.44488024643873
 20
-122.9048144137182
 30
0.0
  0
VERTEX
  5
AB
330
A9
100
AcDbEntity
  8
_U+30EC_U+30A4_U+30E4_U+30FC 1
 62
   179
420
  2234388
370
     9
100
AcDbVertex
100
AcDb2dVertex
 10
77.44488024643873
 20
-120.0447038588777
 30
0.0
  0
SEQEND
  5
AC
330
A9
100
AcDbEntity
  8
_U+30EC_U+30A4_U+30E4_U+30FC 1
 62
   179
420
  2234388
370
     9
  0
POLYLINE
  5
AD
330
1F
100
AcDbEntity
  8
_U+30EC_U+30A4_U+30E4_U+30FC 1
 62
   179
420
  2234388
370
     9
100
AcDb2dPolyline
 66
     1
 10
0.0
 20
0.0
 30
0.0
  0
VERTEX
  5
AE
330
AD
100
AcDbEntity
  8
_U+30EC_U+30A4_U+30E4_U+30FC 1
 62
   179
420
  2234388
370
     9
100
AcDbVertex
100
AcDb2dVertex
 10
90.44459991478824
 20
-122.9048144137182
 30
0.0
  0
VERTEX
  5
AF
330
AD
100
AcDbEntity
  8
_U+30EC_U+30A4_U+30E4_U+30FC 1
 62
   179
420
  2234388
370
     9
100
AcDbVertex
100
AcDb2dVertex
 10
90.44459991478824
 20
-120.0447038588777
 30
0.0
  0
SEQEND
  5
B0
330
AD
100
AcDbEntity
  8
_U+30EC_U+30A4_U+30E4_U+30FC 1
 62
   179
420
  2234388
370
     9
  0
INSERT
  5
B2
330
1F
100
AcDbEntity
  8
_U+30EC_U+30A4_U+30E4_U+30FC 1
100
AcDbBlockReference
  2
block 4
 10
0.0
 20
0.0
 30
0.0
  0
POLYLINE
  5
B9
330
1F
100
AcDbEntity
  8
_U+30EC_U+30A4_U+30E4_U+30FC 1
 62
   179
420
  2234388
370
     9
100
AcDb2dPolyline
 66
     1
 10
0.0
 20
0.0
 30
0.0
  0
VERTEX
  5
BA
330
B9
100
AcDbEntity
  8
_U+30EC_U+30A4_U+30E4_U+30FC 1
 62
   179
420
  2234388
370
     9
100
AcDbVertex
100
AcDb2dVertex
 10
77.44488024643873
 20
-137.5450921878362
 30
0.0
  0
VERTEX
  5
BB
330
B9
100
AcDbEntity
  8
_U+30EC_U+30A4_U+30E4_U+30FC 1
 62
   179
420
  2234388
370
     9
100
AcDbVertex
100
AcDb2dVertex
 10
99.44473690739784
 20
-137.5450921878362
 30
0.0
  0
SEQEND
  5
BC
330
B9
100
AcDbEntity
  8
_U+30EC_U+30A4_U+30E4_U+30FC 1
 62
   179
420
  2234388
370
     9
  0
POLYLINE
  5
BD
330
1F
100
AcDbEntity
  8
_U+30EC_U+30A4_U+30E4_U+30FC 1
 62
   179
420
  2234388
370
     9
100
AcDb2dPolyline
 66
     1
 10
0.0
 20
0.0
 30
0.0
  0
VERTEX
  5
BE
330
BD
100
AcDbEntity
  8
_U+30EC_U+30A4_U+30E4_U+30FC 1
 62
   179
420
  2234388
370
     9
100
AcDbVertex
100
AcDb2dVertex
 10
77.44488024643873
 20
-136.0850507993119
 30
0.0
  0
VERTEX
  5
BF
330
BD
100
AcDbEntity
  8
_U+30EC_U+30A4_U+30E4_U+30FC 1
 62
   179
420
  2234388
370
     9
100
AcDbVertex
100
AcDb2dVertex
 10
77.44488024643873
 20
-138.5448644098082
 30
0.0
  0
SEQEND
  5
C0
330
BD
100
AcDbEntity
  8
_U+30EC_U+30A4_U+30E4_U+30FC 1
 62
   179
420
  2234388
370
     9
  0
POLYLINE
  5
C1
330
1F
100
AcDbEntity
  8
_U+30EC_U+30A4_U+30E4_U+30FC 1
 62
   179
420
  2234388
370
     9
100
AcDb2dPolyline
 66
     1
 10
0.0
 20
0.0
 30
0.0
  0
VERTEX
  5
C2
330
C1
100
AcDbEntity
  8
_U+30EC_U+30A4_U+30E4_U+30FC 1
 62
   179
420
  2234388
370
     9
100
AcDbVertex
100
AcDb2dVertex
 10
99.44473690739784
 20
-136.0850507993119
 30
0.0
  0
VERTEX
  5
C3
330
C1
100
AcDbEntity
  8
_U+30EC_U+30A4_U+30E4_U+30FC 1
 62
   179
420
  2234388
370
     9
100
AcDbVertex
100
AcDb2dVertex
 10
99.44473690739784
 20
-138.5448644098082
 30
0.0
  0
SEQEND
  5
C4
330
C1
100
AcDbEntity
  8
_U+30EC_U+30A4_U+30E4_U+30FC 1
 62
   179
420
  2234388
370
     9
  0
INSERT
  5
C6
330
1F
100
AcDbEntity
  8
_U+30EC_U+30A4_U+30E4_U+30FC 1
100
AcDbBlockReference
  2
block 5
 10
0.0
 20
0.0
 30
0.0
  0
SPLINE
  5
CD
330
1F
100
AcDbEntity
  8
_U+30EC_U+30A4_U+30E4_U+30FC 1
 62
   179
420
  2234388
370
     9
100
AcDbSpline
210
0.0
220
0.0
230
1.0
 70
    11
 71
     3
 72
    17
 73
    13
 74
     0
 42
0.0000000001
 43
0.0000000001
 12
1.0
 22
0.0
 32
0.0
 13
1.0
 23
0.0
 33
0.0
 40
0.0
 40
0.0
 40
0.0
 40
0.0
 40
1.0
 40
1.0
 40
1.0
 40
2.0
 40
2.0
 40
2.0
 40
3.0
 40
3.0
 40
3.0
 40
4.0
 40
4.0
 40
4.0
 40
4.0
 10
83.55718053466612
 20
-129.3088952454508
 30
0.0
 10
83.55718053466612
 20
-129.2537913565753
 30
0.0
 10
83.51237775689971
 20
-129.2089885788085
 30
0.0
 10
83.45709537083212
 20
-129.2089885788085
 30
0.0
 10
83.40195831248283
 20
-129.2089885788085
 30
0.0
 10
83.35718870671428
 20
-129.2537913565753
 30
0.0
 10
83.35718870671428
 20
-129.3088952454508
 30
0.0
 10
83.35718870671428
 20
-129.3640344121033
 30
0.0
 10
83.40195831248283
 20
-129.4088019120925
 30
0.0
 10
83.45709537083212
 20
-129.4088019120925
 30
0.0
 10
83.51237775689971
 20
-129.4088019120925
 30
0.0
 10
83.55718053466612
 20
-129.3640344121033
 30
0.0
 10
83.55718053466612
 20
-129.3088952454508
 30
0.0
  0
SPLINE
  5
CE
330
1F
100
AcDbEntity
  8
_U+30EC_U+30A4_U+30E4_U+30FC 1
 62
   179
420
  2234388
370
     9
100
AcDbSpline
210
0.0
220
0.0
230
1.0
 70
    11
 71
     3
 72
    17
 73
    13
 74
     0
 42
0.0000000001
 43
0.0000000001
 12
1.0
 22
0.0
 32
0.0
 13
1.0
 23
0.0
 33
0.0
 40
0.0
 40
0.0
 40
0.0
 40
0.0
 40
1.0
 40
1.0
 40
1.0
 40
2.0
 40
2.0
 40
2.0
 40
3.0
 40
3.0
 40
3.0
 40
4.0
 40
4.0
 40
4.0
 40
4.0
 10
84.55695275663865
 20
-129.3088952454508
 30
0.0
 10
84.55695275663865
 20
-129.2537913565753
 30
0.0
 10
84.51214997887193
 20
-129.2089885788085
 30
0.0
 10
84.45686756754802
 20
-129.2089885788085
 30
0.0
 10
84.40173053445506
 20
-129.2089885788085
 30
0.0
 10
84.35696090343019
 20
-129.2537913565753
 30
0.0
 10
84.35696090343019
 20
-129.3088952454508
 30
0.0
 10
84.35696090343019
 20
-129.3640344121033
 30
0.0
 10
84.40173053445506
 20
-129.4088019120925
 30
0.0
 10
84.45686756754802
 20
-129.4088019120925
 30
0.0
 10
84.51214997887193
 20
-129.4088019120925
 30
0.0
 10
84.55695275663865
 20
-129.3640344121033
 30
0.0
 10
84.55695275663865
 20
-129.3088952454508
 30
0.0
  0
INSERT
  5
D0
330
1F
100
AcDbEntity
  8
_U+30EC_U+30A4_U+30E4_U+30FC 1
100
AcDbBlockReference
  2
block 6
 10
0.0
 20
0.0
 30
0.0
  0
POLYLINE
  5
D5
330
1F
100
AcDbEntity
  8
_U+30EC_U+30A4_U+30E4_U+30FC 1
 62
   179
420
  2234388
370
     9
100
AcDb2dPolyline
 66
     1
 10
0.0
 20
0.0
 30
0.0
  0
VERTEX
  5
D6
330
D5
100
AcDbEntity
  8
_U+30EC_U+30A4_U+30E4_U+30FC 1
 62
   179
420
  2234388
370
     9
100
AcDbVertex
100
AcDb2dVertex
 10
85.3183156011262
 20
-129.3088952454508
 30
0.0
  0
VERTEX
  5
D7
330
D5
100
AcDbEntity
  8
_U+30EC_U+30A4_U+30E4_U+30FC 1
 62
   179
420
  2234388
370
     9
100
AcDbVertex
100
AcDb2dVertex
 10
81.47924681018013
 20
-129.3088952454508
 30
0.0
  0
SEQEND
  5
D8
330
D5
100
AcDbEntity
  8
_U+30EC_U+30A4_U+30E4_U+30FC 1
 62
   179
420
  2234388
370
     9
  0
ENDSEC
  0
SECTION
  2
OBJECTS
  0
DICTIONARY
  5
C
330
0
100
AcDbDictionary
281
     1
  3
ACAD_GROUP
350
D
  3
ACAD_LAYOUT
350
1A
  3
ACAD_MATERIAL
350
3B
  3
ACAD_MLEADERSTYLE
350
DA
  3
ACAD_MLINESTYLE
350
17
  3
ACAD_PLOTSETTINGS
350
19
  3
ACAD_PLOTSTYLENAME
350
E
  3
ACAD_TABLESTYLE
350
D9
  3
ACAD_VISUALSTYLE
350
2A
  0
SUN
  5
3F
330
29
100
AcDbSun
 90
        1
290
     0
 63
     7
421
 16777215
 40
1.0
291
     1
 91
  2455826
 92
 54000000
292
     0
 70
     2
 71
   256
280
     1
  0
DICTIONARY
  5
D
102
{ACAD_REACTORS
330
C
102
}
330
C
100
AcDbDictionary
281
     1
  0
DICTIONARY
  5
1A
102
{ACAD_REACTORS
330
C
102
}
330
C
100
AcDbDictionary
281
     1
  3
Layout1
350
1E
  3
Layout2
350
26
  3
Model
350
22
  0
DICTIONARY
  5
3B
102
{ACAD_REACTORS
330
C
102
}
330
C
100
AcDbDictionary
281
     1
  3
ByBlock
350
3D
  3
ByLayer
350
3C
  3
Global
350
3E
  0
DICTIONARY
  5
DA
102
{ACAD_REACTORS
330
C
102
}
330
C
100
AcDbDictionary
281
     1
  0
DICTIONARY
  5
17
102
{ACAD_REACTORS
330
C
102
}
330
C
100
AcDbDictionary
281
     1
  3
Standard
350
18
  0
DICTIONARY
  5
19
102
{ACAD_REACTORS
330
C
102
}
330
C
100
AcDbDictionary
281
     1
  0
ACDBDICTIONARYWDFLT
  5
E
102
{ACAD_REACTORS
330
C
102
}
330
C
100
AcDbDictionary
281
     1
  3
Normal
350
F
100
AcDbDictionaryWithDefault
340
F
  0
DICTIONARY
  5
D9
102
{ACAD_REACTORS
330
C
102
}
330
C
100
AcDbDictionary
281
     1
  0
DICTIONARY
  5
2A
102
{ACAD_REACTORS
330
C
102
}
330
C
100
AcDbDictionary
281
     1
  3
2dWireframe
350
2F
  3
3D Hidden
350
31
  3
3dWireframe
350
30
  3
Basic
350
32
  3
Brighten
350
36
  3
ColorChange
350
3A
  3
Conceptual
350
34
  3
Dim
350
35
  3
Facepattern
350
39
  3
Flat
350
2B
  3
FlatWithEdges
350
2C
  3
Gouraud
350
2D
  3
GouraudWithEdges
350
2E
  3
Linepattern
350
38
  3
Realistic
350
33
  3
Thicken
350
37
  0
LAYOUT
  5
1E
102
{ACAD_REACTORS
330
1A
102
}
330
1A
100
AcDbPlotSettings
  1

  2
none_device
  4

  6

 40
0.0
 41
0.0
 42
0.0
 43
0.0
 44
0.0
 45
0.0
 46
0.0
 47
0.0
 48
0.0
 49
0.0
140
0.0
141
0.0
142
1.0
143
1.0
 70
   688
 72
     0
 73
     0
 74
     5
  7

 75
    16
 76
     0
 77
     2
 78
   300
147
1.0
148
0.0
149
0.0
100
AcDbLayout
  1
Layout1
 70
     1
 71
     1
 10
0.0
 20
0.0
 11
12.0
 21
9.0
 12
0.0
 22
0.0
 32
0.0
 14
1.000000000000000E+20
 24
1.000000000000000E+20
 34
1.000000000000000E+20
 15
-1.000000000000000E+20
 25
-1.000000000000000E+20
 35
-1.000000000000000E+20
146
0.0
 13
0.0
 23
0.0
 33
0.0
 16
1.0
 26
0.0
 36
0.0
 17
0.0
 27
1.0
 37
0.0
 76
     0
330
1B
  0
LAYOUT
  5
26
102
{ACAD_REACTORS
330
1A
102
}
330
1A
100
AcDbPlotSettings
  1

  2
none_device
  4

  6

 40
0.0
 41
0.0
 42
0.0
 43
0.0
 44
0.0
 45
0.0
 46
0.0
 47
0.0
 48
0.0
 49
0.0
140
0.0
141
0.0
142
1.0
143
1.0
 70
   688
 72
     0
 73
     0
 74
     5
  7

 75
    16
 76
     0
 77
     2
 78
   300
147
1.0
148
0.0
149
0.0
100
AcDbLayout
  1
Layout2
 70
     1
 71
     2
 10
0.0
 20
0.0
 11
0.0
 21
0.0
 12
0.0
 22
0.0
 32
0.0
 14
0.0
 24
0.0
 34
0.0
 15
0.0
 25
0.0
 35
0.0
146
0.0
 13
0.0
 23
0.0
 33
0.0
 16
1.0
 26
0.0
 36
0.0
 17
0.0
 27
1.0
 37
0.0
 76
     0
330
23
  0
LAYOUT
  5
22
102
{ACAD_REACTORS
330
1A
102
}
330
1A
100
AcDbPlotSettings
  1

  2
none_device
  4

  6

 40
0.0
 41
0.0
 42
0.0
 43
0.0
 44
0.0
 45
0.0
 46
0.0
 47
0.0
 48
0.0
 49
0.0
140
0.0
141
0.0
142
1.0
143
1.0
 70
  1712
 72
     0
 73
     0
 74
     0
  7

 75
     0
 76
     0
 77
     2
 78
   300
147
1.0
148
0.0
149
0.0
100
AcDbLayout
  1
Model
 70
     1
 71
     0
 10
0.0
 20
0.0
 11
12.0
 21
9.0
 12
0.0
 22
0.0
 32
0.0
 14
1.000000000000000E+20
 24
1.000000000000000E+20
 34
1.000000000000000E+20
 15
-1.000000000000000E+20
 25
-1.000000000000000E+20
 35
-1.000000000000000E+20
146
0.0
 13
0.0
 23
0.0
 33
0.0
 16
1.0
 26
0.0
 36
0.0
 17
0.0
 27
1.0
 37
0.0
 76
     0
330
1F
331
29
  0
MATERIAL
  5
3D
102
{ACAD_REACTORS
330
3B
102
}
330
3B
100
AcDbMaterial
  1
ByBlock
 72
     1
 94
      127
  0
MATERIAL
  5
3C
102
{ACAD_REACTORS
330
3B
102
}
330
3B
100
AcDbMaterial
  1
ByLayer
 72
     1
 94
      127
  0
MATERIAL
  5
3E
102
{ACAD_REACTORS
330
3B
102
}
330
3B
100
AcDbMaterial
  1
Global
 72
     1
 94
      127
  0
MLINESTYLE
  5
18
102
{ACAD_REACTORS
330
17
102
}
330
17
100
AcDbMlineStyle
  2
Standard
 70
     0
  3

 62
   256
 51
90.0
 52
90.0
 71
     2
 49
0.5
 62
   256
  6
BYLAYER
 49
-0.5
 62
   256
  6
BYLAYER
  0
ACDBPLACEHOLDER
  5
F
102
{ACAD_REACTORS
330
E
102
}
330
E
  0
VISUALSTYLE
  5
2F
102
{ACAD_REACTORS
330
2A
102
}
330
2A
100
AcDbVisualStyle
  2
2dWireframe
 70
     4
177
     2
291
     0
 71
     0
176
     1
 72
     2
176
     1
 73
     0
176
     1
 90
        0
176
     1
 40
-0.6
176
     1
 41
-30.0
176
     1
 62
     5
 63
     7
421
 16777215
176
     1
 74
     1
176
     1
 91
        4
176
     1
 64
     7
176
     1
 65
   257
176
     1
 75
     1
176
     1
175
     1
176
     1
 42
1.0
176
     1
 92
        0
176
     1
 66
   257
176
     1
 43
1.0
176
     1
 76
     1
176
     1
 77
     6
176
     1
 78
     2
176
     1
 67
     7
176
     1
 79
     5
176
     1
170
     0
176
     1
171
     0
176
     1
290
     0
176
     1
 93
        1
176
     1
 44
0.0
176
     1
173
     0
176
     1
  0
VISUALSTYLE
  5
31
102
{ACAD_REACTORS
330
2A
102
}
330
2A
100
AcDbVisualStyle
  2
3D Hidden
 70
     6
177
     2
291
     0
 71
     1
176
     1
 72
     2
176
     1
 73
     2
176
     1
 90
        0
176
     1
 40
-0.6
176
     1
 41
-30.0
176
     1
 62
     5
 63
     7
421
 16777215
176
     1
 74
     2
176
     1
 91
        2
176
     1
 64
     7
176
     1
 65
   257
176
     1
 75
     2
176
     1
175
     1
176
     1
 42
40.0
176
     1
 92
        0
176
     1
 66
   257
176
     1
 43
1.0
176
     1
 76
     1
176
     1
 77
     6
176
     1
 78
     2
176
     1
 67
     7
176
     1
 79
     3
176
     1
170
     0
176
     1
171
     0
176
     1
290
     0
176
     1
 93
        1
176
     1
 44
0.0
176
     1
173
     0
176
     1
  0
VISUALSTYLE
  5
30
102
{ACAD_REACTORS
330
2A
102
}
330
2A
100
AcDbVisualStyle
  2
3dWireframe
 70
     5
177
     2
291
     0
 71
     0
176
     1
 72
     2
176
     1
 73
     0
176
     1
 90
        0
176
     1
 40
-0.6
176
     1
 41
-30.0
176
     1
 62
     5
 63
     7
421
 16777215
176
     1
 74
     1
176
     1
 91
        4
176
     1
 64
     7
176
     1
 65
   257
176
     1
 75
     1
176
     1
175
     1
176
     1
 42
1.0
176
     1
 92
        0
176
     1
 66
   257
176
     1
 43
1.0
176
     1
 76
     1
176
     1
 77
     6
176
     1
 78
     2
176
     1
 67
     7
176
     1
 79
     5
176
     1
170
     0
176
     1
171
     0
176
     1
290
     0
176
     1
 93
        1
176
     1
 44
0.0
176
     1
173
     0
176
     1
  0
VISUALSTYLE
  5
32
102
{ACAD_REACTORS
330
2A
102
}
330
2A
100
AcDbVisualStyle
  2
Basic
 70
     7
177
     2
291
     1
 71
     1
176
     1
 72
     0
176
     1
 73
     1
176
     1
 90
        0
176
     1
 40
-0.6
176
     1
 41
-30.0
176
     1
 62
     5
 63
     7
421
 16777215
176
     1
 74
     0
176
     1
 91
        4
176
     1
 64
     7
176
     1
 65
   257
176
     1
 75
     1
176
     1
175
     1
176
     1
 42
1.0
176
     1
 92
        8
176
     1
 66
     7
176
     1
 43
1.0
176
     1
 76
     1
176
     1
 77
     6
176
     1
 78
     2
176
     1
 67
     7
176
     1
 79
     5
176
     1
170
     0
176
     1
171
     0
176
     1
290
     0
176
     1
 93
        1
176
     1
 44
0.0
176
     1
173
     0
176
     1
  0
VISUALSTYLE
  5
36
102
{ACAD_REACTORS
330
2A
102
}
330
2A
100
AcDbVisualStyle
  2
Brighten
 70
    12
177
     2
291
     1
 71
     2
176
     1
 72
     2
176
     1
 73
     0
176
     1
 90
        0
176
     1
 40
-0.6
176
     1
 41
-30.0
176
     1
 62
     5
 63
     7
421
 16777215
176
     1
 74
     1
176
     1
 91
        4
176
     1
 64
     7
176
     1
 65
   257
176
     1
 75
     1
176
     1
175
     1
176
     1
 42
1.0
176
     1
 92
        8
176
     1
 66
     7
176
     1
 43
1.0
176
     1
 76
     1
176
     1
 77
     6
176
     1
 78
     2
176
     1
 67
     7
176
     1
 79
     5
176
     1
170
     0
176
     1
171
     0
176
     1
290
     0
176
     1
 93
        1
176
     1
 44
50.0
176
     1
173
     0
176
     1
  0
VISUALSTYLE
  5
3A
102
{ACAD_REACTORS
330
2A
102
}
330
2A
100
AcDbVisualStyle
  2
ColorChange
 70
    16
177
     2
291
     1
 71
     2
176
     1
 72
     2
176
     1
 73
     3
176
     1
 90
        0
176
     1
 40
-0.6
176
     1
 41
-30.0
176
     1
 62
     5
 63
     8
421
  8421504
176
     1
 74
     1
176
     1
 91
        4
176
     1
 64
     7
176
     1
 65
   257
176
     1
 75
     1
176
     1
175
     1
176
     1
 42
1.0
176
     1
 92
        8
176
     1
 66
     8
424
  8421504
176
     1
 43
1.0
176
     1
 76
     1
176
     1
 77
     6
176
     1
 78
     2
176
     1
 67
     7
176
     1
 79
     5
176
     1
170
     0
176
     1
171
     0
176
     1
290
     0
176
     1
 93
        1
176
     1
 44
0.0
176
     1
173
     0
176
     1
  0
VISUALSTYLE
  5
34
102
{ACAD_REACTORS
330
2A
102
}
330
2A
100
AcDbVisualStyle
  2
Conceptual
 70
     9
177
     2
291
     0
 71
     3
176
     1
 72
     2
176
     1
 73
     0
176
     1
 90
        0
176
     1
 40
-0.6
176
     1
 41
-30.0
176
     1
 62
     5
 63
     7
421
 16777215
176
     1
 74
     2
176
     1
 91
        2
176
     1
 64
     7
176
     1
 65
   257
176
     1
 75
     1
176
     1
175
     1
176
     1
 42
40.0
176
     1
 92
        8
176
     1
 66
     7
176
     1
 43
1.0
176
     1
 76
     1
176
     1
 77
     6
176
     1
 78
     2
176
     1
 67
     7
176
     1
 79
     3
176
     1
170
     0
176
     1
171
     0
176
     1
290
     0
176
     1
 93
        1
176
     1
 44
0.0
176
     1
173
     0
176
     1
  0
VISUALSTYLE
  5
35
102
{ACAD_REACTORS
330
2A
102
}
330
2A
100
AcDbVisualStyle
  2
Dim
 70
    11
177
     2
291
     1
 71
     2
176
     1
 72
     2
176
     1
 73
     0
176
     1
 90
        0
176
     1
 40
-0.6
176
     1
 41
-30.0
176
     1
 62
     5
 63
     7
421
 16777215
176
     1
 74
     1
176
     1
 91
        4
176
     1
 64
     7
176
     1
 65
   257
176
     1
 75
     1
176
     1
175
     1
176
     1
 42
1.0
176
     1
 92
        8
176
     1
 66
     7
176
     1
 43
1.0
176
     1
 76
     1
176
     1
 77
     6
176
     1
 78
     2
176
     1
 67
     7
176
     1
 79
     5
176
     1
170
     0
176
     1
171
     0
176
     1
290
     0
176
     1
 93
        1
176
     1
 44
-50.0
176
     1
173
     0
176
     1
  0
VISUALSTYLE
  5
39
102
{ACAD_REACTORS
330
2A
102
}
330
2A
100
AcDbVisualStyle
  2
Facepattern
 70
    15
177
     2
291
     1
 71
     2
176
     1
 72
     2
176
     1
 73
     0
176
     1
 90
        0
176
     1
 40
-0.6
176
     1
 41
-30.0
176
     1
 62
     5
 63
     7
421
 16777215
176
     1
 74
     1
176
     1
 91
        4
176
     1
 64
     7
176
     1
 65
   257
176
     1
 75
     1
176
     1
175
     1
176
     1
 42
1.0
176
     1
 92
        8
176
     1
 66
     7
176
     1
 43
1.0
176
     1
 76
     1
176
     1
 77
     6
176
     1
 78
     2
176
     1
 67
     7
176
     1
 79
     5
176
     1
170
     0
176
     1
171
     0
176
     1
290
     0
176
     1
 93
        1
176
     1
 44
0.0
176
     1
173
     0
176
     1
  0
VISUALSTYLE
  5
2B
102
{ACAD_REACTORS
330
2A
102
}
330
2A
100
AcDbVisualStyle
  2
Flat
 70
     0
177
     2
291
     1
 71
     2
176
     1
 72
     1
176
     1
 73
     1
176
     1
 90
        2
176
     1
 40
-0.6
176
     1
 41
30.0
176
     1
 62
     5
 63
     7
421
 16777215
176
     1
 74
     0
176
     1
 91
        4
176
     1
 64
     7
176
     1
 65
   257
176
     1
 75
     1
176
     1
175
     1
176
     1
 42
1.0
176
     1
 92
        8
176
     1
 66
     7
176
     1
 43
1.0
176
     1
 76
     1
176
     1
 77
     6
176
     1
 78
     2
176
     1
 67
     7
176
     1
 79
     5
176
     1
170
     0
176
     1
171
     0
176
     1
290
     0
176
     1
 93
       13
176
     1
 44
0.0
176
     1
173
     0
176
     1
  0
VISUALSTYLE
  5
2C
102
{ACAD_REACTORS
330
2A
102
}
330
2A
100
AcDbVisualStyle
  2
FlatWithEdges
 70
     1
177
     2
291
     1
 71
     2
176
     1
 72
     1
176
     1
 73
     1
176
     1
 90
        2
176
     1
 40
-0.6
176
     1
 41
30.0
176
     1
 62
     5
 63
     7
421
 16777215
176
     1
 74
     1
176
     1
 91
        4
176
     1
 64
     7
176
     1
 65
   257
176
     1
 75
     1
176
     1
175
     1
176
     1
 42
1.0
176
     1
 92
        0
176
     1
 66
   257
176
     1
 43
1.0
176
     1
 76
     1
176
     1
 77
     6
176
     1
 78
     2
176
     1
 67
     7
176
     1
 79
     5
176
     1
170
     0
176
     1
171
     0
176
     1
290
     0
176
     1
 93
       13
176
     1
 44
0.0
176
     1
173
     0
176
     1
  0
VISUALSTYLE
  5
2D
102
{ACAD_REACTORS
330
2A
102
}
330
2A
100
AcDbVisualStyle
  2
Gouraud
 70
     2
177
     2
291
     1
 71
     2
176
     1
 72
     2
176
     1
 73
     1
176
     1
 90
        2
176
     1
 40
-0.6
176
     1
 41
30.0
176
     1
 62
     5
 63
     7
421
 16777215
176
     1
 74
     0
176
     1
 91
        4
176
     1
 64
     7
176
     1
 65
   257
176
     1
 75
     1
176
     1
175
     1
176
     1
 42
1.0
176
     1
 92
        0
176
     1
 66
     7
176
     1
 43
1.0
176
     1
 76
     1
176
     1
 77
     6
176
     1
 78
     2
176
     1
 67
     7
176
     1
 79
     5
176
     1
170
     0
176
     1
171
     0
176
     1
290
     0
176
     1
 93
       13
176
     1
 44
0.0
176
     1
173
     0
176
     1
  0
VISUALSTYLE
  5
2E
102
{ACAD_REACTORS
330
2A
102
}
330
2A
100
AcDbVisualStyle
  2
GouraudWithEdges
 70
     3
177
     2
291
     1
 71
     2
176
     1
 72
     2
176
     1
 73
     1
176
     1
 90
        2
176
     1
 40
-0.6
176
     1
 41
30.0
176
     1
 62
     5
 63
     7
421
 16777215
176
     1
 74
     1
176
     1
 91
        4
176
     1
 64
     7
176
     1
 65
   257
176
     1
 75
     1
176
     1
175
     1
176
     1
 42
1.0
176
     1
 92
        0
176
     1
 66
   257
176
     1
 43
1.0
176
     1
 76
     1
176
     1
 77
     6
176
     1
 78
     2
176
     1
 67
     7
176
     1
 79
     5
176
     1
170
     0
176
     1
171
     0
176
     1
290
     0
176
     1
 93
       13
176
     1
 44
0.0
176
     1
173
     0
176
     1
  0
VISUALSTYLE
  5
38
102
{ACAD_REACTORS
330
2A
102
}
330
2A
100
AcDbVisualStyle
  2
Linepattern
 70
    14
177
     2
291
     1
 71
     2
176
     1
 72
     2
176
     1
 73
     0
176
     1
 90
        0
176
     1
 40
-0.6
176
     1
 41
-30.0
176
     1
 62
     5
 63
     7
421
 16777215
176
     1
 74
     1
176
     1
 91
        4
176
     1
 64
     7
176
     1
 65
   257
176
     1
 75
     7
176
     1
175
     7
176
     1
 42
1.0
176
     1
 92
        8
176
     1
 66
     7
176
     1
 43
1.0
176
     1
 76
     1
176
     1
 77
     6
176
     1
 78
     2
176
     1
 67
     7
176
     1
 79
     5
176
     1
170
     0
176
     1
171
     0
176
     1
290
     0
176
     1
 93
        1
176
     1
 44
0.0
176
     1
173
     0
176
     1
  0
VISUALSTYLE
  5
33
102
{ACAD_REACTORS
330
2A
102
}
330
2A
100
AcDbVisualStyle
  2
Realistic
 70
     8
177
     2
291
     0
 71
     2
176
     1
 72
     2
176
     1
 73
     0
176
     1
 90
        0
176
     1
 40
-0.6
176
     1
 41
-30.0
176
     1
 62
     5
 63
     7
421
 16777215
176
     1
 74
     1
176
     1
 91
        0
176
     1
 64
     7
176
     1
 65
   257
176
     1
 75
     1
176
     1
175
     1
176
     1
 42
1.0
176
     1
 92
        8
176
     1
 66
     8
424
  7895160
176
     1
 43
1.0
176
     1
 76
     1
176
     1
 77
     6
176
     1
 78
     2
176
     1
 67
     7
176
     1
 79
     5
176
     1
170
     0
176
     1
171
     0
176
     1
290
     0
176
     1
 93
       13
176
     1
 44
0.0
176
     1
173
     0
176
     1
  0
VISUALSTYLE
  5
37
102
{ACAD_REACTORS
330
2A
102
}
330
2A
100
AcDbVisualStyle
  2
Thicken
 70
    13
177
     2
291
     1
 71
     2
176
     1
 72
     2
176
     1
 73
     0
176
     1
 90
        0
176
     1
 40
-0.6
176
     1
 41
-30.0
176
     1
 62
     5
 63
     7
421
 16777215
176
     1
 74
     1
176
     1
 91
        4
176
     1
 64
     7
176
     1
 65
   257
176
     1
 75
     1
176
     1
175
     1
176
     1
 42
1.0
176
     1
 92
       12
176
     1
 66
     7
176
     1
 43
1.0
176
     1
 76
     1
176
     1
 77
     6
176
     1
 78
     2
176
     1
 67
     7
176
     1
 79
     5
176
     1
170
     0
176
     1
171
     0
176
     1
290
     0
176
     1
 93
        1
176
     1
 44
0.0
176
     1
173
     0
176
     1
  0
ENDSEC
  0
EOF
