  0
SECTION
  2
HEADER
  9
$ACADVER
  1
AC1024
  9
$ACADMAINTVER
 70
     6
  9
$DWGCODEPAGE
  3
UNDEFINED
  9
$INSBASE
 10
0.0
 20
0.0
 30
0.0
  9
$EXTMIN
 10
1.000000000000000E+20
 20
1.000000000000000E+20
 30
1.000000000000000E+20
  9
$EXTMAX
 10
-1.000000000000000E+20
 20
-1.000000000000000E+20
 30
-1.000000000000000E+20
  9
$LIMMIN
 10
0.0
 20
0.0
  9
$LIMMAX
 10
12.0
 20
9.0
  9
$ORTHOMODE
 70
     0
  9
$REGENMODE
 70
     1
  9
$FILLMODE
 70
     1
  9
$QTEXTMODE
 70
     0
  9
$MIRRTEXT
 70
     1
  9
$LTSCALE
 40
1.0
  9
$ATTMODE
 70
     1
  9
$TEXTSIZE
 40
0.2
  9
$TRACEWID
 40
0.05
  9
$TEXTSTYLE
  7
Standard
  9
$CLAYER
  8
0
  9
$CELTYPE
  6
ByLayer
  9
$CECOLOR
 62
   256
  9
$CELTSCALE
 40
1.0
  9
$DISPSILH
 70
     0
  9
$DIMSCALE
 40
1.0
  9
$DIMASZ
 40
0.18
  9
$DIMEXO
 40
0.0625
  9
$DIMDLI
 40
0.38
  9
$DIMRND
 40
0.0
  9
$DIMDLE
 40
0.0
  9
$DIMEXE
 40
0.18
  9
$DIMTP
 40
0.0
  9
$DIMTM
 40
0.0
  9
$DIMTXT
 40
0.18
  9
$DIMCEN
 40
0.09
  9
$DIMTSZ
 40
0.0
  9
$DIMTOL
 70
     0
  9
$DIMLIM
 70
     0
  9
$DIMTIH
 70
     1
  9
$DIMTOH
 70
     1
  9
$DIMSE1
 70
     0
  9
$DIMSE2
 70
     0
  9
$DIMTAD
 70
     0
  9
$DIMZIN
 70
     0
  9
$DIMBLK
  1

  9
$DIMASO
 70
     1
  9
$DIMSHO
 70
     1
  9
$DIMPOST
  1

  9
$DIMAPOST
  1

  9
$DIMALT
 70
     0
  9
$DIMALTD
 70
     2
  9
$DIMALTF
 40
25.4
  9
$DIMLFAC
 40
1.0
  9
$DIMTOFL
 70
     0
  9
$DIMTVP
 40
0.0
  9
$DIMTIX
 70
     0
  9
$DIMSOXD
 70
     0
  9
$DIMSAH
 70
     0
  9
$DIMBLK1
  1

  9
$DIMBLK2
  1

  9
$DIMSTYLE
  2
Standard
  9
$DIMCLRD
 70
     0
  9
$DIMCLRE
 70
     0
  9
$DIMCLRT
 70
     0
  9
$DIMTFAC
 40
1.0
  9
$DIMGAP
 40
0.09
  9
$DIMJUST
 70
     0
  9
$DIMSD1
 70
     0
  9
$DIMSD2
 70
     0
  9
$DIMTOLJ
 70
     1
  9
$DIMTZIN
 70
     0
  9
$DIMALTZ
 70
     0
  9
$DIMALTTZ
 70
     0
  9
$DIMUPT
 70
     0
  9
$DIMDEC
 70
     4
  9
$DIMTDEC
 70
     4
  9
$DIMALTU
 70
     2
  9
$DIMALTTD
 70
     2
  9
$DIMTXSTY
  7
Standard
  9
$DIMAUNIT
 70
     0
  9
$DIMADEC
 70
     0
  9
$DIMALTRND
 40
0.0
  9
$DIMAZIN
 70
     0
  9
$DIMDSEP
 70
    46
  9
$DIMATFIT
 70
     3
  9
$DIMFRAC
 70
     0
  9
$DIMLDRBLK
  1

  9
$DIMLUNIT
 70
     2
  9
$DIMLWD
 70
    -2
  9
$DIMLWE
 70
    -2
  9
$DIMTMOVE
 70
     0
  9
$DIMFXL
 40
1.0
  9
$DIMFXLON
 70
     0
  9
$DIMJOGANG
 40
0.7853981633974483
  9
$DIMTFILL
 70
     0
  9
$DIMTFILLCLR
 70
     0
  9
$DIMARCSYM
 70
     0
  9
$DIMLTYPE
  6

  9
$DIMLTEX1
  6

  9
$DIMLTEX2
  6

  9
$DIMTXTDIRECTION
 70
     0
  9
$LUNITS
 70
     2
  9
$LUPREC
 70
     4
  9
$SKETCHINC
 40
0.1
  9
$FILLETRAD
 40
0.5
  9
$AUNITS
 70
     0
  9
$AUPREC
 70
     0
  9
$MENU
  1
.
  9
$ELEVATION
 40
0.0
  9
$PELEVATION
 40
0.0
  9
$THICKNESS
 40
0.0
  9
$LIMCHECK
 70
     0
  9
$CHAMFERA
 40
0.5
  9
$CHAMFERB
 40
0.5
  9
$CHAMFERC
 40
1.0
  9
$CHAMFERD
 40
0.0
  9
$SKPOLY
 70
     0
  9
$TDCREATE
 40
2457917.618645833
  9
$TDUCREATE
 40
2457917.243645833
  9
$TDUPDATE
 40
2457917.618645833
  9
$TDUUPDATE
 40
2457917.243645833
  9
$TDINDWG
 40
0.0000000116
  9
$TDUSRTIMER
 40
0.0000000116
  9
$USRTIMER
 70
     1
  9
$ANGBASE
 50
0.0
  9
$ANGDIR
 70
     0
  9
$PDMODE
 70
     0
  9
$PDSIZE
 40
0.0
  9
$PLINEWID
 40
0.0
  9
$SPLFRAME
 70
     0
  9
$SPLINETYPE
 70
     6
  9
$SPLINESEGS
 70
     8
  9
$HANDSEED
  5
D7
  9
$SURFTAB1
 70
     6
  9
$SURFTAB2
 70
     6
  9
$SURFTYPE
 70
     6
  9
$SURFU
 70
     6
  9
$SURFV
 70
     6
  9
$UCSBASE
  2

  9
$UCSNAME
  2

  9
$UCSORG
 10
0.0
 20
0.0
 30
0.0
  9
$UCSXDIR
 10
1.0
 20
0.0
 30
0.0
  9
$UCSYDIR
 10
0.0
 20
1.0
 30
0.0
  9
$UCSORTHOREF
  2

  9
$UCSORTHOVIEW
 70
     0
  9
$UCSORGTOP
 10
0.0
 20
0.0
 30
0.0
  9
$UCSORGBOTTOM
 10
0.0
 20
0.0
 30
0.0
  9
$UCSORGLEFT
 10
0.0
 20
0.0
 30
0.0
  9
$UCSORGRIGHT
 10
0.0
 20
0.0
 30
0.0
  9
$UCSORGFRONT
 10
0.0
 20
0.0
 30
0.0
  9
$UCSORGBACK
 10
0.0
 20
0.0
 30
0.0
  9
$PUCSBASE
  2

  9
$PUCSNAME
  2

  9
$PUCSORG
 10
0.0
 20
0.0
 30
0.0
  9
$PUCSXDIR
 10
1.0
 20
0.0
 30
0.0
  9
$PUCSYDIR
 10
0.0
 20
1.0
 30
0.0
  9
$PUCSORTHOREF
  2

  9
$PUCSORTHOVIEW
 70
     0
  9
$PUCSORGTOP
 10
0.0
 20
0.0
 30
0.0
  9
$PUCSORGBOTTOM
 10
0.0
 20
0.0
 30
0.0
  9
$PUCSORGLEFT
 10
0.0
 20
0.0
 30
0.0
  9
$PUCSORGRIGHT
 10
0.0
 20
0.0
 30
0.0
  9
$PUCSORGFRONT
 10
0.0
 20
0.0
 30
0.0
  9
$PUCSORGBACK
 10
0.0
 20
0.0
 30
0.0
  9
$USERI1
 70
     0
  9
$USERI2
 70
     0
  9
$USERI3
 70
     0
  9
$USERI4
 70
     0
  9
$USERI5
 70
     0
  9
$USERR1
 40
0.0
  9
$USERR2
 40
0.0
  9
$USERR3
 40
0.0
  9
$USERR4
 40
0.0
  9
$USERR5
 40
0.0
  9
$WORLDVIEW
 70
     1
  9
$SHADEDGE
 70
     3
  9
$SHADEDIF
 70
    70
  9
$TILEMODE
 70
     1
  9
$MAXACTVP
 70
    64
  9
$PINSBASE
 10
0.0
 20
0.0
 30
0.0
  9
$PLIMCHECK
 70
     0
  9
$PEXTMIN
 10
1.000000000000000E+20
 20
1.000000000000000E+20
 30
1.000000000000000E+20
  9
$PEXTMAX
 10
-1.000000000000000E+20
 20
-1.000000000000000E+20
 30
-1.000000000000000E+20
  9
$PLIMMIN
 10
0.0
 20
0.0
  9
$PLIMMAX
 10
12.0
 20
9.0
  9
$UNITMODE
 70
     0
  9
$VISRETAIN
 70
     1
  9
$PLINEGEN
 70
     0
  9
$PSLTSCALE
 70
     1
  9
$TREEDEPTH
 70
  3020
  9
$CMLSTYLE
  2
Standard
  9
$CMLJUST
 70
     0
  9
$CMLSCALE
 40
1.0
  9
$PROXYGRAPHICS
 70
     1
  9
$MEASUREMENT
 70
     0
  9
$CELWEIGHT
370
    -1
  9
$ENDCAPS
280
     0
  9
$JOINSTYLE
280
     0
  9
$LWDISPLAY
290
     1
  9
$INSUNITS
 70
     1
  9
$HYPERLINKBASE
  1

  9
$STYLESHEET
  1

  9
$XEDIT
290
     1
  9
$CEPSNTYPE
380
     0
  9
$PSTYLEMODE
290
     1
  9
$FINGERPRINTGUID
  2
{2C2B6875-0B9C-3781-4406-EE971D610B3E}
  9
$VERSIONGUID
  2
{FAEB1C32-E019-11D5-929B-00C0DF256EC4}
  9
$EXTNAMES
290
     1
  9
$PSVPSCALE
 40
0.0
  9
$OLESTARTUP
290
     0
  9
$SORTENTS
280
   127
  9
$INDEXCTL
280
     0
  9
$HIDETEXT
280
     1
  9
$XCLIPFRAME
280
     2
  9
$HALOGAP
280
     0
  9
$OBSCOLOR
 70
   257
  9
$OBSLTYPE
280
     0
  9
$INTERSECTIONDISPLAY
280
     0
  9
$INTERSECTIONCOLOR
 70
   257
  9
$DIMASSOC
280
     2
  9
$PROJECTNAME
  1

  9
$CAMERADISPLAY
290
     0
  9
$LENSLENGTH
 40
50.0
  9
$CAMERAHEIGHT
 40
0.0
  9
$STEPSPERSEC
 40
2.0
  9
$STEPSIZE
 40
6.0
  9
$3DDWFPREC
 40
2.0
  9
$PSOLWIDTH
 40
0.25
  9
$PSOLHEIGHT
 40
4.0
  9
$LOFTANG1
 40
1.570796326794897
  9
$LOFTANG2
 40
1.570796326794897
  9
$LOFTMAG1
 40
0.0
  9
$LOFTMAG2
 40
0.0
  9
$LOFTPARAM
 70
     7
  9
$LOFTNORMALS
280
     1
  9
$LATITUDE
 40
37.795
  9
$LONGITUDE
 40
-122.394
  9
$NORTHDIRECTION
 40
0.0
  9
$TIMEZONE
 70
 -8000
  9
$LIGHTGLYPHDISPLAY
280
     1
  9
$TILEMODELIGHTSYNCH
280
     1
  9
$CMATERIAL
347
3C
  9
$SOLIDHIST
280
     1
  9
$SHOWHIST
280
     1
  9
$DWFFRAME
280
     2
  9
$DGNFRAME
280
     2
  9
$REALWORLDSCALE
290
     1
  9
$INTERFERECOLOR
 62
   256
  9
$CSHADOW
280
     0
  9
$SHADOWPLANELOCATION
 40
0.0
  0
ENDSEC
  0
SECTION
  2
CLASSES
  0
CLASS
  1
ACDBDICTIONARYWDFLT
  2
AcDbDictionaryWithDefault
  3
ObjectDBX Classes
 90
        0
 91
        4
280
     0
281
     0
  0
CLASS
  1
VISUALSTYLE
  2
AcDbVisualStyle
  3
ObjectDBX Classes
 90
     4095
 91
        4
280
     0
281
     0
  0
CLASS
  1
MATERIAL
  2
AcDbMaterial
  3
ObjectDBX Classes
 90
     1153
 91
        4
280
     0
281
     0
  0
CLASS
  1
SUN
  2
AcDbSun
  3
SCENEOE
 90
     1024
 91
        4
280
     0
281
     0
  0
ENDSEC
  0
SECTION
  2
TABLES
  0
TABLE
  2
VPORT
  5
8
330
0
100
AcDbSymbolTable
 70
     1
  0
VPORT
  5
29
330
8
100
AcDbSymbolTableRecord
100
AcDbViewportTableRecord
  2
*Active
 70
     0
 10
0.0
 20
0.0
 11
1.0
 21
1.0
 12
0.0
 22
0.0
 13
0.0
 23
0.0
 14
0.5
 24
0.5
 15
0.5
 25
0.5
 16
0.0
 26
0.0
 36
1.0
 17
91.00082462281999
 27
-128.4993055234307
 37
0.0
 40
256.9986110468615
 41
0.7081814508812795
 42
50.0
 43
0.0
 44
0.0
 50
0.0
 51
0.0
 71
     0
 72
   100
 73
     1
 74
     3
 75
     0
 76
     0
 77
     0
 78
     0
281
     0
 65
     1
110
0.0
120
0.0
130
0.0
111
1.0
121
0.0
131
0.0
112
0.0
122
1.0
132
0.0
 79
     0
146
0.0
 60
     3
 61
     5
292
     1
282
     1
141
0.0
142
0.0
 63
   250
361
3F
  0
ENDTAB
  0
TABLE
  2
LTYPE
  5
5
330
0
100
AcDbSymbolTable
 70
     1
  0
LTYPE
  5
14
330
5
100
AcDbSymbolTableRecord
100
AcDbLinetypeTableRecord
  2
ByBlock
 70
     0
  3

 72
    65
 73
     0
 40
0.0
  0
LTYPE
  5
15
330
5
100
AcDbSymbolTableRecord
100
AcDbLinetypeTableRecord
  2
ByLayer
 70
     0
  3

 72
    65
 73
     0
 40
0.0
  0
LTYPE
  5
16
330
5
100
AcDbSymbolTableRecord
100
AcDbLinetypeTableRecord
  2
Continuous
 70
     0
  3
Solid line
 72
    65
 73
     0
 40
0.0
  0
ENDTAB
  0
TABLE
  2
LAYER
  5
2
330
0
100
AcDbSymbolTable
 70
     2
  0
LAYER
  5
10
330
2
100
AcDbSymbolTableRecord
100
AcDbLayerTableRecord
  2
0
 70
     0
 62
     7
  6
Continuous
370
    -3
390
F
347
3E
  0
LAYER
  5
40
330
2
100
AcDbSymbolTableRecord
100
AcDbLayerTableRecord
  2
_U+30EC_U+30A4_U+30E4_U+30FC 1
 70
     0
 62
     7
  6
Continuous
370
    -3
390
F
347
3E
  0
ENDTAB
  0
TABLE
  2
STYLE
  5
3
330
0
100
AcDbSymbolTable
 70
     1
  0
STYLE
  5
11
330
3
100
AcDbSymbolTableRecord
100
AcDbTextStyleTableRecord
  2
Standard
 70
     0
 40
0.0
 41
1.0
 50
0.0
 71
     0
 42
0.2
  3
txt
  4

  0
ENDTAB
  0
TABLE
  2
VIEW
  5
6
330
0
100
AcDbSymbolTable
 70
     0
  0
ENDTAB
  0
TABLE
  2
UCS
  5
7
330
0
100
AcDbSymbolTable
 70
     0
  0
ENDTAB
  0
TABLE
  2
APPID
  5
9
330
0
100
AcDbSymbolTable
 70
     1
  0
APPID
  5
12
330
9
100
AcDbSymbolTableRecord
100
AcDbRegAppTableRecord
  2
ACAD
 70
     0
  0
ENDTAB
  0
TABLE
  2
DIMSTYLE
  5
A
330
0
100
AcDbSymbolTable
 70
     1
100
AcDbDimStyleTable
  0
DIMSTYLE
105
27
330
A
100
AcDbSymbolTableRecord
100
AcDbDimStyleTableRecord
  2
Standard
 70
     0
178
     0
340
11
  0
ENDTAB
  0
TABLE
  2
BLOCK_RECORD
  5
1
330
0
100
AcDbSymbolTable
 70
     8
  0
BLOCK_RECORD
  5
1F
330
1
100
AcDbSymbolTableRecord
100
AcDbBlockTableRecord
  2
*Model_Space
340
22
 70
     0
280
     1
281
     0
  0
BLOCK_RECORD
  5
1B
330
1
100
AcDbSymbolTableRecord
100
AcDbBlockTableRecord
  2
*Paper_Space
340
1E
 70
     0
280
     1
281
     0
  0
BLOCK_RECORD
  5
23
330
1
100
AcDbSymbolTableRecord
100
AcDbBlockTableRecord
  2
*Paper_Space0
340
26
 70
     0
280
     1
281
     0
  0
BLOCK_RECORD
  5
4B
330
1
100
AcDbSymbolTableRecord
100
AcDbBlockTableRecord
  2
block 2
340
0
102
{BLKREFS
331
4C
102
}
 70
     0
280
     1
281
     0
  0
BLOCK_RECORD
  5
5C
330
1
100
AcDbSymbolTableRecord
100
AcDbBlockTableRecord
  2
block 3
340
0
102
{BLKREFS
331
5D
102
}
 70
     0
280
     1
281
     0
  0
BLOCK_RECORD
  5
79
330
1
100
AcDbSymbolTableRecord
100
AcDbBlockTableRecord
  2
block 4
340
0
102
{BLKREFS
331
7A
102
}
 70
     0
280
     1
281
     0
  0
BLOCK_RECORD
  5
82
330
1
100
AcDbSymbolTableRecord
100
AcDbBlockTableRecord
  2
block 5
340
0
102
{BLKREFS
331
83
102
}
 70
     0
280
     1
281
     0
  0
BLOCK_RECORD
  5
9F
330
1
100
AcDbSymbolTableRecord
100
AcDbBlockTableRecord
  2
block 6
340
0
102
{BLKREFS
331
A0
102
}
 70
     0
280
     1
281
     0
  0
BLOCK_RECORD
  5
A8
330
1
100
AcDbSymbolTableRecord
100
AcDbBlockTableRecord
  2
block 7
340
0
102
{BLKREFS
331
A9
102
}
 70
     0
280
     1
281
     0
  0
BLOCK_RECORD
  5
BD
330
1
100
AcDbSymbolTableRecord
100
AcDbBlockTableRecord
  2
block 8
340
0
102
{BLKREFS
331
BE
102
}
 70
     0
280
     1
281
     0
  0
ENDTAB
  0
ENDSEC
  0
SECTION
  2
BLOCKS
  0
BLOCK
  5
20
330
1F
100
AcDbEntity
  8
0
100
AcDbBlockBegin
  2
*Model_Space
 70
     0
 10
0.0
 20
0.0
 30
0.0
  3
*Model_Space
  1

  0
ENDBLK
  5
21
330
1F
100
AcDbEntity
  8
0
100
AcDbBlockEnd
  0
BLOCK
  5
1C
330
1B
100
AcDbEntity
 67
     1
  8
0
100
AcDbBlockBegin
  2
*Paper_Space
 70
     0
 10
0.0
 20
0.0
 30
0.0
  3
*Paper_Space
  1

  0
ENDBLK
  5
1D
330
1B
100
AcDbEntity
 67
     1
  8
0
100
AcDbBlockEnd
  0
BLOCK
  5
24
330
23
100
AcDbEntity
  8
0
100
AcDbBlockBegin
  2
*Paper_Space0
 70
     0
 10
0.0
 20
0.0
 30
0.0
  3
*Paper_Space0
  1

  0
ENDBLK
  5
25
330
23
100
AcDbEntity
  8
0
100
AcDbBlockEnd
  0
BLOCK
  5
4D
330
4B
100
AcDbEntity
  8
0
100
AcDbBlockBegin
  2
block 2
 70
     0
 10
0.0
 20
0.0
 30
0.0
  3
block 2
  1

  0
SPLINE
  5
4F
330
4B
100
AcDbEntity
  8
_U+30EC_U+30A4_U+30E4_U+30FC 1
370
     0
100
AcDbSpline
210
0.0
220
0.0
230
1.0
 70
    11
 71
     3
 72
    26
 73
    22
 74
     0
 42
0.0000000001
 43
0.0000000001
 12
1.0
 22
0.0
 32
0.0
 13
1.0
 23
0.0
 33
0.0
 40
0.0
 40
0.0
 40
0.0
 40
0.0
 40
1.0
 40
1.0
 40
1.0
 40
2.0
 40
2.0
 40
2.0
 40
3.0
 40
3.0
 40
3.0
 40
4.0
 40
4.0
 40
4.0
 40
5.0
 40
5.0
 40
5.0
 40
6.0
 40
6.0
 40
6.0
 40
7.0
 40
7.0
 40
7.0
 40
7.0
 10
76.04600421275934
 20
-148.897715891595
 30
0.0
 10
76.04600421275934
 20
-148.897715891595
 30
0.0
 10
76.04600421275934
 20
-147.7932182790239
 30
0.0
 10
76.04600421275934
 20
-147.7932182790239
 30
0.0
 10
76.04600421275934
 20
-147.7932182790239
 30
0.0
 10
75.7159640652724
 20
-147.7932182790239
 30
0.0
 10
75.7159640652724
 20
-147.7932182790239
 30
0.0
 10
75.7159640652724
 20
-147.7932182790239
 30
0.0
 10
75.7159640652724
 20
-147.6454236827067
 30
0.0
 10
75.7159640652724
 20
-147.6454236827067
 30
0.0
 10
76.04807127005049
 20
-147.6306097721201
 30
0.0
 10
76.09458005910136
 20
-147.4676567556678
 30
0.0
 10
76.12420788027451
 20
-147.3536240951061
 30
0.0
 10
76.12420788027451
 20
-147.3536240951061
 30
0.0
 10
76.2702799288491
 20
-147.3536240951061
 30
0.0
 10
76.2702799288491
 20
-147.3536240951061
 30
0.0
 10
76.2702799288491
 20
-147.3536240951061
 30
0.0
 10
76.2702799288491
 20
-148.897715891595
 30
0.0
 10
76.2702799288491
 20
-148.897715891595
 30
0.0
 10
76.2702799288491
 20
-148.897715891595
 30
0.0
 10
76.04600421275934
 20
-148.897715891595
 30
0.0
 10
76.04600421275934
 20
-148.897715891595
 30
0.0
  0
HATCH
  5
50
330
4B
100
AcDbEntity
  8
_U+30EC_U+30A4_U+30E4_U+30FC 1
 62
   179
420
  2234388
100
AcDbHatch
 10
0.0
 20
0.0
 30
0.0
210
0.0
220
0.0
230
1.0
  2
SOLID
 70
     1
 71
     0
 91
        1
 92
        1
 93
        1
 72
     4
 94
        3
 73
     0
 74
     1
 95
       26
 96
       22
 40
0.0
 40
0.0
 40
0.0
 40
0.0
 40
1.0
 40
1.0
 40
1.0
 40
2.0
 40
2.0
 40
2.0
 40
3.0
 40
3.0
 40
3.0
 40
4.0
 40
4.0
 40
4.0
 40
5.0
 40
5.0
 40
5.0
 40
6.0
 40
6.0
 40
6.0
 40
7.0
 40
7.0
 40
7.0
 40
7.0
 10
76.04600421275934
 20
-148.897715891595
 10
76.04600421275934
 20
-148.897715891595
 10
76.04600421275934
 20
-147.7932182790239
 10
76.04600421275934
 20
-147.7932182790239
 10
76.04600421275934
 20
-147.7932182790239
 10
75.7159640652724
 20
-147.7932182790239
 10
75.7159640652724
 20
-147.7932182790239
 10
75.7159640652724
 20
-147.7932182790239
 10
75.7159640652724
 20
-147.6454236827067
 10
75.7159640652724
 20
-147.6454236827067
 10
76.04807127005049
 20
-147.6306097721201
 10
76.09458005910136
 20
-147.4676567556678
 10
76.12420788027451
 20
-147.3536240951061
 10
76.12420788027451
 20
-147.3536240951061
 10
76.2702799288491
 20
-147.3536240951061
 10
76.2702799288491
 20
-147.3536240951061
 10
76.2702799288491
 20
-147.3536240951061
 10
76.2702799288491
 20
-148.897715891595
 10
76.2702799288491
 20
-148.897715891595
 10
76.2702799288491
 20
-148.897715891595
 10
76.04600421275934
 20
-148.897715891595
 10
76.04600421275934
 20
-148.897715891595
 97
        0
 97
        0
 75
     2
 76
     1
 98
        0
  0
SPLINE
  5
51
330
4B
100
AcDbEntity
  8
_U+30EC_U+30A4_U+30E4_U+30FC 1
370
     0
100
AcDbSpline
210
0.0
220
0.0
230
1.0
 70
    11
 71
     3
 72
    29
 73
    25
 74
     0
 42
0.0000000001
 43
0.0000000001
 12
1.0
 22
0.0
 32
0.0
 13
1.0
 23
0.0
 33
0.0
 40
0.0
 40
0.0
 40
0.0
 40
0.0
 40
1.0
 40
1.0
 40
1.0
 40
2.0
 40
2.0
 40
2.0
 40
3.0
 40
3.0
 40
3.0
 40
4.0
 40
4.0
 40
4.0
 40
5.0
 40
5.0
 40
5.0
 40
6.0
 40
6.0
 40
6.0
 40
7.0
 40
7.0
 40
7.0
 40
8.0
 40
8.0
 40
8.0
 40
8.0
 10
77.66916095063479
 20
-148.7199489645561
 30
0.0
 10
77.56132946194647
 20
-148.9294107700593
 30
0.0
 10
77.38786890426415
 20
-148.9487033047767
 30
0.0
 10
77.27142467686271
 20
-148.9487033047767
 30
0.0
 10
77.1107109724758
 20
-148.9487033047767
 30
0.0
 10
76.96894529325776
 20
-148.9018500061773
 30
0.0
 10
76.87368840309061
 20
-148.7199489645561
 30
0.0
 10
76.77016328375885
 20
-148.5253010696395
 30
0.0
 10
76.75104300381571
 20
-148.2886230098028
 30
0.0
 10
76.75104300381571
 20
-148.125325483802
 30
0.0
 10
76.75104300381571
 20
-147.9816650020671
 30
0.0
 10
76.76792397169343
 20
-147.7298285220953
 30
0.0
 10
76.87368840309061
 20
-147.5310465125964
 30
0.0
 10
76.98169214655319
 20
-147.3281303885152
 30
0.0
 10
77.1424058509401
 20
-147.3047037392155
 30
0.0
 10
77.27142467686271
 20
-147.3047037392155
 30
0.0
 10
77.43007132395846
 20
-147.3047037392155
 30
0.0
 10
77.57390406046764
 20
-147.3491454709752
 30
0.0
 10
77.66916095063479
 20
-147.5310465125964
 30
0.0
 10
77.76855195538425
 20
-147.7236273502219
 30
0.0
 10
77.79180634990969
 20
-147.9520371808939
 30
0.0
 10
77.79180634990969
 20
-148.125325483802
 30
0.0
 10
77.79180634990969
 20
-148.2968912389674
 30
0.0
 10
77.77079126744967
 20
-148.5277126364792
 30
0.0
 10
77.66916095063479
 20
-148.7199489645561
 30
0.0
  0
SPLINE
  5
52
330
4B
100
AcDbEntity
  8
_U+30EC_U+30A4_U+30E4_U+30FC 1
370
     0
100
AcDbSpline
210
0.0
220
0.0
230
1.0
 70
    11
 71
     3
 72
    17
 73
    13
 74
     0
 42
0.0000000001
 43
0.0000000001
 12
1.0
 22
0.0
 32
0.0
 13
1.0
 23
0.0
 33
0.0
 40
0.0
 40
0.0
 40
0.0
 40
0.0
 40
1.0
 40
1.0
 40
1.0
 40
2.0
 40
2.0
 40
2.0
 40
3.0
 40
3.0
 40
3.0
 40
4.0
 40
4.0
 40
4.0
 40
4.0
 10
77.27142467686271
 20
-147.497284576841
 30
0.0
 10
77.02182750895635
 20
-147.497284576841
 30
0.0
 10
76.97531871990547
 20
-147.780815935277
 30
0.0
 10
76.97531871990547
 20
-148.125325483802
 30
0.0
 10
76.97531871990547
 20
-148.4450303448332
 30
0.0
 10
77.01131996772634
 20
-148.7537109003116
 30
0.0
 10
77.27142467686271
 20
-148.7537109003116
 30
0.0
 10
77.51895478747791
 20
-148.7537109003116
 30
0.0
 10
77.56770288859418
 20
-148.4725911087152
 30
0.0
 10
77.56770288859418
 20
-148.125325483802
 30
0.0
 10
77.56770288859418
 20
-147.8063096418679
 30
0.0
 10
77.52963458348218
 20
-147.497284576841
 30
0.0
 10
77.27142467686271
 20
-147.497284576841
 30
0.0
  0
HATCH
  5
53
330
4B
100
AcDbEntity
  8
_U+30EC_U+30A4_U+30E4_U+30FC 1
 62
   179
420
  2234388
100
AcDbHatch
 10
0.0
 20
0.0
 30
0.0
210
0.0
220
0.0
230
1.0
  2
SOLID
 70
     1
 71
     0
 91
        2
 92
        1
 93
        1
 72
     4
 94
        3
 73
     0
 74
     1
 95
       29
 96
       25
 40
0.0
 40
0.0
 40
0.0
 40
0.0
 40
1.0
 40
1.0
 40
1.0
 40
2.0
 40
2.0
 40
2.0
 40
3.0
 40
3.0
 40
3.0
 40
4.0
 40
4.0
 40
4.0
 40
5.0
 40
5.0
 40
5.0
 40
6.0
 40
6.0
 40
6.0
 40
7.0
 40
7.0
 40
7.0
 40
8.0
 40
8.0
 40
8.0
 40
8.0
 10
77.66916095063479
 20
-148.7199489645561
 10
77.56132946194647
 20
-148.9294107700593
 10
77.38786890426415
 20
-148.9487033047767
 10
77.27142467686271
 20
-148.9487033047767
 10
77.1107109724758
 20
-148.9487033047767
 10
76.96894529325776
 20
-148.9018500061773
 10
76.87368840309061
 20
-148.7199489645561
 10
76.77016328375885
 20
-148.5253010696395
 10
76.75104300381571
 20
-148.2886230098028
 10
76.75104300381571
 20
-148.125325483802
 10
76.75104300381571
 20
-147.9816650020671
 10
76.76792397169343
 20
-147.7298285220953
 10
76.87368840309061
 20
-147.5310465125964
 10
76.98169214655319
 20
-147.3281303885152
 10
77.1424058509401
 20
-147.3047037392155
 10
77.27142467686271
 20
-147.3047037392155
 10
77.43007132395846
 20
-147.3047037392155
 10
77.57390406046764
 20
-147.3491454709752
 10
77.66916095063479
 20
-147.5310465125964
 10
77.76855195538425
 20
-147.7236273502219
 10
77.79180634990969
 20
-147.9520371808939
 10
77.79180634990969
 20
-148.125325483802
 10
77.79180634990969
 20
-148.2968912389674
 10
77.77079126744967
 20
-148.5277126364792
 10
77.66916095063479
 20
-148.7199489645561
 97
        0
 97
        0
 92
        1
 93
        1
 72
     4
 94
        3
 73
     0
 74
     1
 95
       17
 96
       13
 40
0.0
 40
0.0
 40
0.0
 40
0.0
 40
1.0
 40
1.0
 40
1.0
 40
2.0
 40
2.0
 40
2.0
 40
3.0
 40
3.0
 40
3.0
 40
4.0
 40
4.0
 40
4.0
 40
4.0
 10
77.27142467686271
 20
-147.497284576841
 10
77.02182750895635
 20
-147.497284576841
 10
76.97531871990547
 20
-147.780815935277
 10
76.97531871990547
 20
-148.125325483802
 10
76.97531871990547
 20
-148.4450303448332
 10
77.01131996772634
 20
-148.7537109003116
 10
77.27142467686271
 20
-148.7537109003116
 10
77.51895478747791
 20
-148.7537109003116
 10
77.56770288859418
 20
-148.4725911087152
 10
77.56770288859418
 20
-148.125325483802
 10
77.56770288859418
 20
-147.8063096418679
 10
77.52963458348218
 20
-147.497284576841
 10
77.27142467686271
 20
-147.497284576841
 97
        0
 97
        0
 75
     2
 76
     1
 98
        0
  0
ENDBLK
  5
4E
330
4B
100
AcDbEntity
  8
0
100
AcDbBlockEnd
  0
BLOCK
  5
5E
330
5C
100
AcDbEntity
  8
0
100
AcDbBlockBegin
  2
block 3
 70
     0
 10
0.0
 20
0.0
 30
0.0
  3
block 3
  1

  0
SPLINE
  5
60
330
5C
100
AcDbEntity
  8
_U+30EC_U+30A4_U+30E4_U+30FC 1
370
     0
100
AcDbSpline
210
0.0
220
0.0
230
1.0
 70
    11
 71
     3
 72
    26
 73
    22
 74
     0
 42
0.0000000001
 43
0.0000000001
 12
1.0
 22
0.0
 32
0.0
 13
1.0
 23
0.0
 33
0.0
 40
0.0
 40
0.0
 40
0.0
 40
0.0
 40
1.0
 40
1.0
 40
1.0
 40
2.0
 40
2.0
 40
2.0
 40
3.0
 40
3.0
 40
3.0
 40
4.0
 40
4.0
 40
4.0
 40
5.0
 40
5.0
 40
5.0
 40
6.0
 40
6.0
 40
6.0
 40
7.0
 40
7.0
 40
7.0
 40
7.0
 10
85.88192407792188
 20
-148.897715891595
 30
0.0
 10
85.88192407792188
 20
-148.897715891595
 30
0.0
 10
85.88192407792188
 20
-147.7932182790239
 30
0.0
 10
85.88192407792188
 20
-147.7932182790239
 30
0.0
 10
85.88192407792188
 20
-147.7932182790239
 30
0.0
 10
85.55188393043495
 20
-147.7932182790239
 30
0.0
 10
85.55188393043495
 20
-147.7932182790239
 30
0.0
 10
85.55188393043495
 20
-147.7932182790239
 30
0.0
 10
85.55188393043495
 20
-147.6454236827067
 30
0.0
 10
85.55188393043495
 20
-147.6454236827067
 30
0.0
 10
85.88399113521304
 20
-147.6306097721201
 30
0.0
 10
85.93049992426391
 20
-147.4676567556678
 30
0.0
 10
85.96012774543705
 20
-147.3536240951061
 30
0.0
 10
85.96012774543705
 20
-147.3536240951061
 30
0.0
 10
86.10619979401164
 20
-147.3536240951061
 30
0.0
 10
86.10619979401164
 20
-147.3536240951061
 30
0.0
 10
86.10619979401164
 20
-147.3536240951061
 30
0.0
 10
86.10619979401164
 20
-148.897715891595
 30
0.0
 10
86.10619979401164
 20
-148.897715891595
 30
0.0
 10
86.10619979401164
 20
-148.897715891595
 30
0.0
 10
85.88192407792188
 20
-148.897715891595
 30
0.0
 10
85.88192407792188
 20
-148.897715891595
 30
0.0
  0
HATCH
  5
61
330
5C
100
AcDbEntity
  8
_U+30EC_U+30A4_U+30E4_U+30FC 1
 62
   179
420
  2234388
100
AcDbHatch
 10
0.0
 20
0.0
 30
0.0
210
0.0
220
0.0
230
1.0
  2
SOLID
 70
     1
 71
     0
 91
        1
 92
        1
 93
        1
 72
     4
 94
        3
 73
     0
 74
     1
 95
       26
 96
       22
 40
0.0
 40
0.0
 40
0.0
 40
0.0
 40
1.0
 40
1.0
 40
1.0
 40
2.0
 40
2.0
 40
2.0
 40
3.0
 40
3.0
 40
3.0
 40
4.0
 40
4.0
 40
4.0
 40
5.0
 40
5.0
 40
5.0
 40
6.0
 40
6.0
 40
6.0
 40
7.0
 40
7.0
 40
7.0
 40
7.0
 10
85.88192407792188
 20
-148.897715891595
 10
85.88192407792188
 20
-148.897715891595
 10
85.88192407792188
 20
-147.7932182790239
 10
85.88192407792188
 20
-147.7932182790239
 10
85.88192407792188
 20
-147.7932182790239
 10
85.55188393043495
 20
-147.7932182790239
 10
85.55188393043495
 20
-147.7932182790239
 10
85.55188393043495
 20
-147.7932182790239
 10
85.55188393043495
 20
-147.6454236827067
 10
85.55188393043495
 20
-147.6454236827067
 10
85.88399113521304
 20
-147.6306097721201
 10
85.93049992426391
 20
-147.4676567556678
 10
85.96012774543705
 20
-147.3536240951061
 10
85.96012774543705
 20
-147.3536240951061
 10
86.10619979401164
 20
-147.3536240951061
 10
86.10619979401164
 20
-147.3536240951061
 10
86.10619979401164
 20
-147.3536240951061
 10
86.10619979401164
 20
-148.897715891595
 10
86.10619979401164
 20
-148.897715891595
 10
86.10619979401164
 20
-148.897715891595
 10
85.88192407792188
 20
-148.897715891595
 10
85.88192407792188
 20
-148.897715891595
 97
        0
 97
        0
 75
     2
 76
     1
 98
        0
  0
SPLINE
  5
62
330
5C
100
AcDbEntity
  8
_U+30EC_U+30A4_U+30E4_U+30FC 1
370
     0
100
AcDbSpline
210
0.0
220
0.0
230
1.0
 70
    11
 71
     3
 72
    29
 73
    25
 74
     0
 42
0.0000000001
 43
0.0000000001
 12
1.0
 22
0.0
 32
0.0
 13
1.0
 23
0.0
 33
0.0
 40
0.0
 40
0.0
 40
0.0
 40
0.0
 40
1.0
 40
1.0
 40
1.0
 40
2.0
 40
2.0
 40
2.0
 40
3.0
 40
3.0
 40
3.0
 40
4.0
 40
4.0
 40
4.0
 40
5.0
 40
5.0
 40
5.0
 40
6.0
 40
6.0
 40
6.0
 40
7.0
 40
7.0
 40
7.0
 40
8.0
 40
8.0
 40
8.0
 40
8.0
 10
87.50508081579734
 20
-148.7199489645561
 30
0.0
 10
87.39724932710902
 20
-148.9294107700593
 30
0.0
 10
87.22378876942669
 20
-148.9487033047767
 30
0.0
 10
87.10734454202525
 20
-148.9487033047767
 30
0.0
 10
86.94663083763835
 20
-148.9487033047767
 30
0.0
 10
86.80486515842031
 20
-148.9018500061773
 30
0.0
 10
86.70960826825316
 20
-148.7199489645561
 30
0.0
 10
86.6060831489214
 20
-148.5253010696395
 30
0.0
 10
86.58696286897826
 20
-148.2886230098028
 30
0.0
 10
86.58696286897826
 20
-148.125325483802
 30
0.0
 10
86.58696286897826
 20
-147.9816650020671
 30
0.0
 10
86.60384383685599
 20
-147.7298285220953
 30
0.0
 10
86.70960826825316
 20
-147.5310465125964
 30
0.0
 10
86.81761201171574
 20
-147.3281303885152
 30
0.0
 10
86.97832571610265
 20
-147.3047037392155
 30
0.0
 10
87.10734454202525
 20
-147.3047037392155
 30
0.0
 10
87.26599118912101
 20
-147.3047037392155
 30
0.0
 10
87.40982392563019
 20
-147.3491454709752
 30
0.0
 10
87.50508081579734
 20
-147.5310465125964
 30
0.0
 10
87.6044718205468
 20
-147.7236273502219
 30
0.0
 10
87.62772621507224
 20
-147.9520371808939
 30
0.0
 10
87.62772621507224
 20
-148.125325483802
 30
0.0
 10
87.62772621507224
 20
-148.2968912389674
 30
0.0
 10
87.60671113261222
 20
-148.5277126364792
 30
0.0
 10
87.50508081579734
 20
-148.7199489645561
 30
0.0
  0
SPLINE
  5
63
330
5C
100
AcDbEntity
  8
_U+30EC_U+30A4_U+30E4_U+30FC 1
370
     0
100
AcDbSpline
210
0.0
220
0.0
230
1.0
 70
    11
 71
     3
 72
    17
 73
    13
 74
     0
 42
0.0000000001
 43
0.0000000001
 12
1.0
 22
0.0
 32
0.0
 13
1.0
 23
0.0
 33
0.0
 40
0.0
 40
0.0
 40
0.0
 40
0.0
 40
1.0
 40
1.0
 40
1.0
 40
2.0
 40
2.0
 40
2.0
 40
3.0
 40
3.0
 40
3.0
 40
4.0
 40
4.0
 40
4.0
 40
4.0
 10
87.10734454202525
 20
-147.497284576841
 30
0.0
 10
86.8577473741189
 20
-147.497284576841
 30
0.0
 10
86.81123858506803
 20
-147.780815935277
 30
0.0
 10
86.81123858506803
 20
-148.125325483802
 30
0.0
 10
86.81123858506803
 20
-148.4450303448332
 30
0.0
 10
86.84723983288889
 20
-148.7537109003116
 30
0.0
 10
87.10734454202525
 20
-148.7537109003116
 30
0.0
 10
87.35487465264045
 20
-148.7537109003116
 30
0.0
 10
87.40362275375674
 20
-148.4725911087152
 30
0.0
 10
87.40362275375674
 20
-148.125325483802
 30
0.0
 10
87.40362275375674
 20
-147.8063096418679
 30
0.0
 10
87.36538219387046
 20
-147.497284576841
 30
0.0
 10
87.10734454202525
 20
-147.497284576841
 30
0.0
  0
HATCH
  5
64
330
5C
100
AcDbEntity
  8
_U+30EC_U+30A4_U+30E4_U+30FC 1
 62
   179
420
  2234388
100
AcDbHatch
 10
0.0
 20
0.0
 30
0.0
210
0.0
220
0.0
230
1.0
  2
SOLID
 70
     1
 71
     0
 91
        2
 92
        1
 93
        1
 72
     4
 94
        3
 73
     0
 74
     1
 95
       29
 96
       25
 40
0.0
 40
0.0
 40
0.0
 40
0.0
 40
1.0
 40
1.0
 40
1.0
 40
2.0
 40
2.0
 40
2.0
 40
3.0
 40
3.0
 40
3.0
 40
4.0
 40
4.0
 40
4.0
 40
5.0
 40
5.0
 40
5.0
 40
6.0
 40
6.0
 40
6.0
 40
7.0
 40
7.0
 40
7.0
 40
8.0
 40
8.0
 40
8.0
 40
8.0
 10
87.50508081579734
 20
-148.7199489645561
 10
87.39724932710902
 20
-148.9294107700593
 10
87.22378876942669
 20
-148.9487033047767
 10
87.10734454202525
 20
-148.9487033047767
 10
86.94663083763835
 20
-148.9487033047767
 10
86.80486515842031
 20
-148.9018500061773
 10
86.70960826825316
 20
-148.7199489645561
 10
86.6060831489214
 20
-148.5253010696395
 10
86.58696286897826
 20
-148.2886230098028
 10
86.58696286897826
 20
-148.125325483802
 10
86.58696286897826
 20
-147.9816650020671
 10
86.60384383685599
 20
-147.7298285220953
 10
86.70960826825316
 20
-147.5310465125964
 10
86.81761201171574
 20
-147.3281303885152
 10
86.97832571610265
 20
-147.3047037392155
 10
87.10734454202525
 20
-147.3047037392155
 10
87.26599118912101
 20
-147.3047037392155
 10
87.40982392563019
 20
-147.3491454709752
 10
87.50508081579734
 20
-147.5310465125964
 10
87.6044718205468
 20
-147.7236273502219
 10
87.62772621507224
 20
-147.9520371808939
 10
87.62772621507224
 20
-148.125325483802
 10
87.62772621507224
 20
-148.2968912389674
 10
87.60671113261222
 20
-148.5277126364792
 10
87.50508081579734
 20
-148.7199489645561
 97
        0
 97
        0
 92
        1
 93
        1
 72
     4
 94
        3
 73
     0
 74
     1
 95
       17
 96
       13
 40
0.0
 40
0.0
 40
0.0
 40
0.0
 40
1.0
 40
1.0
 40
1.0
 40
2.0
 40
2.0
 40
2.0
 40
3.0
 40
3.0
 40
3.0
 40
4.0
 40
4.0
 40
4.0
 40
4.0
 10
87.10734454202525
 20
-147.497284576841
 10
86.8577473741189
 20
-147.497284576841
 10
86.81123858506803
 20
-147.780815935277
 10
86.81123858506803
 20
-148.125325483802
 10
86.81123858506803
 20
-148.4450303448332
 10
86.84723983288889
 20
-148.7537109003116
 10
87.10734454202525
 20
-148.7537109003116
 10
87.35487465264045
 20
-148.7537109003116
 10
87.40362275375674
 20
-148.4725911087152
 10
87.40362275375674
 20
-148.125325483802
 10
87.40362275375674
 20
-147.8063096418679
 10
87.36538219387046
 20
-147.497284576841
 10
87.10734454202525
 20
-147.497284576841
 97
        0
 97
        0
 75
     2
 76
     1
 98
        0
  0
ENDBLK
  5
5F
330
5C
100
AcDbEntity
  8
0
100
AcDbBlockEnd
  0
BLOCK
  5
7B
330
79
100
AcDbEntity
  8
0
100
AcDbBlockBegin
  2
block 4
 70
     0
 10
0.0
 20
0.0
 30
0.0
  3
block 4
  1

  0
SPLINE
  5
7D
330
79
100
AcDbEntity
  8
_U+30EC_U+30A4_U+30E4_U+30FC 1
370
     0
100
AcDbSpline
210
0.0
220
0.0
230
1.0
 70
    11
 71
     3
 72
    44
 73
    40
 74
     0
 42
0.0000000001
 43
0.0000000001
 12
1.0
 22
0.0
 32
0.0
 13
1.0
 23
0.0
 33
0.0
 40
0.0
 40
0.0
 40
0.0
 40
0.0
 40
1.0
 40
1.0
 40
1.0
 40
2.0
 40
2.0
 40
2.0
 40
3.0
 40
3.0
 40
3.0
 40
4.0
 40
4.0
 40
4.0
 40
5.0
 40
5.0
 40
5.0
 40
6.0
 40
6.0
 40
6.0
 40
7.0
 40
7.0
 40
7.0
 40
8.0
 40
8.0
 40
8.0
 40
9.0
 40
9.0
 40
9.0
 40
10.0
 40
10.0
 40
10.0
 40
11.0
 40
11.0
 40
11.0
 40
12.0
 40
12.0
 40
12.0
 40
13.0
 40
13.0
 40
13.0
 40
13.0
 10
66.31757132673658
 20
-135.6954209730206
 30
0.0
 10
66.47621797383233
 20
-135.9134955172369
 30
0.0
 10
66.5502875267652
 20
-136.0068576048872
 30
0.0
 10
66.69412026327439
 20
-136.0550889416807
 30
0.0
 10
66.69412026327439
 20
-136.0550889416807
 30
0.0
 10
66.69412026327439
 20
-135.2768418715627
 30
0.0
 10
66.69412026327439
 20
-135.2768418715627
 30
0.0
 10
66.69412026327439
 20
-135.2768418715627
 30
0.0
 10
66.89927569942101
 20
-135.2768418715627
 30
0.0
 10
66.89927569942101
 20
-135.2768418715627
 30
0.0
 10
66.89927569942101
 20
-135.2768418715627
 30
0.0
 10
66.89927569942101
 20
-136.3048583643613
 30
0.0
 10
66.89927569942101
 20
-136.3048583643613
 30
0.0
 10
66.54167478805208
 20
-136.273163485897
 30
0.0
 10
66.46347112053691
 20
-136.2077066716772
 30
0.0
 10
66.16512585151428
 20
-135.8225449964263
 30
0.0
 10
65.96634384201536
 20
-135.5665744018723
 30
0.0
 10
65.8986477157302
 20
-135.5011175876525
 30
0.0
 10
65.76118840586874
 20
-135.5011175876525
 30
0.0
 10
65.64267712117613
 20
-135.5011175876525
 30
0.0
 10
65.51159123796238
 20
-135.5727755737457
 30
0.0
 10
65.51159123796238
 20
-135.769835035502
 30
0.0
 10
65.51159123796238
 20
-136.0299397446383
 30
0.0
 10
65.7420681259256
 20
-136.0385524833515
 30
0.0
 10
65.85851235332704
 20
-136.0426865979338
 30
0.0
 10
65.85851235332704
 20
-136.0426865979338
 30
0.0
 10
65.85851235332704
 20
-136.266617804475
 30
0.0
 10
65.85851235332704
 20
-136.266617804475
 30
0.0
 10
65.73156058469559
 20
-136.2583495753104
 30
0.0
 10
65.6194227266507
 20
-136.2480142888547
 30
0.0
 10
65.50091144195811
 20
-136.1673990544998
 30
0.0
 10
65.3401977375712
 20
-136.0575005085203
 30
0.0
 10
65.3062635470415
 20
-135.8711208427683
 30
0.0
 10
65.3062635470415
 20
-135.7546766153669
 30
0.0
 10
65.3062635470415
 20
-135.4776909383528
 30
0.0
 10
65.4904039007281
 20
-135.2702961901408
 30
0.0
 10
65.76325546315988
 20
-135.2702961901408
 30
0.0
 10
65.99166529383194
 20
-135.2702961901408
 30
0.0
 10
66.09122855335566
 20
-135.3867404175422
 30
0.0
 10
66.31757132673658
 20
-135.6954209730206
 30
0.0
  0
HATCH
  5
7E
330
79
100
AcDbEntity
  8
_U+30EC_U+30A4_U+30E4_U+30FC 1
 62
   179
420
  2234388
100
AcDbHatch
 10
0.0
 20
0.0
 30
0.0
210
0.0
220
0.0
230
1.0
  2
SOLID
 70
     1
 71
     0
 91
        1
 92
        1
 93
        1
 72
     4
 94
        3
 73
     0
 74
     1
 95
       44
 96
       40
 40
0.0
 40
0.0
 40
0.0
 40
0.0
 40
1.0
 40
1.0
 40
1.0
 40
2.0
 40
2.0
 40
2.0
 40
3.0
 40
3.0
 40
3.0
 40
4.0
 40
4.0
 40
4.0
 40
5.0
 40
5.0
 40
5.0
 40
6.0
 40
6.0
 40
6.0
 40
7.0
 40
7.0
 40
7.0
 40
8.0
 40
8.0
 40
8.0
 40
9.0
 40
9.0
 40
9.0
 40
10.0
 40
10.0
 40
10.0
 40
11.0
 40
11.0
 40
11.0
 40
12.0
 40
12.0
 40
12.0
 40
13.0
 40
13.0
 40
13.0
 40
13.0
 10
66.31757132673658
 20
-135.6954209730206
 10
66.47621797383233
 20
-135.9134955172369
 10
66.5502875267652
 20
-136.0068576048872
 10
66.69412026327439
 20
-136.0550889416807
 10
66.69412026327439
 20
-136.0550889416807
 10
66.69412026327439
 20
-135.2768418715627
 10
66.69412026327439
 20
-135.2768418715627
 10
66.69412026327439
 20
-135.2768418715627
 10
66.89927569942101
 20
-135.2768418715627
 10
66.89927569942101
 20
-135.2768418715627
 10
66.89927569942101
 20
-135.2768418715627
 10
66.89927569942101
 20
-136.3048583643613
 10
66.89927569942101
 20
-136.3048583643613
 10
66.54167478805208
 20
-136.273163485897
 10
66.46347112053691
 20
-136.2077066716772
 10
66.16512585151428
 20
-135.8225449964263
 10
65.96634384201536
 20
-135.5665744018723
 10
65.8986477157302
 20
-135.5011175876525
 10
65.76118840586874
 20
-135.5011175876525
 10
65.64267712117613
 20
-135.5011175876525
 10
65.51159123796238
 20
-135.5727755737457
 10
65.51159123796238
 20
-135.769835035502
 10
65.51159123796238
 20
-136.0299397446383
 10
65.7420681259256
 20
-136.0385524833515
 10
65.85851235332704
 20
-136.0426865979338
 10
65.85851235332704
 20
-136.0426865979338
 10
65.85851235332704
 20
-136.266617804475
 10
65.85851235332704
 20
-136.266617804475
 10
65.73156058469559
 20
-136.2583495753104
 10
65.6194227266507
 20
-136.2480142888547
 10
65.50091144195811
 20
-136.1673990544998
 10
65.3401977375712
 20
-136.0575005085203
 10
65.3062635470415
 20
-135.8711208427683
 10
65.3062635470415
 20
-135.7546766153669
 10
65.3062635470415
 20
-135.4776909383528
 10
65.4904039007281
 20
-135.2702961901408
 10
65.76325546315988
 20
-135.2702961901408
 10
65.99166529383194
 20
-135.2702961901408
 10
66.09122855335566
 20
-135.3867404175422
 10
66.31757132673658
 20
-135.6954209730206
 97
        0
 97
        0
 75
     2
 76
     1
 98
        0
  0
SPLINE
  5
7F
330
79
100
AcDbEntity
  8
_U+30EC_U+30A4_U+30E4_U+30FC 1
370
     0
100
AcDbSpline
210
0.0
220
0.0
230
1.0
 70
    11
 71
     3
 72
    29
 73
    25
 74
     0
 42
0.0000000001
 43
0.0000000001
 12
1.0
 22
0.0
 32
0.0
 13
1.0
 23
0.0
 33
0.0
 40
0.0
 40
0.0
 40
0.0
 40
0.0
 40
1.0
 40
1.0
 40
1.0
 40
2.0
 40
2.0
 40
2.0
 40
3.0
 40
3.0
 40
3.0
 40
4.0
 40
4.0
 40
4.0
 40
5.0
 40
5.0
 40
5.0
 40
6.0
 40
6.0
 40
6.0
 40
7.0
 40
7.0
 40
7.0
 40
8.0
 40
8.0
 40
8.0
 40
8.0
 10
66.72150877238212
 20
-134.2140299143632
 30
0.0
 10
66.93097057788532
 20
-134.3222059126
 30
0.0
 10
66.95009085782846
 20
-134.4954942155081
 30
0.0
 10
66.95009085782846
 20
-134.6119384429095
 30
0.0
 10
66.95009085782846
 20
-134.7728244020707
 30
0.0
 10
66.90358206877758
 20
-134.9144178265145
 30
0.0
 10
66.72150877238212
 20
-135.0098469714559
 30
0.0
 10
66.52686087746551
 20
-135.1131998360134
 30
0.0
 10
66.29001056285459
 20
-135.1324923707308
 30
0.0
 10
66.12705754640227
 20
-135.1324923707308
 30
0.0
 10
65.98322480989309
 20
-135.1324923707308
 30
0.0
 10
65.73156058469559
 20
-135.1152668933045
 30
0.0
 10
65.5326063204224
 20
-135.0098469714559
 30
0.0
 10
65.32951794156693
 20
-134.901670973219
 30
0.0
 10
65.3062635470415
 20
-134.7411295236064
 30
0.0
 10
65.3062635470415
 20
-134.6119384429095
 30
0.0
 10
65.3062635470415
 20
-134.4531195410395
 30
0.0
 10
65.35070527880121
 20
-134.3094590593046
 30
0.0
 10
65.5326063204224
 20
-134.2140299143632
 30
0.0
 10
65.72518715804787
 20
-134.114811164388
 30
0.0
 10
65.95359698871994
 20
-134.0913845150883
 30
0.0
 10
66.12705754640227
 20
-134.0913845150883
 30
0.0
 10
66.29845104679345
 20
-134.0913845150883
 30
0.0
 10
66.52910018953092
 20
-134.1127441070968
 30
0.0
 10
66.72150877238212
 20
-134.2140299143632
 30
0.0
  0
SPLINE
  5
80
330
79
100
AcDbEntity
  8
_U+30EC_U+30A4_U+30E4_U+30FC 1
370
     0
100
AcDbSpline
210
0.0
220
0.0
230
1.0
 70
    11
 71
     3
 72
    17
 73
    13
 74
     0
 42
0.0000000001
 43
0.0000000001
 12
1.0
 22
0.0
 32
0.0
 13
1.0
 23
0.0
 33
0.0
 40
0.0
 40
0.0
 40
0.0
 40
0.0
 40
1.0
 40
1.0
 40
1.0
 40
2.0
 40
2.0
 40
2.0
 40
3.0
 40
3.0
 40
3.0
 40
4.0
 40
4.0
 40
4.0
 40
4.0
 10
65.49884438466695
 20
-134.6119384429095
 30
0.0
 10
65.49884438466695
 20
-134.8617078655901
 30
0.0
 10
65.78237574310302
 20
-134.9078721450925
 30
0.0
 10
66.12705754640227
 20
-134.9078721450925
 30
0.0
 10
66.44659015265918
 20
-134.9078721450925
 30
0.0
 10
66.75544296291184
 20
-134.8720431520459
 30
0.0
 10
66.75544296291184
 20
-134.6119384429095
 30
0.0
 10
66.75544296291184
 20
-134.36423607752
 30
0.0
 10
66.47397866176692
 20
-134.315660231178
 30
0.0
 10
66.12705754640227
 20
-134.315660231178
 30
0.0
 10
65.80769719491961
 20
-134.315660231178
 30
0.0
 10
65.49884438466695
 20
-134.3539007910643
 30
0.0
 10
65.49884438466695
 20
-134.6119384429095
 30
0.0
  0
HATCH
  5
81
330
79
100
AcDbEntity
  8
_U+30EC_U+30A4_U+30E4_U+30FC 1
 62
   179
420
  2234388
100
AcDbHatch
 10
0.0
 20
0.0
 30
0.0
210
0.0
220
0.0
230
1.0
  2
SOLID
 70
     1
 71
     0
 91
        2
 92
        1
 93
        1
 72
     4
 94
        3
 73
     0
 74
     1
 95
       29
 96
       25
 40
0.0
 40
0.0
 40
0.0
 40
0.0
 40
1.0
 40
1.0
 40
1.0
 40
2.0
 40
2.0
 40
2.0
 40
3.0
 40
3.0
 40
3.0
 40
4.0
 40
4.0
 40
4.0
 40
5.0
 40
5.0
 40
5.0
 40
6.0
 40
6.0
 40
6.0
 40
7.0
 40
7.0
 40
7.0
 40
8.0
 40
8.0
 40
8.0
 40
8.0
 10
66.72150877238212
 20
-134.2140299143632
 10
66.93097057788532
 20
-134.3222059126
 10
66.95009085782846
 20
-134.4954942155081
 10
66.95009085782846
 20
-134.6119384429095
 10
66.95009085782846
 20
-134.7728244020707
 10
66.90358206877758
 20
-134.9144178265145
 10
66.72150877238212
 20
-135.0098469714559
 10
66.52686087746551
 20
-135.1131998360134
 10
66.29001056285459
 20
-135.1324923707308
 10
66.12705754640227
 20
-135.1324923707308
 10
65.98322480989309
 20
-135.1324923707308
 10
65.73156058469559
 20
-135.1152668933045
 10
65.5326063204224
 20
-135.0098469714559
 10
65.32951794156693
 20
-134.901670973219
 10
65.3062635470415
 20
-134.7411295236064
 10
65.3062635470415
 20
-134.6119384429095
 10
65.3062635470415
 20
-134.4531195410395
 10
65.35070527880121
 20
-134.3094590593046
 10
65.5326063204224
 20
-134.2140299143632
 10
65.72518715804787
 20
-134.114811164388
 10
65.95359698871994
 20
-134.0913845150883
 10
66.12705754640227
 20
-134.0913845150883
 10
66.29845104679345
 20
-134.0913845150883
 10
66.52910018953092
 20
-134.1127441070968
 10
66.72150877238212
 20
-134.2140299143632
 97
        0
 97
        0
 92
        1
 93
        1
 72
     4
 94
        3
 73
     0
 74
     1
 95
       17
 96
       13
 40
0.0
 40
0.0
 40
0.0
 40
0.0
 40
1.0
 40
1.0
 40
1.0
 40
2.0
 40
2.0
 40
2.0
 40
3.0
 40
3.0
 40
3.0
 40
4.0
 40
4.0
 40
4.0
 40
4.0
 10
65.49884438466695
 20
-134.6119384429095
 10
65.49884438466695
 20
-134.8617078655901
 10
65.78237574310302
 20
-134.9078721450925
 10
66.12705754640227
 20
-134.9078721450925
 10
66.44659015265918
 20
-134.9078721450925
 10
66.75544296291184
 20
-134.8720431520459
 10
66.75544296291184
 20
-134.6119384429095
 10
66.75544296291184
 20
-134.36423607752
 10
66.47397866176692
 20
-134.315660231178
 10
66.12705754640227
 20
-134.315660231178
 10
65.80769719491961
 20
-134.315660231178
 10
65.49884438466695
 20
-134.3539007910643
 10
65.49884438466695
 20
-134.6119384429095
 97
        0
 97
        0
 75
     2
 76
     1
 98
        0
  0
ENDBLK
  5
7C
330
79
100
AcDbEntity
  8
0
100
AcDbBlockEnd
  0
BLOCK
  5
84
330
82
100
AcDbEntity
  8
0
100
AcDbBlockBegin
  2
block 5
 70
     0
 10
0.0
 20
0.0
 30
0.0
  3
block 5
  1

  0
SPLINE
  5
86
330
82
100
AcDbEntity
  8
_U+30EC_U+30A4_U+30E4_U+30FC 1
370
     0
100
AcDbSpline
210
0.0
220
0.0
230
1.0
 70
    11
 71
     3
 72
    44
 73
    40
 74
     0
 42
0.0000000001
 43
0.0000000001
 12
1.0
 22
0.0
 32
0.0
 13
1.0
 23
0.0
 33
0.0
 40
0.0
 40
0.0
 40
0.0
 40
0.0
 40
1.0
 40
1.0
 40
1.0
 40
2.0
 40
2.0
 40
2.0
 40
3.0
 40
3.0
 40
3.0
 40
4.0
 40
4.0
 40
4.0
 40
5.0
 40
5.0
 40
5.0
 40
6.0
 40
6.0
 40
6.0
 40
7.0
 40
7.0
 40
7.0
 40
8.0
 40
8.0
 40
8.0
 40
9.0
 40
9.0
 40
9.0
 40
10.0
 40
10.0
 40
10.0
 40
11.0
 40
11.0
 40
11.0
 40
12.0
 40
12.0
 40
12.0
 40
13.0
 40
13.0
 40
13.0
 40
13.0
 10
66.31757132673658
 20
-115.8015448386711
 30
0.0
 10
66.47621797383233
 20
-116.0194471281132
 30
0.0
 10
66.5502875267652
 20
-116.1126369609892
 30
0.0
 10
66.69412026327439
 20
-116.1612128073312
 30
0.0
 10
66.69412026327439
 20
-116.1612128073312
 30
0.0
 10
66.69412026327439
 20
-115.382793482439
 30
0.0
 10
66.69412026327439
 20
-115.382793482439
 30
0.0
 10
66.69412026327439
 20
-115.382793482439
 30
0.0
 10
66.89927569942101
 20
-115.382793482439
 30
0.0
 10
66.89927569942101
 20
-115.382793482439
 30
0.0
 10
66.89927569942101
 20
-115.382793482439
 30
0.0
 10
66.89927569942101
 20
-116.4108099752376
 30
0.0
 10
66.89927569942101
 20
-116.4108099752376
 30
0.0
 10
66.54167478805208
 20
-116.3791150967733
 30
0.0
 10
66.46347112053691
 20
-116.3136582825535
 30
0.0
 10
66.16512585151428
 20
-115.9284966073026
 30
0.0
 10
65.96634384201536
 20
-115.6725260127485
 30
0.0
 10
65.8986477157302
 20
-115.6070691985288
 30
0.0
 10
65.76118840586874
 20
-115.6070691985288
 30
0.0
 10
65.64267712117613
 20
-115.6070691985288
 30
0.0
 10
65.51141898318812
 20
-115.6788994393962
 30
0.0
 10
65.51141898318812
 20
-115.875614391604
 30
0.0
 10
65.51141898318812
 20
-116.1358913555146
 30
0.0
 10
65.7420681259256
 20
-116.1443318394535
 30
0.0
 10
65.85851235332704
 20
-116.1486382088101
 30
0.0
 10
65.85851235332704
 20
-116.1486382088101
 30
0.0
 10
65.85851235332704
 20
-116.3727416701256
 30
0.0
 10
65.85851235332704
 20
-116.3727416701256
 30
0.0
 10
65.73156058469559
 20
-116.3643011861867
 30
0.0
 10
65.6194227266507
 20
-116.3537936449567
 30
0.0
 10
65.50091144195811
 20
-116.2733506653761
 30
0.0
 10
65.3401977375712
 20
-116.1634521193966
 30
0.0
 10
65.3062635470415
 20
-115.9772447084189
 30
0.0
 10
65.3062635470415
 20
-115.8608004810174
 30
0.0
 10
65.3062635470415
 20
-115.5836425492291
 30
0.0
 10
65.4904039007281
 20
-115.3764200557913
 30
0.0
 10
65.76325546315988
 20
-115.3764200557913
 30
0.0
 10
65.99166529383194
 20
-115.3764200557913
 30
0.0
 10
66.09122855335566
 20
-115.4926920284185
 30
0.0
 10
66.31757132673658
 20
-115.8015448386711
 30
0.0
  0
HATCH
  5
87
330
82
100
AcDbEntity
  8
_U+30EC_U+30A4_U+30E4_U+30FC 1
 62
   179
420
  2234388
100
AcDbHatch
 10
0.0
 20
0.0
 30
0.0
210
0.0
220
0.0
230
1.0
  2
SOLID
 70
     1
 71
     0
 91
        1
 92
        1
 93
        1
 72
     4
 94
        3
 73
     0
 74
     1
 95
       44
 96
       40
 40
0.0
 40
0.0
 40
0.0
 40
0.0
 40
1.0
 40
1.0
 40
1.0
 40
2.0
 40
2.0
 40
2.0
 40
3.0
 40
3.0
 40
3.0
 40
4.0
 40
4.0
 40
4.0
 40
5.0
 40
5.0
 40
5.0
 40
6.0
 40
6.0
 40
6.0
 40
7.0
 40
7.0
 40
7.0
 40
8.0
 40
8.0
 40
8.0
 40
9.0
 40
9.0
 40
9.0
 40
10.0
 40
10.0
 40
10.0
 40
11.0
 40
11.0
 40
11.0
 40
12.0
 40
12.0
 40
12.0
 40
13.0
 40
13.0
 40
13.0
 40
13.0
 10
66.31757132673658
 20
-115.8015448386711
 10
66.47621797383233
 20
-116.0194471281132
 10
66.5502875267652
 20
-116.1126369609892
 10
66.69412026327439
 20
-116.1612128073312
 10
66.69412026327439
 20
-116.1612128073312
 10
66.69412026327439
 20
-115.382793482439
 10
66.69412026327439
 20
-115.382793482439
 10
66.69412026327439
 20
-115.382793482439
 10
66.89927569942101
 20
-115.382793482439
 10
66.89927569942101
 20
-115.382793482439
 10
66.89927569942101
 20
-115.382793482439
 10
66.89927569942101
 20
-116.4108099752376
 10
66.89927569942101
 20
-116.4108099752376
 10
66.54167478805208
 20
-116.3791150967733
 10
66.46347112053691
 20
-116.3136582825535
 10
66.16512585151428
 20
-115.9284966073026
 10
65.96634384201536
 20
-115.6725260127485
 10
65.8986477157302
 20
-115.6070691985288
 10
65.76118840586874
 20
-115.6070691985288
 10
65.64267712117613
 20
-115.6070691985288
 10
65.51141898318812
 20
-115.6788994393962
 10
65.51141898318812
 20
-115.875614391604
 10
65.51141898318812
 20
-116.1358913555146
 10
65.7420681259256
 20
-116.1443318394535
 10
65.85851235332704
 20
-116.1486382088101
 10
65.85851235332704
 20
-116.1486382088101
 10
65.85851235332704
 20
-116.3727416701256
 10
65.85851235332704
 20
-116.3727416701256
 10
65.73156058469559
 20
-116.3643011861867
 10
65.6194227266507
 20
-116.3537936449567
 10
65.50091144195811
 20
-116.2733506653761
 10
65.3401977375712
 20
-116.1634521193966
 10
65.3062635470415
 20
-115.9772447084189
 10
65.3062635470415
 20
-115.8608004810174
 10
65.3062635470415
 20
-115.5836425492291
 10
65.4904039007281
 20
-115.3764200557913
 10
65.76325546315988
 20
-115.3764200557913
 10
65.99166529383194
 20
-115.3764200557913
 10
66.09122855335566
 20
-115.4926920284185
 10
66.31757132673658
 20
-115.8015448386711
 97
        0
 97
        0
 75
     2
 76
     1
 98
        0
  0
SPLINE
  5
88
330
82
100
AcDbEntity
  8
_U+30EC_U+30A4_U+30E4_U+30FC 1
370
     0
100
AcDbSpline
210
0.0
220
0.0
230
1.0
 70
    11
 71
     3
 72
    29
 73
    25
 74
     0
 42
0.0000000001
 43
0.0000000001
 12
1.0
 22
0.0
 32
0.0
 13
1.0
 23
0.0
 33
0.0
 40
0.0
 40
0.0
 40
0.0
 40
0.0
 40
1.0
 40
1.0
 40
1.0
 40
2.0
 40
2.0
 40
2.0
 40
3.0
 40
3.0
 40
3.0
 40
4.0
 40
4.0
 40
4.0
 40
5.0
 40
5.0
 40
5.0
 40
6.0
 40
6.0
 40
6.0
 40
7.0
 40
7.0
 40
7.0
 40
8.0
 40
8.0
 40
8.0
 40
8.0
 10
66.72150877238212
 20
-114.3201537800137
 30
0.0
 10
66.93097057788532
 20
-114.427985268702
 30
0.0
 10
66.95009085782846
 20
-114.6014458263844
 30
0.0
 10
66.95009085782846
 20
-114.7178900537858
 30
0.0
 10
66.95009085782846
 20
-114.8786037581727
 30
0.0
 10
66.90358206877758
 20
-115.0203694373907
 30
0.0
 10
66.72150877238212
 20
-115.1156263275579
 30
0.0
 10
66.52703313223978
 20
-115.2191514468897
 30
0.0
 10
66.29001056285459
 20
-115.2382717268328
 30
0.0
 10
66.12705754640227
 20
-115.2382717268328
 30
0.0
 10
65.98322480989309
 20
-115.2382717268328
 30
0.0
 10
65.73156058469559
 20
-115.2213907589551
 30
0.0
 10
65.5326063204224
 20
-115.1156263275579
 30
0.0
 10
65.32951794156693
 20
-115.0076225840953
 30
0.0
 10
65.3062635470415
 20
-114.8469088797084
 30
0.0
 10
65.3062635470415
 20
-114.7178900537858
 30
0.0
 10
65.3062635470415
 20
-114.5592434066901
 30
0.0
 10
65.35070527880121
 20
-114.4154106701809
 30
0.0
 10
65.5326063204224
 20
-114.3201537800137
 30
0.0
 10
65.72518715804787
 20
-114.2207627752643
 30
0.0
 10
65.95359698871994
 20
-114.1975083807388
 30
0.0
 10
66.12705754640227
 20
-114.1975083807388
 30
0.0
 10
66.29845104679345
 20
-114.1975083807388
 30
0.0
 10
66.52910018953092
 20
-114.2185234631988
 30
0.0
 10
66.72150877238212
 20
-114.3201537800137
 30
0.0
  0
SPLINE
  5
89
330
82
100
AcDbEntity
  8
_U+30EC_U+30A4_U+30E4_U+30FC 1
370
     0
100
AcDbSpline
210
0.0
220
0.0
230
1.0
 70
    11
 71
     3
 72
    17
 73
    13
 74
     0
 42
0.0000000001
 43
0.0000000001
 12
1.0
 22
0.0
 32
0.0
 13
1.0
 23
0.0
 33
0.0
 40
0.0
 40
0.0
 40
0.0
 40
0.0
 40
1.0
 40
1.0
 40
1.0
 40
2.0
 40
2.0
 40
2.0
 40
3.0
 40
3.0
 40
3.0
 40
4.0
 40
4.0
 40
4.0
 40
4.0
 10
65.49884438466695
 20
-114.7178900537858
 30
0.0
 10
65.49884438466695
 20
-114.9674872216922
 30
0.0
 10
65.78220348832876
 20
-115.013996010743
 30
0.0
 10
66.12705754640227
 20
-115.013996010743
 30
0.0
 10
66.44659015265918
 20
-115.013996010743
 30
0.0
 10
66.75544296291184
 20
-114.9779947629222
 30
0.0
 10
66.75544296291184
 20
-114.7178900537858
 30
0.0
 10
66.75544296291184
 20
-114.4703599431706
 30
0.0
 10
66.47397866176692
 20
-114.4216118420543
 30
0.0
 10
66.12705754640227
 20
-114.4216118420543
 30
0.0
 10
65.80769719491961
 20
-114.4216118420543
 30
0.0
 10
65.49884438466695
 20
-114.4598524019406
 30
0.0
 10
65.49884438466695
 20
-114.7178900537858
 30
0.0
  0
HATCH
  5
8A
330
82
100
AcDbEntity
  8
_U+30EC_U+30A4_U+30E4_U+30FC 1
 62
   179
420
  2234388
100
AcDbHatch
 10
0.0
 20
0.0
 30
0.0
210
0.0
220
0.0
230
1.0
  2
SOLID
 70
     1
 71
     0
 91
        2
 92
        1
 93
        1
 72
     4
 94
        3
 73
     0
 74
     1
 95
       29
 96
       25
 40
0.0
 40
0.0
 40
0.0
 40
0.0
 40
1.0
 40
1.0
 40
1.0
 40
2.0
 40
2.0
 40
2.0
 40
3.0
 40
3.0
 40
3.0
 40
4.0
 40
4.0
 40
4.0
 40
5.0
 40
5.0
 40
5.0
 40
6.0
 40
6.0
 40
6.0
 40
7.0
 40
7.0
 40
7.0
 40
8.0
 40
8.0
 40
8.0
 40
8.0
 10
66.72150877238212
 20
-114.3201537800137
 10
66.93097057788532
 20
-114.427985268702
 10
66.95009085782846
 20
-114.6014458263844
 10
66.95009085782846
 20
-114.7178900537858
 10
66.95009085782846
 20
-114.8786037581727
 10
66.90358206877758
 20
-115.0203694373907
 10
66.72150877238212
 20
-115.1156263275579
 10
66.52703313223978
 20
-115.2191514468897
 10
66.29001056285459
 20
-115.2382717268328
 10
66.12705754640227
 20
-115.2382717268328
 10
65.98322480989309
 20
-115.2382717268328
 10
65.73156058469559
 20
-115.2213907589551
 10
65.5326063204224
 20
-115.1156263275579
 10
65.32951794156693
 20
-115.0076225840953
 10
65.3062635470415
 20
-114.8469088797084
 10
65.3062635470415
 20
-114.7178900537858
 10
65.3062635470415
 20
-114.5592434066901
 10
65.35070527880121
 20
-114.4154106701809
 10
65.5326063204224
 20
-114.3201537800137
 10
65.72518715804787
 20
-114.2207627752643
 10
65.95359698871994
 20
-114.1975083807388
 10
66.12705754640227
 20
-114.1975083807388
 10
66.29845104679345
 20
-114.1975083807388
 10
66.52910018953092
 20
-114.2185234631988
 10
66.72150877238212
 20
-114.3201537800137
 97
        0
 97
        0
 92
        1
 93
        1
 72
     4
 94
        3
 73
     0
 74
     1
 95
       17
 96
       13
 40
0.0
 40
0.0
 40
0.0
 40
0.0
 40
1.0
 40
1.0
 40
1.0
 40
2.0
 40
2.0
 40
2.0
 40
3.0
 40
3.0
 40
3.0
 40
4.0
 40
4.0
 40
4.0
 40
4.0
 10
65.49884438466695
 20
-114.7178900537858
 10
65.49884438466695
 20
-114.9674872216922
 10
65.78220348832876
 20
-115.013996010743
 10
66.12705754640227
 20
-115.013996010743
 10
66.44659015265918
 20
-115.013996010743
 10
66.75544296291184
 20
-114.9779947629222
 10
66.75544296291184
 20
-114.7178900537858
 10
66.75544296291184
 20
-114.4703599431706
 10
66.47397866176692
 20
-114.4216118420543
 10
66.12705754640227
 20
-114.4216118420543
 10
65.80769719491961
 20
-114.4216118420543
 10
65.49884438466695
 20
-114.4598524019406
 10
65.49884438466695
 20
-114.7178900537858
 97
        0
 97
        0
 75
     2
 76
     1
 98
        0
  0
ENDBLK
  5
85
330
82
100
AcDbEntity
  8
0
100
AcDbBlockEnd
  0
BLOCK
  5
A1
330
9F
100
AcDbEntity
  8
0
100
AcDbBlockBegin
  2
block 6
 70
     0
 10
0.0
 20
0.0
 30
0.0
  3
block 6
  1

  0
SPLINE
  5
A3
330
9F
100
AcDbEntity
  8
_U+30EC_U+30A4_U+30E4_U+30FC 1
370
     0
100
AcDbSpline
210
0.0
220
0.0
230
1.0
 70
    11
 71
     3
 72
    26
 73
    22
 74
     0
 42
0.0000000001
 43
0.0000000001
 12
1.0
 22
0.0
 32
0.0
 13
1.0
 23
0.0
 33
0.0
 40
0.0
 40
0.0
 40
0.0
 40
0.0
 40
1.0
 40
1.0
 40
1.0
 40
2.0
 40
2.0
 40
2.0
 40
3.0
 40
3.0
 40
3.0
 40
4.0
 40
4.0
 40
4.0
 40
5.0
 40
5.0
 40
5.0
 40
6.0
 40
6.0
 40
6.0
 40
7.0
 40
7.0
 40
7.0
 40
7.0
 10
115.1364691552437
 20
-140.9588378553853
 30
0.0
 10
115.1364691552437
 20
-140.9588378553853
 30
0.0
 10
114.0319715426726
 20
-140.9588378553853
 30
0.0
 10
114.0319715426726
 20
-140.9588378553853
 30
0.0
 10
114.0319715426726
 20
-140.9588378553853
 30
0.0
 10
114.0319715426726
 20
-141.2888780028722
 30
0.0
 10
114.0319715426726
 20
-141.2888780028722
 30
0.0
 10
114.0319715426726
 20
-141.2888780028722
 30
0.0
 10
113.8838324368068
 20
-141.2888780028722
 30
0.0
 10
113.8838324368068
 20
-141.2888780028722
 30
0.0
 10
113.8693630357688
 20
-140.9567707980941
 30
0.0
 10
113.7064100193165
 20
-140.9106065185918
 30
0.0
 10
113.5923773587547
 20
-140.8809786974186
 30
0.0
 10
113.5923773587547
 20
-140.8809786974186
 30
0.0
 10
113.5923773587547
 20
-140.7349066488441
 30
0.0
 10
113.5923773587547
 20
-140.7349066488441
 30
0.0
 10
113.5923773587547
 20
-140.7349066488441
 30
0.0
 10
115.1364691552437
 20
-140.7349066488441
 30
0.0
 10
115.1364691552437
 20
-140.7349066488441
 30
0.0
 10
115.1364691552437
 20
-140.7349066488441
 30
0.0
 10
115.1364691552437
 20
-140.9588378553853
 30
0.0
 10
115.1364691552437
 20
-140.9588378553853
 30
0.0
  0
HATCH
  5
A4
330
9F
100
AcDbEntity
  8
_U+30EC_U+30A4_U+30E4_U+30FC 1
 62
   179
420
  2234388
100
AcDbHatch
 10
0.0
 20
0.0
 30
0.0
210
0.0
220
0.0
230
1.0
  2
SOLID
 70
     1
 71
     0
 91
        1
 92
        1
 93
        1
 72
     4
 94
        3
 73
     0
 74
     1
 95
       26
 96
       22
 40
0.0
 40
0.0
 40
0.0
 40
0.0
 40
1.0
 40
1.0
 40
1.0
 40
2.0
 40
2.0
 40
2.0
 40
3.0
 40
3.0
 40
3.0
 40
4.0
 40
4.0
 40
4.0
 40
5.0
 40
5.0
 40
5.0
 40
6.0
 40
6.0
 40
6.0
 40
7.0
 40
7.0
 40
7.0
 40
7.0
 10
115.1364691552437
 20
-140.9588378553853
 10
115.1364691552437
 20
-140.9588378553853
 10
114.0319715426726
 20
-140.9588378553853
 10
114.0319715426726
 20
-140.9588378553853
 10
114.0319715426726
 20
-140.9588378553853
 10
114.0319715426726
 20
-141.2888780028722
 10
114.0319715426726
 20
-141.2888780028722
 10
114.0319715426726
 20
-141.2888780028722
 10
113.8838324368068
 20
-141.2888780028722
 10
113.8838324368068
 20
-141.2888780028722
 10
113.8693630357688
 20
-140.9567707980941
 10
113.7064100193165
 20
-140.9106065185918
 10
113.5923773587547
 20
-140.8809786974186
 10
113.5923773587547
 20
-140.8809786974186
 10
113.5923773587547
 20
-140.7349066488441
 10
113.5923773587547
 20
-140.7349066488441
 10
113.5923773587547
 20
-140.7349066488441
 10
115.1364691552437
 20
-140.7349066488441
 10
115.1364691552437
 20
-140.7349066488441
 10
115.1364691552437
 20
-140.7349066488441
 10
115.1364691552437
 20
-140.9588378553853
 10
115.1364691552437
 20
-140.9588378553853
 97
        0
 97
        0
 75
     2
 76
     1
 98
        0
  0
SPLINE
  5
A5
330
9F
100
AcDbEntity
  8
_U+30EC_U+30A4_U+30E4_U+30FC 1
370
     0
100
AcDbSpline
210
0.0
220
0.0
230
1.0
 70
    11
 71
     3
 72
    29
 73
    25
 74
     0
 42
0.0000000001
 43
0.0000000001
 12
1.0
 22
0.0
 32
0.0
 13
1.0
 23
0.0
 33
0.0
 40
0.0
 40
0.0
 40
0.0
 40
0.0
 40
1.0
 40
1.0
 40
1.0
 40
2.0
 40
2.0
 40
2.0
 40
3.0
 40
3.0
 40
3.0
 40
4.0
 40
4.0
 40
4.0
 40
5.0
 40
5.0
 40
5.0
 40
6.0
 40
6.0
 40
6.0
 40
7.0
 40
7.0
 40
7.0
 40
8.0
 40
8.0
 40
8.0
 40
8.0
 10
114.9587022282048
 20
-139.3358533722841
 30
0.0
 10
115.168164033708
 20
-139.4436848609724
 30
0.0
 10
115.1874565684254
 20
-139.617317673429
 30
0.0
 10
115.1874565684254
 20
-139.7337619008304
 30
0.0
 10
115.1874565684254
 20
-139.8943033504431
 30
0.0
 10
115.140603269826
 20
-140.0362412844354
 30
0.0
 10
114.9587022282048
 20
-140.1313259198283
 30
0.0
 10
114.7643988428367
 20
-140.2346787843858
 30
0.0
 10
114.5273762734515
 20
-140.2539713191032
 30
0.0
 10
114.3640787474506
 20
-140.2539713191032
 30
0.0
 10
114.2204182657157
 20
-140.2539713191032
 30
0.0
 10
113.968581785744
 20
-140.2370903512254
 30
0.0
 10
113.7697997762451
 20
-140.1313259198283
 30
0.0
 10
113.5668836521638
 20
-140.0231499215915
 30
0.0
 10
113.5434570028641
 20
-139.8626084719788
 30
0.0
 10
113.5434570028641
 20
-139.7337619008304
 30
0.0
 10
113.5434570028641
 20
-139.5749429989604
 30
0.0
 10
113.5878987346239
 20
-139.4312825172255
 30
0.0
 10
113.7697997762451
 20
-139.3358533722841
 30
0.0
 10
113.9623806138705
 20
-139.2362901127604
 30
0.0
 10
114.1907904445426
 20
-139.2132079730092
 30
0.0
 10
114.3640787474506
 20
-139.2132079730092
 30
0.0
 10
114.5356445026161
 20
-139.2132079730092
 30
0.0
 10
114.7664659001278
 20
-139.2342230554692
 30
0.0
 10
114.9587022282048
 20
-139.3358533722841
 30
0.0
  0
SPLINE
  5
A6
330
9F
100
AcDbEntity
  8
_U+30EC_U+30A4_U+30E4_U+30FC 1
370
     0
100
AcDbSpline
210
0.0
220
0.0
230
1.0
 70
    11
 71
     3
 72
    17
 73
    13
 74
     0
 42
0.0000000001
 43
0.0000000001
 12
1.0
 22
0.0
 32
0.0
 13
1.0
 23
0.0
 33
0.0
 40
0.0
 40
0.0
 40
0.0
 40
0.0
 40
1.0
 40
1.0
 40
1.0
 40
2.0
 40
2.0
 40
2.0
 40
3.0
 40
3.0
 40
3.0
 40
4.0
 40
4.0
 40
4.0
 40
4.0
 10
113.7360378404896
 20
-139.7337619008304
 30
0.0
 10
113.7360378404896
 20
-139.9831868139625
 30
0.0
 10
114.0195691989257
 20
-140.0296956030134
 30
0.0
 10
114.3640787474506
 20
-140.0296956030134
 30
0.0
 10
114.6837836084818
 20
-140.0296956030134
 30
0.0
 10
114.9924641639602
 20
-139.9935221004183
 30
0.0
 10
114.9924641639602
 20
-139.7337619008304
 30
0.0
 10
114.9924641639602
 20
-139.486059535441
 30
0.0
 10
114.7113443723638
 20
-139.437483689099
 30
0.0
 10
114.3640787474506
 20
-139.437483689099
 30
0.0
 10
114.0450629055165
 20
-139.437483689099
 30
0.0
 10
113.7360378404896
 20
-139.4753797394367
 30
0.0
 10
113.7360378404896
 20
-139.7337619008304
 30
0.0
  0
HATCH
  5
A7
330
9F
100
AcDbEntity
  8
_U+30EC_U+30A4_U+30E4_U+30FC 1
 62
   179
420
  2234388
100
AcDbHatch
 10
0.0
 20
0.0
 30
0.0
210
0.0
220
0.0
230
1.0
  2
SOLID
 70
     1
 71
     0
 91
        2
 92
        1
 93
        1
 72
     4
 94
        3
 73
     0
 74
     1
 95
       29
 96
       25
 40
0.0
 40
0.0
 40
0.0
 40
0.0
 40
1.0
 40
1.0
 40
1.0
 40
2.0
 40
2.0
 40
2.0
 40
3.0
 40
3.0
 40
3.0
 40
4.0
 40
4.0
 40
4.0
 40
5.0
 40
5.0
 40
5.0
 40
6.0
 40
6.0
 40
6.0
 40
7.0
 40
7.0
 40
7.0
 40
8.0
 40
8.0
 40
8.0
 40
8.0
 10
114.9587022282048
 20
-139.3358533722841
 10
115.168164033708
 20
-139.4436848609724
 10
115.1874565684254
 20
-139.617317673429
 10
115.1874565684254
 20
-139.7337619008304
 10
115.1874565684254
 20
-139.8943033504431
 10
115.140603269826
 20
-140.0362412844354
 10
114.9587022282048
 20
-140.1313259198283
 10
114.7643988428367
 20
-140.2346787843858
 10
114.5273762734515
 20
-140.2539713191032
 10
114.3640787474506
 20
-140.2539713191032
 10
114.2204182657157
 20
-140.2539713191032
 10
113.968581785744
 20
-140.2370903512254
 10
113.7697997762451
 20
-140.1313259198283
 10
113.5668836521638
 20
-140.0231499215915
 10
113.5434570028641
 20
-139.8626084719788
 10
113.5434570028641
 20
-139.7337619008304
 10
113.5434570028641
 20
-139.5749429989604
 10
113.5878987346239
 20
-139.4312825172255
 10
113.7697997762451
 20
-139.3358533722841
 10
113.9623806138705
 20
-139.2362901127604
 10
114.1907904445426
 20
-139.2132079730092
 10
114.3640787474506
 20
-139.2132079730092
 10
114.5356445026161
 20
-139.2132079730092
 10
114.7664659001278
 20
-139.2342230554692
 10
114.9587022282048
 20
-139.3358533722841
 97
        0
 97
        0
 92
        1
 93
        1
 72
     4
 94
        3
 73
     0
 74
     1
 95
       17
 96
       13
 40
0.0
 40
0.0
 40
0.0
 40
0.0
 40
1.0
 40
1.0
 40
1.0
 40
2.0
 40
2.0
 40
2.0
 40
3.0
 40
3.0
 40
3.0
 40
4.0
 40
4.0
 40
4.0
 40
4.0
 10
113.7360378404896
 20
-139.7337619008304
 10
113.7360378404896
 20
-139.9831868139625
 10
114.0195691989257
 20
-140.0296956030134
 10
114.3640787474506
 20
-140.0296956030134
 10
114.6837836084818
 20
-140.0296956030134
 10
114.9924641639602
 20
-139.9935221004183
 10
114.9924641639602
 20
-139.7337619008304
 10
114.9924641639602
 20
-139.486059535441
 10
114.7113443723638
 20
-139.437483689099
 10
114.3640787474506
 20
-139.437483689099
 10
114.0450629055165
 20
-139.437483689099
 10
113.7360378404896
 20
-139.4753797394367
 10
113.7360378404896
 20
-139.7337619008304
 97
        0
 97
        0
 75
     2
 76
     1
 98
        0
  0
ENDBLK
  5
A2
330
9F
100
AcDbEntity
  8
0
100
AcDbBlockEnd
  0
BLOCK
  5
AA
330
A8
100
AcDbEntity
  8
0
100
AcDbBlockBegin
  2
block 7
 70
     0
 10
0.0
 20
0.0
 30
0.0
  3
block 7
  1

  0
SPLINE
  5
AC
330
A8
100
AcDbEntity
  8
_U+30EC_U+30A4_U+30E4_U+30FC 1
370
     0
100
AcDbSpline
210
0.0
220
0.0
230
1.0
 70
    11
 71
     3
 72
    26
 73
    22
 74
     0
 42
0.0000000001
 43
0.0000000001
 12
1.0
 22
0.0
 32
0.0
 13
1.0
 23
0.0
 33
0.0
 40
0.0
 40
0.0
 40
0.0
 40
0.0
 40
1.0
 40
1.0
 40
1.0
 40
2.0
 40
2.0
 40
2.0
 40
3.0
 40
3.0
 40
3.0
 40
4.0
 40
4.0
 40
4.0
 40
5.0
 40
5.0
 40
5.0
 40
6.0
 40
6.0
 40
6.0
 40
7.0
 40
7.0
 40
7.0
 40
7.0
 10
115.1364691552437
 20
-133.3141709736159
 30
0.0
 10
115.1364691552437
 20
-133.3141709736159
 30
0.0
 10
114.0319715426726
 20
-133.3141709736159
 30
0.0
 10
114.0319715426726
 20
-133.3141709736159
 30
0.0
 10
114.0319715426726
 20
-133.3141709736159
 30
0.0
 10
114.0319715426726
 20
-133.6442111211028
 30
0.0
 10
114.0319715426726
 20
-133.6442111211028
 30
0.0
 10
114.0319715426726
 20
-133.6442111211028
 30
0.0
 10
113.8838324368068
 20
-133.6442111211028
 30
0.0
 10
113.8838324368068
 20
-133.6442111211028
 30
0.0
 10
113.8693630357688
 20
-133.3121039163248
 30
0.0
 10
113.7064100193165
 20
-133.2659396368224
 30
0.0
 10
113.5923773587547
 20
-133.2363118156493
 30
0.0
 10
113.5923773587547
 20
-133.2363118156493
 30
0.0
 10
113.5923773587547
 20
-133.0902397670747
 30
0.0
 10
113.5923773587547
 20
-133.0902397670747
 30
0.0
 10
113.5923773587547
 20
-133.0902397670747
 30
0.0
 10
115.1364691552437
 20
-133.0902397670747
 30
0.0
 10
115.1364691552437
 20
-133.0902397670747
 30
0.0
 10
115.1364691552437
 20
-133.0902397670747
 30
0.0
 10
115.1364691552437
 20
-133.3141709736159
 30
0.0
 10
115.1364691552437
 20
-133.3141709736159
 30
0.0
  0
HATCH
  5
AD
330
A8
100
AcDbEntity
  8
_U+30EC_U+30A4_U+30E4_U+30FC 1
 62
   179
420
  2234388
100
AcDbHatch
 10
0.0
 20
0.0
 30
0.0
210
0.0
220
0.0
230
1.0
  2
SOLID
 70
     1
 71
     0
 91
        1
 92
        1
 93
        1
 72
     4
 94
        3
 73
     0
 74
     1
 95
       26
 96
       22
 40
0.0
 40
0.0
 40
0.0
 40
0.0
 40
1.0
 40
1.0
 40
1.0
 40
2.0
 40
2.0
 40
2.0
 40
3.0
 40
3.0
 40
3.0
 40
4.0
 40
4.0
 40
4.0
 40
5.0
 40
5.0
 40
5.0
 40
6.0
 40
6.0
 40
6.0
 40
7.0
 40
7.0
 40
7.0
 40
7.0
 10
115.1364691552437
 20
-133.3141709736159
 10
115.1364691552437
 20
-133.3141709736159
 10
114.0319715426726
 20
-133.3141709736159
 10
114.0319715426726
 20
-133.3141709736159
 10
114.0319715426726
 20
-133.3141709736159
 10
114.0319715426726
 20
-133.6442111211028
 10
114.0319715426726
 20
-133.6442111211028
 10
114.0319715426726
 20
-133.6442111211028
 10
113.8838324368068
 20
-133.6442111211028
 10
113.8838324368068
 20
-133.6442111211028
 10
113.8693630357688
 20
-133.3121039163248
 10
113.7064100193165
 20
-133.2659396368224
 10
113.5923773587547
 20
-133.2363118156493
 10
113.5923773587547
 20
-133.2363118156493
 10
113.5923773587547
 20
-133.0902397670747
 10
113.5923773587547
 20
-133.0902397670747
 10
113.5923773587547
 20
-133.0902397670747
 10
115.1364691552437
 20
-133.0902397670747
 10
115.1364691552437
 20
-133.0902397670747
 10
115.1364691552437
 20
-133.0902397670747
 10
115.1364691552437
 20
-133.3141709736159
 10
115.1364691552437
 20
-133.3141709736159
 97
        0
 97
        0
 75
     2
 76
     1
 98
        0
  0
ENDBLK
  5
AB
330
A8
100
AcDbEntity
  8
0
100
AcDbBlockEnd
  0
BLOCK
  5
BF
330
BD
100
AcDbEntity
  8
0
100
AcDbBlockBegin
  2
block 8
 70
     0
 10
0.0
 20
0.0
 30
0.0
  3
block 8
  1

  0
SPLINE
  5
C1
330
BD
100
AcDbEntity
  8
_U+30EC_U+30A4_U+30E4_U+30FC 1
370
     0
100
AcDbSpline
210
0.0
220
0.0
230
1.0
 70
    11
 71
     3
 72
    44
 73
    40
 74
     0
 42
0.0000000001
 43
0.0000000001
 12
1.0
 22
0.0
 32
0.0
 13
1.0
 23
0.0
 33
0.0
 40
0.0
 40
0.0
 40
0.0
 40
0.0
 40
1.0
 40
1.0
 40
1.0
 40
2.0
 40
2.0
 40
2.0
 40
3.0
 40
3.0
 40
3.0
 40
4.0
 40
4.0
 40
4.0
 40
5.0
 40
5.0
 40
5.0
 40
6.0
 40
6.0
 40
6.0
 40
7.0
 40
7.0
 40
7.0
 40
8.0
 40
8.0
 40
8.0
 40
9.0
 40
9.0
 40
9.0
 40
10.0
 40
10.0
 40
10.0
 40
11.0
 40
11.0
 40
11.0
 40
12.0
 40
12.0
 40
12.0
 40
13.0
 40
13.0
 40
13.0
 40
13.0
 10
81.76107311324029
 20
-131.3494330183779
 30
0.0
 10
81.73764646394059
 20
-131.3049912866182
 30
0.0
 10
81.71663138148057
 20
-131.2519368161454
 30
0.0
 10
81.71439206941515
 20
-131.0214599281821
 30
0.0
 10
81.71025795483285
 20
-130.7782361869235
 30
0.0
 10
81.65100231248655
 20
-130.7083007485729
 30
0.0
 10
81.47323538544767
 20
-130.7083007485729
 30
0.0
 10
81.47323538544767
 20
-130.7083007485729
 30
0.0
 10
81.06499157044556
 20
-130.7083007485729
 30
0.0
 10
81.06499157044556
 20
-130.7083007485729
 30
0.0
 10
81.06499157044556
 20
-130.7083007485729
 30
0.0
 10
81.06499157044556
 20
-131.3494330183779
 30
0.0
 10
81.06499157044556
 20
-131.3494330183779
 30
0.0
 10
81.06499157044556
 20
-131.3494330183779
 30
0.0
 10
80.83020831312578
 20
-131.3494330183779
 30
0.0
 10
80.83020831312578
 20
-131.3494330183779
 30
0.0
 10
80.83020831312578
 20
-131.3494330183779
 30
0.0
 10
80.83020831312578
 20
-129.8049967123404
 30
0.0
 10
80.83020831312578
 20
-129.8049967123404
 30
0.0
 10
80.83020831312578
 20
-129.8049967123404
 30
0.0
 10
81.50510251868623
 20
-129.8049967123404
 30
0.0
 10
81.50510251868623
 20
-129.8049967123404
 30
0.0
 10
81.81171601687346
 20
-129.8049967123404
 30
0.0
 10
81.97880314790808
 20
-129.9765624675059
 30
0.0
 10
81.97880314790808
 20
-130.2325330620599
 30
0.0
 10
81.97880314790808
 20
-130.2831759656931
 30
0.0
 10
81.97036266396921
 20
-130.3658582573391
 30
0.0
 10
81.9259209322095
 20
-130.4461289821454
 30
0.0
 10
81.86683754463746
 20
-130.5498263562514
 30
0.0
 10
81.80120847564345
 20
-130.5687743814203
 30
0.0
 10
81.739885776006
 20
-130.585655349298
 30
0.0
 10
81.87734508586747
 20
-130.6280300237666
 30
0.0
 10
81.94504121215263
 20
-130.6766058701086
 30
0.0
 10
81.9493475815092
 20
-130.991832107009
 30
0.0
 10
81.9534816960915
 20
-131.2626166121496
 30
0.0
 10
81.98948294391235
 20
-131.2946560001625
 30
0.0
 10
82.05717907019752
 20
-131.3494330183779
 30
0.0
 10
82.05717907019752
 20
-131.3494330183779
 30
0.0
 10
81.76107311324029
 20
-131.3494330183779
 30
0.0
 10
81.76107311324029
 20
-131.3494330183779
 30
0.0
  0
SPLINE
  5
C2
330
BD
100
AcDbEntity
  8
_U+30EC_U+30A4_U+30E4_U+30FC 1
370
     0
100
AcDbSpline
210
0.0
220
0.0
230
1.0
 70
    11
 71
     3
 72
    20
 73
    16
 74
     0
 42
0.0000000001
 43
0.0000000001
 12
1.0
 22
0.0
 32
0.0
 13
1.0
 23
0.0
 33
0.0
 40
0.0
 40
0.0
 40
0.0
 40
0.0
 40
1.0
 40
1.0
 40
1.0
 40
2.0
 40
2.0
 40
2.0
 40
3.0
 40
3.0
 40
3.0
 40
4.0
 40
4.0
 40
4.0
 40
5.0
 40
5.0
 40
5.0
 40
5.0
 10
81.50923663326853
 20
-130.0165255751348
 30
0.0
 10
81.50923663326853
 20
-130.0165255751348
 30
0.0
 10
81.06499157044556
 20
-130.0165255751348
 30
0.0
 10
81.06499157044556
 20
-130.0165255751348
 30
0.0
 10
81.06499157044556
 20
-130.0165255751348
 30
0.0
 10
81.06499157044556
 20
-130.4967718857786
 30
0.0
 10
81.06499157044556
 20
-130.4967718857786
 30
0.0
 10
81.06499157044556
 20
-130.4967718857786
 30
0.0
 10
81.50716957597737
 20
-130.4967718857786
 30
0.0
 10
81.50716957597737
 20
-130.4967718857786
 30
0.0
 10
81.60656058072684
 20
-130.4967718857786
 30
0.0
 10
81.74195283329715
 20
-130.4209797851031
 30
0.0
 10
81.74195283329715
 20
-130.2494140299376
 30
0.0
 10
81.74195283329715
 20
-130.170865852874
 30
0.0
 10
81.70801864276744
 20
-130.0165255751348
 30
0.0
 10
81.50923663326853
 20
-130.0165255751348
 30
0.0
  0
HATCH
  5
C3
330
BD
100
AcDbEntity
  8
_U+30EC_U+30A4_U+30E4_U+30FC 1
 62
   179
420
  2234388
100
AcDbHatch
 10
0.0
 20
0.0
 30
0.0
210
0.0
220
0.0
230
1.0
  2
SOLID
 70
     1
 71
     0
 91
        2
 92
        1
 93
        1
 72
     4
 94
        3
 73
     0
 74
     1
 95
       44
 96
       40
 40
0.0
 40
0.0
 40
0.0
 40
0.0
 40
1.0
 40
1.0
 40
1.0
 40
2.0
 40
2.0
 40
2.0
 40
3.0
 40
3.0
 40
3.0
 40
4.0
 40
4.0
 40
4.0
 40
5.0
 40
5.0
 40
5.0
 40
6.0
 40
6.0
 40
6.0
 40
7.0
 40
7.0
 40
7.0
 40
8.0
 40
8.0
 40
8.0
 40
9.0
 40
9.0
 40
9.0
 40
10.0
 40
10.0
 40
10.0
 40
11.0
 40
11.0
 40
11.0
 40
12.0
 40
12.0
 40
12.0
 40
13.0
 40
13.0
 40
13.0
 40
13.0
 10
81.76107311324029
 20
-131.3494330183779
 10
81.73764646394059
 20
-131.3049912866182
 10
81.71663138148057
 20
-131.2519368161454
 10
81.71439206941515
 20
-131.0214599281821
 10
81.71025795483285
 20
-130.7782361869235
 10
81.65100231248655
 20
-130.7083007485729
 10
81.47323538544767
 20
-130.7083007485729
 10
81.47323538544767
 20
-130.7083007485729
 10
81.06499157044556
 20
-130.7083007485729
 10
81.06499157044556
 20
-130.7083007485729
 10
81.06499157044556
 20
-130.7083007485729
 10
81.06499157044556
 20
-131.3494330183779
 10
81.06499157044556
 20
-131.3494330183779
 10
81.06499157044556
 20
-131.3494330183779
 10
80.83020831312578
 20
-131.3494330183779
 10
80.83020831312578
 20
-131.3494330183779
 10
80.83020831312578
 20
-131.3494330183779
 10
80.83020831312578
 20
-129.8049967123404
 10
80.83020831312578
 20
-129.8049967123404
 10
80.83020831312578
 20
-129.8049967123404
 10
81.50510251868623
 20
-129.8049967123404
 10
81.50510251868623
 20
-129.8049967123404
 10
81.81171601687346
 20
-129.8049967123404
 10
81.97880314790808
 20
-129.9765624675059
 10
81.97880314790808
 20
-130.2325330620599
 10
81.97880314790808
 20
-130.2831759656931
 10
81.97036266396921
 20
-130.3658582573391
 10
81.9259209322095
 20
-130.4461289821454
 10
81.86683754463746
 20
-130.5498263562514
 10
81.80120847564345
 20
-130.5687743814203
 10
81.739885776006
 20
-130.585655349298
 10
81.87734508586747
 20
-130.6280300237666
 10
81.94504121215263
 20
-130.6766058701086
 10
81.9493475815092
 20
-130.991832107009
 10
81.9534816960915
 20
-131.2626166121496
 10
81.98948294391235
 20
-131.2946560001625
 10
82.05717907019752
 20
-131.3494330183779
 10
82.05717907019752
 20
-131.3494330183779
 10
81.76107311324029
 20
-131.3494330183779
 10
81.76107311324029
 20
-131.3494330183779
 97
        0
 97
        0
 92
        1
 93
        1
 72
     4
 94
        3
 73
     0
 74
     1
 95
       20
 96
       16
 40
0.0
 40
0.0
 40
0.0
 40
0.0
 40
1.0
 40
1.0
 40
1.0
 40
2.0
 40
2.0
 40
2.0
 40
3.0
 40
3.0
 40
3.0
 40
4.0
 40
4.0
 40
4.0
 40
5.0
 40
5.0
 40
5.0
 40
5.0
 10
81.50923663326853
 20
-130.0165255751348
 10
81.50923663326853
 20
-130.0165255751348
 10
81.06499157044556
 20
-130.0165255751348
 10
81.06499157044556
 20
-130.0165255751348
 10
81.06499157044556
 20
-130.0165255751348
 10
81.06499157044556
 20
-130.4967718857786
 10
81.06499157044556
 20
-130.4967718857786
 10
81.06499157044556
 20
-130.4967718857786
 10
81.50716957597737
 20
-130.4967718857786
 10
81.50716957597737
 20
-130.4967718857786
 10
81.60656058072684
 20
-130.4967718857786
 10
81.74195283329715
 20
-130.4209797851031
 10
81.74195283329715
 20
-130.2494140299376
 10
81.74195283329715
 20
-130.170865852874
 10
81.70801864276744
 20
-130.0165255751348
 10
81.50923663326853
 20
-130.0165255751348
 97
        0
 97
        0
 75
     2
 76
     1
 98
        0
  0
SPLINE
  5
C4
330
BD
100
AcDbEntity
  8
_U+30EC_U+30A4_U+30E4_U+30FC 1
370
     0
100
AcDbSpline
210
0.0
220
0.0
230
1.0
 70
    11
 71
     3
 72
    26
 73
    22
 74
     0
 42
0.0000000001
 43
0.0000000001
 12
1.0
 22
0.0
 32
0.0
 13
1.0
 23
0.0
 33
0.0
 40
0.0
 40
0.0
 40
0.0
 40
0.0
 40
1.0
 40
1.0
 40
1.0
 40
2.0
 40
2.0
 40
2.0
 40
3.0
 40
3.0
 40
3.0
 40
4.0
 40
4.0
 40
4.0
 40
5.0
 40
5.0
 40
5.0
 40
6.0
 40
6.0
 40
6.0
 40
7.0
 40
7.0
 40
7.0
 40
7.0
 10
82.64818520069213
 20
-131.3494330183779
 30
0.0
 10
82.64818520069213
 20
-131.3494330183779
 30
0.0
 10
82.64818520069213
 20
-130.2452799153554
 30
0.0
 10
82.64818520069213
 20
-130.2452799153554
 30
0.0
 10
82.64818520069213
 20
-130.2452799153554
 30
0.0
 10
82.31814505320519
 20
-130.2452799153554
 30
0.0
 10
82.31814505320519
 20
-130.2452799153554
 30
0.0
 10
82.31814505320519
 20
-130.2452799153554
 30
0.0
 10
82.31814505320519
 20
-130.0971408094896
 30
0.0
 10
82.31814505320519
 20
-130.0971408094896
 30
0.0
 10
82.65025225798327
 20
-130.082326898903
 30
0.0
 10
82.69676104703414
 20
-129.9193738824507
 30
0.0
 10
82.7263888682073
 20
-129.8049967123404
 30
0.0
 10
82.7263888682073
 20
-129.8049967123404
 30
0.0
 10
82.87246091678189
 20
-129.8049967123404
 30
0.0
 10
82.87246091678189
 20
-129.8049967123404
 30
0.0
 10
82.87246091678189
 20
-129.8049967123404
 30
0.0
 10
82.87246091678189
 20
-131.3494330183779
 30
0.0
 10
82.87246091678189
 20
-131.3494330183779
 30
0.0
 10
82.87246091678189
 20
-131.3494330183779
 30
0.0
 10
82.64818520069213
 20
-131.3494330183779
 30
0.0
 10
82.64818520069213
 20
-131.3494330183779
 30
0.0
  0
HATCH
  5
C5
330
BD
100
AcDbEntity
  8
_U+30EC_U+30A4_U+30E4_U+30FC 1
 62
   179
420
  2234388
100
AcDbHatch
 10
0.0
 20
0.0
 30
0.0
210
0.0
220
0.0
230
1.0
  2
SOLID
 70
     1
 71
     0
 91
        1
 92
        1
 93
        1
 72
     4
 94
        3
 73
     0
 74
     1
 95
       26
 96
       22
 40
0.0
 40
0.0
 40
0.0
 40
0.0
 40
1.0
 40
1.0
 40
1.0
 40
2.0
 40
2.0
 40
2.0
 40
3.0
 40
3.0
 40
3.0
 40
4.0
 40
4.0
 40
4.0
 40
5.0
 40
5.0
 40
5.0
 40
6.0
 40
6.0
 40
6.0
 40
7.0
 40
7.0
 40
7.0
 40
7.0
 10
82.64818520069213
 20
-131.3494330183779
 10
82.64818520069213
 20
-131.3494330183779
 10
82.64818520069213
 20
-130.2452799153554
 10
82.64818520069213
 20
-130.2452799153554
 10
82.64818520069213
 20
-130.2452799153554
 10
82.31814505320519
 20
-130.2452799153554
 10
82.31814505320519
 20
-130.2452799153554
 10
82.31814505320519
 20
-130.2452799153554
 10
82.31814505320519
 20
-130.0971408094896
 10
82.31814505320519
 20
-130.0971408094896
 10
82.65025225798327
 20
-130.082326898903
 10
82.69676104703414
 20
-129.9193738824507
 10
82.7263888682073
 20
-129.8049967123404
 10
82.7263888682073
 20
-129.8049967123404
 10
82.87246091678189
 20
-129.8049967123404
 10
82.87246091678189
 20
-129.8049967123404
 10
82.87246091678189
 20
-129.8049967123404
 10
82.87246091678189
 20
-131.3494330183779
 10
82.87246091678189
 20
-131.3494330183779
 10
82.87246091678189
 20
-131.3494330183779
 10
82.64818520069213
 20
-131.3494330183779
 10
82.64818520069213
 20
-131.3494330183779
 97
        0
 97
        0
 75
     2
 76
     1
 98
        0
  0
SPLINE
  5
C6
330
BD
100
AcDbEntity
  8
_U+30EC_U+30A4_U+30E4_U+30FC 1
370
     0
100
AcDbSpline
210
0.0
220
0.0
230
1.0
 70
    11
 71
     3
 72
    29
 73
    25
 74
     0
 42
0.0000000001
 43
0.0000000001
 12
1.0
 22
0.0
 32
0.0
 13
1.0
 23
0.0
 33
0.0
 40
0.0
 40
0.0
 40
0.0
 40
0.0
 40
1.0
 40
1.0
 40
1.0
 40
2.0
 40
2.0
 40
2.0
 40
3.0
 40
3.0
 40
3.0
 40
4.0
 40
4.0
 40
4.0
 40
5.0
 40
5.0
 40
5.0
 40
6.0
 40
6.0
 40
6.0
 40
7.0
 40
7.0
 40
7.0
 40
8.0
 40
8.0
 40
8.0
 40
8.0
 10
84.27134193856759
 20
-131.171666091339
 30
0.0
 10
84.16351044987927
 20
-131.3811278968422
 30
0.0
 10
83.99004989219694
 20
-131.4000759220111
 30
0.0
 10
83.87360566479549
 20
-131.4000759220111
 30
0.0
 10
83.71289196040858
 20
-131.4000759220111
 30
0.0
 10
83.57112628119056
 20
-131.3539116425088
 30
0.0
 10
83.4758693910234
 20
-131.171666091339
 30
0.0
 10
83.37234427169165
 20
-130.9770181964224
 30
0.0
 10
83.35322399174851
 20
-130.7399956270372
 30
0.0
 10
83.35322399174851
 20
-130.5773871201334
 30
0.0
 10
83.35322399174851
 20
-130.43338212885
 30
0.0
 10
83.37010495962623
 20
-130.1818901584268
 30
0.0
 10
83.4758693910234
 20
-129.9827636393793
 30
0.0
 10
83.58387313448598
 20
-129.7795030057496
 30
0.0
 10
83.74458683887289
 20
-129.7564208659984
 30
0.0
 10
83.87360566479549
 20
-129.7564208659984
 30
0.0
 10
84.03225231189124
 20
-129.7564208659984
 30
0.0
 10
84.17608504840042
 20
-129.8008625977581
 30
0.0
 10
84.27134193856759
 20
-129.9827636393793
 30
0.0
 10
84.37073294331704
 20
-130.1753444770048
 30
0.0
 10
84.39398733784247
 20
-130.4037543076768
 30
0.0
 10
84.39398733784247
 20
-130.5773871201334
 30
0.0
 10
84.39398733784247
 20
-130.7486083657504
 30
0.0
 10
84.37297225538245
 20
-130.9790852537136
 30
0.0
 10
84.27134193856759
 20
-131.171666091339
 30
0.0
  0
SPLINE
  5
C7
330
BD
100
AcDbEntity
  8
_U+30EC_U+30A4_U+30E4_U+30FC 1
370
     0
100
AcDbSpline
210
0.0
220
0.0
230
1.0
 70
    11
 71
     3
 72
    17
 73
    13
 74
     0
 42
0.0000000001
 43
0.0000000001
 12
1.0
 22
0.0
 32
0.0
 13
1.0
 23
0.0
 33
0.0
 40
0.0
 40
0.0
 40
0.0
 40
0.0
 40
1.0
 40
1.0
 40
1.0
 40
2.0
 40
2.0
 40
2.0
 40
3.0
 40
3.0
 40
3.0
 40
4.0
 40
4.0
 40
4.0
 40
4.0
 10
83.87360566479549
 20
-129.9490017036239
 30
0.0
 10
83.62400849688915
 20
-129.9490017036239
 30
0.0
 10
83.57749970783827
 20
-130.2325330620599
 30
0.0
 10
83.57749970783827
 20
-130.5773871201334
 30
0.0
 10
83.57749970783827
 20
-130.8967474716161
 30
0.0
 10
83.61350095565913
 20
-131.205772536643
 30
0.0
 10
83.87360566479549
 20
-131.205772536643
 30
0.0
 10
84.12113577541069
 20
-131.205772536643
 30
0.0
 10
84.16988387652698
 20
-130.9239637259496
 30
0.0
 10
84.16988387652698
 20
-130.5773871201334
 30
0.0
 10
84.16988387652698
 20
-130.2576822591022
 30
0.0
 10
84.1316433166407
 20
-129.9490017036239
 30
0.0
 10
83.87360566479549
 20
-129.9490017036239
 30
0.0
  0
HATCH
  5
C8
330
BD
100
AcDbEntity
  8
_U+30EC_U+30A4_U+30E4_U+30FC 1
 62
   179
420
  2234388
100
AcDbHatch
 10
0.0
 20
0.0
 30
0.0
210
0.0
220
0.0
230
1.0
  2
SOLID
 70
     1
 71
     0
 91
        2
 92
        1
 93
        1
 72
     4
 94
        3
 73
     0
 74
     1
 95
       29
 96
       25
 40
0.0
 40
0.0
 40
0.0
 40
0.0
 40
1.0
 40
1.0
 40
1.0
 40
2.0
 40
2.0
 40
2.0
 40
3.0
 40
3.0
 40
3.0
 40
4.0
 40
4.0
 40
4.0
 40
5.0
 40
5.0
 40
5.0
 40
6.0
 40
6.0
 40
6.0
 40
7.0
 40
7.0
 40
7.0
 40
8.0
 40
8.0
 40
8.0
 40
8.0
 10
84.27134193856759
 20
-131.171666091339
 10
84.16351044987927
 20
-131.3811278968422
 10
83.99004989219694
 20
-131.4000759220111
 10
83.87360566479549
 20
-131.4000759220111
 10
83.71289196040858
 20
-131.4000759220111
 10
83.57112628119056
 20
-131.3539116425088
 10
83.4758693910234
 20
-131.171666091339
 10
83.37234427169165
 20
-130.9770181964224
 10
83.35322399174851
 20
-130.7399956270372
 10
83.35322399174851
 20
-130.5773871201334
 10
83.35322399174851
 20
-130.43338212885
 10
83.37010495962623
 20
-130.1818901584268
 10
83.4758693910234
 20
-129.9827636393793
 10
83.58387313448598
 20
-129.7795030057496
 10
83.74458683887289
 20
-129.7564208659984
 10
83.87360566479549
 20
-129.7564208659984
 10
84.03225231189124
 20
-129.7564208659984
 10
84.17608504840042
 20
-129.8008625977581
 10
84.27134193856759
 20
-129.9827636393793
 10
84.37073294331704
 20
-130.1753444770048
 10
84.39398733784247
 20
-130.4037543076768
 10
84.39398733784247
 20
-130.5773871201334
 10
84.39398733784247
 20
-130.7486083657504
 10
84.37297225538245
 20
-130.9790852537136
 10
84.27134193856759
 20
-131.171666091339
 97
        0
 97
        0
 92
        1
 93
        1
 72
     4
 94
        3
 73
     0
 74
     1
 95
       17
 96
       13
 40
0.0
 40
0.0
 40
0.0
 40
0.0
 40
1.0
 40
1.0
 40
1.0
 40
2.0
 40
2.0
 40
2.0
 40
3.0
 40
3.0
 40
3.0
 40
4.0
 40
4.0
 40
4.0
 40
4.0
 10
83.87360566479549
 20
-129.9490017036239
 10
83.62400849688915
 20
-129.9490017036239
 10
83.57749970783827
 20
-130.2325330620599
 10
83.57749970783827
 20
-130.5773871201334
 10
83.57749970783827
 20
-130.8967474716161
 10
83.61350095565913
 20
-131.205772536643
 10
83.87360566479549
 20
-131.205772536643
 10
84.12113577541069
 20
-131.205772536643
 10
84.16988387652698
 20
-130.9239637259496
 10
84.16988387652698
 20
-130.5773871201334
 10
84.16988387652698
 20
-130.2576822591022
 10
84.1316433166407
 20
-129.9490017036239
 10
83.87360566479549
 20
-129.9490017036239
 97
        0
 97
        0
 75
     2
 76
     1
 98
        0
  0
ENDBLK
  5
C0
330
BD
100
AcDbEntity
  8
0
100
AcDbBlockEnd
  0
ENDSEC
  0
SECTION
  2
ENTITIES
  0
SPLINE
  5
41
330
1F
100
AcDbEntity
  8
_U+30EC_U+30A4_U+30E4_U+30FC 1
 62
   179
420
  2234388
370
    25
100
AcDbSpline
210
0.0
220
0.0
230
1.0
 70
    11
 71
     3
 72
    71
 73
    67
 74
     0
 42
0.0000000001
 43
0.0000000001
 12
1.0
 22
0.0
 32
0.0
 13
1.0
 23
0.0
 33
0.0
 40
0.0
 40
0.0
 40
0.0
 40
0.0
 40
1.0
 40
1.0
 40
1.0
 40
2.0
 40
2.0
 40
2.0
 40
3.0
 40
3.0
 40
3.0
 40
4.0
 40
4.0
 40
4.0
 40
5.0
 40
5.0
 40
5.0
 40
6.0
 40
6.0
 40
6.0
 40
7.0
 40
7.0
 40
7.0
 40
8.0
 40
8.0
 40
8.0
 40
9.0
 40
9.0
 40
9.0
 40
10.0
 40
10.0
 40
10.0
 40
11.0
 40
11.0
 40
11.0
 40
12.0
 40
12.0
 40
12.0
 40
13.0
 40
13.0
 40
13.0
 40
14.0
 40
14.0
 40
14.0
 40
15.0
 40
15.0
 40
15.0
 40
16.0
 40
16.0
 40
16.0
 40
17.0
 40
17.0
 40
17.0
 40
18.0
 40
18.0
 40
18.0
 40
19.0
 40
19.0
 40
19.0
 40
20.0
 40
20.0
 40
20.0
 40
21.0
 40
21.0
 40
21.0
 40
22.0
 40
22.0
 40
22.0
 40
22.0
 10
90.66318331066739
 20
-144.23993246394
 30
0.0
 10
90.66318331066739
 20
-144.23993246394
 30
0.0
 10
90.66318331066739
 20
-134.2395291331071
 30
0.0
 10
90.66318331066739
 20
-134.2395291331071
 30
0.0
 10
90.66318331066739
 20
-134.2395291331071
 30
0.0
 10
111.6631243734586
 20
-134.2395291331071
 30
0.0
 10
111.6631243734586
 20
-134.2395291331071
 30
0.0
 10
111.6631243734586
 20
-134.2395291331071
 30
0.0
 10
111.6631243734586
 20
-135.2396188550792
 30
0.0
 10
111.6631243734586
 20
-135.2396188550792
 30
0.0
 10
111.6631243734586
 20
-135.2396188550792
 30
0.0
 10
101.9462135102465
 20
-135.2396188550792
 30
0.0
 10
101.9462135102465
 20
-135.2396188550792
 30
0.0
 10
101.9462135102465
 20
-135.2396188550792
 30
0.0
 10
101.6633915730175
 20
-135.239301355079
 30
0.0
 10
101.6633915730175
 20
-135.239301355079
 30
0.0
 10
101.6633915730175
 20
-135.239301355079
 30
0.0
 10
101.3805343580115
 20
-135.2396188550792
 30
0.0
 10
101.3805343580115
 20
-135.2396188550792
 30
0.0
 10
101.3805343580115
 20
-135.2396188550792
 30
0.0
 10
91.6633083104177
 20
-135.2396188550792
 30
0.0
 10
91.6633083104177
 20
-135.2396188550792
 30
0.0
 10
91.6633083104177
 20
-135.2396188550792
 30
0.0
 10
91.6633083104177
 20
-145.2397046859125
 30
0.0
 10
91.6633083104177
 20
-145.2397046859125
 30
0.0
 10
91.6633083104177
 20
-145.2397046859125
 30
0.0
 10
81.66322041659768
 20
-145.2397046859125
 30
0.0
 10
81.66322041659768
 20
-145.2397046859125
 30
0.0
 10
76.14006111306077
 20
-145.2397046859125
 30
0.0
 10
71.66313483838778
 20
-140.7624607981424
 30
0.0
 10
71.66313483838778
 20
-135.239971632857
 30
0.0
 10
71.66313483838778
 20
-135.239971632857
 30
0.0
 10
71.66313483838778
 20
-125.2397446909123
 30
0.0
 10
71.66313483838778
 20
-125.2397446909123
 30
0.0
 10
71.66313483838778
 20
-125.2397446909123
 30
0.0
 10
81.66322041659768
 20
-125.2397446909123
 30
0.0
 10
81.66322041659768
 20
-125.2397446909123
 30
0.0
 10
81.66322041659768
 20
-125.2397446909123
 30
0.0
 10
81.66322041659768
 20
-115.5224808044527
 30
0.0
 10
81.66322041659768
 20
-115.5224808044527
 30
0.0
 10
81.66322041659768
 20
-115.5224808044527
 30
0.0
 10
81.66290291660577
 20
-115.2396588600789
 30
0.0
 10
81.66290291660577
 20
-115.2396588600789
 30
0.0
 10
81.66290291660577
 20
-115.2396588600789
 30
0.0
 10
81.66322041659768
 20
-114.9568016379274
 30
0.0
 10
81.66322041659768
 20
-114.9568016379274
 30
0.0
 10
81.66322041659768
 20
-114.9568016379274
 30
0.0
 10
81.66322041659768
 20
-105.2397494181345
 30
0.0
 10
81.66322041659768
 20
-105.2397494181345
 30
0.0
 10
81.66322041659768
 20
-105.2397494181345
 30
0.0
 10
82.66299261331359
 20
-105.2397494181345
 30
0.0
 10
82.66299261331359
 20
-105.2397494181345
 30
0.0
 10
82.66299261331359
 20
-105.2397494181345
 30
0.0
 10
82.66299261331359
 20
-126.2396580239955
 30
0.0
 10
82.66299261331359
 20
-126.2396580239955
 30
0.0
 10
82.66299261331359
 20
-126.2396580239955
 30
0.0
 10
72.66325981287247
 20
-126.2396580239955
 30
0.0
 10
72.66325981287247
 20
-126.2396580239955
 30
0.0
 10
72.66325981287247
 20
-126.2396580239955
 30
0.0
 10
72.66325981287247
 20
-135.239971632857
 30
0.0
 10
72.66325981287247
 20
-135.239971632857
 30
0.0
 10
72.66325981287247
 20
-140.2105752427251
 30
0.0
 10
76.6926522100741
 20
-144.23993246394
 30
0.0
 10
81.66322041659768
 20
-144.23993246394
 30
0.0
 10
81.66322041659768
 20
-144.23993246394
 30
0.0
 10
90.66318331066739
 20
-144.23993246394
 30
0.0
 10
90.66318331066739
 20
-144.23993246394
 30
0.0
  0
HATCH
  5
42
330
1F
100
AcDbEntity
  8
_U+30EC_U+30A4_U+30E4_U+30FC 1
 62
     9
420
 12566464
100
AcDbHatch
 10
0.0
 20
0.0
 30
0.0
210
0.0
220
0.0
230
1.0
  2
SOLID
 70
     1
 71
     0
 91
        1
 92
        1
 93
        1
 72
     4
 94
        3
 73
     0
 74
     1
 95
       71
 96
       67
 40
0.0
 40
0.0
 40
0.0
 40
0.0
 40
1.0
 40
1.0
 40
1.0
 40
2.0
 40
2.0
 40
2.0
 40
3.0
 40
3.0
 40
3.0
 40
4.0
 40
4.0
 40
4.0
 40
5.0
 40
5.0
 40
5.0
 40
6.0
 40
6.0
 40
6.0
 40
7.0
 40
7.0
 40
7.0
 40
8.0
 40
8.0
 40
8.0
 40
9.0
 40
9.0
 40
9.0
 40
10.0
 40
10.0
 40
10.0
 40
11.0
 40
11.0
 40
11.0
 40
12.0
 40
12.0
 40
12.0
 40
13.0
 40
13.0
 40
13.0
 40
14.0
 40
14.0
 40
14.0
 40
15.0
 40
15.0
 40
15.0
 40
16.0
 40
16.0
 40
16.0
 40
17.0
 40
17.0
 40
17.0
 40
18.0
 40
18.0
 40
18.0
 40
19.0
 40
19.0
 40
19.0
 40
20.0
 40
20.0
 40
20.0
 40
21.0
 40
21.0
 40
21.0
 40
22.0
 40
22.0
 40
22.0
 40
22.0
 10
90.66318331066739
 20
-144.23993246394
 10
90.66318331066739
 20
-144.23993246394
 10
90.66318331066739
 20
-134.2395291331071
 10
90.66318331066739
 20
-134.2395291331071
 10
90.66318331066739
 20
-134.2395291331071
 10
111.6631243734586
 20
-134.2395291331071
 10
111.6631243734586
 20
-134.2395291331071
 10
111.6631243734586
 20
-134.2395291331071
 10
111.6631243734586
 20
-135.2396188550792
 10
111.6631243734586
 20
-135.2396188550792
 10
111.6631243734586
 20
-135.2396188550792
 10
101.9462135102465
 20
-135.2396188550792
 10
101.9462135102465
 20
-135.2396188550792
 10
101.9462135102465
 20
-135.2396188550792
 10
101.6633915730175
 20
-135.239301355079
 10
101.6633915730175
 20
-135.239301355079
 10
101.6633915730175
 20
-135.239301355079
 10
101.3805343580115
 20
-135.2396188550792
 10
101.3805343580115
 20
-135.2396188550792
 10
101.3805343580115
 20
-135.2396188550792
 10
91.6633083104177
 20
-135.2396188550792
 10
91.6633083104177
 20
-135.2396188550792
 10
91.6633083104177
 20
-135.2396188550792
 10
91.6633083104177
 20
-145.2397046859125
 10
91.6633083104177
 20
-145.2397046859125
 10
91.6633083104177
 20
-145.2397046859125
 10
81.66322041659768
 20
-145.2397046859125
 10
81.66322041659768
 20
-145.2397046859125
 10
76.14006111306077
 20
-145.2397046859125
 10
71.66313483838778
 20
-140.7624607981424
 10
71.66313483838778
 20
-135.239971632857
 10
71.66313483838778
 20
-135.239971632857
 10
71.66313483838778
 20
-125.2397446909123
 10
71.66313483838778
 20
-125.2397446909123
 10
71.66313483838778
 20
-125.2397446909123
 10
81.66322041659768
 20
-125.2397446909123
 10
81.66322041659768
 20
-125.2397446909123
 10
81.66322041659768
 20
-125.2397446909123
 10
81.66322041659768
 20
-115.5224808044527
 10
81.66322041659768
 20
-115.5224808044527
 10
81.66322041659768
 20
-115.5224808044527
 10
81.66290291660577
 20
-115.2396588600789
 10
81.66290291660577
 20
-115.2396588600789
 10
81.66290291660577
 20
-115.2396588600789
 10
81.66322041659768
 20
-114.9568016379274
 10
81.66322041659768
 20
-114.9568016379274
 10
81.66322041659768
 20
-114.9568016379274
 10
81.66322041659768
 20
-105.2397494181345
 10
81.66322041659768
 20
-105.2397494181345
 10
81.66322041659768
 20
-105.2397494181345
 10
82.66299261331359
 20
-105.2397494181345
 10
82.66299261331359
 20
-105.2397494181345
 10
82.66299261331359
 20
-105.2397494181345
 10
82.66299261331359
 20
-126.2396580239955
 10
82.66299261331359
 20
-126.2396580239955
 10
82.66299261331359
 20
-126.2396580239955
 10
72.66325981287247
 20
-126.2396580239955
 10
72.66325981287247
 20
-126.2396580239955
 10
72.66325981287247
 20
-126.2396580239955
 10
72.66325981287247
 20
-135.239971632857
 10
72.66325981287247
 20
-135.239971632857
 10
72.66325981287247
 20
-140.2105752427251
 10
76.6926522100741
 20
-144.23993246394
 10
81.66322041659768
 20
-144.23993246394
 10
81.66322041659768
 20
-144.23993246394
 10
90.66318331066739
 20
-144.23993246394
 10
90.66318331066739
 20
-144.23993246394
 97
        0
 97
        0
 75
     2
 76
     1
 98
        0
  0
POLYLINE
  5
43
330
1F
100
AcDbEntity
  8
_U+30EC_U+30A4_U+30E4_U+30FC 1
 62
   179
420
  2234388
370
     9
100
AcDb2dPolyline
 66
     1
 10
0.0
 20
0.0
 30
0.0
  0
VERTEX
  5
44
330
43
100
AcDbEntity
  8
_U+30EC_U+30A4_U+30E4_U+30FC 1
 62
   179
420
  2234388
370
     9
100
AcDbVertex
100
AcDb2dVertex
 10
71.66313483838778
 20
-149.6394432959237
 30
0.0
  0
VERTEX
  5
45
330
43
100
AcDbEntity
  8
_U+30EC_U+30A4_U+30E4_U+30FC 1
 62
   179
420
  2234388
370
     9
100
AcDbVertex
100
AcDb2dVertex
 10
91.44938155582079
 20
-149.6394432959237
 30
0.0
  0
SEQEND
  5
46
330
43
100
AcDbEntity
  8
_U+30EC_U+30A4_U+30E4_U+30FC 1
 62
   179
420
  2234388
370
     9
  0
POLYLINE
  5
47
330
1F
100
AcDbEntity
  8
_U+30EC_U+30A4_U+30E4_U+30FC 1
 62
   179
420
  2234388
370
     9
100
AcDb2dPolyline
 66
     1
 10
0.0
 20
0.0
 30
0.0
  0
VERTEX
  5
48
330
47
100
AcDbEntity
  8
_U+30EC_U+30A4_U+30E4_U+30FC 1
 62
   179
420
  2234388
370
     9
100
AcDbVertex
100
AcDb2dVertex
 10
71.66313483838778
 20
-151.7892005176081
 30
0.0
  0
VERTEX
  5
49
330
47
100
AcDbEntity
  8
_U+30EC_U+30A4_U+30E4_U+30FC 1
 62
   179
420
  2234388
370
     9
100
AcDbVertex
100
AcDb2dVertex
 10
71.66313483838778
 20
-138.7398446875372
 30
0.0
  0
SEQEND
  5
4A
330
47
100
AcDbEntity
  8
_U+30EC_U+30A4_U+30E4_U+30FC 1
 62
   179
420
  2234388
370
     9
  0
INSERT
  5
4C
330
1F
100
AcDbEntity
  8
_U+30EC_U+30A4_U+30E4_U+30FC 1
100
AcDbBlockReference
  2
block 2
 10
0.0
 20
0.0
 30
0.0
  0
POLYLINE
  5
54
330
1F
100
AcDbEntity
  8
_U+30EC_U+30A4_U+30E4_U+30FC 1
 62
   179
420
  2234388
370
     9
100
AcDb2dPolyline
 66
     1
 10
0.0
 20
0.0
 30
0.0
  0
VERTEX
  5
55
330
54
100
AcDbEntity
  8
_U+30EC_U+30A4_U+30E4_U+30FC 1
 62
   179
420
  2234388
370
     9
100
AcDbVertex
100
AcDb2dVertex
 10
81.66322041659768
 20
-151.5797210732164
 30
0.0
  0
VERTEX
  5
56
330
54
100
AcDbEntity
  8
_U+30EC_U+30A4_U+30E4_U+30FC 1
 62
   179
420
  2234388
370
     9
100
AcDbVertex
100
AcDb2dVertex
 10
81.66322041659768
 20
-148.5969496850729
 30
0.0
  0
SEQEND
  5
57
330
54
100
AcDbEntity
  8
_U+30EC_U+30A4_U+30E4_U+30FC 1
 62
   179
420
  2234388
370
     9
  0
POLYLINE
  5
58
330
1F
100
AcDbEntity
  8
_U+30EC_U+30A4_U+30E4_U+30FC 1
 62
   179
420
  2234388
370
     9
100
AcDb2dPolyline
 66
     1
 10
0.0
 20
0.0
 30
0.0
  0
VERTEX
  5
59
330
58
100
AcDbEntity
  8
_U+30EC_U+30A4_U+30E4_U+30FC 1
 62
   179
420
  2234388
370
     9
100
AcDbVertex
100
AcDb2dVertex
 10
91.5441023867376
 20
-151.5797210732164
 30
0.0
  0
VERTEX
  5
5A
330
58
100
AcDbEntity
  8
_U+30EC_U+30A4_U+30E4_U+30FC 1
 62
   179
420
  2234388
370
     9
100
AcDbVertex
100
AcDb2dVertex
 10
91.5441023867376
 20
-148.5969496850729
 30
0.0
  0
SEQEND
  5
5B
330
58
100
AcDbEntity
  8
_U+30EC_U+30A4_U+30E4_U+30FC 1
 62
   179
420
  2234388
370
     9
  0
INSERT
  5
5D
330
1F
100
AcDbEntity
  8
_U+30EC_U+30A4_U+30E4_U+30FC 1
100
AcDbBlockReference
  2
block 3
 10
0.0
 20
0.0
 30
0.0
  0
POLYLINE
  5
65
330
1F
100
AcDbEntity
  8
_U+30EC_U+30A4_U+30E4_U+30FC 1
 62
   179
420
  2234388
370
     9
100
AcDb2dPolyline
 66
     1
 10
0.0
 20
0.0
 30
0.0
  0
VERTEX
  5
66
330
65
100
AcDbEntity
  8
_U+30EC_U+30A4_U+30E4_U+30FC 1
 62
   179
420
  2234388
370
     9
100
AcDbVertex
100
AcDb2dVertex
 10
67.6423854965212
 20
-120.4804902476578
 30
0.0
  0
VERTEX
  5
67
330
65
100
AcDbEntity
  8
_U+30EC_U+30A4_U+30E4_U+30FC 1
 62
   179
420
  2234388
370
     9
100
AcDbVertex
100
AcDb2dVertex
 10
67.6423854965212
 20
-105.4019919180939
 30
0.0
  0
SEQEND
  5
68
330
65
100
AcDbEntity
  8
_U+30EC_U+30A4_U+30E4_U+30FC 1
 62
   179
420
  2234388
370
     9
  0
POLYLINE
  5
69
330
1F
100
AcDbEntity
  8
_U+30EC_U+30A4_U+30E4_U+30FC 1
 62
   179
420
  2234388
370
     9
100
AcDb2dPolyline
 66
     1
 10
0.0
 20
0.0
 30
0.0
  0
VERTEX
  5
6A
330
69
100
AcDbEntity
  8
_U+30EC_U+30A4_U+30E4_U+30FC 1
 62
   179
420
  2234388
370
     9
100
AcDbVertex
100
AcDb2dVertex
 10
67.6423854965212
 20
-145.3010527414527
 30
0.0
  0
VERTEX
  5
6B
330
69
100
AcDbEntity
  8
_U+30EC_U+30A4_U+30E4_U+30FC 1
 62
   179
420
  2234388
370
     9
100
AcDbVertex
100
AcDb2dVertex
 10
67.6423854965212
 20
-120.4804902476578
 30
0.0
  0
SEQEND
  5
6C
330
69
100
AcDbEntity
  8
_U+30EC_U+30A4_U+30E4_U+30FC 1
 62
   179
420
  2234388
370
     9
  0
POLYLINE
  5
6D
330
1F
100
AcDbEntity
  8
_U+30EC_U+30A4_U+30E4_U+30FC 1
 62
   179
420
  2234388
370
     9
100
AcDb2dPolyline
 66
     1
 10
0.0
 20
0.0
 30
0.0
  0
VERTEX
  5
6E
330
6D
100
AcDbEntity
  8
_U+30EC_U+30A4_U+30E4_U+30FC 1
 62
   179
420
  2234388
370
     9
100
AcDbVertex
100
AcDb2dVertex
 10
78.16302995033942
 20
-145.2397046859125
 30
0.0
  0
VERTEX
  5
6F
330
6D
100
AcDbEntity
  8
_U+30EC_U+30A4_U+30E4_U+30FC 1
 62
   179
420
  2234388
370
     9
100
AcDbVertex
100
AcDb2dVertex
 10
66.1696088674282
 20
-145.2397046859125
 30
0.0
  0
SEQEND
  5
70
330
6D
100
AcDbEntity
  8
_U+30EC_U+30A4_U+30E4_U+30FC 1
 62
   179
420
  2234388
370
     9
  0
POLYLINE
  5
71
330
1F
100
AcDbEntity
  8
_U+30EC_U+30A4_U+30E4_U+30FC 1
 62
   179
420
  2234388
370
     9
100
AcDb2dPolyline
 66
     1
 10
0.0
 20
0.0
 30
0.0
  0
VERTEX
  5
72
330
71
100
AcDbEntity
  8
_U+30EC_U+30A4_U+30E4_U+30FC 1
 62
   179
420
  2234388
370
     9
100
AcDbVertex
100
AcDb2dVertex
 10
71.05304096506369
 20
-125.2397446909123
 30
0.0
  0
VERTEX
  5
73
330
71
100
AcDbEntity
  8
_U+30EC_U+30A4_U+30E4_U+30FC 1
 62
   179
420
  2234388
370
     9
100
AcDbVertex
100
AcDb2dVertex
 10
66.04800637053053
 20
-125.2397446909123
 30
0.0
  0
SEQEND
  5
74
330
71
100
AcDbEntity
  8
_U+30EC_U+30A4_U+30E4_U+30FC 1
 62
   179
420
  2234388
370
     9
  0
POLYLINE
  5
75
330
1F
100
AcDbEntity
  8
_U+30EC_U+30A4_U+30E4_U+30FC 1
 62
   179
420
  2234388
370
     9
100
AcDb2dPolyline
 66
     1
 10
0.0
 20
0.0
 30
0.0
  0
VERTEX
  5
76
330
75
100
AcDbEntity
  8
_U+30EC_U+30A4_U+30E4_U+30FC 1
 62
   179
420
  2234388
370
     9
100
AcDbVertex
100
AcDb2dVertex
 10
80.51327072371312
 20
-105.2397494181345
 30
0.0
  0
VERTEX
  5
77
330
75
100
AcDbEntity
  8
_U+30EC_U+30A4_U+30E4_U+30FC 1
 62
   179
420
  2234388
370
     9
100
AcDbVertex
100
AcDb2dVertex
 10
66.04800637053053
 20
-105.2397494181345
 30
0.0
  0
SEQEND
  5
78
330
75
100
AcDbEntity
  8
_U+30EC_U+30A4_U+30E4_U+30FC 1
 62
   179
420
  2234388
370
     9
  0
INSERT
  5
7A
330
1F
100
AcDbEntity
  8
_U+30EC_U+30A4_U+30E4_U+30FC 1
100
AcDbBlockReference
  2
block 4
 10
0.0
 20
0.0
 30
0.0
  0
INSERT
  5
83
330
1F
100
AcDbEntity
  8
_U+30EC_U+30A4_U+30E4_U+30FC 1
100
AcDbBlockReference
  2
block 5
 10
0.0
 20
0.0
 30
0.0
  0
POLYLINE
  5
8B
330
1F
100
AcDbEntity
  8
_U+30EC_U+30A4_U+30E4_U+30FC 1
 62
   179
420
  2234388
370
     9
100
AcDb2dPolyline
 66
     1
 10
0.0
 20
0.0
 30
0.0
  0
VERTEX
  5
8C
330
8B
100
AcDbEntity
  8
_U+30EC_U+30A4_U+30E4_U+30FC 1
 62
   179
420
  2234388
370
     9
100
AcDbVertex
100
AcDb2dVertex
 10
115.8799123214349
 20
-135.2268835773042
 30
0.0
  0
VERTEX
  5
8D
330
8B
100
AcDbEntity
  8
_U+30EC_U+30A4_U+30E4_U+30FC 1
 62
   179
420
  2234388
370
     9
100
AcDbVertex
100
AcDb2dVertex
 10
115.8799123214349
 20
-134.2395291331071
 30
0.0
  0
SEQEND
  5
8E
330
8B
100
AcDbEntity
  8
_U+30EC_U+30A4_U+30E4_U+30FC 1
 62
   179
420
  2234388
370
     9
  0
POLYLINE
  5
8F
330
1F
100
AcDbEntity
  8
_U+30EC_U+30A4_U+30E4_U+30FC 1
 62
   179
420
  2234388
370
     9
100
AcDb2dPolyline
 66
     1
 10
0.0
 20
0.0
 30
0.0
  0
VERTEX
  5
90
330
8F
100
AcDbEntity
  8
_U+30EC_U+30A4_U+30E4_U+30FC 1
 62
   179
420
  2234388
370
     9
100
AcDbVertex
100
AcDb2dVertex
 10
115.8792420436742
 20
-145.2307441303591
 30
0.0
  0
VERTEX
  5
91
330
8F
100
AcDbEntity
  8
_U+30EC_U+30A4_U+30E4_U+30FC 1
 62
   179
420
  2234388
370
     9
100
AcDbVertex
100
AcDb2dVertex
 10
115.8792420436742
 20
-135.2268835773042
 30
0.0
  0
SEQEND
  5
92
330
8F
100
AcDbEntity
  8
_U+30EC_U+30A4_U+30E4_U+30FC 1
 62
   179
420
  2234388
370
     9
  0
POLYLINE
  5
93
330
1F
100
AcDbEntity
  8
_U+30EC_U+30A4_U+30E4_U+30FC 1
 62
   179
420
  2234388
370
     9
100
AcDb2dPolyline
 66
     1
 10
0.0
 20
0.0
 30
0.0
  0
VERTEX
  5
94
330
93
100
AcDbEntity
  8
_U+30EC_U+30A4_U+30E4_U+30FC 1
 62
   179
420
  2234388
370
     9
100
AcDbVertex
100
AcDb2dVertex
 10
117.2317567313909
 20
-145.2397046859125
 30
0.0
  0
VERTEX
  5
95
330
93
100
AcDbEntity
  8
_U+30EC_U+30A4_U+30E4_U+30FC 1
 62
   179
420
  2234388
370
     9
100
AcDbVertex
100
AcDb2dVertex
 10
92.81329096546901
 20
-145.2397046859125
 30
0.0
  0
SEQEND
  5
96
330
93
100
AcDbEntity
  8
_U+30EC_U+30A4_U+30E4_U+30FC 1
 62
   179
420
  2234388
370
     9
  0
POLYLINE
  5
97
330
1F
100
AcDbEntity
  8
_U+30EC_U+30A4_U+30E4_U+30FC 1
 62
   179
420
  2234388
370
     9
100
AcDb2dPolyline
 66
     1
 10
0.0
 20
0.0
 30
0.0
  0
VERTEX
  5
98
330
97
100
AcDbEntity
  8
_U+30EC_U+30A4_U+30E4_U+30FC 1
 62
   179
420
  2234388
370
     9
100
AcDbVertex
100
AcDb2dVertex
 10
117.2317567313909
 20
-135.239971632857
 30
0.0
  0
VERTEX
  5
99
330
97
100
AcDbEntity
  8
_U+30EC_U+30A4_U+30E4_U+30FC 1
 62
   179
420
  2234388
370
     9
100
AcDbVertex
100
AcDb2dVertex
 10
112.81310934412
 20
-135.239971632857
 30
0.0
  0
SEQEND
  5
9A
330
97
100
AcDbEntity
  8
_U+30EC_U+30A4_U+30E4_U+30FC 1
 62
   179
420
  2234388
370
     9
  0
POLYLINE
  5
9B
330
1F
100
AcDbEntity
  8
_U+30EC_U+30A4_U+30E4_U+30FC 1
 62
   179
420
  2234388
370
     9
100
AcDb2dPolyline
 66
     1
 10
0.0
 20
0.0
 30
0.0
  0
VERTEX
  5
9C
330
9B
100
AcDbEntity
  8
_U+30EC_U+30A4_U+30E4_U+30FC 1
 62
   179
420
  2234388
370
     9
100
AcDbVertex
100
AcDb2dVertex
 10
117.2317567313909
 20
-134.2395291331071
 30
0.0
  0
VERTEX
  5
9D
330
9B
100
AcDbEntity
  8
_U+30EC_U+30A4_U+30E4_U+30FC 1
 62
   179
420
  2234388
370
     9
100
AcDbVertex
100
AcDb2dVertex
 10
112.81310934412
 20
-134.2395291331071
 30
0.0
  0
SEQEND
  5
9E
330
9B
100
AcDbEntity
  8
_U+30EC_U+30A4_U+30E4_U+30FC 1
 62
   179
420
  2234388
370
     9
  0
INSERT
  5
A0
330
1F
100
AcDbEntity
  8
_U+30EC_U+30A4_U+30E4_U+30FC 1
100
AcDbBlockReference
  2
block 6
 10
0.0
 20
0.0
 30
0.0
  0
INSERT
  5
A9
330
1F
100
AcDbEntity
  8
_U+30EC_U+30A4_U+30E4_U+30FC 1
100
AcDbBlockReference
  2
block 7
 10
0.0
 20
0.0
 30
0.0
  0
SPLINE
  5
AE
330
1F
100
AcDbEntity
  8
_U+30EC_U+30A4_U+30E4_U+30FC 1
 62
   179
420
  2234388
370
     9
100
AcDbSpline
210
0.0
220
0.0
230
1.0
 70
    11
 71
     3
 72
    17
 73
    13
 74
     0
 42
0.0000000001
 43
0.0000000001
 12
1.0
 22
0.0
 32
0.0
 13
1.0
 23
0.0
 33
0.0
 40
0.0
 40
0.0
 40
0.0
 40
0.0
 40
1.0
 40
1.0
 40
1.0
 40
2.0
 40
2.0
 40
2.0
 40
3.0
 40
3.0
 40
3.0
 40
4.0
 40
4.0
 40
4.0
 40
4.0
 10
115.981194818851
 20
-145.2390344081345
 30
0.0
 10
115.981194818851
 20
-145.1838952414821
 30
0.0
 10
115.9364273199931
 20
-145.1391277414929
 30
0.0
 10
115.8812881547332
 20
-145.1391277414929
 30
0.0
 10
115.8261842672501
 20
-145.1391277414929
 30
0.0
 10
115.7817342683841
 20
-145.1838952414821
 30
0.0
 10
115.7817342683841
 20
-145.2390344081345
 30
0.0
 10
115.7817342683841
 20
-145.2944910747872
 30
0.0
 10
115.8261842672501
 20
-145.3392938525539
 30
0.0
 10
115.8812881547332
 20
-145.3392938525539
 30
0.0
 10
115.9364273199931
 20
-145.3392938525539
 30
0.0
 10
115.981194818851
 20
-145.2944910747872
 30
0.0
 10
115.981194818851
 20
-145.2390344081345
 30
0.0
  0
SPLINE
  5
AF
330
1F
100
AcDbEntity
  8
_U+30EC_U+30A4_U+30E4_U+30FC 1
 62
   179
420
  2234388
370
     9
100
AcDbSpline
210
0.0
220
0.0
230
1.0
 70
    11
 71
     3
 72
    17
 73
    13
 74
     0
 42
0.0000000001
 43
0.0000000001
 12
1.0
 22
0.0
 32
0.0
 13
1.0
 23
0.0
 33
0.0
 40
0.0
 40
0.0
 40
0.0
 40
0.0
 40
1.0
 40
1.0
 40
1.0
 40
2.0
 40
2.0
 40
2.0
 40
3.0
 40
3.0
 40
3.0
 40
4.0
 40
4.0
 40
4.0
 40
4.0
 10
115.981194818851
 20
-135.239971632857
 30
0.0
 10
115.981194818851
 20
-135.1848677439814
 30
0.0
 10
115.9364273199931
 20
-135.1400649662147
 30
0.0
 10
115.8812881547332
 20
-135.1400649662147
 30
0.0
 10
115.8261842672501
 20
-135.1400649662147
 30
0.0
 10
115.7817342683841
 20
-135.1848677439814
 30
0.0
 10
115.7817342683841
 20
-135.239971632857
 30
0.0
 10
115.7817342683841
 20
-135.2947580217316
 30
0.0
 10
115.8261842672501
 20
-135.3398782994986
 30
0.0
 10
115.8812881547332
 20
-135.3398782994986
 30
0.0
 10
115.9364273199931
 20
-135.3398782994986
 30
0.0
 10
115.981194818851
 20
-135.2947580217316
 30
0.0
 10
115.981194818851
 20
-135.239971632857
 30
0.0
  0
SPLINE
  5
B0
330
1F
100
AcDbEntity
  8
_U+30EC_U+30A4_U+30E4_U+30FC 1
 62
   179
420
  2234388
370
     9
100
AcDbSpline
210
0.0
220
0.0
230
1.0
 70
    11
 71
     3
 72
    17
 73
    13
 74
     0
 42
0.0000000001
 43
0.0000000001
 12
1.0
 22
0.0
 32
0.0
 13
1.0
 23
0.0
 33
0.0
 40
0.0
 40
0.0
 40
0.0
 40
0.0
 40
1.0
 40
1.0
 40
1.0
 40
2.0
 40
2.0
 40
2.0
 40
3.0
 40
3.0
 40
3.0
 40
4.0
 40
4.0
 40
4.0
 40
4.0
 10
115.981194818851
 20
-134.2395291331071
 30
0.0
 10
115.981194818851
 20
-134.184389966454
 30
0.0
 10
115.9364273199931
 20
-134.1396224664654
 30
0.0
 10
115.8812881547332
 20
-134.1396224664654
 30
0.0
 10
115.8261842672501
 20
-134.1396224664654
 30
0.0
 10
115.7817342683841
 20
-134.184389966454
 30
0.0
 10
115.7817342683841
 20
-134.2395291331071
 30
0.0
 10
115.7817342683841
 20
-134.2949857997597
 30
0.0
 10
115.8261842672501
 20
-134.3394357997487
 30
0.0
 10
115.8812881547332
 20
-134.3394357997487
 30
0.0
 10
115.9364273199931
 20
-134.3394357997487
 30
0.0
 10
115.981194818851
 20
-134.2949857997597
 30
0.0
 10
115.981194818851
 20
-134.2395291331071
 30
0.0
  0
POLYLINE
  5
B1
330
1F
100
AcDbEntity
  8
_U+30EC_U+30A4_U+30E4_U+30FC 1
 62
   179
420
  2234388
370
     9
100
AcDb2dPolyline
 66
     1
 10
0.0
 20
0.0
 30
0.0
  0
VERTEX
  5
B2
330
B1
100
AcDbEntity
  8
_U+30EC_U+30A4_U+30E4_U+30FC 1
 62
   179
420
  2234388
370
     9
100
AcDbVertex
100
AcDb2dVertex
 10
74.73893364880651
 20
-142.454700519942
 30
0.0
  0
VERTEX
  5
B3
330
B1
100
AcDbEntity
  8
_U+30EC_U+30A4_U+30E4_U+30FC 1
 62
   179
420
  2234388
370
     9
100
AcDbVertex
100
AcDb2dVertex
 10
75.64190553664497
 20
-141.9331185756276
 30
0.0
  0
SEQEND
  5
B4
330
B1
100
AcDbEntity
  8
_U+30EC_U+30A4_U+30E4_U+30FC 1
 62
   179
420
  2234388
370
     9
  0
POLYLINE
  5
B5
330
1F
100
AcDbEntity
  8
_U+30EC_U+30A4_U+30E4_U+30FC 1
 62
   179
420
  2234388
370
     9
100
AcDb2dPolyline
 66
     1
 10
0.0
 20
0.0
 30
0.0
  0
VERTEX
  5
B6
330
B5
100
AcDbEntity
  8
_U+30EC_U+30A4_U+30E4_U+30FC 1
 62
   179
420
  2234388
370
     9
100
AcDbVertex
100
AcDb2dVertex
 10
74.73893364880651
 20
-142.454700519942
 30
0.0
  0
VERTEX
  5
B7
330
B5
100
AcDbEntity
  8
_U+30EC_U+30A4_U+30E4_U+30FC 1
 62
   179
420
  2234388
370
     9
100
AcDbVertex
100
AcDb2dVertex
 10
88.92652662018419
 20
-127.7413977458424
 30
0.0
  0
SEQEND
  5
B8
330
B5
100
AcDbEntity
  8
_U+30EC_U+30A4_U+30E4_U+30FC 1
 62
   179
420
  2234388
370
     9
  0
POLYLINE
  5
B9
330
1F
100
AcDbEntity
  8
_U+30EC_U+30A4_U+30E4_U+30FC 1
 62
   179
420
  2234388
370
     9
100
AcDb2dPolyline
 66
     1
 10
0.0
 20
0.0
 30
0.0
  0
VERTEX
  5
BA
330
B9
100
AcDbEntity
  8
_U+30EC_U+30A4_U+30E4_U+30FC 1
 62
   179
420
  2234388
370
     9
100
AcDbVertex
100
AcDb2dVertex
 10
74.73893364880651
 20
-142.454700519942
 30
0.0
  0
VERTEX
  5
BB
330
B9
100
AcDbEntity
  8
_U+30EC_U+30A4_U+30E4_U+30FC 1
 62
   179
420
  2234388
370
     9
100
AcDbVertex
100
AcDb2dVertex
 10
75.26086835771306
 20
-141.5520832979453
 30
0.0
  0
SEQEND
  5
BC
330
B9
100
AcDbEntity
  8
_U+30EC_U+30A4_U+30E4_U+30FC 1
 62
   179
420
  2234388
370
     9
  0
INSERT
  5
BE
330
1F
100
AcDbEntity
  8
_U+30EC_U+30A4_U+30E4_U+30FC 1
100
AcDbBlockReference
  2
block 8
 10
0.0
 20
0.0
 30
0.0
  0
SPLINE
  5
C9
330
1F
100
AcDbEntity
  8
_U+30EC_U+30A4_U+30E4_U+30FC 1
 62
   179
420
  2234388
370
     9
100
AcDbSpline
210
0.0
220
0.0
230
1.0
 70
    11
 71
     3
 72
    17
 73
    13
 74
     0
 42
0.0000000001
 43
0.0000000001
 12
1.0
 22
0.0
 32
0.0
 13
1.0
 23
0.0
 33
0.0
 40
0.0
 40
0.0
 40
0.0
 40
0.0
 40
1.0
 40
1.0
 40
1.0
 40
2.0
 40
2.0
 40
2.0
 40
3.0
 40
3.0
 40
3.0
 40
4.0
 40
4.0
 40
4.0
 40
4.0
 10
67.74229216063904
 20
-105.2397494181345
 30
0.0
 10
67.74229216063904
 20
-105.2950296958986
 30
0.0
 10
67.69748938400427
 20
-105.339832473665
 30
0.0
 10
67.6423854965212
 20
-105.339832473665
 30
0.0
 10
67.58724633126126
 20
-105.339832473665
 30
0.0
 10
67.54248053866988
 20
-105.2950296958986
 30
0.0
 10
67.54248053866988
 20
-105.2397494181345
 30
0.0
 10
67.54248053866988
 20
-105.1846102514817
 30
0.0
 10
67.58724633126126
 20
-105.1398427514928
 30
0.0
 10
67.6423854965212
 20
-105.1398427514928
 30
0.0
 10
67.69748938400427
 20
-105.1398427514928
 30
0.0
 10
67.74229216063904
 20
-105.1846102514817
 30
0.0
 10
67.74229216063904
 20
-105.2397494181345
 30
0.0
  0
HATCH
  5
CA
330
1F
100
AcDbEntity
  8
_U+30EC_U+30A4_U+30E4_U+30FC 1
 62
   179
420
  2234388
100
AcDbHatch
 10
0.0
 20
0.0
 30
0.0
210
0.0
220
0.0
230
1.0
  2
SOLID
 70
     1
 71
     0
 91
        1
 92
        1
 93
        1
 72
     4
 94
        3
 73
     0
 74
     1
 95
       17
 96
       13
 40
0.0
 40
0.0
 40
0.0
 40
0.0
 40
1.0
 40
1.0
 40
1.0
 40
2.0
 40
2.0
 40
2.0
 40
3.0
 40
3.0
 40
3.0
 40
4.0
 40
4.0
 40
4.0
 40
4.0
 10
67.74229216063904
 20
-105.2397494181345
 10
67.74229216063904
 20
-105.2950296958986
 10
67.69748938400427
 20
-105.339832473665
 10
67.6423854965212
 20
-105.339832473665
 10
67.58724633126126
 20
-105.339832473665
 10
67.54248053866988
 20
-105.2950296958986
 10
67.54248053866988
 20
-105.2397494181345
 10
67.54248053866988
 20
-105.1846102514817
 10
67.58724633126126
 20
-105.1398427514928
 10
67.6423854965212
 20
-105.1398427514928
 10
67.69748938400427
 20
-105.1398427514928
 10
67.74229216063904
 20
-105.1846102514817
 10
67.74229216063904
 20
-105.2397494181345
 97
        0
 97
        0
 75
     2
 76
     1
 98
        0
  0
SPLINE
  5
CB
330
1F
100
AcDbEntity
  8
_U+30EC_U+30A4_U+30E4_U+30FC 1
 62
   179
420
  2234388
370
     9
100
AcDbSpline
210
0.0
220
0.0
230
1.0
 70
    11
 71
     3
 72
    17
 73
    13
 74
     0
 42
0.0000000001
 43
0.0000000001
 12
1.0
 22
0.0
 32
0.0
 13
1.0
 23
0.0
 33
0.0
 40
0.0
 40
0.0
 40
0.0
 40
0.0
 40
1.0
 40
1.0
 40
1.0
 40
2.0
 40
2.0
 40
2.0
 40
3.0
 40
3.0
 40
3.0
 40
4.0
 40
4.0
 40
4.0
 40
4.0
 10
67.74229216063904
 20
-125.2397446909123
 30
0.0
 10
67.74229216063904
 20
-125.2950249686764
 30
0.0
 10
67.69748938400427
 20
-125.3397924686649
 30
0.0
 10
67.6423854965212
 20
-125.3397924686649
 30
0.0
 10
67.58724633126126
 20
-125.3397924686649
 30
0.0
 10
67.54248053866988
 20
-125.2950249686764
 30
0.0
 10
67.54248053866988
 20
-125.2397446909123
 30
0.0
 10
67.54248053866988
 20
-125.1846055242595
 30
0.0
 10
67.58724633126126
 20
-125.1398380242706
 30
0.0
 10
67.6423854965212
 20
-125.1398380242706
 30
0.0
 10
67.69748938400427
 20
-125.1398380242706
 30
0.0
 10
67.74229216063904
 20
-125.1846055242595
 30
0.0
 10
67.74229216063904
 20
-125.2397446909123
 30
0.0
  0
HATCH
  5
CC
330
1F
100
AcDbEntity
  8
_U+30EC_U+30A4_U+30E4_U+30FC 1
 62
   179
420
  2234388
100
AcDbHatch
 10
0.0
 20
0.0
 30
0.0
210
0.0
220
0.0
230
1.0
  2
SOLID
 70
     1
 71
     0
 91
        1
 92
        1
 93
        1
 72
     4
 94
        3
 73
     0
 74
     1
 95
       17
 96
       13
 40
0.0
 40
0.0
 40
0.0
 40
0.0
 40
1.0
 40
1.0
 40
1.0
 40
2.0
 40
2.0
 40
2.0
 40
3.0
 40
3.0
 40
3.0
 40
4.0
 40
4.0
 40
4.0
 40
4.0
 10
67.74229216063904
 20
-125.2397446909123
 10
67.74229216063904
 20
-125.2950249686764
 10
67.69748938400427
 20
-125.3397924686649
 10
67.6423854965212
 20
-125.3397924686649
 10
67.58724633126126
 20
-125.3397924686649
 10
67.54248053866988
 20
-125.2950249686764
 10
67.54248053866988
 20
-125.2397446909123
 10
67.54248053866988
 20
-125.1846055242595
 10
67.58724633126126
 20
-125.1398380242706
 10
67.6423854965212
 20
-125.1398380242706
 10
67.69748938400427
 20
-125.1398380242706
 10
67.74229216063904
 20
-125.1846055242595
 10
67.74229216063904
 20
-125.2397446909123
 97
        0
 97
        0
 75
     2
 76
     1
 98
        0
  0
SPLINE
  5
CD
330
1F
100
AcDbEntity
  8
_U+30EC_U+30A4_U+30E4_U+30FC 1
 62
   179
420
  2234388
370
     9
100
AcDbSpline
210
0.0
220
0.0
230
1.0
 70
    11
 71
     3
 72
    17
 73
    13
 74
     0
 42
0.0000000001
 43
0.0000000001
 12
1.0
 22
0.0
 32
0.0
 13
1.0
 23
0.0
 33
0.0
 40
0.0
 40
0.0
 40
0.0
 40
0.0
 40
1.0
 40
1.0
 40
1.0
 40
2.0
 40
2.0
 40
2.0
 40
3.0
 40
3.0
 40
3.0
 40
4.0
 40
4.0
 40
4.0
 40
4.0
 10
67.74229216063904
 20
-145.2397046859125
 30
0.0
 10
67.74229216063904
 20
-145.294843852565
 30
0.0
 10
67.69748938400427
 20
-145.3396113525542
 30
0.0
 10
67.6423854965212
 20
-145.3396113525542
 30
0.0
 10
67.58724633126126
 20
-145.3396113525542
 30
0.0
 10
67.54248053866988
 20
-145.294843852565
 30
0.0
 10
67.54248053866988
 20
-145.2397046859125
 30
0.0
 10
67.54248053866988
 20
-145.184600797037
 30
0.0
 10
67.58724633126126
 20
-145.1397980192709
 30
0.0
 10
67.6423854965212
 20
-145.1397980192709
 30
0.0
 10
67.69748938400427
 20
-145.1397980192709
 30
0.0
 10
67.74229216063904
 20
-145.184600797037
 30
0.0
 10
67.74229216063904
 20
-145.2397046859125
 30
0.0
  0
HATCH
  5
CE
330
1F
100
AcDbEntity
  8
_U+30EC_U+30A4_U+30E4_U+30FC 1
 62
   179
420
  2234388
100
AcDbHatch
 10
0.0
 20
0.0
 30
0.0
210
0.0
220
0.0
230
1.0
  2
SOLID
 70
     1
 71
     0
 91
        1
 92
        1
 93
        1
 72
     4
 94
        3
 73
     0
 74
     1
 95
       17
 96
       13
 40
0.0
 40
0.0
 40
0.0
 40
0.0
 40
1.0
 40
1.0
 40
1.0
 40
2.0
 40
2.0
 40
2.0
 40
3.0
 40
3.0
 40
3.0
 40
4.0
 40
4.0
 40
4.0
 40
4.0
 10
67.74229216063904
 20
-145.2397046859125
 10
67.74229216063904
 20
-145.294843852565
 10
67.69748938400427
 20
-145.3396113525542
 10
67.6423854965212
 20
-145.3396113525542
 10
67.58724633126126
 20
-145.3396113525542
 10
67.54248053866988
 20
-145.294843852565
 10
67.54248053866988
 20
-145.2397046859125
 10
67.54248053866988
 20
-145.184600797037
 10
67.58724633126126
 20
-145.1397980192709
 10
67.6423854965212
 20
-145.1397980192709
 10
67.69748938400427
 20
-145.1397980192709
 10
67.74229216063904
 20
-145.184600797037
 10
67.74229216063904
 20
-145.2397046859125
 97
        0
 97
        0
 75
     2
 76
     1
 98
        0
  0
SPLINE
  5
CF
330
1F
100
AcDbEntity
  8
_U+30EC_U+30A4_U+30E4_U+30FC 1
 62
   179
420
  2234388
370
     9
100
AcDbSpline
210
0.0
220
0.0
230
1.0
 70
    11
 71
     3
 72
    17
 73
    13
 74
     0
 42
0.0000000001
 43
0.0000000001
 12
1.0
 22
0.0
 32
0.0
 13
1.0
 23
0.0
 33
0.0
 40
0.0
 40
0.0
 40
0.0
 40
0.0
 40
1.0
 40
1.0
 40
1.0
 40
2.0
 40
2.0
 40
2.0
 40
3.0
 40
3.0
 40
3.0
 40
4.0
 40
4.0
 40
4.0
 40
4.0
 10
91.64436182862421
 20
-149.639090518146
 30
0.0
 10
91.64436182862421
 20
-149.6942296847984
 30
0.0
 10
91.59955905198944
 20
-149.7389971847876
 30
0.0
 10
91.54445516450637
 20
-149.7389971847876
 30
0.0
 10
91.48899849925452
 20
-149.7389971847876
 30
0.0
 10
91.44419572261977
 20
-149.6942296847984
 30
0.0
 10
91.44419572261977
 20
-149.639090518146
 30
0.0
 10
91.44419572261977
 20
-149.5839866292704
 30
0.0
 10
91.48899849925452
 20
-149.5391838515043
 30
0.0
 10
91.54445516450637
 20
-149.5391838515043
 30
0.0
 10
91.59955905198944
 20
-149.5391838515043
 30
0.0
 10
91.64436182862421
 20
-149.5839866292704
 30
0.0
 10
91.64436182862421
 20
-149.639090518146
 30
0.0
  0
HATCH
  5
D0
330
1F
100
AcDbEntity
  8
_U+30EC_U+30A4_U+30E4_U+30FC 1
 62
   179
420
  2234388
100
AcDbHatch
 10
0.0
 20
0.0
 30
0.0
210
0.0
220
0.0
230
1.0
  2
SOLID
 70
     1
 71
     0
 91
        1
 92
        1
 93
        1
 72
     4
 94
        3
 73
     0
 74
     1
 95
       17
 96
       13
 40
0.0
 40
0.0
 40
0.0
 40
0.0
 40
1.0
 40
1.0
 40
1.0
 40
2.0
 40
2.0
 40
2.0
 40
3.0
 40
3.0
 40
3.0
 40
4.0
 40
4.0
 40
4.0
 40
4.0
 10
91.64436182862421
 20
-149.639090518146
 10
91.64436182862421
 20
-149.6942296847984
 10
91.59955905198944
 20
-149.7389971847876
 10
91.54445516450637
 20
-149.7389971847876
 10
91.48899849925452
 20
-149.7389971847876
 10
91.44419572261977
 20
-149.6942296847984
 10
91.44419572261977
 20
-149.639090518146
 10
91.44419572261977
 20
-149.5839866292704
 10
91.48899849925452
 20
-149.5391838515043
 10
91.54445516450637
 20
-149.5391838515043
 10
91.59955905198944
 20
-149.5391838515043
 10
91.64436182862421
 20
-149.5839866292704
 10
91.64436182862421
 20
-149.639090518146
 97
        0
 97
        0
 75
     2
 76
     1
 98
        0
  0
SPLINE
  5
D1
330
1F
100
AcDbEntity
  8
_U+30EC_U+30A4_U+30E4_U+30FC 1
 62
   179
420
  2234388
370
     9
100
AcDbSpline
210
0.0
220
0.0
230
1.0
 70
    11
 71
     3
 72
    17
 73
    13
 74
     0
 42
0.0000000001
 43
0.0000000001
 12
1.0
 22
0.0
 32
0.0
 13
1.0
 23
0.0
 33
0.0
 40
0.0
 40
0.0
 40
0.0
 40
0.0
 40
1.0
 40
1.0
 40
1.0
 40
2.0
 40
2.0
 40
2.0
 40
3.0
 40
3.0
 40
3.0
 40
4.0
 40
4.0
 40
4.0
 40
4.0
 10
81.77004152498355
 20
-149.639090518146
 30
0.0
 10
81.77004152498355
 20
-149.6942296847984
 30
0.0
 10
81.72523874834879
 20
-149.7389971847876
 30
0.0
 10
81.67013486086572
 20
-149.7389971847876
 30
0.0
 10
81.61499569560577
 20
-149.7389971847876
 30
0.0
 10
81.57022819674789
 20
-149.6942296847984
 30
0.0
 10
81.57022819674789
 20
-149.639090518146
 30
0.0
 10
81.57022819674789
 20
-149.5839866292704
 30
0.0
 10
81.61499569560577
 20
-149.5391838515043
 30
0.0
 10
81.67013486086572
 20
-149.5391838515043
 30
0.0
 10
81.72523874834879
 20
-149.5391838515043
 30
0.0
 10
81.77004152498355
 20
-149.5839866292704
 30
0.0
 10
81.77004152498355
 20
-149.639090518146
 30
0.0
  0
HATCH
  5
D2
330
1F
100
AcDbEntity
  8
_U+30EC_U+30A4_U+30E4_U+30FC 1
 62
   179
420
  2234388
100
AcDbHatch
 10
0.0
 20
0.0
 30
0.0
210
0.0
220
0.0
230
1.0
  2
SOLID
 70
     1
 71
     0
 91
        1
 92
        1
 93
        1
 72
     4
 94
        3
 73
     0
 74
     1
 95
       17
 96
       13
 40
0.0
 40
0.0
 40
0.0
 40
0.0
 40
1.0
 40
1.0
 40
1.0
 40
2.0
 40
2.0
 40
2.0
 40
3.0
 40
3.0
 40
3.0
 40
4.0
 40
4.0
 40
4.0
 40
4.0
 10
81.77004152498355
 20
-149.639090518146
 10
81.77004152498355
 20
-149.6942296847984
 10
81.72523874834879
 20
-149.7389971847876
 10
81.67013486086572
 20
-149.7389971847876
 10
81.61499569560577
 20
-149.7389971847876
 10
81.57022819674789
 20
-149.6942296847984
 10
81.57022819674789
 20
-149.639090518146
 10
81.57022819674789
 20
-149.5839866292704
 10
81.61499569560577
 20
-149.5391838515043
 10
81.67013486086572
 20
-149.5391838515043
 10
81.72523874834879
 20
-149.5391838515043
 10
81.77004152498355
 20
-149.5839866292704
 10
81.77004152498355
 20
-149.639090518146
 97
        0
 97
        0
 75
     2
 76
     1
 98
        0
  0
SPLINE
  5
D3
330
1F
100
AcDbEntity
  8
_U+30EC_U+30A4_U+30E4_U+30FC 1
 62
   179
420
  2234388
370
     9
100
AcDbSpline
210
0.0
220
0.0
230
1.0
 70
    11
 71
     3
 72
    17
 73
    13
 74
     0
 42
0.0000000001
 43
0.0000000001
 12
1.0
 22
0.0
 32
0.0
 13
1.0
 23
0.0
 33
0.0
 40
0.0
 40
0.0
 40
0.0
 40
0.0
 40
1.0
 40
1.0
 40
1.0
 40
2.0
 40
2.0
 40
2.0
 40
3.0
 40
3.0
 40
3.0
 40
4.0
 40
4.0
 40
4.0
 40
4.0
 10
71.76307678028249
 20
-149.639090518146
 30
0.0
 10
71.76307678028249
 20
-149.6942296847984
 30
0.0
 10
71.71827400364774
 20
-149.7389971847876
 30
0.0
 10
71.66313483838778
 20
-149.7389971847876
 30
0.0
 10
71.60767817313594
 20
-149.7389971847876
 30
0.0
 10
71.56291067427804
 20
-149.6942296847984
 30
0.0
 10
71.56291067427804
 20
-149.639090518146
 30
0.0
 10
71.56291067427804
 20
-149.5839866292704
 30
0.0
 10
71.60767817313594
 20
-149.5391838515043
 30
0.0
 10
71.66313483838778
 20
-149.5391838515043
 30
0.0
 10
71.71827400364774
 20
-149.5391838515043
 30
0.0
 10
71.76307678028249
 20
-149.5839866292704
 30
0.0
 10
71.76307678028249
 20
-149.639090518146
 30
0.0
  0
HATCH
  5
D4
330
1F
100
AcDbEntity
  8
_U+30EC_U+30A4_U+30E4_U+30FC 1
 62
   179
420
  2234388
100
AcDbHatch
 10
0.0
 20
0.0
 30
0.0
210
0.0
220
0.0
230
1.0
  2
SOLID
 70
     1
 71
     0
 91
        1
 92
        1
 93
        1
 72
     4
 94
        3
 73
     0
 74
     1
 95
       17
 96
       13
 40
0.0
 40
0.0
 40
0.0
 40
0.0
 40
1.0
 40
1.0
 40
1.0
 40
2.0
 40
2.0
 40
2.0
 40
3.0
 40
3.0
 40
3.0
 40
4.0
 40
4.0
 40
4.0
 40
4.0
 10
71.76307678028249
 20
-149.639090518146
 10
71.76307678028249
 20
-149.6942296847984
 10
71.71827400364774
 20
-149.7389971847876
 10
71.66313483838778
 20
-149.7389971847876
 10
71.60767817313594
 20
-149.7389971847876
 10
71.56291067427804
 20
-149.6942296847984
 10
71.56291067427804
 20
-149.639090518146
 10
71.56291067427804
 20
-149.5839866292704
 10
71.60767817313594
 20
-149.5391838515043
 10
71.66313483838778
 20
-149.5391838515043
 10
71.71827400364774
 20
-149.5391838515043
 10
71.76307678028249
 20
-149.5839866292704
 10
71.76307678028249
 20
-149.639090518146
 97
        0
 97
        0
 75
     2
 76
     1
 98
        0
  0
ENDSEC
  0
SECTION
  2
OBJECTS
  0
DICTIONARY
  5
C
330
0
100
AcDbDictionary
281
     1
  3
ACAD_GROUP
350
D
  3
ACAD_LAYOUT
350
1A
  3
ACAD_MATERIAL
350
3B
  3
ACAD_MLEADERSTYLE
350
D6
  3
ACAD_MLINESTYLE
350
17
  3
ACAD_PLOTSETTINGS
350
19
  3
ACAD_PLOTSTYLENAME
350
E
  3
ACAD_TABLESTYLE
350
D5
  3
ACAD_VISUALSTYLE
350
2A
  0
SUN
  5
3F
330
29
100
AcDbSun
 90
        1
290
     0
 63
     7
421
 16777215
 40
1.0
291
     1
 91
  2455826
 92
 54000000
292
     0
 70
     2
 71
   256
280
     1
  0
DICTIONARY
  5
D
102
{ACAD_REACTORS
330
C
102
}
330
C
100
AcDbDictionary
281
     1
  0
DICTIONARY
  5
1A
102
{ACAD_REACTORS
330
C
102
}
330
C
100
AcDbDictionary
281
     1
  3
Layout1
350
1E
  3
Layout2
350
26
  3
Model
350
22
  0
DICTIONARY
  5
3B
102
{ACAD_REACTORS
330
C
102
}
330
C
100
AcDbDictionary
281
     1
  3
ByBlock
350
3D
  3
ByLayer
350
3C
  3
Global
350
3E
  0
DICTIONARY
  5
D6
102
{ACAD_REACTORS
330
C
102
}
330
C
100
AcDbDictionary
281
     1
  0
DICTIONARY
  5
17
102
{ACAD_REACTORS
330
C
102
}
330
C
100
AcDbDictionary
281
     1
  3
Standard
350
18
  0
DICTIONARY
  5
19
102
{ACAD_REACTORS
330
C
102
}
330
C
100
AcDbDictionary
281
     1
  0
ACDBDICTIONARYWDFLT
  5
E
102
{ACAD_REACTORS
330
C
102
}
330
C
100
AcDbDictionary
281
     1
  3
Normal
350
F
100
AcDbDictionaryWithDefault
340
F
  0
DICTIONARY
  5
D5
102
{ACAD_REACTORS
330
C
102
}
330
C
100
AcDbDictionary
281
     1
  0
DICTIONARY
  5
2A
102
{ACAD_REACTORS
330
C
102
}
330
C
100
AcDbDictionary
281
     1
  3
2dWireframe
350
2F
  3
3D Hidden
350
31
  3
3dWireframe
350
30
  3
Basic
350
32
  3
Brighten
350
36
  3
ColorChange
350
3A
  3
Conceptual
350
34
  3
Dim
350
35
  3
Facepattern
350
39
  3
Flat
350
2B
  3
FlatWithEdges
350
2C
  3
Gouraud
350
2D
  3
GouraudWithEdges
350
2E
  3
Linepattern
350
38
  3
Realistic
350
33
  3
Thicken
350
37
  0
LAYOUT
  5
1E
102
{ACAD_REACTORS
330
1A
102
}
330
1A
100
AcDbPlotSettings
  1

  2
none_device
  4

  6

 40
0.0
 41
0.0
 42
0.0
 43
0.0
 44
0.0
 45
0.0
 46
0.0
 47
0.0
 48
0.0
 49
0.0
140
0.0
141
0.0
142
1.0
143
1.0
 70
   688
 72
     0
 73
     0
 74
     5
  7

 75
    16
 76
     0
 77
     2
 78
   300
147
1.0
148
0.0
149
0.0
100
AcDbLayout
  1
Layout1
 70
     1
 71
     1
 10
0.0
 20
0.0
 11
12.0
 21
9.0
 12
0.0
 22
0.0
 32
0.0
 14
1.000000000000000E+20
 24
1.000000000000000E+20
 34
1.000000000000000E+20
 15
-1.000000000000000E+20
 25
-1.000000000000000E+20
 35
-1.000000000000000E+20
146
0.0
 13
0.0
 23
0.0
 33
0.0
 16
1.0
 26
0.0
 36
0.0
 17
0.0
 27
1.0
 37
0.0
 76
     0
330
1B
  0
LAYOUT
  5
26
102
{ACAD_REACTORS
330
1A
102
}
330
1A
100
AcDbPlotSettings
  1

  2
none_device
  4

  6

 40
0.0
 41
0.0
 42
0.0
 43
0.0
 44
0.0
 45
0.0
 46
0.0
 47
0.0
 48
0.0
 49
0.0
140
0.0
141
0.0
142
1.0
143
1.0
 70
   688
 72
     0
 73
     0
 74
     5
  7

 75
    16
 76
     0
 77
     2
 78
   300
147
1.0
148
0.0
149
0.0
100
AcDbLayout
  1
Layout2
 70
     1
 71
     2
 10
0.0
 20
0.0
 11
0.0
 21
0.0
 12
0.0
 22
0.0
 32
0.0
 14
0.0
 24
0.0
 34
0.0
 15
0.0
 25
0.0
 35
0.0
146
0.0
 13
0.0
 23
0.0
 33
0.0
 16
1.0
 26
0.0
 36
0.0
 17
0.0
 27
1.0
 37
0.0
 76
     0
330
23
  0
LAYOUT
  5
22
102
{ACAD_REACTORS
330
1A
102
}
330
1A
100
AcDbPlotSettings
  1

  2
none_device
  4

  6

 40
0.0
 41
0.0
 42
0.0
 43
0.0
 44
0.0
 45
0.0
 46
0.0
 47
0.0
 48
0.0
 49
0.0
140
0.0
141
0.0
142
1.0
143
1.0
 70
  1712
 72
     0
 73
     0
 74
     0
  7

 75
     0
 76
     0
 77
     2
 78
   300
147
1.0
148
0.0
149
0.0
100
AcDbLayout
  1
Model
 70
     1
 71
     0
 10
0.0
 20
0.0
 11
12.0
 21
9.0
 12
0.0
 22
0.0
 32
0.0
 14
1.000000000000000E+20
 24
1.000000000000000E+20
 34
1.000000000000000E+20
 15
-1.000000000000000E+20
 25
-1.000000000000000E+20
 35
-1.000000000000000E+20
146
0.0
 13
0.0
 23
0.0
 33
0.0
 16
1.0
 26
0.0
 36
0.0
 17
0.0
 27
1.0
 37
0.0
 76
     0
330
1F
331
29
  0
MATERIAL
  5
3D
102
{ACAD_REACTORS
330
3B
102
}
330
3B
100
AcDbMaterial
  1
ByBlock
 72
     1
 94
      127
  0
MATERIAL
  5
3C
102
{ACAD_REACTORS
330
3B
102
}
330
3B
100
AcDbMaterial
  1
ByLayer
 72
     1
 94
      127
  0
MATERIAL
  5
3E
102
{ACAD_REACTORS
330
3B
102
}
330
3B
100
AcDbMaterial
  1
Global
 72
     1
 94
      127
  0
MLINESTYLE
  5
18
102
{ACAD_REACTORS
330
17
102
}
330
17
100
AcDbMlineStyle
  2
Standard
 70
     0
  3

 62
   256
 51
90.0
 52
90.0
 71
     2
 49
0.5
 62
   256
  6
BYLAYER
 49
-0.5
 62
   256
  6
BYLAYER
  0
ACDBPLACEHOLDER
  5
F
102
{ACAD_REACTORS
330
E
102
}
330
E
  0
VISUALSTYLE
  5
2F
102
{ACAD_REACTORS
330
2A
102
}
330
2A
100
AcDbVisualStyle
  2
2dWireframe
 70
     4
177
     2
291
     0
 71
     0
176
     1
 72
     2
176
     1
 73
     0
176
     1
 90
        0
176
     1
 40
-0.6
176
     1
 41
-30.0
176
     1
 62
     5
 63
     7
421
 16777215
176
     1
 74
     1
176
     1
 91
        4
176
     1
 64
     7
176
     1
 65
   257
176
     1
 75
     1
176
     1
175
     1
176
     1
 42
1.0
176
     1
 92
        0
176
     1
 66
   257
176
     1
 43
1.0
176
     1
 76
     1
176
     1
 77
     6
176
     1
 78
     2
176
     1
 67
     7
176
     1
 79
     5
176
     1
170
     0
176
     1
171
     0
176
     1
290
     0
176
     1
 93
        1
176
     1
 44
0.0
176
     1
173
     0
176
     1
  0
VISUALSTYLE
  5
31
102
{ACAD_REACTORS
330
2A
102
}
330
2A
100
AcDbVisualStyle
  2
3D Hidden
 70
     6
177
     2
291
     0
 71
     1
176
     1
 72
     2
176
     1
 73
     2
176
     1
 90
        0
176
     1
 40
-0.6
176
     1
 41
-30.0
176
     1
 62
     5
 63
     7
421
 16777215
176
     1
 74
     2
176
     1
 91
        2
176
     1
 64
     7
176
     1
 65
   257
176
     1
 75
     2
176
     1
175
     1
176
     1
 42
40.0
176
     1
 92
        0
176
     1
 66
   257
176
     1
 43
1.0
176
     1
 76
     1
176
     1
 77
     6
176
     1
 78
     2
176
     1
 67
     7
176
     1
 79
     3
176
     1
170
     0
176
     1
171
     0
176
     1
290
     0
176
     1
 93
        1
176
     1
 44
0.0
176
     1
173
     0
176
     1
  0
VISUALSTYLE
  5
30
102
{ACAD_REACTORS
330
2A
102
}
330
2A
100
AcDbVisualStyle
  2
3dWireframe
 70
     5
177
     2
291
     0
 71
     0
176
     1
 72
     2
176
     1
 73
     0
176
     1
 90
        0
176
     1
 40
-0.6
176
     1
 41
-30.0
176
     1
 62
     5
 63
     7
421
 16777215
176
     1
 74
     1
176
     1
 91
        4
176
     1
 64
     7
176
     1
 65
   257
176
     1
 75
     1
176
     1
175
     1
176
     1
 42
1.0
176
     1
 92
        0
176
     1
 66
   257
176
     1
 43
1.0
176
     1
 76
     1
176
     1
 77
     6
176
     1
 78
     2
176
     1
 67
     7
176
     1
 79
     5
176
     1
170
     0
176
     1
171
     0
176
     1
290
     0
176
     1
 93
        1
176
     1
 44
0.0
176
     1
173
     0
176
     1
  0
VISUALSTYLE
  5
32
102
{ACAD_REACTORS
330
2A
102
}
330
2A
100
AcDbVisualStyle
  2
Basic
 70
     7
177
     2
291
     1
 71
     1
176
     1
 72
     0
176
     1
 73
     1
176
     1
 90
        0
176
     1
 40
-0.6
176
     1
 41
-30.0
176
     1
 62
     5
 63
     7
421
 16777215
176
     1
 74
     0
176
     1
 91
        4
176
     1
 64
     7
176
     1
 65
   257
176
     1
 75
     1
176
     1
175
     1
176
     1
 42
1.0
176
     1
 92
        8
176
     1
 66
     7
176
     1
 43
1.0
176
     1
 76
     1
176
     1
 77
     6
176
     1
 78
     2
176
     1
 67
     7
176
     1
 79
     5
176
     1
170
     0
176
     1
171
     0
176
     1
290
     0
176
     1
 93
        1
176
     1
 44
0.0
176
     1
173
     0
176
     1
  0
VISUALSTYLE
  5
36
102
{ACAD_REACTORS
330
2A
102
}
330
2A
100
AcDbVisualStyle
  2
Brighten
 70
    12
177
     2
291
     1
 71
     2
176
     1
 72
     2
176
     1
 73
     0
176
     1
 90
        0
176
     1
 40
-0.6
176
     1
 41
-30.0
176
     1
 62
     5
 63
     7
421
 16777215
176
     1
 74
     1
176
     1
 91
        4
176
     1
 64
     7
176
     1
 65
   257
176
     1
 75
     1
176
     1
175
     1
176
     1
 42
1.0
176
     1
 92
        8
176
     1
 66
     7
176
     1
 43
1.0
176
     1
 76
     1
176
     1
 77
     6
176
     1
 78
     2
176
     1
 67
     7
176
     1
 79
     5
176
     1
170
     0
176
     1
171
     0
176
     1
290
     0
176
     1
 93
        1
176
     1
 44
50.0
176
     1
173
     0
176
     1
  0
VISUALSTYLE
  5
3A
102
{ACAD_REACTORS
330
2A
102
}
330
2A
100
AcDbVisualStyle
  2
ColorChange
 70
    16
177
     2
291
     1
 71
     2
176
     1
 72
     2
176
     1
 73
     3
176
     1
 90
        0
176
     1
 40
-0.6
176
     1
 41
-30.0
176
     1
 62
     5
 63
     8
421
  8421504
176
     1
 74
     1
176
     1
 91
        4
176
     1
 64
     7
176
     1
 65
   257
176
     1
 75
     1
176
     1
175
     1
176
     1
 42
1.0
176
     1
 92
        8
176
     1
 66
     8
424
  8421504
176
     1
 43
1.0
176
     1
 76
     1
176
     1
 77
     6
176
     1
 78
     2
176
     1
 67
     7
176
     1
 79
     5
176
     1
170
     0
176
     1
171
     0
176
     1
290
     0
176
     1
 93
        1
176
     1
 44
0.0
176
     1
173
     0
176
     1
  0
VISUALSTYLE
  5
34
102
{ACAD_REACTORS
330
2A
102
}
330
2A
100
AcDbVisualStyle
  2
Conceptual
 70
     9
177
     2
291
     0
 71
     3
176
     1
 72
     2
176
     1
 73
     0
176
     1
 90
        0
176
     1
 40
-0.6
176
     1
 41
-30.0
176
     1
 62
     5
 63
     7
421
 16777215
176
     1
 74
     2
176
     1
 91
        2
176
     1
 64
     7
176
     1
 65
   257
176
     1
 75
     1
176
     1
175
     1
176
     1
 42
40.0
176
     1
 92
        8
176
     1
 66
     7
176
     1
 43
1.0
176
     1
 76
     1
176
     1
 77
     6
176
     1
 78
     2
176
     1
 67
     7
176
     1
 79
     3
176
     1
170
     0
176
     1
171
     0
176
     1
290
     0
176
     1
 93
        1
176
     1
 44
0.0
176
     1
173
     0
176
     1
  0
VISUALSTYLE
  5
35
102
{ACAD_REACTORS
330
2A
102
}
330
2A
100
AcDbVisualStyle
  2
Dim
 70
    11
177
     2
291
     1
 71
     2
176
     1
 72
     2
176
     1
 73
     0
176
     1
 90
        0
176
     1
 40
-0.6
176
     1
 41
-30.0
176
     1
 62
     5
 63
     7
421
 16777215
176
     1
 74
     1
176
     1
 91
        4
176
     1
 64
     7
176
     1
 65
   257
176
     1
 75
     1
176
     1
175
     1
176
     1
 42
1.0
176
     1
 92
        8
176
     1
 66
     7
176
     1
 43
1.0
176
     1
 76
     1
176
     1
 77
     6
176
     1
 78
     2
176
     1
 67
     7
176
     1
 79
     5
176
     1
170
     0
176
     1
171
     0
176
     1
290
     0
176
     1
 93
        1
176
     1
 44
-50.0
176
     1
173
     0
176
     1
  0
VISUALSTYLE
  5
39
102
{ACAD_REACTORS
330
2A
102
}
330
2A
100
AcDbVisualStyle
  2
Facepattern
 70
    15
177
     2
291
     1
 71
     2
176
     1
 72
     2
176
     1
 73
     0
176
     1
 90
        0
176
     1
 40
-0.6
176
     1
 41
-30.0
176
     1
 62
     5
 63
     7
421
 16777215
176
     1
 74
     1
176
     1
 91
        4
176
     1
 64
     7
176
     1
 65
   257
176
     1
 75
     1
176
     1
175
     1
176
     1
 42
1.0
176
     1
 92
        8
176
     1
 66
     7
176
     1
 43
1.0
176
     1
 76
     1
176
     1
 77
     6
176
     1
 78
     2
176
     1
 67
     7
176
     1
 79
     5
176
     1
170
     0
176
     1
171
     0
176
     1
290
     0
176
     1
 93
        1
176
     1
 44
0.0
176
     1
173
     0
176
     1
  0
VISUALSTYLE
  5
2B
102
{ACAD_REACTORS
330
2A
102
}
330
2A
100
AcDbVisualStyle
  2
Flat
 70
     0
177
     2
291
     1
 71
     2
176
     1
 72
     1
176
     1
 73
     1
176
     1
 90
        2
176
     1
 40
-0.6
176
     1
 41
30.0
176
     1
 62
     5
 63
     7
421
 16777215
176
     1
 74
     0
176
     1
 91
        4
176
     1
 64
     7
176
     1
 65
   257
176
     1
 75
     1
176
     1
175
     1
176
     1
 42
1.0
176
     1
 92
        8
176
     1
 66
     7
176
     1
 43
1.0
176
     1
 76
     1
176
     1
 77
     6
176
     1
 78
     2
176
     1
 67
     7
176
     1
 79
     5
176
     1
170
     0
176
     1
171
     0
176
     1
290
     0
176
     1
 93
       13
176
     1
 44
0.0
176
     1
173
     0
176
     1
  0
VISUALSTYLE
  5
2C
102
{ACAD_REACTORS
330
2A
102
}
330
2A
100
AcDbVisualStyle
  2
FlatWithEdges
 70
     1
177
     2
291
     1
 71
     2
176
     1
 72
     1
176
     1
 73
     1
176
     1
 90
        2
176
     1
 40
-0.6
176
     1
 41
30.0
176
     1
 62
     5
 63
     7
421
 16777215
176
     1
 74
     1
176
     1
 91
        4
176
     1
 64
     7
176
     1
 65
   257
176
     1
 75
     1
176
     1
175
     1
176
     1
 42
1.0
176
     1
 92
        0
176
     1
 66
   257
176
     1
 43
1.0
176
     1
 76
     1
176
     1
 77
     6
176
     1
 78
     2
176
     1
 67
     7
176
     1
 79
     5
176
     1
170
     0
176
     1
171
     0
176
     1
290
     0
176
     1
 93
       13
176
     1
 44
0.0
176
     1
173
     0
176
     1
  0
VISUALSTYLE
  5
2D
102
{ACAD_REACTORS
330
2A
102
}
330
2A
100
AcDbVisualStyle
  2
Gouraud
 70
     2
177
     2
291
     1
 71
     2
176
     1
 72
     2
176
     1
 73
     1
176
     1
 90
        2
176
     1
 40
-0.6
176
     1
 41
30.0
176
     1
 62
     5
 63
     7
421
 16777215
176
     1
 74
     0
176
     1
 91
        4
176
     1
 64
     7
176
     1
 65
   257
176
     1
 75
     1
176
     1
175
     1
176
     1
 42
1.0
176
     1
 92
        0
176
     1
 66
     7
176
     1
 43
1.0
176
     1
 76
     1
176
     1
 77
     6
176
     1
 78
     2
176
     1
 67
     7
176
     1
 79
     5
176
     1
170
     0
176
     1
171
     0
176
     1
290
     0
176
     1
 93
       13
176
     1
 44
0.0
176
     1
173
     0
176
     1
  0
VISUALSTYLE
  5
2E
102
{ACAD_REACTORS
330
2A
102
}
330
2A
100
AcDbVisualStyle
  2
GouraudWithEdges
 70
     3
177
     2
291
     1
 71
     2
176
     1
 72
     2
176
     1
 73
     1
176
     1
 90
        2
176
     1
 40
-0.6
176
     1
 41
30.0
176
     1
 62
     5
 63
     7
421
 16777215
176
     1
 74
     1
176
     1
 91
        4
176
     1
 64
     7
176
     1
 65
   257
176
     1
 75
     1
176
     1
175
     1
176
     1
 42
1.0
176
     1
 92
        0
176
     1
 66
   257
176
     1
 43
1.0
176
     1
 76
     1
176
     1
 77
     6
176
     1
 78
     2
176
     1
 67
     7
176
     1
 79
     5
176
     1
170
     0
176
     1
171
     0
176
     1
290
     0
176
     1
 93
       13
176
     1
 44
0.0
176
     1
173
     0
176
     1
  0
VISUALSTYLE
  5
38
102
{ACAD_REACTORS
330
2A
102
}
330
2A
100
AcDbVisualStyle
  2
Linepattern
 70
    14
177
     2
291
     1
 71
     2
176
     1
 72
     2
176
     1
 73
     0
176
     1
 90
        0
176
     1
 40
-0.6
176
     1
 41
-30.0
176
     1
 62
     5
 63
     7
421
 16777215
176
     1
 74
     1
176
     1
 91
        4
176
     1
 64
     7
176
     1
 65
   257
176
     1
 75
     7
176
     1
175
     7
176
     1
 42
1.0
176
     1
 92
        8
176
     1
 66
     7
176
     1
 43
1.0
176
     1
 76
     1
176
     1
 77
     6
176
     1
 78
     2
176
     1
 67
     7
176
     1
 79
     5
176
     1
170
     0
176
     1
171
     0
176
     1
290
     0
176
     1
 93
        1
176
     1
 44
0.0
176
     1
173
     0
176
     1
  0
VISUALSTYLE
  5
33
102
{ACAD_REACTORS
330
2A
102
}
330
2A
100
AcDbVisualStyle
  2
Realistic
 70
     8
177
     2
291
     0
 71
     2
176
     1
 72
     2
176
     1
 73
     0
176
     1
 90
        0
176
     1
 40
-0.6
176
     1
 41
-30.0
176
     1
 62
     5
 63
     7
421
 16777215
176
     1
 74
     1
176
     1
 91
        0
176
     1
 64
     7
176
     1
 65
   257
176
     1
 75
     1
176
     1
175
     1
176
     1
 42
1.0
176
     1
 92
        8
176
     1
 66
     8
424
  7895160
176
     1
 43
1.0
176
     1
 76
     1
176
     1
 77
     6
176
     1
 78
     2
176
     1
 67
     7
176
     1
 79
     5
176
     1
170
     0
176
     1
171
     0
176
     1
290
     0
176
     1
 93
       13
176
     1
 44
0.0
176
     1
173
     0
176
     1
  0
VISUALSTYLE
  5
37
102
{ACAD_REACTORS
330
2A
102
}
330
2A
100
AcDbVisualStyle
  2
Thicken
 70
    13
177
     2
291
     1
 71
     2
176
     1
 72
     2
176
     1
 73
     0
176
     1
 90
        0
176
     1
 40
-0.6
176
     1
 41
-30.0
176
     1
 62
     5
 63
     7
421
 16777215
176
     1
 74
     1
176
     1
 91
        4
176
     1
 64
     7
176
     1
 65
   257
176
     1
 75
     1
176
     1
175
     1
176
     1
 42
1.0
176
     1
 92
       12
176
     1
 66
     7
176
     1
 43
1.0
176
     1
 76
     1
176
     1
 77
     6
176
     1
 78
     2
176
     1
 67
     7
176
     1
 79
     5
176
     1
170
     0
176
     1
171
     0
176
     1
290
     0
176
     1
 93
        1
176
     1
 44
0.0
176
     1
173
     0
176
     1
  0
ENDSEC
  0
EOF
