  0
SECTION
  2
HEADER
  9
$ACADVER
  1
AC1024
  9
$ACADMAINTVER
 70
     6
  9
$DWGCODEPAGE
  3
UNDEFINED
  9
$INSBASE
 10
0.0
 20
0.0
 30
0.0
  9
$EXTMIN
 10
1.000000000000000E+20
 20
1.000000000000000E+20
 30
1.000000000000000E+20
  9
$EXTMAX
 10
-1.000000000000000E+20
 20
-1.000000000000000E+20
 30
-1.000000000000000E+20
  9
$LIMMIN
 10
0.0
 20
0.0
  9
$LIMMAX
 10
12.0
 20
9.0
  9
$ORTHOMODE
 70
     0
  9
$REGENMODE
 70
     1
  9
$FILLMODE
 70
     1
  9
$QTEXTMODE
 70
     0
  9
$MIRRTEXT
 70
     1
  9
$LTSCALE
 40
1.0
  9
$ATTMODE
 70
     1
  9
$TEXTSIZE
 40
0.2
  9
$TRACEWID
 40
0.05
  9
$TEXTSTYLE
  7
Standard
  9
$CLAYER
  8
0
  9
$CELTYPE
  6
ByLayer
  9
$CECOLOR
 62
   256
  9
$CELTSCALE
 40
1.0
  9
$DISPSILH
 70
     0
  9
$DIMSCALE
 40
1.0
  9
$DIMASZ
 40
0.18
  9
$DIMEXO
 40
0.0625
  9
$DIMDLI
 40
0.38
  9
$DIMRND
 40
0.0
  9
$DIMDLE
 40
0.0
  9
$DIMEXE
 40
0.18
  9
$DIMTP
 40
0.0
  9
$DIMTM
 40
0.0
  9
$DIMTXT
 40
0.18
  9
$DIMCEN
 40
0.09
  9
$DIMTSZ
 40
0.0
  9
$DIMTOL
 70
     0
  9
$DIMLIM
 70
     0
  9
$DIMTIH
 70
     1
  9
$DIMTOH
 70
     1
  9
$DIMSE1
 70
     0
  9
$DIMSE2
 70
     0
  9
$DIMTAD
 70
     0
  9
$DIMZIN
 70
     0
  9
$DIMBLK
  1

  9
$DIMASO
 70
     1
  9
$DIMSHO
 70
     1
  9
$DIMPOST
  1

  9
$DIMAPOST
  1

  9
$DIMALT
 70
     0
  9
$DIMALTD
 70
     2
  9
$DIMALTF
 40
25.4
  9
$DIMLFAC
 40
1.0
  9
$DIMTOFL
 70
     0
  9
$DIMTVP
 40
0.0
  9
$DIMTIX
 70
     0
  9
$DIMSOXD
 70
     0
  9
$DIMSAH
 70
     0
  9
$DIMBLK1
  1

  9
$DIMBLK2
  1

  9
$DIMSTYLE
  2
Standard
  9
$DIMCLRD
 70
     0
  9
$DIMCLRE
 70
     0
  9
$DIMCLRT
 70
     0
  9
$DIMTFAC
 40
1.0
  9
$DIMGAP
 40
0.09
  9
$DIMJUST
 70
     0
  9
$DIMSD1
 70
     0
  9
$DIMSD2
 70
     0
  9
$DIMTOLJ
 70
     1
  9
$DIMTZIN
 70
     0
  9
$DIMALTZ
 70
     0
  9
$DIMALTTZ
 70
     0
  9
$DIMUPT
 70
     0
  9
$DIMDEC
 70
     4
  9
$DIMTDEC
 70
     4
  9
$DIMALTU
 70
     2
  9
$DIMALTTD
 70
     2
  9
$DIMTXSTY
  7
Standard
  9
$DIMAUNIT
 70
     0
  9
$DIMADEC
 70
     0
  9
$DIMALTRND
 40
0.0
  9
$DIMAZIN
 70
     0
  9
$DIMDSEP
 70
    46
  9
$DIMATFIT
 70
     3
  9
$DIMFRAC
 70
     0
  9
$DIMLDRBLK
  1

  9
$DIMLUNIT
 70
     2
  9
$DIMLWD
 70
    -2
  9
$DIMLWE
 70
    -2
  9
$DIMTMOVE
 70
     0
  9
$DIMFXL
 40
1.0
  9
$DIMFXLON
 70
     0
  9
$DIMJOGANG
 40
0.7853981633974483
  9
$DIMTFILL
 70
     0
  9
$DIMTFILLCLR
 70
     0
  9
$DIMARCSYM
 70
     0
  9
$DIMLTYPE
  6

  9
$DIMLTEX1
  6

  9
$DIMLTEX2
  6

  9
$DIMTXTDIRECTION
 70
     0
  9
$LUNITS
 70
     2
  9
$LUPREC
 70
     4
  9
$SKETCHINC
 40
0.1
  9
$FILLETRAD
 40
0.5
  9
$AUNITS
 70
     0
  9
$AUPREC
 70
     0
  9
$MENU
  1
.
  9
$ELEVATION
 40
0.0
  9
$PELEVATION
 40
0.0
  9
$THICKNESS
 40
0.0
  9
$LIMCHECK
 70
     0
  9
$CHAMFERA
 40
0.5
  9
$CHAMFERB
 40
0.5
  9
$CHAMFERC
 40
1.0
  9
$CHAMFERD
 40
0.0
  9
$SKPOLY
 70
     0
  9
$TDCREATE
 40
2457917.618634259
  9
$TDUCREATE
 40
2457917.243634259
  9
$TDUPDATE
 40
2457917.618634259
  9
$TDUUPDATE
 40
2457917.243634259
  9
$TDINDWG
 40
0.0000000116
  9
$TDUSRTIMER
 40
0.0000000116
  9
$USRTIMER
 70
     1
  9
$ANGBASE
 50
0.0
  9
$ANGDIR
 70
     0
  9
$PDMODE
 70
     0
  9
$PDSIZE
 40
0.0
  9
$PLINEWID
 40
0.0
  9
$SPLFRAME
 70
     0
  9
$SPLINETYPE
 70
     6
  9
$SPLINESEGS
 70
     8
  9
$HANDSEED
  5
CB
  9
$SURFTAB1
 70
     6
  9
$SURFTAB2
 70
     6
  9
$SURFTYPE
 70
     6
  9
$SURFU
 70
     6
  9
$SURFV
 70
     6
  9
$UCSBASE
  2

  9
$UCSNAME
  2

  9
$UCSORG
 10
0.0
 20
0.0
 30
0.0
  9
$UCSXDIR
 10
1.0
 20
0.0
 30
0.0
  9
$UCSYDIR
 10
0.0
 20
1.0
 30
0.0
  9
$UCSORTHOREF
  2

  9
$UCSORTHOVIEW
 70
     0
  9
$UCSORGTOP
 10
0.0
 20
0.0
 30
0.0
  9
$UCSORGBOTTOM
 10
0.0
 20
0.0
 30
0.0
  9
$UCSORGLEFT
 10
0.0
 20
0.0
 30
0.0
  9
$UCSORGRIGHT
 10
0.0
 20
0.0
 30
0.0
  9
$UCSORGFRONT
 10
0.0
 20
0.0
 30
0.0
  9
$UCSORGBACK
 10
0.0
 20
0.0
 30
0.0
  9
$PUCSBASE
  2

  9
$PUCSNAME
  2

  9
$PUCSORG
 10
0.0
 20
0.0
 30
0.0
  9
$PUCSXDIR
 10
1.0
 20
0.0
 30
0.0
  9
$PUCSYDIR
 10
0.0
 20
1.0
 30
0.0
  9
$PUCSORTHOREF
  2

  9
$PUCSORTHOVIEW
 70
     0
  9
$PUCSORGTOP
 10
0.0
 20
0.0
 30
0.0
  9
$PUCSORGBOTTOM
 10
0.0
 20
0.0
 30
0.0
  9
$PUCSORGLEFT
 10
0.0
 20
0.0
 30
0.0
  9
$PUCSORGRIGHT
 10
0.0
 20
0.0
 30
0.0
  9
$PUCSORGFRONT
 10
0.0
 20
0.0
 30
0.0
  9
$PUCSORGBACK
 10
0.0
 20
0.0
 30
0.0
  9
$USERI1
 70
     0
  9
$USERI2
 70
     0
  9
$USERI3
 70
     0
  9
$USERI4
 70
     0
  9
$USERI5
 70
     0
  9
$USERR1
 40
0.0
  9
$USERR2
 40
0.0
  9
$USERR3
 40
0.0
  9
$USERR4
 40
0.0
  9
$USERR5
 40
0.0
  9
$WORLDVIEW
 70
     1
  9
$SHADEDGE
 70
     3
  9
$SHADEDIF
 70
    70
  9
$TILEMODE
 70
     1
  9
$MAXACTVP
 70
    64
  9
$PINSBASE
 10
0.0
 20
0.0
 30
0.0
  9
$PLIMCHECK
 70
     0
  9
$PEXTMIN
 10
1.000000000000000E+20
 20
1.000000000000000E+20
 30
1.000000000000000E+20
  9
$PEXTMAX
 10
-1.000000000000000E+20
 20
-1.000000000000000E+20
 30
-1.000000000000000E+20
  9
$PLIMMIN
 10
0.0
 20
0.0
  9
$PLIMMAX
 10
12.0
 20
9.0
  9
$UNITMODE
 70
     0
  9
$VISRETAIN
 70
     1
  9
$PLINEGEN
 70
     0
  9
$PSLTSCALE
 70
     1
  9
$TREEDEPTH
 70
  3020
  9
$CMLSTYLE
  2
Standard
  9
$CMLJUST
 70
     0
  9
$CMLSCALE
 40
1.0
  9
$PROXYGRAPHICS
 70
     1
  9
$MEASUREMENT
 70
     0
  9
$CELWEIGHT
370
    -1
  9
$ENDCAPS
280
     0
  9
$JOINSTYLE
280
     0
  9
$LWDISPLAY
290
     1
  9
$INSUNITS
 70
     1
  9
$HYPERLINKBASE
  1

  9
$STYLESHEET
  1

  9
$XEDIT
290
     1
  9
$CEPSNTYPE
380
     0
  9
$PSTYLEMODE
290
     1
  9
$FINGERPRINTGUID
  2
{E04FE770-DD82-A6AD-4EA6-15D849A56E63}
  9
$VERSIONGUID
  2
{FAEB1C32-E019-11D5-929B-00C0DF256EC4}
  9
$EXTNAMES
290
     1
  9
$PSVPSCALE
 40
0.0
  9
$OLESTARTUP
290
     0
  9
$SORTENTS
280
   127
  9
$INDEXCTL
280
     0
  9
$HIDETEXT
280
     1
  9
$XCLIPFRAME
280
     2
  9
$HALOGAP
280
     0
  9
$OBSCOLOR
 70
   257
  9
$OBSLTYPE
280
     0
  9
$INTERSECTIONDISPLAY
280
     0
  9
$INTERSECTIONCOLOR
 70
   257
  9
$DIMASSOC
280
     2
  9
$PROJECTNAME
  1

  9
$CAMERADISPLAY
290
     0
  9
$LENSLENGTH
 40
50.0
  9
$CAMERAHEIGHT
 40
0.0
  9
$STEPSPERSEC
 40
2.0
  9
$STEPSIZE
 40
6.0
  9
$3DDWFPREC
 40
2.0
  9
$PSOLWIDTH
 40
0.25
  9
$PSOLHEIGHT
 40
4.0
  9
$LOFTANG1
 40
1.570796326794897
  9
$LOFTANG2
 40
1.570796326794897
  9
$LOFTMAG1
 40
0.0
  9
$LOFTMAG2
 40
0.0
  9
$LOFTPARAM
 70
     7
  9
$LOFTNORMALS
280
     1
  9
$LATITUDE
 40
37.795
  9
$LONGITUDE
 40
-122.394
  9
$NORTHDIRECTION
 40
0.0
  9
$TIMEZONE
 70
 -8000
  9
$LIGHTGLYPHDISPLAY
280
     1
  9
$TILEMODELIGHTSYNCH
280
     1
  9
$CMATERIAL
347
3C
  9
$SOLIDHIST
280
     1
  9
$SHOWHIST
280
     1
  9
$DWFFRAME
280
     2
  9
$DGNFRAME
280
     2
  9
$REALWORLDSCALE
290
     1
  9
$INTERFERECOLOR
 62
   256
  9
$CSHADOW
280
     0
  9
$SHADOWPLANELOCATION
 40
0.0
  0
ENDSEC
  0
SECTION
  2
CLASSES
  0
CLASS
  1
ACDBDICTIONARYWDFLT
  2
AcDbDictionaryWithDefault
  3
ObjectDBX Classes
 90
        0
 91
        4
280
     0
281
     0
  0
CLASS
  1
VISUALSTYLE
  2
AcDbVisualStyle
  3
ObjectDBX Classes
 90
     4095
 91
        4
280
     0
281
     0
  0
CLASS
  1
MATERIAL
  2
AcDbMaterial
  3
ObjectDBX Classes
 90
     1153
 91
        4
280
     0
281
     0
  0
CLASS
  1
SUN
  2
AcDbSun
  3
SCENEOE
 90
     1024
 91
        4
280
     0
281
     0
  0
ENDSEC
  0
SECTION
  2
TABLES
  0
TABLE
  2
VPORT
  5
8
330
0
100
AcDbSymbolTable
 70
     1
  0
VPORT
  5
29
330
8
100
AcDbSymbolTableRecord
100
AcDbViewportTableRecord
  2
*Active
 70
     0
 10
0.0
 20
0.0
 11
1.0
 21
1.0
 12
0.0
 22
0.0
 13
0.0
 23
0.0
 14
0.5
 24
0.5
 15
0.5
 25
0.5
 16
0.0
 26
0.0
 36
1.0
 17
91.00082462281999
 27
-128.4993055234307
 37
0.0
 40
256.9986110468615
 41
0.7081814508812795
 42
50.0
 43
0.0
 44
0.0
 50
0.0
 51
0.0
 71
     0
 72
   100
 73
     1
 74
     3
 75
     0
 76
     0
 77
     0
 78
     0
281
     0
 65
     1
110
0.0
120
0.0
130
0.0
111
1.0
121
0.0
131
0.0
112
0.0
122
1.0
132
0.0
 79
     0
146
0.0
 60
     3
 61
     5
292
     1
282
     1
141
0.0
142
0.0
 63
   250
361
3F
  0
ENDTAB
  0
TABLE
  2
LTYPE
  5
5
330
0
100
AcDbSymbolTable
 70
     1
  0
LTYPE
  5
14
330
5
100
AcDbSymbolTableRecord
100
AcDbLinetypeTableRecord
  2
ByBlock
 70
     0
  3

 72
    65
 73
     0
 40
0.0
  0
LTYPE
  5
15
330
5
100
AcDbSymbolTableRecord
100
AcDbLinetypeTableRecord
  2
ByLayer
 70
     0
  3

 72
    65
 73
     0
 40
0.0
  0
LTYPE
  5
16
330
5
100
AcDbSymbolTableRecord
100
AcDbLinetypeTableRecord
  2
Continuous
 70
     0
  3
Solid line
 72
    65
 73
     0
 40
0.0
  0
ENDTAB
  0
TABLE
  2
LAYER
  5
2
330
0
100
AcDbSymbolTable
 70
     2
  0
LAYER
  5
10
330
2
100
AcDbSymbolTableRecord
100
AcDbLayerTableRecord
  2
0
 70
     0
 62
     7
  6
Continuous
370
    -3
390
F
347
3E
  0
LAYER
  5
40
330
2
100
AcDbSymbolTableRecord
100
AcDbLayerTableRecord
  2
_U+30EC_U+30A4_U+30E4_U+30FC 1
 70
     0
 62
     7
  6
Continuous
370
    -3
390
F
347
3E
  0
ENDTAB
  0
TABLE
  2
STYLE
  5
3
330
0
100
AcDbSymbolTable
 70
     1
  0
STYLE
  5
11
330
3
100
AcDbSymbolTableRecord
100
AcDbTextStyleTableRecord
  2
Standard
 70
     0
 40
0.0
 41
1.0
 50
0.0
 71
     0
 42
0.2
  3
txt
  4

  0
ENDTAB
  0
TABLE
  2
VIEW
  5
6
330
0
100
AcDbSymbolTable
 70
     0
  0
ENDTAB
  0
TABLE
  2
UCS
  5
7
330
0
100
AcDbSymbolTable
 70
     0
  0
ENDTAB
  0
TABLE
  2
APPID
  5
9
330
0
100
AcDbSymbolTable
 70
     1
  0
APPID
  5
12
330
9
100
AcDbSymbolTableRecord
100
AcDbRegAppTableRecord
  2
ACAD
 70
     0
  0
ENDTAB
  0
TABLE
  2
DIMSTYLE
  5
A
330
0
100
AcDbSymbolTable
 70
     1
100
AcDbDimStyleTable
  0
DIMSTYLE
105
27
330
A
100
AcDbSymbolTableRecord
100
AcDbDimStyleTableRecord
  2
Standard
 70
     0
178
     0
340
11
  0
ENDTAB
  0
TABLE
  2
BLOCK_RECORD
  5
1
330
0
100
AcDbSymbolTable
 70
     5
  0
BLOCK_RECORD
  5
1F
330
1
100
AcDbSymbolTableRecord
100
AcDbBlockTableRecord
  2
*Model_Space
340
22
 70
     0
280
     1
281
     0
  0
BLOCK_RECORD
  5
1B
330
1
100
AcDbSymbolTableRecord
100
AcDbBlockTableRecord
  2
*Paper_Space
340
1E
 70
     0
280
     1
281
     0
  0
BLOCK_RECORD
  5
23
330
1
100
AcDbSymbolTableRecord
100
AcDbBlockTableRecord
  2
*Paper_Space0
340
26
 70
     0
280
     1
281
     0
  0
BLOCK_RECORD
  5
6D
330
1
100
AcDbSymbolTableRecord
100
AcDbBlockTableRecord
  2
block 2
340
0
102
{BLKREFS
331
6E
102
}
 70
     0
280
     1
281
     0
  0
BLOCK_RECORD
  5
83
330
1
100
AcDbSymbolTableRecord
100
AcDbBlockTableRecord
  2
block 3
340
0
102
{BLKREFS
331
84
102
}
 70
     0
280
     1
281
     0
  0
BLOCK_RECORD
  5
A3
330
1
100
AcDbSymbolTableRecord
100
AcDbBlockTableRecord
  2
block 4
340
0
102
{BLKREFS
331
A4
102
}
 70
     0
280
     1
281
     0
  0
BLOCK_RECORD
  5
B4
330
1
100
AcDbSymbolTableRecord
100
AcDbBlockTableRecord
  2
block 5
340
0
102
{BLKREFS
331
B5
102
}
 70
     0
280
     1
281
     0
  0
ENDTAB
  0
ENDSEC
  0
SECTION
  2
BLOCKS
  0
BLOCK
  5
20
330
1F
100
AcDbEntity
  8
0
100
AcDbBlockBegin
  2
*Model_Space
 70
     0
 10
0.0
 20
0.0
 30
0.0
  3
*Model_Space
  1

  0
ENDBLK
  5
21
330
1F
100
AcDbEntity
  8
0
100
AcDbBlockEnd
  0
BLOCK
  5
1C
330
1B
100
AcDbEntity
 67
     1
  8
0
100
AcDbBlockBegin
  2
*Paper_Space
 70
     0
 10
0.0
 20
0.0
 30
0.0
  3
*Paper_Space
  1

  0
ENDBLK
  5
1D
330
1B
100
AcDbEntity
 67
     1
  8
0
100
AcDbBlockEnd
  0
BLOCK
  5
24
330
23
100
AcDbEntity
  8
0
100
AcDbBlockBegin
  2
*Paper_Space0
 70
     0
 10
0.0
 20
0.0
 30
0.0
  3
*Paper_Space0
  1

  0
ENDBLK
  5
25
330
23
100
AcDbEntity
  8
0
100
AcDbBlockEnd
  0
BLOCK
  5
6F
330
6D
100
AcDbEntity
  8
0
100
AcDbBlockBegin
  2
block 2
 70
     0
 10
0.0
 20
0.0
 30
0.0
  3
block 2
  1

  0
SPLINE
  5
71
330
6D
100
AcDbEntity
  8
_U+30EC_U+30A4_U+30E4_U+30FC 1
370
     0
100
AcDbSpline
210
0.0
220
0.0
230
1.0
 70
    11
 71
     3
 72
    26
 73
    22
 74
     0
 42
0.0000000001
 43
0.0000000001
 12
1.0
 22
0.0
 32
0.0
 13
1.0
 23
0.0
 33
0.0
 40
0.0
 40
0.0
 40
0.0
 40
0.0
 40
1.0
 40
1.0
 40
1.0
 40
2.0
 40
2.0
 40
2.0
 40
3.0
 40
3.0
 40
3.0
 40
4.0
 40
4.0
 40
4.0
 40
5.0
 40
5.0
 40
5.0
 40
6.0
 40
6.0
 40
6.0
 40
7.0
 40
7.0
 40
7.0
 40
7.0
 10
63.22008597594845
 20
-113.5968559828855
 30
0.0
 10
63.22008597594845
 20
-113.5968559828855
 30
0.0
 10
62.11576061815162
 20
-113.5968559828855
 30
0.0
 10
62.11576061815162
 20
-113.5968559828855
 30
0.0
 10
62.11576061815162
 20
-113.5968559828855
 30
0.0
 10
62.11576061815162
 20
-113.9268961303724
 30
0.0
 10
62.11576061815162
 20
-113.9268961303724
 30
0.0
 10
62.11576061815162
 20
-113.9268961303724
 30
0.0
 10
61.96779376706014
 20
-113.9268961303724
 30
0.0
 10
61.96779376706014
 20
-113.9268961303724
 30
0.0
 10
61.95297985647356
 20
-113.5947889255944
 30
0.0
 10
61.79002684002125
 20
-113.5482801365435
 30
0.0
 10
61.67582192468522
 20
-113.5186523153703
 30
0.0
 10
61.67582192468522
 20
-113.5186523153703
 30
0.0
 10
61.67582192468522
 20
-113.3725802667958
 30
0.0
 10
61.67582192468522
 20
-113.3725802667958
 30
0.0
 10
61.67582192468522
 20
-113.3725802667958
 30
0.0
 10
63.22008597594845
 20
-113.3725802667958
 30
0.0
 10
63.22008597594845
 20
-113.3725802667958
 30
0.0
 10
63.22008597594845
 20
-113.3725802667958
 30
0.0
 10
63.22008597594845
 20
-113.5968559828855
 30
0.0
 10
63.22008597594845
 20
-113.5968559828855
 30
0.0
  0
HATCH
  5
72
330
6D
100
AcDbEntity
  8
_U+30EC_U+30A4_U+30E4_U+30FC 1
 62
   179
420
  2234388
100
AcDbHatch
 10
0.0
 20
0.0
 30
0.0
210
0.0
220
0.0
230
1.0
  2
SOLID
 70
     1
 71
     0
 91
        1
 92
        1
 93
        1
 72
     4
 94
        3
 73
     0
 74
     1
 95
       26
 96
       22
 40
0.0
 40
0.0
 40
0.0
 40
0.0
 40
1.0
 40
1.0
 40
1.0
 40
2.0
 40
2.0
 40
2.0
 40
3.0
 40
3.0
 40
3.0
 40
4.0
 40
4.0
 40
4.0
 40
5.0
 40
5.0
 40
5.0
 40
6.0
 40
6.0
 40
6.0
 40
7.0
 40
7.0
 40
7.0
 40
7.0
 10
63.22008597594845
 20
-113.5968559828855
 10
63.22008597594845
 20
-113.5968559828855
 10
62.11576061815162
 20
-113.5968559828855
 10
62.11576061815162
 20
-113.5968559828855
 10
62.11576061815162
 20
-113.5968559828855
 10
62.11576061815162
 20
-113.9268961303724
 10
62.11576061815162
 20
-113.9268961303724
 10
62.11576061815162
 20
-113.9268961303724
 10
61.96779376706014
 20
-113.9268961303724
 10
61.96779376706014
 20
-113.9268961303724
 10
61.95297985647356
 20
-113.5947889255944
 10
61.79002684002125
 20
-113.5482801365435
 10
61.67582192468522
 20
-113.5186523153703
 10
61.67582192468522
 20
-113.5186523153703
 10
61.67582192468522
 20
-113.3725802667958
 10
61.67582192468522
 20
-113.3725802667958
 10
61.67582192468522
 20
-113.3725802667958
 10
63.22008597594845
 20
-113.3725802667958
 10
63.22008597594845
 20
-113.3725802667958
 10
63.22008597594845
 20
-113.3725802667958
 10
63.22008597594845
 20
-113.5968559828855
 10
63.22008597594845
 20
-113.5968559828855
 97
        0
 97
        0
 75
     2
 76
     1
 98
        0
  0
SPLINE
  5
73
330
6D
100
AcDbEntity
  8
_U+30EC_U+30A4_U+30E4_U+30FC 1
370
     0
100
AcDbSpline
210
0.0
220
0.0
230
1.0
 70
    11
 71
     3
 72
    29
 73
    25
 74
     0
 42
0.0000000001
 43
0.0000000001
 12
1.0
 22
0.0
 32
0.0
 13
1.0
 23
0.0
 33
0.0
 40
0.0
 40
0.0
 40
0.0
 40
0.0
 40
1.0
 40
1.0
 40
1.0
 40
2.0
 40
2.0
 40
2.0
 40
3.0
 40
3.0
 40
3.0
 40
4.0
 40
4.0
 40
4.0
 40
5.0
 40
5.0
 40
5.0
 40
6.0
 40
6.0
 40
6.0
 40
7.0
 40
7.0
 40
7.0
 40
8.0
 40
8.0
 40
8.0
 40
8.0
 10
63.27090113435589
 20
-112.3714355187821
 30
0.0
 10
63.27090113435589
 20
-112.6380859093405
 30
0.0
 10
63.13326956972016
 20
-112.8919894466034
 30
0.0
 10
62.78428139706435
 20
-112.8919894466034
 30
0.0
 10
62.52831080251028
 20
-112.8919894466034
 30
0.0
 10
62.43305391234313
 20
-112.7500515126111
 30
0.0
 10
62.37173121270568
 20
-112.6442870812139
 30
0.0
 10
62.31247557035938
 20
-112.76899953778
 30
0.0
 10
62.19827065502335
 20
-112.845136148004
 30
0.0
 10
62.03755695063645
 20
-112.845136148004
 30
0.0
 10
61.76246607613925
 20
-112.845136148004
 30
0.0
 10
61.62707382356893
 20
-112.6463541385051
 30
0.0
 10
61.62707382356893
 20
-112.3714355187821
 30
0.0
 10
61.62707382356893
 20
-112.0879041603461
 30
0.0
 10
61.77090656007811
 20
-111.8973903800118
 30
0.0
 10
62.03755695063645
 20
-111.8973903800118
 30
0.0
 10
62.19827065502335
 20
-111.8973903800118
 30
0.0
 10
62.31247557035938
 20
-111.9759385570755
 30
0.0
 10
62.37173121270568
 20
-112.1006510136415
 30
0.0
 10
62.42254637111311
 20
-112.0117675501221
 30
0.0
 10
62.51780326128027
 20
-111.8529486482521
 30
0.0
 10
62.78014728248205
 20
-111.8529486482521
 30
0.0
 10
63.15445690695444
 20
-111.8529486482521
 30
0.0
 10
63.27090113435589
 20
-112.1323458921058
 30
0.0
 10
63.27090113435589
 20
-112.3714355187821
 30
0.0
  0
SPLINE
  5
74
330
6D
100
AcDbEntity
  8
_U+30EC_U+30A4_U+30E4_U+30FC 1
370
     0
100
AcDbSpline
210
0.0
220
0.0
230
1.0
 70
    11
 71
     3
 72
    17
 73
    13
 74
     0
 42
0.0000000001
 43
0.0000000001
 12
1.0
 22
0.0
 32
0.0
 13
1.0
 23
0.0
 33
0.0
 40
0.0
 40
0.0
 40
0.0
 40
0.0
 40
1.0
 40
1.0
 40
1.0
 40
2.0
 40
2.0
 40
2.0
 40
3.0
 40
3.0
 40
3.0
 40
4.0
 40
4.0
 40
4.0
 40
4.0
 10
61.81965466119439
 20
-112.3714355187821
 30
0.0
 10
61.81965466119439
 20
-112.5364555925256
 30
0.0
 10
61.91473929658729
 20
-112.6212049414628
 30
0.0
 10
62.05013154915761
 20
-112.6212049414628
 30
0.0
 10
62.17294920320676
 20
-112.6212049414628
 30
0.0
 10
62.29146048789936
 20
-112.549202445821
 30
0.0
 10
62.29146048789936
 20
-112.3714355187821
 30
0.0
 10
62.29146048789936
 20
-112.1936685917433
 30
0.0
 10
62.17294920320676
 20
-112.1216660961015
 30
0.0
 10
62.05013154915761
 20
-112.1216660961015
 30
0.0
 10
61.91473929658729
 20
-112.1216660961015
 30
0.0
 10
61.81965466119439
 20
-112.2084825023298
 30
0.0
 10
61.81965466119439
 20
-112.3714355187821
 30
0.0
  0
SPLINE
  5
75
330
6D
100
AcDbEntity
  8
_U+30EC_U+30A4_U+30E4_U+30FC 1
370
     0
100
AcDbSpline
210
0.0
220
0.0
230
1.0
 70
    11
 71
     3
 72
    17
 73
    13
 74
     0
 42
0.0000000001
 43
0.0000000001
 12
1.0
 22
0.0
 32
0.0
 13
1.0
 23
0.0
 33
0.0
 40
0.0
 40
0.0
 40
0.0
 40
0.0
 40
1.0
 40
1.0
 40
1.0
 40
2.0
 40
2.0
 40
2.0
 40
3.0
 40
3.0
 40
3.0
 40
4.0
 40
4.0
 40
4.0
 40
4.0
 10
62.47973495616827
 20
-112.3714355187821
 30
0.0
 10
62.47973495616827
 20
-112.5150960005171
 30
0.0
 10
62.5663791076223
 20
-112.6677137305136
 30
0.0
 10
62.76946748647777
 20
-112.6677137305136
 30
0.0
 10
62.97462292262441
 20
-112.6677137305136
 30
0.0
 10
63.07625323943927
 20
-112.5405897071079
 30
0.0
 10
63.07625323943927
 20
-112.3714355187821
 30
0.0
 10
63.07625323943927
 20
-112.1854003625787
 30
0.0
 10
62.95360784016438
 20
-112.0751573070507
 30
0.0
 10
62.77584091312549
 20
-112.0751573070507
 30
0.0
 10
62.55363225432687
 20
-112.0751573070507
 30
0.0
 10
62.47973495616827
 20
-112.238110323503
 30
0.0
 10
62.47973495616827
 20
-112.3714355187821
 30
0.0
  0
HATCH
  5
76
330
6D
100
AcDbEntity
  8
_U+30EC_U+30A4_U+30E4_U+30FC 1
 62
   179
420
  2234388
100
AcDbHatch
 10
0.0
 20
0.0
 30
0.0
210
0.0
220
0.0
230
1.0
  2
SOLID
 70
     1
 71
     0
 91
        3
 92
        1
 93
        1
 72
     4
 94
        3
 73
     0
 74
     1
 95
       29
 96
       25
 40
0.0
 40
0.0
 40
0.0
 40
0.0
 40
1.0
 40
1.0
 40
1.0
 40
2.0
 40
2.0
 40
2.0
 40
3.0
 40
3.0
 40
3.0
 40
4.0
 40
4.0
 40
4.0
 40
5.0
 40
5.0
 40
5.0
 40
6.0
 40
6.0
 40
6.0
 40
7.0
 40
7.0
 40
7.0
 40
8.0
 40
8.0
 40
8.0
 40
8.0
 10
63.27090113435589
 20
-112.3714355187821
 10
63.27090113435589
 20
-112.6380859093405
 10
63.13326956972016
 20
-112.8919894466034
 10
62.78428139706435
 20
-112.8919894466034
 10
62.52831080251028
 20
-112.8919894466034
 10
62.43305391234313
 20
-112.7500515126111
 10
62.37173121270568
 20
-112.6442870812139
 10
62.31247557035938
 20
-112.76899953778
 10
62.19827065502335
 20
-112.845136148004
 10
62.03755695063645
 20
-112.845136148004
 10
61.76246607613925
 20
-112.845136148004
 10
61.62707382356893
 20
-112.6463541385051
 10
61.62707382356893
 20
-112.3714355187821
 10
61.62707382356893
 20
-112.0879041603461
 10
61.77090656007811
 20
-111.8973903800118
 10
62.03755695063645
 20
-111.8973903800118
 10
62.19827065502335
 20
-111.8973903800118
 10
62.31247557035938
 20
-111.9759385570755
 10
62.37173121270568
 20
-112.1006510136415
 10
62.42254637111311
 20
-112.0117675501221
 10
62.51780326128027
 20
-111.8529486482521
 10
62.78014728248205
 20
-111.8529486482521
 10
63.15445690695444
 20
-111.8529486482521
 10
63.27090113435589
 20
-112.1323458921058
 10
63.27090113435589
 20
-112.3714355187821
 97
        0
 97
        0
 92
        1
 93
        1
 72
     4
 94
        3
 73
     0
 74
     1
 95
       17
 96
       13
 40
0.0
 40
0.0
 40
0.0
 40
0.0
 40
1.0
 40
1.0
 40
1.0
 40
2.0
 40
2.0
 40
2.0
 40
3.0
 40
3.0
 40
3.0
 40
4.0
 40
4.0
 40
4.0
 40
4.0
 10
61.81965466119439
 20
-112.3714355187821
 10
61.81965466119439
 20
-112.5364555925256
 10
61.91473929658729
 20
-112.6212049414628
 10
62.05013154915761
 20
-112.6212049414628
 10
62.17294920320676
 20
-112.6212049414628
 10
62.29146048789936
 20
-112.549202445821
 10
62.29146048789936
 20
-112.3714355187821
 10
62.29146048789936
 20
-112.1936685917433
 10
62.17294920320676
 20
-112.1216660961015
 10
62.05013154915761
 20
-112.1216660961015
 10
61.91473929658729
 20
-112.1216660961015
 10
61.81965466119439
 20
-112.2084825023298
 10
61.81965466119439
 20
-112.3714355187821
 97
        0
 97
        0
 92
        1
 93
        1
 72
     4
 94
        3
 73
     0
 74
     1
 95
       17
 96
       13
 40
0.0
 40
0.0
 40
0.0
 40
0.0
 40
1.0
 40
1.0
 40
1.0
 40
2.0
 40
2.0
 40
2.0
 40
3.0
 40
3.0
 40
3.0
 40
4.0
 40
4.0
 40
4.0
 40
4.0
 10
62.47973495616827
 20
-112.3714355187821
 10
62.47973495616827
 20
-112.5150960005171
 10
62.5663791076223
 20
-112.6677137305136
 10
62.76946748647777
 20
-112.6677137305136
 10
62.97462292262441
 20
-112.6677137305136
 10
63.07625323943927
 20
-112.5405897071079
 10
63.07625323943927
 20
-112.3714355187821
 10
63.07625323943927
 20
-112.1854003625787
 10
62.95360784016438
 20
-112.0751573070507
 10
62.77584091312549
 20
-112.0751573070507
 10
62.55363225432687
 20
-112.0751573070507
 10
62.47973495616827
 20
-112.238110323503
 10
62.47973495616827
 20
-112.3714355187821
 97
        0
 97
        0
 75
     2
 76
     1
 98
        0
  0
ENDBLK
  5
70
330
6D
100
AcDbEntity
  8
0
100
AcDbBlockEnd
  0
BLOCK
  5
85
330
83
100
AcDbEntity
  8
0
100
AcDbBlockBegin
  2
block 3
 70
     0
 10
0.0
 20
0.0
 30
0.0
  3
block 3
  1

  0
SPLINE
  5
87
330
83
100
AcDbEntity
  8
_U+30EC_U+30A4_U+30E4_U+30FC 1
370
     0
100
AcDbSpline
210
0.0
220
0.0
230
1.0
 70
    11
 71
     3
 72
    44
 73
    40
 74
     0
 42
0.0000000001
 43
0.0000000001
 12
1.0
 22
0.0
 32
0.0
 13
1.0
 23
0.0
 33
0.0
 40
0.0
 40
0.0
 40
0.0
 40
0.0
 40
1.0
 40
1.0
 40
1.0
 40
2.0
 40
2.0
 40
2.0
 40
3.0
 40
3.0
 40
3.0
 40
4.0
 40
4.0
 40
4.0
 40
5.0
 40
5.0
 40
5.0
 40
6.0
 40
6.0
 40
6.0
 40
7.0
 40
7.0
 40
7.0
 40
8.0
 40
8.0
 40
8.0
 40
9.0
 40
9.0
 40
9.0
 40
10.0
 40
10.0
 40
10.0
 40
11.0
 40
11.0
 40
11.0
 40
12.0
 40
12.0
 40
12.0
 40
13.0
 40
13.0
 40
13.0
 40
13.0
 10
81.55402287457677
 20
-134.3604464724863
 30
0.0
 10
81.53059622527708
 20
-134.3160047407266
 30
0.0
 10
81.50958114281705
 20
-134.2632947798022
 30
0.0
 10
81.50734183075164
 20
-134.0324733822905
 30
0.0
 10
81.50320771616934
 20
-133.7892496410319
 30
0.0
 10
81.44395207382304
 20
-133.7193142026813
 30
0.0
 10
81.26618514678415
 20
-133.7193142026813
 30
0.0
 10
81.26618514678415
 20
-133.7193142026813
 30
0.0
 10
80.85794133178204
 20
-133.7193142026813
 30
0.0
 10
80.85794133178204
 20
-133.7193142026813
 30
0.0
 10
80.85794133178204
 20
-133.7193142026813
 30
0.0
 10
80.85794133178204
 20
-134.3604464724863
 30
0.0
 10
80.85794133178204
 20
-134.3604464724863
 30
0.0
 10
80.85794133178204
 20
-134.3604464724863
 30
0.0
 10
80.62315807446227
 20
-134.3604464724863
 30
0.0
 10
80.62315807446227
 20
-134.3604464724863
 30
0.0
 10
80.62315807446227
 20
-134.3604464724863
 30
0.0
 10
80.62315807446227
 20
-132.8160101664488
 30
0.0
 10
80.62315807446227
 20
-132.8160101664488
 30
0.0
 10
80.62315807446227
 20
-132.8160101664488
 30
0.0
 10
81.29788002524845
 20
-132.8160101664488
 30
0.0
 10
81.29788002524845
 20
-132.8160101664488
 30
0.0
 10
81.60466577820995
 20
-132.8160101664488
 30
0.0
 10
81.77192516401882
 20
-132.9875759216142
 30
0.0
 10
81.77192516401882
 20
-133.2435465161683
 30
0.0
 10
81.77192516401882
 20
-133.2941894198015
 30
0.0
 10
81.7633124253057
 20
-133.3768717114474
 30
0.0
 10
81.71887069354598
 20
-133.4571424362538
 30
0.0
 10
81.65978730597395
 20
-133.5608398103598
 30
0.0
 10
81.59415823697994
 20
-133.5797878355287
 30
0.0
 10
81.53283553734249
 20
-133.5966688034064
 30
0.0
 10
81.67029484720396
 20
-133.639043477875
 30
0.0
 10
81.73799097348912
 20
-133.687619324217
 30
0.0
 10
81.74229734284567
 20
-134.0028455611173
 30
0.0
 10
81.74643145742797
 20
-134.273630066258
 30
0.0
 10
81.78243270524884
 20
-134.3053249447223
 30
0.0
 10
81.850128831534
 20
-134.3604464724863
 30
0.0
 10
81.850128831534
 20
-134.3604464724863
 30
0.0
 10
81.55402287457677
 20
-134.3604464724863
 30
0.0
 10
81.55402287457677
 20
-134.3604464724863
 30
0.0
  0
SPLINE
  5
88
330
83
100
AcDbEntity
  8
_U+30EC_U+30A4_U+30E4_U+30FC 1
370
     0
100
AcDbSpline
210
0.0
220
0.0
230
1.0
 70
    11
 71
     3
 72
    20
 73
    16
 74
     0
 42
0.0000000001
 43
0.0000000001
 12
1.0
 22
0.0
 32
0.0
 13
1.0
 23
0.0
 33
0.0
 40
0.0
 40
0.0
 40
0.0
 40
0.0
 40
1.0
 40
1.0
 40
1.0
 40
2.0
 40
2.0
 40
2.0
 40
3.0
 40
3.0
 40
3.0
 40
4.0
 40
4.0
 40
4.0
 40
5.0
 40
5.0
 40
5.0
 40
5.0
 10
81.30218639460502
 20
-133.0275390292431
 30
0.0
 10
81.30218639460502
 20
-133.0275390292431
 30
0.0
 10
80.85794133178204
 20
-133.0275390292431
 30
0.0
 10
80.85794133178204
 20
-133.0275390292431
 30
0.0
 10
80.85794133178204
 20
-133.0275390292431
 30
0.0
 10
80.85794133178204
 20
-133.5077853398869
 30
0.0
 10
80.85794133178204
 20
-133.5077853398869
 30
0.0
 10
80.85794133178204
 20
-133.5077853398869
 30
0.0
 10
81.30011933731386
 20
-133.5077853398869
 30
0.0
 10
81.30011933731386
 20
-133.5077853398869
 30
0.0
 10
81.39951034206332
 20
-133.5077853398869
 30
0.0
 10
81.53490259463364
 20
-133.4316487296629
 30
0.0
 10
81.53490259463364
 20
-133.260427484046
 30
0.0
 10
81.53490259463364
 20
-133.1822238165308
 30
0.0
 10
81.50114065887819
 20
-133.0275390292431
 30
0.0
 10
81.30218639460502
 20
-133.0275390292431
 30
0.0
  0
HATCH
  5
89
330
83
100
AcDbEntity
  8
_U+30EC_U+30A4_U+30E4_U+30FC 1
 62
   179
420
  2234388
100
AcDbHatch
 10
0.0
 20
0.0
 30
0.0
210
0.0
220
0.0
230
1.0
  2
SOLID
 70
     1
 71
     0
 91
        2
 92
        1
 93
        1
 72
     4
 94
        3
 73
     0
 74
     1
 95
       44
 96
       40
 40
0.0
 40
0.0
 40
0.0
 40
0.0
 40
1.0
 40
1.0
 40
1.0
 40
2.0
 40
2.0
 40
2.0
 40
3.0
 40
3.0
 40
3.0
 40
4.0
 40
4.0
 40
4.0
 40
5.0
 40
5.0
 40
5.0
 40
6.0
 40
6.0
 40
6.0
 40
7.0
 40
7.0
 40
7.0
 40
8.0
 40
8.0
 40
8.0
 40
9.0
 40
9.0
 40
9.0
 40
10.0
 40
10.0
 40
10.0
 40
11.0
 40
11.0
 40
11.0
 40
12.0
 40
12.0
 40
12.0
 40
13.0
 40
13.0
 40
13.0
 40
13.0
 10
81.55402287457677
 20
-134.3604464724863
 10
81.53059622527708
 20
-134.3160047407266
 10
81.50958114281705
 20
-134.2632947798022
 10
81.50734183075164
 20
-134.0324733822905
 10
81.50320771616934
 20
-133.7892496410319
 10
81.44395207382304
 20
-133.7193142026813
 10
81.26618514678415
 20
-133.7193142026813
 10
81.26618514678415
 20
-133.7193142026813
 10
80.85794133178204
 20
-133.7193142026813
 10
80.85794133178204
 20
-133.7193142026813
 10
80.85794133178204
 20
-133.7193142026813
 10
80.85794133178204
 20
-134.3604464724863
 10
80.85794133178204
 20
-134.3604464724863
 10
80.85794133178204
 20
-134.3604464724863
 10
80.62315807446227
 20
-134.3604464724863
 10
80.62315807446227
 20
-134.3604464724863
 10
80.62315807446227
 20
-134.3604464724863
 10
80.62315807446227
 20
-132.8160101664488
 10
80.62315807446227
 20
-132.8160101664488
 10
80.62315807446227
 20
-132.8160101664488
 10
81.29788002524845
 20
-132.8160101664488
 10
81.29788002524845
 20
-132.8160101664488
 10
81.60466577820995
 20
-132.8160101664488
 10
81.77192516401882
 20
-132.9875759216142
 10
81.77192516401882
 20
-133.2435465161683
 10
81.77192516401882
 20
-133.2941894198015
 10
81.7633124253057
 20
-133.3768717114474
 10
81.71887069354598
 20
-133.4571424362538
 10
81.65978730597395
 20
-133.5608398103598
 10
81.59415823697994
 20
-133.5797878355287
 10
81.53283553734249
 20
-133.5966688034064
 10
81.67029484720396
 20
-133.639043477875
 10
81.73799097348912
 20
-133.687619324217
 10
81.74229734284567
 20
-134.0028455611173
 10
81.74643145742797
 20
-134.273630066258
 10
81.78243270524884
 20
-134.3053249447223
 10
81.850128831534
 20
-134.3604464724863
 10
81.850128831534
 20
-134.3604464724863
 10
81.55402287457677
 20
-134.3604464724863
 10
81.55402287457677
 20
-134.3604464724863
 97
        0
 97
        0
 92
        1
 93
        1
 72
     4
 94
        3
 73
     0
 74
     1
 95
       20
 96
       16
 40
0.0
 40
0.0
 40
0.0
 40
0.0
 40
1.0
 40
1.0
 40
1.0
 40
2.0
 40
2.0
 40
2.0
 40
3.0
 40
3.0
 40
3.0
 40
4.0
 40
4.0
 40
4.0
 40
5.0
 40
5.0
 40
5.0
 40
5.0
 10
81.30218639460502
 20
-133.0275390292431
 10
81.30218639460502
 20
-133.0275390292431
 10
80.85794133178204
 20
-133.0275390292431
 10
80.85794133178204
 20
-133.0275390292431
 10
80.85794133178204
 20
-133.0275390292431
 10
80.85794133178204
 20
-133.5077853398869
 10
80.85794133178204
 20
-133.5077853398869
 10
80.85794133178204
 20
-133.5077853398869
 10
81.30011933731386
 20
-133.5077853398869
 10
81.30011933731386
 20
-133.5077853398869
 10
81.39951034206332
 20
-133.5077853398869
 10
81.53490259463364
 20
-133.4316487296629
 10
81.53490259463364
 20
-133.260427484046
 10
81.53490259463364
 20
-133.1822238165308
 10
81.50114065887819
 20
-133.0275390292431
 10
81.30218639460502
 20
-133.0275390292431
 97
        0
 97
        0
 75
     2
 76
     1
 98
        0
  0
SPLINE
  5
8A
330
83
100
AcDbEntity
  8
_U+30EC_U+30A4_U+30E4_U+30FC 1
370
     0
100
AcDbSpline
210
0.0
220
0.0
230
1.0
 70
    11
 71
     3
 72
    62
 73
    58
 74
     0
 42
0.0000000001
 43
0.0000000001
 12
1.0
 22
0.0
 32
0.0
 13
1.0
 23
0.0
 33
0.0
 40
0.0
 40
0.0
 40
0.0
 40
0.0
 40
1.0
 40
1.0
 40
1.0
 40
2.0
 40
2.0
 40
2.0
 40
3.0
 40
3.0
 40
3.0
 40
4.0
 40
4.0
 40
4.0
 40
5.0
 40
5.0
 40
5.0
 40
6.0
 40
6.0
 40
6.0
 40
7.0
 40
7.0
 40
7.0
 40
8.0
 40
8.0
 40
8.0
 40
9.0
 40
9.0
 40
9.0
 40
10.0
 40
10.0
 40
10.0
 40
11.0
 40
11.0
 40
11.0
 40
12.0
 40
12.0
 40
12.0
 40
13.0
 40
13.0
 40
13.0
 40
14.0
 40
14.0
 40
14.0
 40
15.0
 40
15.0
 40
15.0
 40
16.0
 40
16.0
 40
16.0
 40
17.0
 40
17.0
 40
17.0
 40
18.0
 40
18.0
 40
18.0
 40
19.0
 40
19.0
 40
19.0
 40
19.0
 10
82.48127032443178
 20
-134.4110893761195
 30
0.0
 10
82.38601343426461
 20
-134.4110893761195
 30
0.0
 10
82.16811114482256
 20
-134.3900742936594
 30
0.0
 10
82.04339868825652
 20
-134.2040391374559
 30
0.0
 10
81.96932913532365
 20
-134.0917290246368
 30
0.0
 10
81.96502276596708
 20
-133.9925102746616
 30
0.0
 10
81.96088865138478
 20
-133.9077609257245
 30
0.0
 10
81.96088865138478
 20
-133.9077609257245
 30
0.0
 10
82.18085799811799
 20
-133.9077609257245
 30
0.0
 10
82.18085799811799
 20
-133.9077609257245
 30
0.0
 10
82.18292505540913
 20
-133.9818304786573
 30
0.0
 10
82.19360485141341
 20
-134.2164414812028
 30
0.0
 10
82.47713620984948
 20
-134.2164414812028
 30
0.0
 10
82.61459551971093
 20
-134.2164414812028
 30
0.0
 10
82.76686874015898
 20
-134.1468505524008
 30
0.0
 10
82.76686874015898
 20
-133.9184407217287
 30
0.0
 10
82.76686874015898
 20
-133.8019964943273
 30
0.0
 10
82.72880043504696
 20
-133.7534206479853
 30
0.0
 10
82.69710555658267
 20
-133.721725769521
 30
0.0
 10
82.6230360036498
 20
-133.6476562165881
 30
0.0
 10
82.50659177624836
 20
-133.6349093632927
 30
0.0
 10
82.45164250325863
 20
-133.6349093632927
 30
0.0
 10
82.43269447808974
 20
-133.6349093632927
 30
0.0
 10
82.39669323026888
 20
-133.6369764205838
 30
0.0
 10
82.36913246638689
 20
-133.6411105351661
 30
0.0
 10
82.36913246638689
 20
-133.6411105351661
 30
0.0
 10
82.36913246638689
 20
-133.4464626402495
 30
0.0
 10
82.36913246638689
 20
-133.4464626402495
 30
0.0
 10
82.40720077149889
 20
-133.4530083216715
 30
0.0
 10
82.44957544596747
 20
-133.4550753789626
 30
0.0
 10
82.45594887261518
 20
-133.4550753789626
 30
0.0
 10
82.52140568683492
 20
-133.4550753789626
 30
0.0
 10
82.72035995110811
 20
-133.4337157869541
 30
0.0
 10
82.72035995110811
 20
-133.1970377271174
 30
0.0
 10
82.72035995110811
 20
-133.0192708000785
 30
0.0
 10
82.5891018131201
 20
-132.9641492723145
 30
0.0
 10
82.47920326714062
 20
-132.9641492723145
 30
0.0
 10
82.21479218864769
 20
-132.9641492723145
 30
0.0
 10
82.20635170470884
 20
-133.1970377271174
 30
0.0
 10
82.20204533535227
 20
-133.2686957132106
 30
0.0
 10
82.20204533535227
 20
-133.2686957132106
 30
0.0
 10
81.9989569564968
 20
-133.2686957132106
 30
0.0
 10
81.9989569564968
 20
-133.2686957132106
 30
0.0
 10
82.00739744043565
 20
-133.1439832566446
 30
0.0
 10
82.03495820431765
 20
-132.7674343201068
 30
0.0
 10
82.49177786566179
 20
-132.7674343201068
 30
0.0
 10
82.71605358175155
 20
-132.7674343201068
 30
0.0
 10
82.95721026571904
 20
-132.8945583435125
 30
0.0
 10
82.95721026571904
 20
-133.1904920456954
 30
0.0
 10
82.95721026571904
 20
-133.3768717114474
 30
0.0
 10
82.86212563032613
 20
-133.4592094935449
 30
0.0
 10
82.76256237080241
 20
-133.5205321931824
 30
0.0
 10
82.82405732521413
 20
-133.5480929570644
 30
0.0
 10
83.00595836683532
 20
-133.6283636818707
 30
0.0
 10
83.00595836683532
 20
-133.9056938684333
 30
0.0
 10
83.00595836683532
 20
-134.2440022450848
 30
0.0
 10
82.75842825622011
 20
-134.4110893761195
 30
0.0
 10
82.48127032443178
 20
-134.4110893761195
 30
0.0
  0
HATCH
  5
8B
330
83
100
AcDbEntity
  8
_U+30EC_U+30A4_U+30E4_U+30FC 1
 62
   179
420
  2234388
100
AcDbHatch
 10
0.0
 20
0.0
 30
0.0
210
0.0
220
0.0
230
1.0
  2
SOLID
 70
     1
 71
     0
 91
        1
 92
        1
 93
        1
 72
     4
 94
        3
 73
     0
 74
     1
 95
       62
 96
       58
 40
0.0
 40
0.0
 40
0.0
 40
0.0
 40
1.0
 40
1.0
 40
1.0
 40
2.0
 40
2.0
 40
2.0
 40
3.0
 40
3.0
 40
3.0
 40
4.0
 40
4.0
 40
4.0
 40
5.0
 40
5.0
 40
5.0
 40
6.0
 40
6.0
 40
6.0
 40
7.0
 40
7.0
 40
7.0
 40
8.0
 40
8.0
 40
8.0
 40
9.0
 40
9.0
 40
9.0
 40
10.0
 40
10.0
 40
10.0
 40
11.0
 40
11.0
 40
11.0
 40
12.0
 40
12.0
 40
12.0
 40
13.0
 40
13.0
 40
13.0
 40
14.0
 40
14.0
 40
14.0
 40
15.0
 40
15.0
 40
15.0
 40
16.0
 40
16.0
 40
16.0
 40
17.0
 40
17.0
 40
17.0
 40
18.0
 40
18.0
 40
18.0
 40
19.0
 40
19.0
 40
19.0
 40
19.0
 10
82.48127032443178
 20
-134.4110893761195
 10
82.38601343426461
 20
-134.4110893761195
 10
82.16811114482256
 20
-134.3900742936594
 10
82.04339868825652
 20
-134.2040391374559
 10
81.96932913532365
 20
-134.0917290246368
 10
81.96502276596708
 20
-133.9925102746616
 10
81.96088865138478
 20
-133.9077609257245
 10
81.96088865138478
 20
-133.9077609257245
 10
82.18085799811799
 20
-133.9077609257245
 10
82.18085799811799
 20
-133.9077609257245
 10
82.18292505540913
 20
-133.9818304786573
 10
82.19360485141341
 20
-134.2164414812028
 10
82.47713620984948
 20
-134.2164414812028
 10
82.61459551971093
 20
-134.2164414812028
 10
82.76686874015898
 20
-134.1468505524008
 10
82.76686874015898
 20
-133.9184407217287
 10
82.76686874015898
 20
-133.8019964943273
 10
82.72880043504696
 20
-133.7534206479853
 10
82.69710555658267
 20
-133.721725769521
 10
82.6230360036498
 20
-133.6476562165881
 10
82.50659177624836
 20
-133.6349093632927
 10
82.45164250325863
 20
-133.6349093632927
 10
82.43269447808974
 20
-133.6349093632927
 10
82.39669323026888
 20
-133.6369764205838
 10
82.36913246638689
 20
-133.6411105351661
 10
82.36913246638689
 20
-133.6411105351661
 10
82.36913246638689
 20
-133.4464626402495
 10
82.36913246638689
 20
-133.4464626402495
 10
82.40720077149889
 20
-133.4530083216715
 10
82.44957544596747
 20
-133.4550753789626
 10
82.45594887261518
 20
-133.4550753789626
 10
82.52140568683492
 20
-133.4550753789626
 10
82.72035995110811
 20
-133.4337157869541
 10
82.72035995110811
 20
-133.1970377271174
 10
82.72035995110811
 20
-133.0192708000785
 10
82.5891018131201
 20
-132.9641492723145
 10
82.47920326714062
 20
-132.9641492723145
 10
82.21479218864769
 20
-132.9641492723145
 10
82.20635170470884
 20
-133.1970377271174
 10
82.20204533535227
 20
-133.2686957132106
 10
82.20204533535227
 20
-133.2686957132106
 10
81.9989569564968
 20
-133.2686957132106
 10
81.9989569564968
 20
-133.2686957132106
 10
82.00739744043565
 20
-133.1439832566446
 10
82.03495820431765
 20
-132.7674343201068
 10
82.49177786566179
 20
-132.7674343201068
 10
82.71605358175155
 20
-132.7674343201068
 10
82.95721026571904
 20
-132.8945583435125
 10
82.95721026571904
 20
-133.1904920456954
 10
82.95721026571904
 20
-133.3768717114474
 10
82.86212563032613
 20
-133.4592094935449
 10
82.76256237080241
 20
-133.5205321931824
 10
82.82405732521413
 20
-133.5480929570644
 10
83.00595836683532
 20
-133.6283636818707
 10
83.00595836683532
 20
-133.9056938684333
 10
83.00595836683532
 20
-134.2440022450848
 10
82.75842825622011
 20
-134.4110893761195
 10
82.48127032443178
 20
-134.4110893761195
 97
        0
 97
        0
 75
     2
 76
     1
 98
        0
  0
SPLINE
  5
8C
330
83
100
AcDbEntity
  8
_U+30EC_U+30A4_U+30E4_U+30FC 1
370
     0
100
AcDbSpline
210
0.0
220
0.0
230
1.0
 70
    11
 71
     3
 72
    29
 73
    25
 74
     0
 42
0.0000000001
 43
0.0000000001
 12
1.0
 22
0.0
 32
0.0
 13
1.0
 23
0.0
 33
0.0
 40
0.0
 40
0.0
 40
0.0
 40
0.0
 40
1.0
 40
1.0
 40
1.0
 40
2.0
 40
2.0
 40
2.0
 40
3.0
 40
3.0
 40
3.0
 40
4.0
 40
4.0
 40
4.0
 40
5.0
 40
5.0
 40
5.0
 40
6.0
 40
6.0
 40
6.0
 40
7.0
 40
7.0
 40
7.0
 40
8.0
 40
8.0
 40
8.0
 40
8.0
 10
84.06429169990408
 20
-134.1826795454474
 30
0.0
 10
83.95646021121576
 20
-134.3921413509506
 30
0.0
 10
83.78299965353342
 20
-134.4110893761195
 30
0.0
 10
83.66655542613198
 20
-134.4110893761195
 30
0.0
 10
83.50584172174507
 20
-134.4110893761195
 30
0.0
 10
83.36407604252705
 20
-134.3645805870686
 30
0.0
 10
83.26881915235988
 20
-134.1826795454474
 30
0.0
 10
83.16529403302812
 20
-133.9880316505308
 30
0.0
 10
83.146173753085
 20
-133.7510090811456
 30
0.0
 10
83.146173753085
 20
-133.5884005742418
 30
0.0
 10
83.146173753085
 20
-133.4443955829584
 30
0.0
 10
83.1630547209627
 20
-133.1925591029866
 30
0.0
 10
83.26881915235988
 20
-132.9937770934877
 30
0.0
 10
83.37682289582247
 20
-132.7908609694065
 30
0.0
 10
83.53753660020936
 20
-132.7674343201068
 30
0.0
 10
83.66655542613198
 20
-132.7674343201068
 30
0.0
 10
83.82520207322773
 20
-132.7674343201068
 30
0.0
 10
83.96903480973691
 20
-132.8118760518665
 30
0.0
 10
84.06429169990408
 20
-132.9937770934877
 30
0.0
 10
84.16368270465352
 20
-133.1863579311132
 30
0.0
 10
84.18693709917896
 20
-133.4147677617852
 30
0.0
 10
84.18693709917896
 20
-133.5884005742418
 30
0.0
 10
84.18693709917896
 20
-133.7596218198587
 30
0.0
 10
84.16592201671894
 20
-133.9900987078219
 30
0.0
 10
84.06429169990408
 20
-134.1826795454474
 30
0.0
  0
SPLINE
  5
8D
330
83
100
AcDbEntity
  8
_U+30EC_U+30A4_U+30E4_U+30FC 1
370
     0
100
AcDbSpline
210
0.0
220
0.0
230
1.0
 70
    11
 71
     3
 72
    17
 73
    13
 74
     0
 42
0.0000000001
 43
0.0000000001
 12
1.0
 22
0.0
 32
0.0
 13
1.0
 23
0.0
 33
0.0
 40
0.0
 40
0.0
 40
0.0
 40
0.0
 40
1.0
 40
1.0
 40
1.0
 40
2.0
 40
2.0
 40
2.0
 40
3.0
 40
3.0
 40
3.0
 40
4.0
 40
4.0
 40
4.0
 40
4.0
 10
83.66655542613198
 20
-132.9600151577322
 30
0.0
 10
83.41695825822562
 20
-132.9600151577322
 30
0.0
 10
83.37044946917476
 20
-133.2435465161683
 30
0.0
 10
83.37044946917476
 20
-133.5884005742418
 30
0.0
 10
83.37044946917476
 20
-133.9077609257245
 30
0.0
 10
83.40645071699561
 20
-134.2164414812028
 30
0.0
 10
83.66655542613198
 20
-134.2164414812028
 30
0.0
 10
83.91408553674718
 20
-134.2164414812028
 30
0.0
 10
83.96283363786347
 20
-133.9353216896064
 30
0.0
 10
83.96283363786347
 20
-133.5884005742418
 30
0.0
 10
83.96283363786347
 20
-133.2686957132106
 30
0.0
 10
83.92476533275145
 20
-132.9600151577322
 30
0.0
 10
83.66655542613198
 20
-132.9600151577322
 30
0.0
  0
HATCH
  5
8E
330
83
100
AcDbEntity
  8
_U+30EC_U+30A4_U+30E4_U+30FC 1
 62
   179
420
  2234388
100
AcDbHatch
 10
0.0
 20
0.0
 30
0.0
210
0.0
220
0.0
230
1.0
  2
SOLID
 70
     1
 71
     0
 91
        2
 92
        1
 93
        1
 72
     4
 94
        3
 73
     0
 74
     1
 95
       29
 96
       25
 40
0.0
 40
0.0
 40
0.0
 40
0.0
 40
1.0
 40
1.0
 40
1.0
 40
2.0
 40
2.0
 40
2.0
 40
3.0
 40
3.0
 40
3.0
 40
4.0
 40
4.0
 40
4.0
 40
5.0
 40
5.0
 40
5.0
 40
6.0
 40
6.0
 40
6.0
 40
7.0
 40
7.0
 40
7.0
 40
8.0
 40
8.0
 40
8.0
 40
8.0
 10
84.06429169990408
 20
-134.1826795454474
 10
83.95646021121576
 20
-134.3921413509506
 10
83.78299965353342
 20
-134.4110893761195
 10
83.66655542613198
 20
-134.4110893761195
 10
83.50584172174507
 20
-134.4110893761195
 10
83.36407604252705
 20
-134.3645805870686
 10
83.26881915235988
 20
-134.1826795454474
 10
83.16529403302812
 20
-133.9880316505308
 10
83.146173753085
 20
-133.7510090811456
 10
83.146173753085
 20
-133.5884005742418
 10
83.146173753085
 20
-133.4443955829584
 10
83.1630547209627
 20
-133.1925591029866
 10
83.26881915235988
 20
-132.9937770934877
 10
83.37682289582247
 20
-132.7908609694065
 10
83.53753660020936
 20
-132.7674343201068
 10
83.66655542613198
 20
-132.7674343201068
 10
83.82520207322773
 20
-132.7674343201068
 10
83.96903480973691
 20
-132.8118760518665
 10
84.06429169990408
 20
-132.9937770934877
 10
84.16368270465352
 20
-133.1863579311132
 10
84.18693709917896
 20
-133.4147677617852
 10
84.18693709917896
 20
-133.5884005742418
 10
84.18693709917896
 20
-133.7596218198587
 10
84.16592201671894
 20
-133.9900987078219
 10
84.06429169990408
 20
-134.1826795454474
 97
        0
 97
        0
 92
        1
 93
        1
 72
     4
 94
        3
 73
     0
 74
     1
 95
       17
 96
       13
 40
0.0
 40
0.0
 40
0.0
 40
0.0
 40
1.0
 40
1.0
 40
1.0
 40
2.0
 40
2.0
 40
2.0
 40
3.0
 40
3.0
 40
3.0
 40
4.0
 40
4.0
 40
4.0
 40
4.0
 10
83.66655542613198
 20
-132.9600151577322
 10
83.41695825822562
 20
-132.9600151577322
 10
83.37044946917476
 20
-133.2435465161683
 10
83.37044946917476
 20
-133.5884005742418
 10
83.37044946917476
 20
-133.9077609257245
 10
83.40645071699561
 20
-134.2164414812028
 10
83.66655542613198
 20
-134.2164414812028
 10
83.91408553674718
 20
-134.2164414812028
 10
83.96283363786347
 20
-133.9353216896064
 10
83.96283363786347
 20
-133.5884005742418
 10
83.96283363786347
 20
-133.2686957132106
 10
83.92476533275145
 20
-132.9600151577322
 10
83.66655542613198
 20
-132.9600151577322
 97
        0
 97
        0
 75
     2
 76
     1
 98
        0
  0
ENDBLK
  5
86
330
83
100
AcDbEntity
  8
0
100
AcDbBlockEnd
  0
BLOCK
  5
A5
330
A3
100
AcDbEntity
  8
0
100
AcDbBlockBegin
  2
block 4
 70
     0
 10
0.0
 20
0.0
 30
0.0
  3
block 4
  1

  0
SPLINE
  5
A7
330
A3
100
AcDbEntity
  8
_U+30EC_U+30A4_U+30E4_U+30FC 1
370
     0
100
AcDbSpline
210
0.0
220
0.0
230
1.0
 70
    11
 71
     3
 72
    32
 73
    28
 74
     0
 42
0.0000000001
 43
0.0000000001
 12
1.0
 22
0.0
 32
0.0
 13
1.0
 23
0.0
 33
0.0
 40
0.0
 40
0.0
 40
0.0
 40
0.0
 40
1.0
 40
1.0
 40
1.0
 40
2.0
 40
2.0
 40
2.0
 40
3.0
 40
3.0
 40
3.0
 40
4.0
 40
4.0
 40
4.0
 40
5.0
 40
5.0
 40
5.0
 40
6.0
 40
6.0
 40
6.0
 40
7.0
 40
7.0
 40
7.0
 40
8.0
 40
8.0
 40
8.0
 40
9.0
 40
9.0
 40
9.0
 40
9.0
 10
117.9049478871904
 20
-149.7534776101311
 30
0.0
 10
117.9049478871904
 20
-150.2695529138215
 30
0.0
 10
117.3506320236137
 20
-150.2778211429861
 30
0.0
 10
117.1370361035282
 20
-150.2778211429861
 30
0.0
 10
116.906559215565
 20
-150.2778211429861
 30
0.0
 10
116.2588812643381
 20
-150.2588731178172
 30
0.0
 10
116.2588812643381
 20
-149.7152370502448
 30
0.0
 10
116.2588812643381
 20
-149.5419487473367
 30
0.0
 10
116.3288167026886
 20
-149.2963134392384
 30
0.0
 10
116.6609239074667
 20
-149.2584173889007
 30
0.0
 10
116.6609239074667
 20
-149.2584173889007
 30
0.0
 10
116.6609239074667
 20
-149.4720133089862
 30
0.0
 10
116.6609239074667
 20
-149.4720133089862
 30
0.0
 10
116.6040798319601
 20
-149.4826931049904
 30
0.0
 10
116.4559407260944
 20
-149.5143879834548
 30
0.0
 10
116.4559407260944
 20
-149.717304107536
 30
0.0
 10
116.4559407260944
 20
-150.0094482046852
 30
0.0
 10
116.7839138162901
 20
-150.049411312314
 30
0.0
 10
116.9888969976625
 20
-150.0621581656095
 30
0.0
 10
116.9106933301473
 20
-149.9691405875077
 30
0.0
 10
116.851437687801
 20
-149.9012722064483
 30
0.0
 10
116.851437687801
 20
-149.7193711648271
 30
0.0
 10
116.851437687801
 20
-149.5395371804971
 30
0.0
 10
116.9592691764894
 20
-149.2370577968921
 30
0.0
 10
117.3654459342003
 20
-149.2370577968921
 30
0.0
 10
117.6851507952315
 20
-149.2370577968921
 30
0.0
 10
117.9049478871904
 20
-149.4361843159396
 30
0.0
 10
117.9049478871904
 20
-149.7534776101311
 30
0.0
  0
SPLINE
  5
A8
330
A3
100
AcDbEntity
  8
_U+30EC_U+30A4_U+30E4_U+30FC 1
370
     0
100
AcDbSpline
210
0.0
220
0.0
230
1.0
 70
    11
 71
     3
 72
    17
 73
    13
 74
     0
 42
0.0000000001
 43
0.0000000001
 12
1.0
 22
0.0
 32
0.0
 13
1.0
 23
0.0
 33
0.0
 40
0.0
 40
0.0
 40
0.0
 40
0.0
 40
1.0
 40
1.0
 40
1.0
 40
2.0
 40
2.0
 40
2.0
 40
3.0
 40
3.0
 40
3.0
 40
4.0
 40
4.0
 40
4.0
 40
4.0
 10
117.0460855827177
 20
-149.7362521327048
 30
0.0
 10
117.0460855827177
 20
-149.9987684086809
 30
0.0
 10
117.257614445512
 20
-150.0366644590186
 30
0.0
 10
117.3737141633649
 20
-150.0366644590186
 30
0.0
 10
117.5494140331127
 20
-150.0366644590186
 30
0.0
 10
117.712367049565
 20
-149.9415798236257
 30
0.0
 10
117.712367049565
 20
-149.7576117247134
 30
0.0
 10
117.712367049565
 20
-149.6370333827296
 30
0.0
 10
117.6531114072187
 20
-149.4613335129819
 30
0.0
 10
117.3675129914915
 20
-149.4613335129819
 30
0.0
 10
117.1435817849502
 20
-149.4613335129819
 30
0.0
 10
117.0460855827177
 20
-149.601204389683
 30
0.0
 10
117.0460855827177
 20
-149.7362521327048
 30
0.0
  0
HATCH
  5
A9
330
A3
100
AcDbEntity
  8
_U+30EC_U+30A4_U+30E4_U+30FC 1
 62
   179
420
  2234388
100
AcDbHatch
 10
0.0
 20
0.0
 30
0.0
210
0.0
220
0.0
230
1.0
  2
SOLID
 70
     1
 71
     0
 91
        2
 92
        1
 93
        1
 72
     4
 94
        3
 73
     0
 74
     1
 95
       32
 96
       28
 40
0.0
 40
0.0
 40
0.0
 40
0.0
 40
1.0
 40
1.0
 40
1.0
 40
2.0
 40
2.0
 40
2.0
 40
3.0
 40
3.0
 40
3.0
 40
4.0
 40
4.0
 40
4.0
 40
5.0
 40
5.0
 40
5.0
 40
6.0
 40
6.0
 40
6.0
 40
7.0
 40
7.0
 40
7.0
 40
8.0
 40
8.0
 40
8.0
 40
9.0
 40
9.0
 40
9.0
 40
9.0
 10
117.9049478871904
 20
-149.7534776101311
 10
117.9049478871904
 20
-150.2695529138215
 10
117.3506320236137
 20
-150.2778211429861
 10
117.1370361035282
 20
-150.2778211429861
 10
116.906559215565
 20
-150.2778211429861
 10
116.2588812643381
 20
-150.2588731178172
 10
116.2588812643381
 20
-149.7152370502448
 10
116.2588812643381
 20
-149.5419487473367
 10
116.3288167026886
 20
-149.2963134392384
 10
116.6609239074667
 20
-149.2584173889007
 10
116.6609239074667
 20
-149.2584173889007
 10
116.6609239074667
 20
-149.4720133089862
 10
116.6609239074667
 20
-149.4720133089862
 10
116.6040798319601
 20
-149.4826931049904
 10
116.4559407260944
 20
-149.5143879834548
 10
116.4559407260944
 20
-149.717304107536
 10
116.4559407260944
 20
-150.0094482046852
 10
116.7839138162901
 20
-150.049411312314
 10
116.9888969976625
 20
-150.0621581656095
 10
116.9106933301473
 20
-149.9691405875077
 10
116.851437687801
 20
-149.9012722064483
 10
116.851437687801
 20
-149.7193711648271
 10
116.851437687801
 20
-149.5395371804971
 10
116.9592691764894
 20
-149.2370577968921
 10
117.3654459342003
 20
-149.2370577968921
 10
117.6851507952315
 20
-149.2370577968921
 10
117.9049478871904
 20
-149.4361843159396
 10
117.9049478871904
 20
-149.7534776101311
 97
        0
 97
        0
 92
        1
 93
        1
 72
     4
 94
        3
 73
     0
 74
     1
 95
       17
 96
       13
 40
0.0
 40
0.0
 40
0.0
 40
0.0
 40
1.0
 40
1.0
 40
1.0
 40
2.0
 40
2.0
 40
2.0
 40
3.0
 40
3.0
 40
3.0
 40
4.0
 40
4.0
 40
4.0
 40
4.0
 10
117.0460855827177
 20
-149.7362521327048
 10
117.0460855827177
 20
-149.9987684086809
 10
117.257614445512
 20
-150.0366644590186
 10
117.3737141633649
 20
-150.0366644590186
 10
117.5494140331127
 20
-150.0366644590186
 10
117.712367049565
 20
-149.9415798236257
 10
117.712367049565
 20
-149.7576117247134
 10
117.712367049565
 20
-149.6370333827296
 10
117.6531114072187
 20
-149.4613335129819
 10
117.3675129914915
 20
-149.4613335129819
 10
117.1435817849502
 20
-149.4613335129819
 10
117.0460855827177
 20
-149.601204389683
 10
117.0460855827177
 20
-149.7362521327048
 97
        0
 97
        0
 75
     2
 76
     1
 98
        0
  0
POLYLINE
  5
AA
330
A3
100
AcDbEntity
  8
_U+30EC_U+30A4_U+30E4_U+30FC 1
370
     0
100
AcDb2dPolyline
 66
     1
 10
0.0
 20
0.0
 30
0.0
  0
VERTEX
  5
AB
330
AA
100
AcDbEntity
  8
_U+30EC_U+30A4_U+30E4_U+30FC 1
370
     0
100
AcDbVertex
100
AcDb2dVertex
 10
117.8539604740087
 20
-149.0207058004185
 30
0.0
  0
VERTEX
  5
AC
330
AA
100
AcDbEntity
  8
_U+30EC_U+30A4_U+30E4_U+30FC 1
370
     0
100
AcDbVertex
100
AcDb2dVertex
 10
117.6024685035855
 20
-149.0207058004185
 30
0.0
  0
VERTEX
  5
AD
330
AA
100
AcDbEntity
  8
_U+30EC_U+30A4_U+30E4_U+30FC 1
370
     0
100
AcDbVertex
100
AcDb2dVertex
 10
117.6024685035855
 20
-148.7688693204467
 30
0.0
  0
VERTEX
  5
AE
330
AA
100
AcDbEntity
  8
_U+30EC_U+30A4_U+30E4_U+30FC 1
370
     0
100
AcDbVertex
100
AcDb2dVertex
 10
117.8539604740087
 20
-148.7688693204467
 30
0.0
  0
VERTEX
  5
AF
330
AA
100
AcDbEntity
  8
_U+30EC_U+30A4_U+30E4_U+30FC 1
370
     0
100
AcDbVertex
100
AcDb2dVertex
 10
117.8539604740087
 20
-149.0207058004185
 30
0.0
  0
SEQEND
  5
B0
330
AA
100
AcDbEntity
  8
_U+30EC_U+30A4_U+30E4_U+30FC 1
370
     0
  0
HATCH
  5
B1
330
A3
100
AcDbEntity
  8
_U+30EC_U+30A4_U+30E4_U+30FC 1
 62
   179
420
  2234388
100
AcDbHatch
 10
0.0
 20
0.0
 30
0.0
210
0.0
220
0.0
230
1.0
  2
SOLID
 70
     1
 71
     0
 91
        1
 92
        1
 93
        4
 72
     1
 10
117.8539604740087
 20
-149.0207058004185
 11
117.6024685035855
 21
-149.0207058004185
 72
     1
 10
117.6024685035855
 20
-149.0207058004185
 11
117.6024685035855
 21
-148.7688693204467
 72
     1
 10
117.6024685035855
 20
-148.7688693204467
 11
117.8539604740087
 21
-148.7688693204467
 72
     1
 10
117.8539604740087
 20
-148.7688693204467
 11
117.8539604740087
 21
-149.0207058004185
 97
        0
 75
     2
 76
     1
 98
        0
  0
SPLINE
  5
B2
330
A3
100
AcDbEntity
  8
_U+30EC_U+30A4_U+30E4_U+30FC 1
370
     0
100
AcDbSpline
210
0.0
220
0.0
230
1.0
 70
    11
 71
     3
 72
    53
 73
    49
 74
     0
 42
0.0000000001
 43
0.0000000001
 12
1.0
 22
0.0
 32
0.0
 13
1.0
 23
0.0
 33
0.0
 40
0.0
 40
0.0
 40
0.0
 40
0.0
 40
1.0
 40
1.0
 40
1.0
 40
2.0
 40
2.0
 40
2.0
 40
3.0
 40
3.0
 40
3.0
 40
4.0
 40
4.0
 40
4.0
 40
5.0
 40
5.0
 40
5.0
 40
6.0
 40
6.0
 40
6.0
 40
7.0
 40
7.0
 40
7.0
 40
8.0
 40
8.0
 40
8.0
 40
9.0
 40
9.0
 40
9.0
 40
10.0
 40
10.0
 40
10.0
 40
11.0
 40
11.0
 40
11.0
 40
12.0
 40
12.0
 40
12.0
 40
13.0
 40
13.0
 40
13.0
 40
14.0
 40
14.0
 40
14.0
 40
15.0
 40
15.0
 40
15.0
 40
16.0
 40
16.0
 40
16.0
 40
16.0
 10
117.9049478871904
 20
-148.0516004404177
 30
0.0
 10
117.9049478871904
 20
-148.1298041079328
 30
0.0
 10
117.8877224097642
 20
-148.2314344247477
 30
0.0
 10
117.8243326528356
 20
-148.3330647415626
 30
0.0
 10
117.7144341068561
 20
-148.5063530444706
 30
0.0
 10
117.5831759688681
 20
-148.5277126364792
 30
0.0
 10
117.4756889897283
 20
-148.5466606616481
 30
0.0
 10
117.4756889897283
 20
-148.5466606616481
 30
0.0
 10
117.4756889897283
 20
-148.3244520028495
 30
0.0
 10
117.4756889897283
 20
-148.3244520028495
 30
0.0
 10
117.6741264896787
 20
-148.269674984634
 30
0.0
 10
117.7037543108518
 20
-148.1425509612283
 30
0.0
 10
117.7037543108518
 20
-148.0495333831265
 30
0.0
 10
117.7037543108518
 20
-147.9100070159739
 30
0.0
 10
117.6045355608767
 20
-147.7577337955258
 30
0.0
 10
117.3716471060738
 20
-147.7577337955258
 30
0.0
 10
117.1160210210682
 20
-147.7577337955258
 30
0.0
 10
117.0460855827177
 20
-147.9375677798559
 30
0.0
 10
117.0460855827177
 20
-148.0581461218396
 30
0.0
 10
117.0460855827177
 20
-148.0898410003039
 30
0.0
 10
117.0460855827177
 20
-148.2314344247477
 30
0.0
 10
117.1752766634145
 20
-148.3203178882671
 30
0.0
 10
117.1752766634145
 20
-148.3203178882671
 30
0.0
 10
117.1559841286971
 20
-148.4960177580149
 30
0.0
 10
117.1559841286971
 20
-148.4960177580149
 30
0.0
 10
117.1559841286971
 20
-148.4960177580149
 30
0.0
 10
116.3098686775198
 20
-148.3754394160312
 30
0.0
 10
116.3098686775198
 20
-148.3754394160312
 30
0.0
 10
116.3098686775198
 20
-148.3754394160312
 30
0.0
 10
116.3098686775198
 20
-147.5968478363647
 30
0.0
 10
116.3098686775198
 20
-147.5968478363647
 30
0.0
 10
116.3098686775198
 20
-147.5968478363647
 30
0.0
 10
116.5045165724364
 20
-147.5968478363647
 30
0.0
 10
116.5045165724364
 20
-147.5968478363647
 30
0.0
 10
116.5045165724364
 20
-147.5968478363647
 30
0.0
 10
116.5045165724364
 20
-148.2124863995788
 30
0.0
 10
116.5045165724364
 20
-148.2124863995788
 30
0.0
 10
116.5045165724364
 20
-148.2124863995788
 30
0.0
 10
116.927574298025
 20
-148.2779432137986
 30
0.0
 10
116.927574298025
 20
-148.2779432137986
 30
0.0
 10
116.8934678527211
 20
-148.2166205141611
 30
0.0
 10
116.8535047450922
 20
-148.1342827320637
 30
0.0
 10
116.8535047450922
 20
-148.0157714473711
 30
0.0
 10
116.8535047450922
 20
-147.7618679101082
 30
0.0
 10
117.0395399012957
 20
-147.524845340723
 30
0.0
 10
117.3526990809049
 20
-147.524845340723
 30
0.0
 10
117.6699923750964
 20
-147.524845340723
 30
0.0
 10
117.9049478871904
 20
-147.7491210568127
 30
0.0
 10
117.9049478871904
 20
-148.0516004404177
 30
0.0
  0
HATCH
  5
B3
330
A3
100
AcDbEntity
  8
_U+30EC_U+30A4_U+30E4_U+30FC 1
 62
   179
420
  2234388
100
AcDbHatch
 10
0.0
 20
0.0
 30
0.0
210
0.0
220
0.0
230
1.0
  2
SOLID
 70
     1
 71
     0
 91
        1
 92
        1
 93
        1
 72
     4
 94
        3
 73
     0
 74
     1
 95
       53
 96
       49
 40
0.0
 40
0.0
 40
0.0
 40
0.0
 40
1.0
 40
1.0
 40
1.0
 40
2.0
 40
2.0
 40
2.0
 40
3.0
 40
3.0
 40
3.0
 40
4.0
 40
4.0
 40
4.0
 40
5.0
 40
5.0
 40
5.0
 40
6.0
 40
6.0
 40
6.0
 40
7.0
 40
7.0
 40
7.0
 40
8.0
 40
8.0
 40
8.0
 40
9.0
 40
9.0
 40
9.0
 40
10.0
 40
10.0
 40
10.0
 40
11.0
 40
11.0
 40
11.0
 40
12.0
 40
12.0
 40
12.0
 40
13.0
 40
13.0
 40
13.0
 40
14.0
 40
14.0
 40
14.0
 40
15.0
 40
15.0
 40
15.0
 40
16.0
 40
16.0
 40
16.0
 40
16.0
 10
117.9049478871904
 20
-148.0516004404177
 10
117.9049478871904
 20
-148.1298041079328
 10
117.8877224097642
 20
-148.2314344247477
 10
117.8243326528356
 20
-148.3330647415626
 10
117.7144341068561
 20
-148.5063530444706
 10
117.5831759688681
 20
-148.5277126364792
 10
117.4756889897283
 20
-148.5466606616481
 10
117.4756889897283
 20
-148.5466606616481
 10
117.4756889897283
 20
-148.3244520028495
 10
117.4756889897283
 20
-148.3244520028495
 10
117.6741264896787
 20
-148.269674984634
 10
117.7037543108518
 20
-148.1425509612283
 10
117.7037543108518
 20
-148.0495333831265
 10
117.7037543108518
 20
-147.9100070159739
 10
117.6045355608767
 20
-147.7577337955258
 10
117.3716471060738
 20
-147.7577337955258
 10
117.1160210210682
 20
-147.7577337955258
 10
117.0460855827177
 20
-147.9375677798559
 10
117.0460855827177
 20
-148.0581461218396
 10
117.0460855827177
 20
-148.0898410003039
 10
117.0460855827177
 20
-148.2314344247477
 10
117.1752766634145
 20
-148.3203178882671
 10
117.1752766634145
 20
-148.3203178882671
 10
117.1559841286971
 20
-148.4960177580149
 10
117.1559841286971
 20
-148.4960177580149
 10
117.1559841286971
 20
-148.4960177580149
 10
116.3098686775198
 20
-148.3754394160312
 10
116.3098686775198
 20
-148.3754394160312
 10
116.3098686775198
 20
-148.3754394160312
 10
116.3098686775198
 20
-147.5968478363647
 10
116.3098686775198
 20
-147.5968478363647
 10
116.3098686775198
 20
-147.5968478363647
 10
116.5045165724364
 20
-147.5968478363647
 10
116.5045165724364
 20
-147.5968478363647
 10
116.5045165724364
 20
-147.5968478363647
 10
116.5045165724364
 20
-148.2124863995788
 10
116.5045165724364
 20
-148.2124863995788
 10
116.5045165724364
 20
-148.2124863995788
 10
116.927574298025
 20
-148.2779432137986
 10
116.927574298025
 20
-148.2779432137986
 10
116.8934678527211
 20
-148.2166205141611
 10
116.8535047450922
 20
-148.1342827320637
 10
116.8535047450922
 20
-148.0157714473711
 10
116.8535047450922
 20
-147.7618679101082
 10
117.0395399012957
 20
-147.524845340723
 10
117.3526990809049
 20
-147.524845340723
 10
117.6699923750964
 20
-147.524845340723
 10
117.9049478871904
 20
-147.7491210568127
 10
117.9049478871904
 20
-148.0516004404177
 97
        0
 97
        0
 75
     2
 76
     1
 98
        0
  0
ENDBLK
  5
A6
330
A3
100
AcDbEntity
  8
0
100
AcDbBlockEnd
  0
BLOCK
  5
B6
330
B4
100
AcDbEntity
  8
0
100
AcDbBlockBegin
  2
block 5
 70
     0
 10
0.0
 20
0.0
 30
0.0
  3
block 5
  1

  0
SPLINE
  5
B8
330
B4
100
AcDbEntity
  8
_U+30EC_U+30A4_U+30E4_U+30FC 1
370
     0
100
AcDbSpline
210
0.0
220
0.0
230
1.0
 70
    11
 71
     3
 72
    26
 73
    22
 74
     0
 42
0.0000000001
 43
0.0000000001
 12
1.0
 22
0.0
 32
0.0
 13
1.0
 23
0.0
 33
0.0
 40
0.0
 40
0.0
 40
0.0
 40
0.0
 40
1.0
 40
1.0
 40
1.0
 40
2.0
 40
2.0
 40
2.0
 40
3.0
 40
3.0
 40
3.0
 40
4.0
 40
4.0
 40
4.0
 40
5.0
 40
5.0
 40
5.0
 40
6.0
 40
6.0
 40
6.0
 40
7.0
 40
7.0
 40
7.0
 40
7.0
 10
117.8539604740087
 20
-143.4930500943351
 30
0.0
 10
117.8539604740087
 20
-143.4930500943351
 30
0.0
 10
116.7498073709862
 20
-143.4930500943351
 30
0.0
 10
116.7498073709862
 20
-143.4930500943351
 30
0.0
 10
116.7498073709862
 20
-143.4930500943351
 30
0.0
 10
116.7498073709862
 20
-143.823090241822
 30
0.0
 10
116.7498073709862
 20
-143.823090241822
 30
0.0
 10
116.7498073709862
 20
-143.823090241822
 30
0.0
 10
116.6020127746689
 20
-143.823090241822
 30
0.0
 10
116.6020127746689
 20
-143.823090241822
 30
0.0
 10
116.5868543545338
 20
-143.4909830370439
 30
0.0
 10
116.4242458476301
 20
-143.444474247993
 30
0.0
 10
116.3098686775198
 20
-143.4148464268199
 30
0.0
 10
116.3098686775198
 20
-143.4148464268199
 30
0.0
 10
116.3098686775198
 20
-143.2687743782453
 30
0.0
 10
116.3098686775198
 20
-143.2687743782453
 30
0.0
 10
116.3098686775198
 20
-143.2687743782453
 30
0.0
 10
117.8539604740087
 20
-143.2687743782453
 30
0.0
 10
117.8539604740087
 20
-143.2687743782453
 30
0.0
 10
117.8539604740087
 20
-143.2687743782453
 30
0.0
 10
117.8539604740087
 20
-143.4930500943351
 30
0.0
 10
117.8539604740087
 20
-143.4930500943351
 30
0.0
  0
HATCH
  5
B9
330
B4
100
AcDbEntity
  8
_U+30EC_U+30A4_U+30E4_U+30FC 1
 62
   179
420
  2234388
100
AcDbHatch
 10
0.0
 20
0.0
 30
0.0
210
0.0
220
0.0
230
1.0
  2
SOLID
 70
     1
 71
     0
 91
        1
 92
        1
 93
        1
 72
     4
 94
        3
 73
     0
 74
     1
 95
       26
 96
       22
 40
0.0
 40
0.0
 40
0.0
 40
0.0
 40
1.0
 40
1.0
 40
1.0
 40
2.0
 40
2.0
 40
2.0
 40
3.0
 40
3.0
 40
3.0
 40
4.0
 40
4.0
 40
4.0
 40
5.0
 40
5.0
 40
5.0
 40
6.0
 40
6.0
 40
6.0
 40
7.0
 40
7.0
 40
7.0
 40
7.0
 10
117.8539604740087
 20
-143.4930500943351
 10
117.8539604740087
 20
-143.4930500943351
 10
116.7498073709862
 20
-143.4930500943351
 10
116.7498073709862
 20
-143.4930500943351
 10
116.7498073709862
 20
-143.4930500943351
 10
116.7498073709862
 20
-143.823090241822
 10
116.7498073709862
 20
-143.823090241822
 10
116.7498073709862
 20
-143.823090241822
 10
116.6020127746689
 20
-143.823090241822
 10
116.6020127746689
 20
-143.823090241822
 10
116.5868543545338
 20
-143.4909830370439
 10
116.4242458476301
 20
-143.444474247993
 10
116.3098686775198
 20
-143.4148464268199
 10
116.3098686775198
 20
-143.4148464268199
 10
116.3098686775198
 20
-143.2687743782453
 10
116.3098686775198
 20
-143.2687743782453
 10
116.3098686775198
 20
-143.2687743782453
 10
117.8539604740087
 20
-143.2687743782453
 10
117.8539604740087
 20
-143.2687743782453
 10
117.8539604740087
 20
-143.2687743782453
 10
117.8539604740087
 20
-143.4930500943351
 10
117.8539604740087
 20
-143.4930500943351
 97
        0
 97
        0
 75
     2
 76
     1
 98
        0
  0
POLYLINE
  5
BA
330
B4
100
AcDbEntity
  8
_U+30EC_U+30A4_U+30E4_U+30FC 1
370
     0
100
AcDb2dPolyline
 66
     1
 10
0.0
 20
0.0
 30
0.0
  0
VERTEX
  5
BB
330
BA
100
AcDbEntity
  8
_U+30EC_U+30A4_U+30E4_U+30FC 1
370
     0
100
AcDbVertex
100
AcDb2dVertex
 10
117.8539604740087
 20
-142.7075683236981
 30
0.0
  0
VERTEX
  5
BC
330
BA
100
AcDbEntity
  8
_U+30EC_U+30A4_U+30E4_U+30FC 1
370
     0
100
AcDbVertex
100
AcDb2dVertex
 10
117.6024685035855
 20
-142.7075683236981
 30
0.0
  0
VERTEX
  5
BD
330
BA
100
AcDbEntity
  8
_U+30EC_U+30A4_U+30E4_U+30FC 1
370
     0
100
AcDbVertex
100
AcDb2dVertex
 10
117.6024685035855
 20
-142.4557318437263
 30
0.0
  0
VERTEX
  5
BE
330
BA
100
AcDbEntity
  8
_U+30EC_U+30A4_U+30E4_U+30FC 1
370
     0
100
AcDbVertex
100
AcDb2dVertex
 10
117.8539604740087
 20
-142.4557318437263
 30
0.0
  0
VERTEX
  5
BF
330
BA
100
AcDbEntity
  8
_U+30EC_U+30A4_U+30E4_U+30FC 1
370
     0
100
AcDbVertex
100
AcDb2dVertex
 10
117.8539604740087
 20
-142.7075683236981
 30
0.0
  0
SEQEND
  5
C0
330
BA
100
AcDbEntity
  8
_U+30EC_U+30A4_U+30E4_U+30FC 1
370
     0
  0
HATCH
  5
C1
330
B4
100
AcDbEntity
  8
_U+30EC_U+30A4_U+30E4_U+30FC 1
 62
   179
420
  2234388
100
AcDbHatch
 10
0.0
 20
0.0
 30
0.0
210
0.0
220
0.0
230
1.0
  2
SOLID
 70
     1
 71
     0
 91
        1
 92
        1
 93
        4
 72
     1
 10
117.8539604740087
 20
-142.7075683236981
 11
117.6024685035855
 21
-142.7075683236981
 72
     1
 10
117.6024685035855
 20
-142.7075683236981
 11
117.6024685035855
 21
-142.4557318437263
 72
     1
 10
117.6024685035855
 20
-142.4557318437263
 11
117.8539604740087
 21
-142.4557318437263
 72
     1
 10
117.8539604740087
 20
-142.4557318437263
 11
117.8539604740087
 21
-142.7075683236981
 97
        0
 75
     2
 76
     1
 98
        0
  0
SPLINE
  5
C2
330
B4
100
AcDbEntity
  8
_U+30EC_U+30A4_U+30E4_U+30FC 1
370
     0
100
AcDbSpline
210
0.0
220
0.0
230
1.0
 70
    11
 71
     3
 72
    44
 73
    40
 74
     0
 42
0.0000000001
 43
0.0000000001
 12
1.0
 22
0.0
 32
0.0
 13
1.0
 23
0.0
 33
0.0
 40
0.0
 40
0.0
 40
0.0
 40
0.0
 40
1.0
 40
1.0
 40
1.0
 40
2.0
 40
2.0
 40
2.0
 40
3.0
 40
3.0
 40
3.0
 40
4.0
 40
4.0
 40
4.0
 40
5.0
 40
5.0
 40
5.0
 40
6.0
 40
6.0
 40
6.0
 40
7.0
 40
7.0
 40
7.0
 40
8.0
 40
8.0
 40
8.0
 40
9.0
 40
9.0
 40
9.0
 40
10.0
 40
10.0
 40
10.0
 40
11.0
 40
11.0
 40
11.0
 40
12.0
 40
12.0
 40
12.0
 40
13.0
 40
13.0
 40
13.0
 40
13.0
 10
117.2724283560986
 20
-141.6264973604267
 30
0.0
 10
117.4309027484201
 20
-141.8442273950945
 30
0.0
 10
117.5053168109014
 20
-141.9372449731962
 30
0.0
 10
117.6489772926364
 20
-141.9861653290868
 30
0.0
 10
117.6489772926364
 20
-141.9861653290868
 30
0.0
 10
117.6489772926364
 20
-141.2075737494203
 30
0.0
 10
117.6489772926364
 20
-141.2075737494203
 30
0.0
 10
117.6489772926364
 20
-141.2075737494203
 30
0.0
 10
117.8539604740087
 20
-141.2075737494203
 30
0.0
 10
117.8539604740087
 20
-141.2075737494203
 30
0.0
 10
117.8539604740087
 20
-141.2075737494203
 30
0.0
 10
117.8539604740087
 20
-142.2355902422189
 30
0.0
 10
117.8539604740087
 20
-142.2355902422189
 30
0.0
 10
117.4963595626398
 20
-142.2038953637546
 30
0.0
 10
117.4185004046732
 20
-142.1384385495348
 30
0.0
 10
117.1201551356505
 20
-141.7532768742839
 30
0.0
 10
116.9210286166031
 20
-141.4973062797299
 30
0.0
 10
116.8535047450922
 20
-141.4318494655101
 30
0.0
 10
116.7160454352307
 20
-141.4318494655101
 30
0.0
 10
116.5975341505381
 20
-141.4318494655101
 30
0.0
 10
116.4662760125501
 20
-141.5038519611518
 30
0.0
 10
116.4662760125501
 20
-141.7005669133596
 30
0.0
 10
116.4662760125501
 20
-141.9606716224959
 30
0.0
 10
116.6970974100618
 20
-141.9689398516605
 30
0.0
 10
116.8135416374633
 20
-141.9734184757914
 30
0.0
 10
116.8135416374633
 20
-141.9734184757914
 30
0.0
 10
116.8135416374633
 20
-142.1976941918811
 30
0.0
 10
116.8135416374633
 20
-142.1976941918811
 30
0.0
 10
116.6864176140576
 20
-142.189081453168
 30
0.0
 10
116.5744520107869
 20
-142.1784016571637
 30
0.0
 10
116.4559407260944
 20
-142.0981309323574
 30
0.0
 10
116.2950547669332
 20
-141.9882323863779
 30
0.0
 10
116.2609483216292
 20
-141.8018527206259
 30
0.0
 10
116.2609483216292
 20
-141.685753002773
 30
0.0
 10
116.2609483216292
 20
-141.4084228162104
 30
0.0
 10
116.4452609300901
 20
-141.2010280679984
 30
0.0
 10
116.7181124925219
 20
-141.2010280679984
 30
0.0
 10
116.9465223231939
 20
-141.2010280679984
 30
0.0
 10
117.0460855827177
 20
-141.3174722953998
 30
0.0
 10
117.2724283560986
 20
-141.6264973604267
 30
0.0
  0
HATCH
  5
C3
330
B4
100
AcDbEntity
  8
_U+30EC_U+30A4_U+30E4_U+30FC 1
 62
   179
420
  2234388
100
AcDbHatch
 10
0.0
 20
0.0
 30
0.0
210
0.0
220
0.0
230
1.0
  2
SOLID
 70
     1
 71
     0
 91
        1
 92
        1
 93
        1
 72
     4
 94
        3
 73
     0
 74
     1
 95
       44
 96
       40
 40
0.0
 40
0.0
 40
0.0
 40
0.0
 40
1.0
 40
1.0
 40
1.0
 40
2.0
 40
2.0
 40
2.0
 40
3.0
 40
3.0
 40
3.0
 40
4.0
 40
4.0
 40
4.0
 40
5.0
 40
5.0
 40
5.0
 40
6.0
 40
6.0
 40
6.0
 40
7.0
 40
7.0
 40
7.0
 40
8.0
 40
8.0
 40
8.0
 40
9.0
 40
9.0
 40
9.0
 40
10.0
 40
10.0
 40
10.0
 40
11.0
 40
11.0
 40
11.0
 40
12.0
 40
12.0
 40
12.0
 40
13.0
 40
13.0
 40
13.0
 40
13.0
 10
117.2724283560986
 20
-141.6264973604267
 10
117.4309027484201
 20
-141.8442273950945
 10
117.5053168109014
 20
-141.9372449731962
 10
117.6489772926364
 20
-141.9861653290868
 10
117.6489772926364
 20
-141.9861653290868
 10
117.6489772926364
 20
-141.2075737494203
 10
117.6489772926364
 20
-141.2075737494203
 10
117.6489772926364
 20
-141.2075737494203
 10
117.8539604740087
 20
-141.2075737494203
 10
117.8539604740087
 20
-141.2075737494203
 10
117.8539604740087
 20
-141.2075737494203
 10
117.8539604740087
 20
-142.2355902422189
 10
117.8539604740087
 20
-142.2355902422189
 10
117.4963595626398
 20
-142.2038953637546
 10
117.4185004046732
 20
-142.1384385495348
 10
117.1201551356505
 20
-141.7532768742839
 10
116.9210286166031
 20
-141.4973062797299
 10
116.8535047450922
 20
-141.4318494655101
 10
116.7160454352307
 20
-141.4318494655101
 10
116.5975341505381
 20
-141.4318494655101
 10
116.4662760125501
 20
-141.5038519611518
 10
116.4662760125501
 20
-141.7005669133596
 10
116.4662760125501
 20
-141.9606716224959
 10
116.6970974100618
 20
-141.9689398516605
 10
116.8135416374633
 20
-141.9734184757914
 10
116.8135416374633
 20
-141.9734184757914
 10
116.8135416374633
 20
-142.1976941918811
 10
116.8135416374633
 20
-142.1976941918811
 10
116.6864176140576
 20
-142.189081453168
 10
116.5744520107869
 20
-142.1784016571637
 10
116.4559407260944
 20
-142.0981309323574
 10
116.2950547669332
 20
-141.9882323863779
 10
116.2609483216292
 20
-141.8018527206259
 10
116.2609483216292
 20
-141.685753002773
 10
116.2609483216292
 20
-141.4084228162104
 10
116.4452609300901
 20
-141.2010280679984
 10
116.7181124925219
 20
-141.2010280679984
 10
116.9465223231939
 20
-141.2010280679984
 10
117.0460855827177
 20
-141.3174722953998
 10
117.2724283560986
 20
-141.6264973604267
 97
        0
 97
        0
 75
     2
 76
     1
 98
        0
  0
ENDBLK
  5
B7
330
B4
100
AcDbEntity
  8
0
100
AcDbBlockEnd
  0
ENDSEC
  0
SECTION
  2
ENTITIES
  0
SPLINE
  5
41
330
1F
100
AcDbEntity
  8
_U+30EC_U+30A4_U+30E4_U+30FC 1
 62
   253
420
 10855845
370
     9
100
AcDbSpline
210
0.0
220
0.0
230
1.0
 70
    11
 71
     3
 72
    65
 73
    61
 74
     0
 42
0.0000000001
 43
0.0000000001
 12
1.0
 22
0.0
 32
0.0
 13
1.0
 23
0.0
 33
0.0
 40
0.0
 40
0.0
 40
0.0
 40
0.0
 40
1.0
 40
1.0
 40
1.0
 40
2.0
 40
2.0
 40
2.0
 40
3.0
 40
3.0
 40
3.0
 40
4.0
 40
4.0
 40
4.0
 40
5.0
 40
5.0
 40
5.0
 40
6.0
 40
6.0
 40
6.0
 40
7.0
 40
7.0
 40
7.0
 40
8.0
 40
8.0
 40
8.0
 40
9.0
 40
9.0
 40
9.0
 40
10.0
 40
10.0
 40
10.0
 40
11.0
 40
11.0
 40
11.0
 40
12.0
 40
12.0
 40
12.0
 40
13.0
 40
13.0
 40
13.0
 40
14.0
 40
14.0
 40
14.0
 40
15.0
 40
15.0
 40
15.0
 40
16.0
 40
16.0
 40
16.0
 40
17.0
 40
17.0
 40
17.0
 40
18.0
 40
18.0
 40
18.0
 40
19.0
 40
19.0
 40
19.0
 40
20.0
 40
20.0
 40
20.0
 40
20.0
 10
75.01265391960109
 20
-121.7734560806676
 30
0.0
 10
75.01265391960109
 20
-121.7734560806676
 30
0.0
 10
75.06811058485295
 20
-103.8162205296014
 30
0.0
 10
75.06811058485295
 20
-103.8162205296014
 30
0.0
 10
75.06811058485295
 20
-103.8162205296014
 30
0.0
 10
76.28526444268965
 20
-103.8162205296014
 30
0.0
 10
76.28526444268965
 20
-103.8162205296014
 30
0.0
 10
76.28526444268965
 20
-103.8162205296014
 30
0.0
 10
76.2298077774378
 20
-123.2114135803082
 30
0.0
 10
76.2298077774378
 20
-123.2114135803082
 30
0.0
 10
76.2298077774378
 20
-123.2114135803082
 30
0.0
 10
69.7571471092358
 20
-122.8793085803913
 30
0.0
 10
69.7571471092358
 20
-122.8793085803913
 30
0.0
 10
69.7571471092358
 20
-122.8793085803913
 30
0.0
 10
70.4210395922985
 20
-127.6921146902993
 30
0.0
 10
70.75314458382579
 20
-128.6884296900502
 30
0.0
 10
70.75314458382579
 20
-128.6884296900502
 30
0.0
 10
73.29766007446534
 20
-136.9862921879757
 30
0.0
 10
75.01265391960109
 20
-138.6454413542278
 30
0.0
 10
75.01265391960109
 20
-138.6454413542278
 30
0.0
 10
79.21702409011645
 20
-144.0680238528716
 30
0.0
 10
81.15387987403648
 20
-145.0636685748455
 30
0.0
 10
81.15387987403648
 20
-145.0636685748455
 30
0.0
 10
84.8600925572609
 20
-148.327568574029
 30
0.0
 10
90.22619519813799
 20
-149.4341266293083
 30
0.0
 10
90.22619519813799
 20
-149.4341266293083
 30
0.0
 10
93.04788818170616
 20
-150.539979129032
 30
0.0
 10
97.52859164228478
 20
-150.7611707956429
 30
0.0
 10
97.52859164228478
 20
-150.7611707956429
 30
0.0
 10
97.25229362999839
 20
-144.5103719083171
 30
0.0
 10
97.25229362999839
 20
-144.5103719083171
 30
0.0
 10
97.25229362999839
 20
-144.5103719083171
 30
0.0
 10
114.1256895884111
 20
-144.5103719083171
 30
0.0
 10
114.1256895884111
 20
-144.5103719083171
 30
0.0
 10
114.1256895884111
 20
-144.5103719083171
 30
0.0
 10
114.1807934758942
 20
-145.6162596858184
 30
0.0
 10
114.1807934758942
 20
-145.6162596858184
 30
0.0
 10
114.1807934758942
 20
-145.6162596858184
 30
0.0
 10
98.58004331834691
 20
-145.7272082969012
 30
0.0
 10
98.58004331834691
 20
-145.7272082969012
 30
0.0
 10
98.58004331834691
 20
-145.7272082969012
 30
0.0
 10
98.80119970159362
 20
-152.199833850839
 30
0.0
 10
98.80119970159362
 20
-152.199833850839
 30
0.0
 10
98.80119970159362
 20
-152.199833850839
 30
0.0
 10
93.32418608777981
 20
-151.9786774620056
 30
0.0
 10
89.78384715386767
 20
-150.8720841289488
 30
0.0
 10
89.78384715386767
 20
-150.8720841289488
 30
0.0
 10
81.20898376151955
 20
-147.4428371853618
 30
0.0
 10
78.44257105431885
 20
-144.6764244082756
 30
0.0
 10
78.44257105431885
 20
-144.6764244082756
 30
0.0
 10
72.96590786070684
 20
-139.0340613541306
 30
0.0
 10
72.19110204714043
 20
-136.4330307992248
 30
0.0
 10
72.19110204714043
 20
-136.4330307992248
 30
0.0
 10
69.3144462871967
 20
-129.2961599676758
 30
0.0
 10
68.81664157767455
 20
-124.9264074687683
 30
0.0
 10
68.81664157767455
 20
-124.9264074687683
 30
0.0
 10
68.5399932513991
 20
-121.7176466362372
 30
0.0
 10
68.5399932513991
 20
-121.7176466362372
 30
0.0
 10
68.5399932513991
 20
-121.7176466362372
 30
0.0
 10
75.01265391960109
 20
-121.7734560806676
 30
0.0
 10
75.01265391960109
 20
-121.7734560806676
 30
0.0
  0
HATCH
  5
42
330
1F
100
AcDbEntity
  8
_U+30EC_U+30A4_U+30E4_U+30FC 1
 62
   253
420
 10855845
100
AcDbHatch
 10
0.0
 20
0.0
 30
0.0
210
0.0
220
0.0
230
1.0
  2
SOLID
 70
     1
 71
     0
 91
        1
 92
        1
 93
        1
 72
     4
 94
        3
 73
     0
 74
     1
 95
       65
 96
       61
 40
0.0
 40
0.0
 40
0.0
 40
0.0
 40
1.0
 40
1.0
 40
1.0
 40
2.0
 40
2.0
 40
2.0
 40
3.0
 40
3.0
 40
3.0
 40
4.0
 40
4.0
 40
4.0
 40
5.0
 40
5.0
 40
5.0
 40
6.0
 40
6.0
 40
6.0
 40
7.0
 40
7.0
 40
7.0
 40
8.0
 40
8.0
 40
8.0
 40
9.0
 40
9.0
 40
9.0
 40
10.0
 40
10.0
 40
10.0
 40
11.0
 40
11.0
 40
11.0
 40
12.0
 40
12.0
 40
12.0
 40
13.0
 40
13.0
 40
13.0
 40
14.0
 40
14.0
 40
14.0
 40
15.0
 40
15.0
 40
15.0
 40
16.0
 40
16.0
 40
16.0
 40
17.0
 40
17.0
 40
17.0
 40
18.0
 40
18.0
 40
18.0
 40
19.0
 40
19.0
 40
19.0
 40
20.0
 40
20.0
 40
20.0
 40
20.0
 10
75.01265391960109
 20
-121.7734560806676
 10
75.01265391960109
 20
-121.7734560806676
 10
75.06811058485295
 20
-103.8162205296014
 10
75.06811058485295
 20
-103.8162205296014
 10
75.06811058485295
 20
-103.8162205296014
 10
76.28526444268965
 20
-103.8162205296014
 10
76.28526444268965
 20
-103.8162205296014
 10
76.28526444268965
 20
-103.8162205296014
 10
76.2298077774378
 20
-123.2114135803082
 10
76.2298077774378
 20
-123.2114135803082
 10
76.2298077774378
 20
-123.2114135803082
 10
69.7571471092358
 20
-122.8793085803913
 10
69.7571471092358
 20
-122.8793085803913
 10
69.7571471092358
 20
-122.8793085803913
 10
70.4210395922985
 20
-127.6921146902993
 10
70.75314458382579
 20
-128.6884296900502
 10
70.75314458382579
 20
-128.6884296900502
 10
73.29766007446534
 20
-136.9862921879757
 10
75.01265391960109
 20
-138.6454413542278
 10
75.01265391960109
 20
-138.6454413542278
 10
79.21702409011645
 20
-144.0680238528716
 10
81.15387987403648
 20
-145.0636685748455
 10
81.15387987403648
 20
-145.0636685748455
 10
84.8600925572609
 20
-148.327568574029
 10
90.22619519813799
 20
-149.4341266293083
 10
90.22619519813799
 20
-149.4341266293083
 10
93.04788818170616
 20
-150.539979129032
 10
97.52859164228478
 20
-150.7611707956429
 10
97.52859164228478
 20
-150.7611707956429
 10
97.25229362999839
 20
-144.5103719083171
 10
97.25229362999839
 20
-144.5103719083171
 10
97.25229362999839
 20
-144.5103719083171
 10
114.1256895884111
 20
-144.5103719083171
 10
114.1256895884111
 20
-144.5103719083171
 10
114.1256895884111
 20
-144.5103719083171
 10
114.1807934758942
 20
-145.6162596858184
 10
114.1807934758942
 20
-145.6162596858184
 10
114.1807934758942
 20
-145.6162596858184
 10
98.58004331834691
 20
-145.7272082969012
 10
98.58004331834691
 20
-145.7272082969012
 10
98.58004331834691
 20
-145.7272082969012
 10
98.80119970159362
 20
-152.199833850839
 10
98.80119970159362
 20
-152.199833850839
 10
98.80119970159362
 20
-152.199833850839
 10
93.32418608777981
 20
-151.9786774620056
 10
89.78384715386767
 20
-150.8720841289488
 10
89.78384715386767
 20
-150.8720841289488
 10
81.20898376151955
 20
-147.4428371853618
 10
78.44257105431885
 20
-144.6764244082756
 10
78.44257105431885
 20
-144.6764244082756
 10
72.96590786070684
 20
-139.0340613541306
 10
72.19110204714043
 20
-136.4330307992248
 10
72.19110204714043
 20
-136.4330307992248
 10
69.3144462871967
 20
-129.2961599676758
 10
68.81664157767455
 20
-124.9264074687683
 10
68.81664157767455
 20
-124.9264074687683
 10
68.5399932513991
 20
-121.7176466362372
 10
68.5399932513991
 20
-121.7176466362372
 10
68.5399932513991
 20
-121.7176466362372
 10
75.01265391960109
 20
-121.7734560806676
 10
75.01265391960109
 20
-121.7734560806676
 97
        0
 97
        0
 75
     2
 76
     1
 98
        0
  0
POLYLINE
  5
43
330
1F
100
AcDbEntity
  8
_U+30EC_U+30A4_U+30E4_U+30FC 1
 62
   179
420
  2234388
370
    25
100
AcDb2dPolyline
 66
     1
 10
0.0
 20
0.0
 30
0.0
  0
VERTEX
  5
44
330
43
100
AcDbEntity
  8
_U+30EC_U+30A4_U+30E4_U+30FC 1
 62
   179
420
  2234388
370
    25
100
AcDbVertex
100
AcDb2dVertex
 10
97.57131056630404
 20
-150.7928502400793
 30
0.0
  0
VERTEX
  5
45
330
43
100
AcDbEntity
  8
_U+30EC_U+30A4_U+30E4_U+30FC 1
 62
   179
420
  2234388
370
    25
100
AcDbVertex
100
AcDb2dVertex
 10
97.28951168460443
 20
-144.4731891305485
 30
0.0
  0
SEQEND
  5
46
330
43
100
AcDbEntity
  8
_U+30EC_U+30A4_U+30E4_U+30FC 1
 62
   179
420
  2234388
370
    25
  0
SPLINE
  5
47
330
1F
100
AcDbEntity
  8
_U+30EC_U+30A4_U+30E4_U+30FC 1
 62
   179
420
  2234388
370
    25
100
AcDbSpline
210
0.0
220
0.0
230
1.0
 70
     8
 71
     3
 72
     8
 73
     4
 74
     0
 42
0.0000000001
 43
0.0000000001
 12
1.0
 22
0.0
 32
0.0
 13
1.0
 23
0.0
 33
0.0
 40
0.0
 40
0.0
 40
0.0
 40
0.0
 40
1.0
 40
1.0
 40
1.0
 40
1.0
 10
69.89529488348914
 20
-123.1170455247763
 30
0.0
 10
69.89529488348914
 20
-123.1170455247763
 30
0.0
 10
70.66216319725802
 20
-148.846398851677
 30
0.0
 10
97.57131056630404
 20
-150.7928502400793
 30
0.0
  0
SPLINE
  5
48
330
1F
100
AcDbEntity
  8
_U+30EC_U+30A4_U+30E4_U+30FC 1
 62
   179
420
  2234388
370
    25
100
AcDbSpline
210
0.0
220
0.0
230
1.0
 70
     8
 71
     3
 72
     8
 73
     4
 74
     0
 42
0.0000000001
 43
0.0000000001
 12
1.0
 22
0.0
 32
0.0
 13
1.0
 23
0.0
 33
0.0
 40
0.0
 40
0.0
 40
0.0
 40
0.0
 40
1.0
 40
1.0
 40
1.0
 40
1.0
 10
98.80945470138302
 20
-152.1502332952956
 30
0.0
 10
98.80945470138302
 20
-152.1502332952956
 30
0.0
 10
70.54437070026317
 20
-152.9178071839929
 30
0.0
 10
68.53794714034018
 20
-121.7017716362411
 30
0.0
  0
POLYLINE
  5
49
330
1F
100
AcDbEntity
  8
_U+30EC_U+30A4_U+30E4_U+30FC 1
 62
   179
420
  2234388
370
    25
100
AcDb2dPolyline
 66
     1
 10
0.0
 20
0.0
 30
0.0
  0
VERTEX
  5
4A
330
49
100
AcDbEntity
  8
_U+30EC_U+30A4_U+30E4_U+30FC 1
 62
   179
420
  2234388
370
    25
100
AcDbVertex
100
AcDb2dVertex
 10
98.61722609517606
 20
-145.7272082969012
 30
0.0
  0
VERTEX
  5
4B
330
49
100
AcDbEntity
  8
_U+30EC_U+30A4_U+30E4_U+30FC 1
 62
   179
420
  2234388
370
    25
100
AcDbVertex
100
AcDb2dVertex
 10
98.80945470138302
 20
-152.1502332952956
 30
0.0
  0
SEQEND
  5
4C
330
49
100
AcDbEntity
  8
_U+30EC_U+30A4_U+30E4_U+30FC 1
 62
   179
420
  2234388
370
    25
  0
POLYLINE
  5
4D
330
1F
100
AcDbEntity
  8
_U+30EC_U+30A4_U+30E4_U+30FC 1
 62
   179
420
  2234388
370
    25
100
AcDb2dPolyline
 66
     1
 10
0.0
 20
0.0
 30
0.0
  0
VERTEX
  5
4E
330
4D
100
AcDbEntity
  8
_U+30EC_U+30A4_U+30E4_U+30FC 1
 62
   179
420
  2234388
370
    25
100
AcDbVertex
100
AcDb2dVertex
 10
97.32602418367293
 20
-144.4359710750024
 30
0.0
  0
VERTEX
  5
4F
330
4D
100
AcDbEntity
  8
_U+30EC_U+30A4_U+30E4_U+30FC 1
 62
   179
420
  2234388
370
    25
100
AcDbVertex
100
AcDb2dVertex
 10
114.2118055270026
 20
-144.4042916305653
 30
0.0
  0
VERTEX
  5
50
330
4D
100
AcDbEntity
  8
_U+30EC_U+30A4_U+30E4_U+30FC 1
 62
   179
420
  2234388
370
    25
100
AcDbVertex
100
AcDb2dVertex
 10
114.2118055270026
 20
-145.6438116302555
 30
0.0
  0
VERTEX
  5
51
330
4D
100
AcDbEntity
  8
_U+30EC_U+30A4_U+30E4_U+30FC 1
 62
   179
420
  2234388
370
    25
100
AcDbVertex
100
AcDb2dVertex
 10
98.6909566488506
 20
-145.652772185809
 30
0.0
  0
SEQEND
  5
52
330
4D
100
AcDbEntity
  8
_U+30EC_U+30A4_U+30E4_U+30FC 1
 62
   179
420
  2234388
370
    25
  0
POLYLINE
  5
53
330
1F
100
AcDbEntity
  8
_U+30EC_U+30A4_U+30E4_U+30FC 1
 62
   179
420
  2234388
370
    25
100
AcDb2dPolyline
 66
     1
 10
0.0
 20
0.0
 30
0.0
  0
VERTEX
  5
54
330
53
100
AcDbEntity
  8
_U+30EC_U+30A4_U+30E4_U+30FC 1
 62
   179
420
  2234388
370
    25
100
AcDbVertex
100
AcDb2dVertex
 10
69.89494210572036
 20
-122.9186080248259
 30
0.0
  0
VERTEX
  5
55
330
53
100
AcDbEntity
  8
_U+30EC_U+30A4_U+30E4_U+30FC 1
 62
   179
420
  2234388
370
    25
100
AcDbVertex
100
AcDb2dVertex
 10
76.21463833338036
 20
-123.2004069136445
 30
0.0
  0
SEQEND
  5
56
330
53
100
AcDbEntity
  8
_U+30EC_U+30A4_U+30E4_U+30FC 1
 62
   179
420
  2234388
370
    25
  0
POLYLINE
  5
57
330
1F
100
AcDbEntity
  8
_U+30EC_U+30A4_U+30E4_U+30FC 1
 62
   179
420
  2234388
370
    25
100
AcDb2dPolyline
 66
     1
 10
0.0
 20
0.0
 30
0.0
  0
VERTEX
  5
58
330
57
100
AcDbEntity
  8
_U+30EC_U+30A4_U+30E4_U+30FC 1
 62
   179
420
  2234388
370
    25
100
AcDbVertex
100
AcDb2dVertex
 10
74.96097197647516
 20
-121.872657191754
 30
0.0
  0
VERTEX
  5
59
330
57
100
AcDbEntity
  8
_U+30EC_U+30A4_U+30E4_U+30FC 1
 62
   179
420
  2234388
370
    25
100
AcDbVertex
100
AcDb2dVertex
 10
68.53794714034018
 20
-121.6797230251355
 30
0.0
  0
SEQEND
  5
5A
330
57
100
AcDbEntity
  8
_U+30EC_U+30A4_U+30E4_U+30FC 1
 62
   179
420
  2234388
370
    25
  0
POLYLINE
  5
5B
330
1F
100
AcDbEntity
  8
_U+30EC_U+30A4_U+30E4_U+30FC 1
 62
   179
420
  2234388
370
    25
100
AcDb2dPolyline
 66
     1
 10
0.0
 20
0.0
 30
0.0
  0
VERTEX
  5
5C
330
5B
100
AcDbEntity
  8
_U+30EC_U+30A4_U+30E4_U+30FC 1
 62
   179
420
  2234388
370
    25
100
AcDbVertex
100
AcDb2dVertex
 10
76.2521738879783
 20
-123.163188858098
 30
0.0
  0
VERTEX
  5
5D
330
5B
100
AcDbEntity
  8
_U+30EC_U+30A4_U+30E4_U+30FC 1
 62
   179
420
  2234388
370
    25
100
AcDbVertex
100
AcDb2dVertex
 10
76.2842413871602
 20
-103.8162205296014
 30
0.0
  0
VERTEX
  5
5E
330
5B
100
AcDbEntity
  8
_U+30EC_U+30A4_U+30E4_U+30FC 1
 62
   179
420
  2234388
370
    25
100
AcDbVertex
100
AcDb2dVertex
 10
75.04468614100611
 20
-103.8162205296014
 30
0.0
  0
VERTEX
  5
5F
330
5B
100
AcDbEntity
  8
_U+30EC_U+30A4_U+30E4_U+30FC 1
 62
   179
420
  2234388
370
    25
100
AcDbVertex
100
AcDb2dVertex
 10
75.03505530791848
 20
-121.8285599695429
 30
0.0
  0
SEQEND
  5
60
330
5B
100
AcDbEntity
  8
_U+30EC_U+30A4_U+30E4_U+30FC 1
 62
   179
420
  2234388
370
    25
  0
POLYLINE
  5
61
330
1F
100
AcDbEntity
  8
_U+30EC_U+30A4_U+30E4_U+30FC 1
 62
   179
420
  2234388
370
     9
100
AcDb2dPolyline
 66
     1
 10
0.0
 20
0.0
 30
0.0
  0
VERTEX
  5
62
330
61
100
AcDbEntity
  8
_U+30EC_U+30A4_U+30E4_U+30FC 1
 62
   179
420
  2234388
370
     9
100
AcDbVertex
100
AcDb2dVertex
 10
63.81675753856555
 20
-121.8423535806505
 30
0.0
  0
VERTEX
  5
63
330
61
100
AcDbEntity
  8
_U+30EC_U+30A4_U+30E4_U+30FC 1
 62
   179
420
  2234388
370
     9
100
AcDbVertex
100
AcDb2dVertex
 10
63.81675753856555
 20
-103.842396640706
 30
0.0
  0
SEQEND
  5
64
330
61
100
AcDbEntity
  8
_U+30EC_U+30A4_U+30E4_U+30FC 1
 62
   179
420
  2234388
370
     9
  0
POLYLINE
  5
65
330
1F
100
AcDbEntity
  8
_U+30EC_U+30A4_U+30E4_U+30FC 1
 62
   179
420
  2234388
370
     9
100
AcDb2dPolyline
 66
     1
 10
0.0
 20
0.0
 30
0.0
  0
VERTEX
  5
66
330
65
100
AcDbEntity
  8
_U+30EC_U+30A4_U+30E4_U+30FC 1
 62
   179
420
  2234388
370
     9
100
AcDbVertex
100
AcDb2dVertex
 10
66.86842634959987
 20
-121.7017716362411
 30
0.0
  0
VERTEX
  5
67
330
65
100
AcDbEntity
  8
_U+30EC_U+30A4_U+30E4_U+30FC 1
 62
   179
420
  2234388
370
     9
100
AcDbVertex
100
AcDb2dVertex
 10
62.28369118878844
 20
-121.7017716362411
 30
0.0
  0
SEQEND
  5
68
330
65
100
AcDbEntity
  8
_U+30EC_U+30A4_U+30E4_U+30FC 1
 62
   179
420
  2234388
370
     9
  0
POLYLINE
  5
69
330
1F
100
AcDbEntity
  8
_U+30EC_U+30A4_U+30E4_U+30FC 1
 62
   179
420
  2234388
370
     9
100
AcDb2dPolyline
 66
     1
 10
0.0
 20
0.0
 30
0.0
  0
VERTEX
  5
6A
330
69
100
AcDbEntity
  8
_U+30EC_U+30A4_U+30E4_U+30FC 1
 62
   179
420
  2234388
370
     9
100
AcDbVertex
100
AcDb2dVertex
 10
72.09154998197721
 20
-103.8231349740443
 30
0.0
  0
VERTEX
  5
6B
330
69
100
AcDbEntity
  8
_U+30EC_U+30A4_U+30E4_U+30FC 1
 62
   179
420
  2234388
370
     9
100
AcDbVertex
100
AcDb2dVertex
 10
62.28369118878844
 20
-103.8231349740443
 30
0.0
  0
SEQEND
  5
6C
330
69
100
AcDbEntity
  8
_U+30EC_U+30A4_U+30E4_U+30FC 1
 62
   179
420
  2234388
370
     9
  0
INSERT
  5
6E
330
1F
100
AcDbEntity
  8
_U+30EC_U+30A4_U+30E4_U+30FC 1
100
AcDbBlockReference
  2
block 2
 10
0.0
 20
0.0
 30
0.0
  0
POLYLINE
  5
77
330
1F
100
AcDbEntity
  8
_U+30EC_U+30A4_U+30E4_U+30FC 1
 62
   179
420
  2234388
370
     9
100
AcDb2dPolyline
 66
     1
 10
0.0
 20
0.0
 30
0.0
  0
VERTEX
  5
78
330
77
100
AcDbEntity
  8
_U+30EC_U+30A4_U+30E4_U+30FC 1
 62
   179
420
  2234388
370
     9
100
AcDbVertex
100
AcDb2dVertex
 10
77.3043335833577
 20
-143.1936641308682
 30
0.0
  0
VERTEX
  5
79
330
77
100
AcDbEntity
  8
_U+30EC_U+30A4_U+30E4_U+30FC 1
 62
   179
420
  2234388
370
     9
100
AcDbVertex
100
AcDb2dVertex
 10
78.17283717231143
 20
-142.6920494087717
 30
0.0
  0
SEQEND
  5
7A
330
77
100
AcDbEntity
  8
_U+30EC_U+30A4_U+30E4_U+30FC 1
 62
   179
420
  2234388
370
     9
  0
POLYLINE
  5
7B
330
1F
100
AcDbEntity
  8
_U+30EC_U+30A4_U+30E4_U+30FC 1
 62
   179
420
  2234388
370
     9
100
AcDb2dPolyline
 66
     1
 10
0.0
 20
0.0
 30
0.0
  0
VERTEX
  5
7C
330
7B
100
AcDbEntity
  8
_U+30EC_U+30A4_U+30E4_U+30FC 1
 62
   179
420
  2234388
370
     9
100
AcDbVertex
100
AcDb2dVertex
 10
77.3043335833577
 20
-143.1936641308682
 30
0.0
  0
VERTEX
  5
7D
330
7B
100
AcDbEntity
  8
_U+30EC_U+30A4_U+30E4_U+30FC 1
 62
   179
420
  2234388
370
     9
100
AcDbVertex
100
AcDb2dVertex
 10
98.74609581411055
 20
-121.6976441362421
 30
0.0
  0
SEQEND
  5
7E
330
7B
100
AcDbEntity
  8
_U+30EC_U+30A4_U+30E4_U+30FC 1
 62
   179
420
  2234388
370
     9
  0
POLYLINE
  5
7F
330
1F
100
AcDbEntity
  8
_U+30EC_U+30A4_U+30E4_U+30FC 1
 62
   179
420
  2234388
370
     9
100
AcDb2dPolyline
 66
     1
 10
0.0
 20
0.0
 30
0.0
  0
VERTEX
  5
80
330
7F
100
AcDbEntity
  8
_U+30EC_U+30A4_U+30E4_U+30FC 1
 62
   179
420
  2234388
370
     9
100
AcDbVertex
100
AcDb2dVertex
 10
77.3043335833577
 20
-143.1936641308682
 30
0.0
  0
VERTEX
  5
81
330
7F
100
AcDbEntity
  8
_U+30EC_U+30A4_U+30E4_U+30FC 1
 62
   179
420
  2234388
370
     9
100
AcDbVertex
100
AcDb2dVertex
 10
77.80591301500579
 20
-142.3255132977519
 30
0.0
  0
SEQEND
  5
82
330
7F
100
AcDbEntity
  8
_U+30EC_U+30A4_U+30E4_U+30FC 1
 62
   179
420
  2234388
370
     9
  0
INSERT
  5
84
330
1F
100
AcDbEntity
  8
_U+30EC_U+30A4_U+30E4_U+30FC 1
100
AcDbBlockReference
  2
block 3
 10
0.0
 20
0.0
 30
0.0
  0
POLYLINE
  5
8F
330
1F
100
AcDbEntity
  8
_U+30EC_U+30A4_U+30E4_U+30FC 1
 62
   179
420
  2234388
370
     9
100
AcDb2dPolyline
 66
     1
 10
0.0
 20
0.0
 30
0.0
  0
VERTEX
  5
90
330
8F
100
AcDbEntity
  8
_U+30EC_U+30A4_U+30E4_U+30FC 1
 62
   179
420
  2234388
370
     9
100
AcDbVertex
100
AcDb2dVertex
 10
118.5698428083646
 20
-145.4763832969642
 30
0.0
  0
VERTEX
  5
91
330
8F
100
AcDbEntity
  8
_U+30EC_U+30A4_U+30E4_U+30FC 1
 62
   179
420
  2234388
370
     9
100
AcDbVertex
100
AcDb2dVertex
 10
118.5698428083646
 20
-144.3160971861429
 30
0.0
  0
SEQEND
  5
92
330
8F
100
AcDbEntity
  8
_U+30EC_U+30A4_U+30E4_U+30FC 1
 62
   179
420
  2234388
370
     9
  0
POLYLINE
  5
93
330
1F
100
AcDbEntity
  8
_U+30EC_U+30A4_U+30E4_U+30FC 1
 62
   179
420
  2234388
370
     9
100
AcDb2dPolyline
 66
     1
 10
0.0
 20
0.0
 30
0.0
  0
VERTEX
  5
94
330
93
100
AcDbEntity
  8
_U+30EC_U+30A4_U+30E4_U+30FC 1
 62
   179
420
  2234388
370
     9
100
AcDbVertex
100
AcDb2dVertex
 10
118.5698428083646
 20
-152.0255263508826
 30
0.0
  0
VERTEX
  5
95
330
93
100
AcDbEntity
  8
_U+30EC_U+30A4_U+30E4_U+30FC 1
 62
   179
420
  2234388
370
     9
100
AcDbVertex
100
AcDb2dVertex
 10
118.5698428083646
 20
-145.4763832969642
 30
0.0
  0
SEQEND
  5
96
330
93
100
AcDbEntity
  8
_U+30EC_U+30A4_U+30E4_U+30FC 1
 62
   179
420
  2234388
370
     9
  0
POLYLINE
  5
97
330
1F
100
AcDbEntity
  8
_U+30EC_U+30A4_U+30E4_U+30FC 1
 62
   179
420
  2234388
370
     9
100
AcDb2dPolyline
 66
     1
 10
0.0
 20
0.0
 30
0.0
  0
VERTEX
  5
98
330
97
100
AcDbEntity
  8
_U+30EC_U+30A4_U+30E4_U+30FC 1
 62
   179
420
  2234388
370
     9
100
AcDbVertex
100
AcDb2dVertex
 10
119.8720866640305
 20
-152.0930480175323
 30
0.0
  0
VERTEX
  5
99
330
97
100
AcDbEntity
  8
_U+30EC_U+30A4_U+30E4_U+30FC 1
 62
   179
420
  2234388
370
     9
100
AcDbVertex
100
AcDb2dVertex
 10
100.2267746652242
 20
-152.0930480175323
 30
0.0
  0
SEQEND
  5
9A
330
97
100
AcDbEntity
  8
_U+30EC_U+30A4_U+30E4_U+30FC 1
 62
   179
420
  2234388
370
     9
  0
POLYLINE
  5
9B
330
1F
100
AcDbEntity
  8
_U+30EC_U+30A4_U+30E4_U+30FC 1
 62
   179
420
  2234388
370
     9
100
AcDb2dPolyline
 66
     1
 10
0.0
 20
0.0
 30
0.0
  0
VERTEX
  5
9C
330
9B
100
AcDbEntity
  8
_U+30EC_U+30A4_U+30E4_U+30FC 1
 62
   179
420
  2234388
370
     9
100
AcDbVertex
100
AcDb2dVertex
 10
120.4363899829673
 20
-145.5239377413967
 30
0.0
  0
VERTEX
  5
9D
330
9B
100
AcDbEntity
  8
_U+30EC_U+30A4_U+30E4_U+30FC 1
 62
   179
420
  2234388
370
     9
100
AcDbVertex
100
AcDb2dVertex
 10
115.6201620502839
 20
-145.5239377413967
 30
0.0
  0
SEQEND
  5
9E
330
9B
100
AcDbEntity
  8
_U+30EC_U+30A4_U+30E4_U+30FC 1
 62
   179
420
  2234388
370
     9
  0
POLYLINE
  5
9F
330
1F
100
AcDbEntity
  8
_U+30EC_U+30A4_U+30E4_U+30FC 1
 62
   179
420
  2234388
370
     9
100
AcDb2dPolyline
 66
     1
 10
0.0
 20
0.0
 30
0.0
  0
VERTEX
  5
A0
330
9F
100
AcDbEntity
  8
_U+30EC_U+30A4_U+30E4_U+30FC 1
 62
   179
420
  2234388
370
     9
100
AcDbVertex
100
AcDb2dVertex
 10
120.4363899829673
 20
-144.4042916305653
 30
0.0
  0
VERTEX
  5
A1
330
9F
100
AcDbEntity
  8
_U+30EC_U+30A4_U+30E4_U+30FC 1
 62
   179
420
  2234388
370
     9
100
AcDbVertex
100
AcDb2dVertex
 10
115.6201620502839
 20
-144.4042916305653
 30
0.0
  0
SEQEND
  5
A2
330
9F
100
AcDbEntity
  8
_U+30EC_U+30A4_U+30E4_U+30FC 1
 62
   179
420
  2234388
370
     9
  0
INSERT
  5
A4
330
1F
100
AcDbEntity
  8
_U+30EC_U+30A4_U+30E4_U+30FC 1
100
AcDbBlockReference
  2
block 4
 10
0.0
 20
0.0
 30
0.0
  0
INSERT
  5
B5
330
1F
100
AcDbEntity
  8
_U+30EC_U+30A4_U+30E4_U+30FC 1
100
AcDbBlockReference
  2
block 5
 10
0.0
 20
0.0
 30
0.0
  0
SPLINE
  5
C4
330
1F
100
AcDbEntity
  8
_U+30EC_U+30A4_U+30E4_U+30FC 1
 62
   179
420
  2234388
370
     9
100
AcDbSpline
210
0.0
220
0.0
230
1.0
 70
    11
 71
     3
 72
    17
 73
    13
 74
     0
 42
0.0000000001
 43
0.0000000001
 12
1.0
 22
0.0
 32
0.0
 13
1.0
 23
0.0
 33
0.0
 40
0.0
 40
0.0
 40
0.0
 40
0.0
 40
1.0
 40
1.0
 40
1.0
 40
2.0
 40
2.0
 40
2.0
 40
3.0
 40
3.0
 40
3.0
 40
4.0
 40
4.0
 40
4.0
 40
4.0
 10
63.88911387291664
 20
-103.8431021962615
 30
0.0
 10
63.88911387291664
 20
-103.7879630296087
 30
0.0
 10
63.84469753785273
 20
-103.7431955296198
 30
0.0
 10
63.78955837259279
 20
-103.7431955296198
 30
0.0
 10
63.73410170734093
 20
-103.7431955296198
 30
0.0
 10
63.68929893070617
 20
-103.7879630296087
 30
0.0
 10
63.68929893070617
 20
-103.8431021962615
 30
0.0
 10
63.68929893070617
 20
-103.8982060851367
 30
0.0
 10
63.73410170734093
 20
-103.9423033073479
 30
0.0
 10
63.78955837259279
 20
-103.9423033073479
 30
0.0
 10
63.84469753785273
 20
-103.9423033073479
 30
0.0
 10
63.88911387291664
 20
-103.8982060851367
 30
0.0
 10
63.88911387291664
 20
-103.8431021962615
 30
0.0
  0
SPLINE
  5
C5
330
1F
100
AcDbEntity
  8
_U+30EC_U+30A4_U+30E4_U+30FC 1
 62
   179
420
  2234388
370
     9
100
AcDbSpline
210
0.0
220
0.0
230
1.0
 70
    11
 71
     3
 72
    17
 73
    13
 74
     0
 42
0.0000000001
 43
0.0000000001
 12
1.0
 22
0.0
 32
0.0
 13
1.0
 23
0.0
 33
0.0
 40
0.0
 40
0.0
 40
0.0
 40
0.0
 40
1.0
 40
1.0
 40
1.0
 40
2.0
 40
2.0
 40
2.0
 40
3.0
 40
3.0
 40
3.0
 40
4.0
 40
4.0
 40
4.0
 40
4.0
 10
63.91461809162447
 20
-121.7527833028952
 30
0.0
 10
63.91461809162447
 20
-121.6976441362421
 30
0.0
 10
63.86981531498971
 20
-121.6528766362536
 30
0.0
 10
63.81506420527541
 20
-121.6528766362536
 30
0.0
 10
63.75957226224669
 20
-121.6528766362536
 30
0.0
 10
63.7148047633888
 20
-121.6976441362421
 30
0.0
 10
63.7148047633888
 20
-121.7527833028952
 30
0.0
 10
63.7148047633888
 20
-121.8078871917701
 30
0.0
 10
63.75957226224669
 20
-121.8519844139813
 30
0.0
 10
63.81506420527541
 20
-121.8519844139813
 30
0.0
 10
63.86981531498971
 20
-121.8519844139813
 30
0.0
 10
63.91461809162447
 20
-121.8078871917701
 30
0.0
 10
63.91461809162447
 20
-121.7527833028952
 30
0.0
  0
SPLINE
  5
C6
330
1F
100
AcDbEntity
  8
_U+30EC_U+30A4_U+30E4_U+30FC 1
 62
   179
420
  2234388
370
     9
100
AcDbSpline
210
0.0
220
0.0
230
1.0
 70
    11
 71
     3
 72
    17
 73
    13
 74
     0
 42
0.0000000001
 43
0.0000000001
 12
1.0
 22
0.0
 32
0.0
 13
1.0
 23
0.0
 33
0.0
 40
0.0
 40
0.0
 40
0.0
 40
0.0
 40
1.0
 40
1.0
 40
1.0
 40
2.0
 40
2.0
 40
2.0
 40
3.0
 40
3.0
 40
3.0
 40
4.0
 40
4.0
 40
4.0
 40
4.0
 10
118.6552855839626
 20
-144.4042916305653
 30
0.0
 10
118.6552855839626
 20
-144.3491524639128
 30
0.0
 10
118.6105180851047
 20
-144.3043849639237
 30
0.0
 10
118.5553789198447
 20
-144.3043849639237
 30
0.0
 10
118.5002750323617
 20
-144.3043849639237
 30
0.0
 10
118.4554722557269
 20
-144.3491524639128
 30
0.0
 10
118.4554722557269
 20
-144.4042916305653
 30
0.0
 10
118.4554722557269
 20
-144.4593955194408
 30
0.0
 10
118.5002750323617
 20
-144.5041982972076
 30
0.0
 10
118.5553789198447
 20
-144.5041982972076
 30
0.0
 10
118.6105180851047
 20
-144.5041982972076
 30
0.0
 10
118.6552855839626
 20
-144.4593955194408
 30
0.0
 10
118.6552855839626
 20
-144.4042916305653
 30
0.0
  0
SPLINE
  5
C7
330
1F
100
AcDbEntity
  8
_U+30EC_U+30A4_U+30E4_U+30FC 1
 62
   179
420
  2234388
370
     9
100
AcDbSpline
210
0.0
220
0.0
230
1.0
 70
    11
 71
     3
 72
    17
 73
    13
 74
     0
 42
0.0000000001
 43
0.0000000001
 12
1.0
 22
0.0
 32
0.0
 13
1.0
 23
0.0
 33
0.0
 40
0.0
 40
0.0
 40
0.0
 40
0.0
 40
1.0
 40
1.0
 40
1.0
 40
2.0
 40
2.0
 40
2.0
 40
3.0
 40
3.0
 40
3.0
 40
4.0
 40
4.0
 40
4.0
 40
4.0
 10
118.6552855839626
 20
-145.5239377413967
 30
0.0
 10
118.6552855839626
 20
-145.4687985747442
 30
0.0
 10
118.6105180851047
 20
-145.424031074755
 30
0.0
 10
118.5553789198447
 20
-145.424031074755
 30
0.0
 10
118.5002750323617
 20
-145.424031074755
 30
0.0
 10
118.4554722557269
 20
-145.4687985747442
 30
0.0
 10
118.4554722557269
 20
-145.5239377413967
 30
0.0
 10
118.4554722557269
 20
-145.5797471858271
 30
0.0
 10
118.5002750323617
 20
-145.6238444080383
 30
0.0
 10
118.5553789198447
 20
-145.6238444080383
 30
0.0
 10
118.6105180851047
 20
-145.6238444080383
 30
0.0
 10
118.6552855839626
 20
-145.5797471858271
 30
0.0
 10
118.6552855839626
 20
-145.5239377413967
 30
0.0
  0
SPLINE
  5
C8
330
1F
100
AcDbEntity
  8
_U+30EC_U+30A4_U+30E4_U+30FC 1
 62
   179
420
  2234388
370
     9
100
AcDbSpline
210
0.0
220
0.0
230
1.0
 70
    11
 71
     3
 72
    17
 73
    13
 74
     0
 42
0.0000000001
 43
0.0000000001
 12
1.0
 22
0.0
 32
0.0
 13
1.0
 23
0.0
 33
0.0
 40
0.0
 40
0.0
 40
0.0
 40
0.0
 40
1.0
 40
1.0
 40
1.0
 40
2.0
 40
2.0
 40
2.0
 40
3.0
 40
3.0
 40
3.0
 40
4.0
 40
4.0
 40
4.0
 40
4.0
 10
118.6552855839626
 20
-152.0255263508826
 30
0.0
 10
118.6552855839626
 20
-151.971092739785
 30
0.0
 10
118.6105180851047
 20
-151.9262899620183
 30
0.0
 10
118.5553789198447
 20
-151.9262899620183
 30
0.0
 10
118.5002750323617
 20
-151.9262899620183
 30
0.0
 10
118.4554722557269
 20
-151.971092739785
 30
0.0
 10
118.4554722557269
 20
-152.0255263508826
 30
0.0
 10
118.4554722557269
 20
-152.081335795313
 30
0.0
 10
118.5002750323617
 20
-152.1261032953016
 30
0.0
 10
118.5553789198447
 20
-152.1261032953016
 30
0.0
 10
118.6105180851047
 20
-152.1261032953016
 30
0.0
 10
118.6552855839626
 20
-152.081335795313
 30
0.0
 10
118.6552855839626
 20
-152.0255263508826
 30
0.0
  0
ENDSEC
  0
SECTION
  2
OBJECTS
  0
DICTIONARY
  5
C
330
0
100
AcDbDictionary
281
     1
  3
ACAD_GROUP
350
D
  3
ACAD_LAYOUT
350
1A
  3
ACAD_MATERIAL
350
3B
  3
ACAD_MLEADERSTYLE
350
CA
  3
ACAD_MLINESTYLE
350
17
  3
ACAD_PLOTSETTINGS
350
19
  3
ACAD_PLOTSTYLENAME
350
E
  3
ACAD_TABLESTYLE
350
C9
  3
ACAD_VISUALSTYLE
350
2A
  0
SUN
  5
3F
330
29
100
AcDbSun
 90
        1
290
     0
 63
     7
421
 16777215
 40
1.0
291
     1
 91
  2455826
 92
 54000000
292
     0
 70
     2
 71
   256
280
     1
  0
DICTIONARY
  5
D
102
{ACAD_REACTORS
330
C
102
}
330
C
100
AcDbDictionary
281
     1
  0
DICTIONARY
  5
1A
102
{ACAD_REACTORS
330
C
102
}
330
C
100
AcDbDictionary
281
     1
  3
Layout1
350
1E
  3
Layout2
350
26
  3
Model
350
22
  0
DICTIONARY
  5
3B
102
{ACAD_REACTORS
330
C
102
}
330
C
100
AcDbDictionary
281
     1
  3
ByBlock
350
3D
  3
ByLayer
350
3C
  3
Global
350
3E
  0
DICTIONARY
  5
CA
102
{ACAD_REACTORS
330
C
102
}
330
C
100
AcDbDictionary
281
     1
  0
DICTIONARY
  5
17
102
{ACAD_REACTORS
330
C
102
}
330
C
100
AcDbDictionary
281
     1
  3
Standard
350
18
  0
DICTIONARY
  5
19
102
{ACAD_REACTORS
330
C
102
}
330
C
100
AcDbDictionary
281
     1
  0
ACDBDICTIONARYWDFLT
  5
E
102
{ACAD_REACTORS
330
C
102
}
330
C
100
AcDbDictionary
281
     1
  3
Normal
350
F
100
AcDbDictionaryWithDefault
340
F
  0
DICTIONARY
  5
C9
102
{ACAD_REACTORS
330
C
102
}
330
C
100
AcDbDictionary
281
     1
  0
DICTIONARY
  5
2A
102
{ACAD_REACTORS
330
C
102
}
330
C
100
AcDbDictionary
281
     1
  3
2dWireframe
350
2F
  3
3D Hidden
350
31
  3
3dWireframe
350
30
  3
Basic
350
32
  3
Brighten
350
36
  3
ColorChange
350
3A
  3
Conceptual
350
34
  3
Dim
350
35
  3
Facepattern
350
39
  3
Flat
350
2B
  3
FlatWithEdges
350
2C
  3
Gouraud
350
2D
  3
GouraudWithEdges
350
2E
  3
Linepattern
350
38
  3
Realistic
350
33
  3
Thicken
350
37
  0
LAYOUT
  5
1E
102
{ACAD_REACTORS
330
1A
102
}
330
1A
100
AcDbPlotSettings
  1

  2
none_device
  4

  6

 40
0.0
 41
0.0
 42
0.0
 43
0.0
 44
0.0
 45
0.0
 46
0.0
 47
0.0
 48
0.0
 49
0.0
140
0.0
141
0.0
142
1.0
143
1.0
 70
   688
 72
     0
 73
     0
 74
     5
  7

 75
    16
 76
     0
 77
     2
 78
   300
147
1.0
148
0.0
149
0.0
100
AcDbLayout
  1
Layout1
 70
     1
 71
     1
 10
0.0
 20
0.0
 11
12.0
 21
9.0
 12
0.0
 22
0.0
 32
0.0
 14
1.000000000000000E+20
 24
1.000000000000000E+20
 34
1.000000000000000E+20
 15
-1.000000000000000E+20
 25
-1.000000000000000E+20
 35
-1.000000000000000E+20
146
0.0
 13
0.0
 23
0.0
 33
0.0
 16
1.0
 26
0.0
 36
0.0
 17
0.0
 27
1.0
 37
0.0
 76
     0
330
1B
  0
LAYOUT
  5
26
102
{ACAD_REACTORS
330
1A
102
}
330
1A
100
AcDbPlotSettings
  1

  2
none_device
  4

  6

 40
0.0
 41
0.0
 42
0.0
 43
0.0
 44
0.0
 45
0.0
 46
0.0
 47
0.0
 48
0.0
 49
0.0
140
0.0
141
0.0
142
1.0
143
1.0
 70
   688
 72
     0
 73
     0
 74
     5
  7

 75
    16
 76
     0
 77
     2
 78
   300
147
1.0
148
0.0
149
0.0
100
AcDbLayout
  1
Layout2
 70
     1
 71
     2
 10
0.0
 20
0.0
 11
0.0
 21
0.0
 12
0.0
 22
0.0
 32
0.0
 14
0.0
 24
0.0
 34
0.0
 15
0.0
 25
0.0
 35
0.0
146
0.0
 13
0.0
 23
0.0
 33
0.0
 16
1.0
 26
0.0
 36
0.0
 17
0.0
 27
1.0
 37
0.0
 76
     0
330
23
  0
LAYOUT
  5
22
102
{ACAD_REACTORS
330
1A
102
}
330
1A
100
AcDbPlotSettings
  1

  2
none_device
  4

  6

 40
0.0
 41
0.0
 42
0.0
 43
0.0
 44
0.0
 45
0.0
 46
0.0
 47
0.0
 48
0.0
 49
0.0
140
0.0
141
0.0
142
1.0
143
1.0
 70
  1712
 72
     0
 73
     0
 74
     0
  7

 75
     0
 76
     0
 77
     2
 78
   300
147
1.0
148
0.0
149
0.0
100
AcDbLayout
  1
Model
 70
     1
 71
     0
 10
0.0
 20
0.0
 11
12.0
 21
9.0
 12
0.0
 22
0.0
 32
0.0
 14
1.000000000000000E+20
 24
1.000000000000000E+20
 34
1.000000000000000E+20
 15
-1.000000000000000E+20
 25
-1.000000000000000E+20
 35
-1.000000000000000E+20
146
0.0
 13
0.0
 23
0.0
 33
0.0
 16
1.0
 26
0.0
 36
0.0
 17
0.0
 27
1.0
 37
0.0
 76
     0
330
1F
331
29
  0
MATERIAL
  5
3D
102
{ACAD_REACTORS
330
3B
102
}
330
3B
100
AcDbMaterial
  1
ByBlock
 72
     1
 94
      127
  0
MATERIAL
  5
3C
102
{ACAD_REACTORS
330
3B
102
}
330
3B
100
AcDbMaterial
  1
ByLayer
 72
     1
 94
      127
  0
MATERIAL
  5
3E
102
{ACAD_REACTORS
330
3B
102
}
330
3B
100
AcDbMaterial
  1
Global
 72
     1
 94
      127
  0
MLINESTYLE
  5
18
102
{ACAD_REACTORS
330
17
102
}
330
17
100
AcDbMlineStyle
  2
Standard
 70
     0
  3

 62
   256
 51
90.0
 52
90.0
 71
     2
 49
0.5
 62
   256
  6
BYLAYER
 49
-0.5
 62
   256
  6
BYLAYER
  0
ACDBPLACEHOLDER
  5
F
102
{ACAD_REACTORS
330
E
102
}
330
E
  0
VISUALSTYLE
  5
2F
102
{ACAD_REACTORS
330
2A
102
}
330
2A
100
AcDbVisualStyle
  2
2dWireframe
 70
     4
177
     2
291
     0
 71
     0
176
     1
 72
     2
176
     1
 73
     0
176
     1
 90
        0
176
     1
 40
-0.6
176
     1
 41
-30.0
176
     1
 62
     5
 63
     7
421
 16777215
176
     1
 74
     1
176
     1
 91
        4
176
     1
 64
     7
176
     1
 65
   257
176
     1
 75
     1
176
     1
175
     1
176
     1
 42
1.0
176
     1
 92
        0
176
     1
 66
   257
176
     1
 43
1.0
176
     1
 76
     1
176
     1
 77
     6
176
     1
 78
     2
176
     1
 67
     7
176
     1
 79
     5
176
     1
170
     0
176
     1
171
     0
176
     1
290
     0
176
     1
 93
        1
176
     1
 44
0.0
176
     1
173
     0
176
     1
  0
VISUALSTYLE
  5
31
102
{ACAD_REACTORS
330
2A
102
}
330
2A
100
AcDbVisualStyle
  2
3D Hidden
 70
     6
177
     2
291
     0
 71
     1
176
     1
 72
     2
176
     1
 73
     2
176
     1
 90
        0
176
     1
 40
-0.6
176
     1
 41
-30.0
176
     1
 62
     5
 63
     7
421
 16777215
176
     1
 74
     2
176
     1
 91
        2
176
     1
 64
     7
176
     1
 65
   257
176
     1
 75
     2
176
     1
175
     1
176
     1
 42
40.0
176
     1
 92
        0
176
     1
 66
   257
176
     1
 43
1.0
176
     1
 76
     1
176
     1
 77
     6
176
     1
 78
     2
176
     1
 67
     7
176
     1
 79
     3
176
     1
170
     0
176
     1
171
     0
176
     1
290
     0
176
     1
 93
        1
176
     1
 44
0.0
176
     1
173
     0
176
     1
  0
VISUALSTYLE
  5
30
102
{ACAD_REACTORS
330
2A
102
}
330
2A
100
AcDbVisualStyle
  2
3dWireframe
 70
     5
177
     2
291
     0
 71
     0
176
     1
 72
     2
176
     1
 73
     0
176
     1
 90
        0
176
     1
 40
-0.6
176
     1
 41
-30.0
176
     1
 62
     5
 63
     7
421
 16777215
176
     1
 74
     1
176
     1
 91
        4
176
     1
 64
     7
176
     1
 65
   257
176
     1
 75
     1
176
     1
175
     1
176
     1
 42
1.0
176
     1
 92
        0
176
     1
 66
   257
176
     1
 43
1.0
176
     1
 76
     1
176
     1
 77
     6
176
     1
 78
     2
176
     1
 67
     7
176
     1
 79
     5
176
     1
170
     0
176
     1
171
     0
176
     1
290
     0
176
     1
 93
        1
176
     1
 44
0.0
176
     1
173
     0
176
     1
  0
VISUALSTYLE
  5
32
102
{ACAD_REACTORS
330
2A
102
}
330
2A
100
AcDbVisualStyle
  2
Basic
 70
     7
177
     2
291
     1
 71
     1
176
     1
 72
     0
176
     1
 73
     1
176
     1
 90
        0
176
     1
 40
-0.6
176
     1
 41
-30.0
176
     1
 62
     5
 63
     7
421
 16777215
176
     1
 74
     0
176
     1
 91
        4
176
     1
 64
     7
176
     1
 65
   257
176
     1
 75
     1
176
     1
175
     1
176
     1
 42
1.0
176
     1
 92
        8
176
     1
 66
     7
176
     1
 43
1.0
176
     1
 76
     1
176
     1
 77
     6
176
     1
 78
     2
176
     1
 67
     7
176
     1
 79
     5
176
     1
170
     0
176
     1
171
     0
176
     1
290
     0
176
     1
 93
        1
176
     1
 44
0.0
176
     1
173
     0
176
     1
  0
VISUALSTYLE
  5
36
102
{ACAD_REACTORS
330
2A
102
}
330
2A
100
AcDbVisualStyle
  2
Brighten
 70
    12
177
     2
291
     1
 71
     2
176
     1
 72
     2
176
     1
 73
     0
176
     1
 90
        0
176
     1
 40
-0.6
176
     1
 41
-30.0
176
     1
 62
     5
 63
     7
421
 16777215
176
     1
 74
     1
176
     1
 91
        4
176
     1
 64
     7
176
     1
 65
   257
176
     1
 75
     1
176
     1
175
     1
176
     1
 42
1.0
176
     1
 92
        8
176
     1
 66
     7
176
     1
 43
1.0
176
     1
 76
     1
176
     1
 77
     6
176
     1
 78
     2
176
     1
 67
     7
176
     1
 79
     5
176
     1
170
     0
176
     1
171
     0
176
     1
290
     0
176
     1
 93
        1
176
     1
 44
50.0
176
     1
173
     0
176
     1
  0
VISUALSTYLE
  5
3A
102
{ACAD_REACTORS
330
2A
102
}
330
2A
100
AcDbVisualStyle
  2
ColorChange
 70
    16
177
     2
291
     1
 71
     2
176
     1
 72
     2
176
     1
 73
     3
176
     1
 90
        0
176
     1
 40
-0.6
176
     1
 41
-30.0
176
     1
 62
     5
 63
     8
421
  8421504
176
     1
 74
     1
176
     1
 91
        4
176
     1
 64
     7
176
     1
 65
   257
176
     1
 75
     1
176
     1
175
     1
176
     1
 42
1.0
176
     1
 92
        8
176
     1
 66
     8
424
  8421504
176
     1
 43
1.0
176
     1
 76
     1
176
     1
 77
     6
176
     1
 78
     2
176
     1
 67
     7
176
     1
 79
     5
176
     1
170
     0
176
     1
171
     0
176
     1
290
     0
176
     1
 93
        1
176
     1
 44
0.0
176
     1
173
     0
176
     1
  0
VISUALSTYLE
  5
34
102
{ACAD_REACTORS
330
2A
102
}
330
2A
100
AcDbVisualStyle
  2
Conceptual
 70
     9
177
     2
291
     0
 71
     3
176
     1
 72
     2
176
     1
 73
     0
176
     1
 90
        0
176
     1
 40
-0.6
176
     1
 41
-30.0
176
     1
 62
     5
 63
     7
421
 16777215
176
     1
 74
     2
176
     1
 91
        2
176
     1
 64
     7
176
     1
 65
   257
176
     1
 75
     1
176
     1
175
     1
176
     1
 42
40.0
176
     1
 92
        8
176
     1
 66
     7
176
     1
 43
1.0
176
     1
 76
     1
176
     1
 77
     6
176
     1
 78
     2
176
     1
 67
     7
176
     1
 79
     3
176
     1
170
     0
176
     1
171
     0
176
     1
290
     0
176
     1
 93
        1
176
     1
 44
0.0
176
     1
173
     0
176
     1
  0
VISUALSTYLE
  5
35
102
{ACAD_REACTORS
330
2A
102
}
330
2A
100
AcDbVisualStyle
  2
Dim
 70
    11
177
     2
291
     1
 71
     2
176
     1
 72
     2
176
     1
 73
     0
176
     1
 90
        0
176
     1
 40
-0.6
176
     1
 41
-30.0
176
     1
 62
     5
 63
     7
421
 16777215
176
     1
 74
     1
176
     1
 91
        4
176
     1
 64
     7
176
     1
 65
   257
176
     1
 75
     1
176
     1
175
     1
176
     1
 42
1.0
176
     1
 92
        8
176
     1
 66
     7
176
     1
 43
1.0
176
     1
 76
     1
176
     1
 77
     6
176
     1
 78
     2
176
     1
 67
     7
176
     1
 79
     5
176
     1
170
     0
176
     1
171
     0
176
     1
290
     0
176
     1
 93
        1
176
     1
 44
-50.0
176
     1
173
     0
176
     1
  0
VISUALSTYLE
  5
39
102
{ACAD_REACTORS
330
2A
102
}
330
2A
100
AcDbVisualStyle
  2
Facepattern
 70
    15
177
     2
291
     1
 71
     2
176
     1
 72
     2
176
     1
 73
     0
176
     1
 90
        0
176
     1
 40
-0.6
176
     1
 41
-30.0
176
     1
 62
     5
 63
     7
421
 16777215
176
     1
 74
     1
176
     1
 91
        4
176
     1
 64
     7
176
     1
 65
   257
176
     1
 75
     1
176
     1
175
     1
176
     1
 42
1.0
176
     1
 92
        8
176
     1
 66
     7
176
     1
 43
1.0
176
     1
 76
     1
176
     1
 77
     6
176
     1
 78
     2
176
     1
 67
     7
176
     1
 79
     5
176
     1
170
     0
176
     1
171
     0
176
     1
290
     0
176
     1
 93
        1
176
     1
 44
0.0
176
     1
173
     0
176
     1
  0
VISUALSTYLE
  5
2B
102
{ACAD_REACTORS
330
2A
102
}
330
2A
100
AcDbVisualStyle
  2
Flat
 70
     0
177
     2
291
     1
 71
     2
176
     1
 72
     1
176
     1
 73
     1
176
     1
 90
        2
176
     1
 40
-0.6
176
     1
 41
30.0
176
     1
 62
     5
 63
     7
421
 16777215
176
     1
 74
     0
176
     1
 91
        4
176
     1
 64
     7
176
     1
 65
   257
176
     1
 75
     1
176
     1
175
     1
176
     1
 42
1.0
176
     1
 92
        8
176
     1
 66
     7
176
     1
 43
1.0
176
     1
 76
     1
176
     1
 77
     6
176
     1
 78
     2
176
     1
 67
     7
176
     1
 79
     5
176
     1
170
     0
176
     1
171
     0
176
     1
290
     0
176
     1
 93
       13
176
     1
 44
0.0
176
     1
173
     0
176
     1
  0
VISUALSTYLE
  5
2C
102
{ACAD_REACTORS
330
2A
102
}
330
2A
100
AcDbVisualStyle
  2
FlatWithEdges
 70
     1
177
     2
291
     1
 71
     2
176
     1
 72
     1
176
     1
 73
     1
176
     1
 90
        2
176
     1
 40
-0.6
176
     1
 41
30.0
176
     1
 62
     5
 63
     7
421
 16777215
176
     1
 74
     1
176
     1
 91
        4
176
     1
 64
     7
176
     1
 65
   257
176
     1
 75
     1
176
     1
175
     1
176
     1
 42
1.0
176
     1
 92
        0
176
     1
 66
   257
176
     1
 43
1.0
176
     1
 76
     1
176
     1
 77
     6
176
     1
 78
     2
176
     1
 67
     7
176
     1
 79
     5
176
     1
170
     0
176
     1
171
     0
176
     1
290
     0
176
     1
 93
       13
176
     1
 44
0.0
176
     1
173
     0
176
     1
  0
VISUALSTYLE
  5
2D
102
{ACAD_REACTORS
330
2A
102
}
330
2A
100
AcDbVisualStyle
  2
Gouraud
 70
     2
177
     2
291
     1
 71
     2
176
     1
 72
     2
176
     1
 73
     1
176
     1
 90
        2
176
     1
 40
-0.6
176
     1
 41
30.0
176
     1
 62
     5
 63
     7
421
 16777215
176
     1
 74
     0
176
     1
 91
        4
176
     1
 64
     7
176
     1
 65
   257
176
     1
 75
     1
176
     1
175
     1
176
     1
 42
1.0
176
     1
 92
        0
176
     1
 66
     7
176
     1
 43
1.0
176
     1
 76
     1
176
     1
 77
     6
176
     1
 78
     2
176
     1
 67
     7
176
     1
 79
     5
176
     1
170
     0
176
     1
171
     0
176
     1
290
     0
176
     1
 93
       13
176
     1
 44
0.0
176
     1
173
     0
176
     1
  0
VISUALSTYLE
  5
2E
102
{ACAD_REACTORS
330
2A
102
}
330
2A
100
AcDbVisualStyle
  2
GouraudWithEdges
 70
     3
177
     2
291
     1
 71
     2
176
     1
 72
     2
176
     1
 73
     1
176
     1
 90
        2
176
     1
 40
-0.6
176
     1
 41
30.0
176
     1
 62
     5
 63
     7
421
 16777215
176
     1
 74
     1
176
     1
 91
        4
176
     1
 64
     7
176
     1
 65
   257
176
     1
 75
     1
176
     1
175
     1
176
     1
 42
1.0
176
     1
 92
        0
176
     1
 66
   257
176
     1
 43
1.0
176
     1
 76
     1
176
     1
 77
     6
176
     1
 78
     2
176
     1
 67
     7
176
     1
 79
     5
176
     1
170
     0
176
     1
171
     0
176
     1
290
     0
176
     1
 93
       13
176
     1
 44
0.0
176
     1
173
     0
176
     1
  0
VISUALSTYLE
  5
38
102
{ACAD_REACTORS
330
2A
102
}
330
2A
100
AcDbVisualStyle
  2
Linepattern
 70
    14
177
     2
291
     1
 71
     2
176
     1
 72
     2
176
     1
 73
     0
176
     1
 90
        0
176
     1
 40
-0.6
176
     1
 41
-30.0
176
     1
 62
     5
 63
     7
421
 16777215
176
     1
 74
     1
176
     1
 91
        4
176
     1
 64
     7
176
     1
 65
   257
176
     1
 75
     7
176
     1
175
     7
176
     1
 42
1.0
176
     1
 92
        8
176
     1
 66
     7
176
     1
 43
1.0
176
     1
 76
     1
176
     1
 77
     6
176
     1
 78
     2
176
     1
 67
     7
176
     1
 79
     5
176
     1
170
     0
176
     1
171
     0
176
     1
290
     0
176
     1
 93
        1
176
     1
 44
0.0
176
     1
173
     0
176
     1
  0
VISUALSTYLE
  5
33
102
{ACAD_REACTORS
330
2A
102
}
330
2A
100
AcDbVisualStyle
  2
Realistic
 70
     8
177
     2
291
     0
 71
     2
176
     1
 72
     2
176
     1
 73
     0
176
     1
 90
        0
176
     1
 40
-0.6
176
     1
 41
-30.0
176
     1
 62
     5
 63
     7
421
 16777215
176
     1
 74
     1
176
     1
 91
        0
176
     1
 64
     7
176
     1
 65
   257
176
     1
 75
     1
176
     1
175
     1
176
     1
 42
1.0
176
     1
 92
        8
176
     1
 66
     8
424
  7895160
176
     1
 43
1.0
176
     1
 76
     1
176
     1
 77
     6
176
     1
 78
     2
176
     1
 67
     7
176
     1
 79
     5
176
     1
170
     0
176
     1
171
     0
176
     1
290
     0
176
     1
 93
       13
176
     1
 44
0.0
176
     1
173
     0
176
     1
  0
VISUALSTYLE
  5
37
102
{ACAD_REACTORS
330
2A
102
}
330
2A
100
AcDbVisualStyle
  2
Thicken
 70
    13
177
     2
291
     1
 71
     2
176
     1
 72
     2
176
     1
 73
     0
176
     1
 90
        0
176
     1
 40
-0.6
176
     1
 41
-30.0
176
     1
 62
     5
 63
     7
421
 16777215
176
     1
 74
     1
176
     1
 91
        4
176
     1
 64
     7
176
     1
 65
   257
176
     1
 75
     1
176
     1
175
     1
176
     1
 42
1.0
176
     1
 92
       12
176
     1
 66
     7
176
     1
 43
1.0
176
     1
 76
     1
176
     1
 77
     6
176
     1
 78
     2
176
     1
 67
     7
176
     1
 79
     5
176
     1
170
     0
176
     1
171
     0
176
     1
290
     0
176
     1
 93
        1
176
     1
 44
0.0
176
     1
173
     0
176
     1
  0
ENDSEC
  0
EOF
