  0
SECTION
  2
HEADER
  9
$ACADVER
  1
AC1024
  9
$ACADMAINTVER
 70
     6
  9
$DWGCODEPAGE
  3
UNDEFINED
  9
$INSBASE
 10
0.0
 20
0.0
 30
0.0
  9
$EXTMIN
 10
1.000000000000000E+20
 20
1.000000000000000E+20
 30
1.000000000000000E+20
  9
$EXTMAX
 10
-1.000000000000000E+20
 20
-1.000000000000000E+20
 30
-1.000000000000000E+20
  9
$LIMMIN
 10
0.0
 20
0.0
  9
$LIMMAX
 10
12.0
 20
9.0
  9
$ORTHOMODE
 70
     0
  9
$REGENMODE
 70
     1
  9
$FILLMODE
 70
     1
  9
$QTEXTMODE
 70
     0
  9
$MIRRTEXT
 70
     1
  9
$LTSCALE
 40
1.0
  9
$ATTMODE
 70
     1
  9
$TEXTSIZE
 40
0.2
  9
$TRACEWID
 40
0.05
  9
$TEXTSTYLE
  7
Standard
  9
$CLAYER
  8
0
  9
$CELTYPE
  6
ByLayer
  9
$CECOLOR
 62
   256
  9
$CELTSCALE
 40
1.0
  9
$DISPSILH
 70
     0
  9
$DIMSCALE
 40
1.0
  9
$DIMASZ
 40
0.18
  9
$DIMEXO
 40
0.0625
  9
$DIMDLI
 40
0.38
  9
$DIMRND
 40
0.0
  9
$DIMDLE
 40
0.0
  9
$DIMEXE
 40
0.18
  9
$DIMTP
 40
0.0
  9
$DIMTM
 40
0.0
  9
$DIMTXT
 40
0.18
  9
$DIMCEN
 40
0.09
  9
$DIMTSZ
 40
0.0
  9
$DIMTOL
 70
     0
  9
$DIMLIM
 70
     0
  9
$DIMTIH
 70
     1
  9
$DIMTOH
 70
     1
  9
$DIMSE1
 70
     0
  9
$DIMSE2
 70
     0
  9
$DIMTAD
 70
     0
  9
$DIMZIN
 70
     0
  9
$DIMBLK
  1

  9
$DIMASO
 70
     1
  9
$DIMSHO
 70
     1
  9
$DIMPOST
  1

  9
$DIMAPOST
  1

  9
$DIMALT
 70
     0
  9
$DIMALTD
 70
     2
  9
$DIMALTF
 40
25.4
  9
$DIMLFAC
 40
1.0
  9
$DIMTOFL
 70
     0
  9
$DIMTVP
 40
0.0
  9
$DIMTIX
 70
     0
  9
$DIMSOXD
 70
     0
  9
$DIMSAH
 70
     0
  9
$DIMBLK1
  1

  9
$DIMBLK2
  1

  9
$DIMSTYLE
  2
Standard
  9
$DIMCLRD
 70
     0
  9
$DIMCLRE
 70
     0
  9
$DIMCLRT
 70
     0
  9
$DIMTFAC
 40
1.0
  9
$DIMGAP
 40
0.09
  9
$DIMJUST
 70
     0
  9
$DIMSD1
 70
     0
  9
$DIMSD2
 70
     0
  9
$DIMTOLJ
 70
     1
  9
$DIMTZIN
 70
     0
  9
$DIMALTZ
 70
     0
  9
$DIMALTTZ
 70
     0
  9
$DIMUPT
 70
     0
  9
$DIMDEC
 70
     4
  9
$DIMTDEC
 70
     4
  9
$DIMALTU
 70
     2
  9
$DIMALTTD
 70
     2
  9
$DIMTXSTY
  7
Standard
  9
$DIMAUNIT
 70
     0
  9
$DIMADEC
 70
     0
  9
$DIMALTRND
 40
0.0
  9
$DIMAZIN
 70
     0
  9
$DIMDSEP
 70
    46
  9
$DIMATFIT
 70
     3
  9
$DIMFRAC
 70
     0
  9
$DIMLDRBLK
  1

  9
$DIMLUNIT
 70
     2
  9
$DIMLWD
 70
    -2
  9
$DIMLWE
 70
    -2
  9
$DIMTMOVE
 70
     0
  9
$DIMFXL
 40
1.0
  9
$DIMFXLON
 70
     0
  9
$DIMJOGANG
 40
0.7853981633974483
  9
$DIMTFILL
 70
     0
  9
$DIMTFILLCLR
 70
     0
  9
$DIMARCSYM
 70
     0
  9
$DIMLTYPE
  6

  9
$DIMLTEX1
  6

  9
$DIMLTEX2
  6

  9
$DIMTXTDIRECTION
 70
     0
  9
$LUNITS
 70
     2
  9
$LUPREC
 70
     4
  9
$SKETCHINC
 40
0.1
  9
$FILLETRAD
 40
0.5
  9
$AUNITS
 70
     0
  9
$AUPREC
 70
     0
  9
$MENU
  1
.
  9
$ELEVATION
 40
0.0
  9
$PELEVATION
 40
0.0
  9
$THICKNESS
 40
0.0
  9
$LIMCHECK
 70
     0
  9
$CHAMFERA
 40
0.5
  9
$CHAMFERB
 40
0.5
  9
$CHAMFERC
 40
1.0
  9
$CHAMFERD
 40
0.0
  9
$SKPOLY
 70
     0
  9
$TDCREATE
 40
2457917.618587951
  9
$TDUCREATE
 40
2457917.243587963
  9
$TDUPDATE
 40
2457917.618587951
  9
$TDUUPDATE
 40
2457917.243587963
  9
$TDINDWG
 40
0.0000000116
  9
$TDUSRTIMER
 40
0.0000000116
  9
$USRTIMER
 70
     1
  9
$ANGBASE
 50
0.0
  9
$ANGDIR
 70
     0
  9
$PDMODE
 70
     0
  9
$PDSIZE
 40
0.0
  9
$PLINEWID
 40
0.0
  9
$SPLFRAME
 70
     0
  9
$SPLINETYPE
 70
     6
  9
$SPLINESEGS
 70
     8
  9
$HANDSEED
  5
DB
  9
$SURFTAB1
 70
     6
  9
$SURFTAB2
 70
     6
  9
$SURFTYPE
 70
     6
  9
$SURFU
 70
     6
  9
$SURFV
 70
     6
  9
$UCSBASE
  2

  9
$UCSNAME
  2

  9
$UCSORG
 10
0.0
 20
0.0
 30
0.0
  9
$UCSXDIR
 10
1.0
 20
0.0
 30
0.0
  9
$UCSYDIR
 10
0.0
 20
1.0
 30
0.0
  9
$UCSORTHOREF
  2

  9
$UCSORTHOVIEW
 70
     0
  9
$UCSORGTOP
 10
0.0
 20
0.0
 30
0.0
  9
$UCSORGBOTTOM
 10
0.0
 20
0.0
 30
0.0
  9
$UCSORGLEFT
 10
0.0
 20
0.0
 30
0.0
  9
$UCSORGRIGHT
 10
0.0
 20
0.0
 30
0.0
  9
$UCSORGFRONT
 10
0.0
 20
0.0
 30
0.0
  9
$UCSORGBACK
 10
0.0
 20
0.0
 30
0.0
  9
$PUCSBASE
  2

  9
$PUCSNAME
  2

  9
$PUCSORG
 10
0.0
 20
0.0
 30
0.0
  9
$PUCSXDIR
 10
1.0
 20
0.0
 30
0.0
  9
$PUCSYDIR
 10
0.0
 20
1.0
 30
0.0
  9
$PUCSORTHOREF
  2

  9
$PUCSORTHOVIEW
 70
     0
  9
$PUCSORGTOP
 10
0.0
 20
0.0
 30
0.0
  9
$PUCSORGBOTTOM
 10
0.0
 20
0.0
 30
0.0
  9
$PUCSORGLEFT
 10
0.0
 20
0.0
 30
0.0
  9
$PUCSORGRIGHT
 10
0.0
 20
0.0
 30
0.0
  9
$PUCSORGFRONT
 10
0.0
 20
0.0
 30
0.0
  9
$PUCSORGBACK
 10
0.0
 20
0.0
 30
0.0
  9
$USERI1
 70
     0
  9
$USERI2
 70
     0
  9
$USERI3
 70
     0
  9
$USERI4
 70
     0
  9
$USERI5
 70
     0
  9
$USERR1
 40
0.0
  9
$USERR2
 40
0.0
  9
$USERR3
 40
0.0
  9
$USERR4
 40
0.0
  9
$USERR5
 40
0.0
  9
$WORLDVIEW
 70
     1
  9
$SHADEDGE
 70
     3
  9
$SHADEDIF
 70
    70
  9
$TILEMODE
 70
     1
  9
$MAXACTVP
 70
    64
  9
$PINSBASE
 10
0.0
 20
0.0
 30
0.0
  9
$PLIMCHECK
 70
     0
  9
$PEXTMIN
 10
1.000000000000000E+20
 20
1.000000000000000E+20
 30
1.000000000000000E+20
  9
$PEXTMAX
 10
-1.000000000000000E+20
 20
-1.000000000000000E+20
 30
-1.000000000000000E+20
  9
$PLIMMIN
 10
0.0
 20
0.0
  9
$PLIMMAX
 10
12.0
 20
9.0
  9
$UNITMODE
 70
     0
  9
$VISRETAIN
 70
     1
  9
$PLINEGEN
 70
     0
  9
$PSLTSCALE
 70
     1
  9
$TREEDEPTH
 70
  3020
  9
$CMLSTYLE
  2
Standard
  9
$CMLJUST
 70
     0
  9
$CMLSCALE
 40
1.0
  9
$PROXYGRAPHICS
 70
     1
  9
$MEASUREMENT
 70
     0
  9
$CELWEIGHT
370
    -1
  9
$ENDCAPS
280
     0
  9
$JOINSTYLE
280
     0
  9
$LWDISPLAY
290
     1
  9
$INSUNITS
 70
     1
  9
$HYPERLINKBASE
  1

  9
$STYLESHEET
  1

  9
$XEDIT
290
     1
  9
$CEPSNTYPE
380
     0
  9
$PSTYLEMODE
290
     1
  9
$FINGERPRINTGUID
  2
{50CB1244-3603-6170-321A-B46F15617466}
  9
$VERSIONGUID
  2
{FAEB1C32-E019-11D5-929B-00C0DF256EC4}
  9
$EXTNAMES
290
     1
  9
$PSVPSCALE
 40
0.0
  9
$OLESTARTUP
290
     0
  9
$SORTENTS
280
   127
  9
$INDEXCTL
280
     0
  9
$HIDETEXT
280
     1
  9
$XCLIPFRAME
280
     2
  9
$HALOGAP
280
     0
  9
$OBSCOLOR
 70
   257
  9
$OBSLTYPE
280
     0
  9
$INTERSECTIONDISPLAY
280
     0
  9
$INTERSECTIONCOLOR
 70
   257
  9
$DIMASSOC
280
     2
  9
$PROJECTNAME
  1

  9
$CAMERADISPLAY
290
     0
  9
$LENSLENGTH
 40
50.0
  9
$CAMERAHEIGHT
 40
0.0
  9
$STEPSPERSEC
 40
2.0
  9
$STEPSIZE
 40
6.0
  9
$3DDWFPREC
 40
2.0
  9
$PSOLWIDTH
 40
0.25
  9
$PSOLHEIGHT
 40
4.0
  9
$LOFTANG1
 40
1.570796326794897
  9
$LOFTANG2
 40
1.570796326794897
  9
$LOFTMAG1
 40
0.0
  9
$LOFTMAG2
 40
0.0
  9
$LOFTPARAM
 70
     7
  9
$LOFTNORMALS
280
     1
  9
$LATITUDE
 40
37.795
  9
$LONGITUDE
 40
-122.394
  9
$NORTHDIRECTION
 40
0.0
  9
$TIMEZONE
 70
 -8000
  9
$LIGHTGLYPHDISPLAY
280
     1
  9
$TILEMODELIGHTSYNCH
280
     1
  9
$CMATERIAL
347
3C
  9
$SOLIDHIST
280
     1
  9
$SHOWHIST
280
     1
  9
$DWFFRAME
280
     2
  9
$DGNFRAME
280
     2
  9
$REALWORLDSCALE
290
     1
  9
$INTERFERECOLOR
 62
   256
  9
$CSHADOW
280
     0
  9
$SHADOWPLANELOCATION
 40
0.0
  0
ENDSEC
  0
SECTION
  2
CLASSES
  0
CLASS
  1
ACDBDICTIONARYWDFLT
  2
AcDbDictionaryWithDefault
  3
ObjectDBX Classes
 90
        0
 91
        4
280
     0
281
     0
  0
CLASS
  1
VISUALSTYLE
  2
AcDbVisualStyle
  3
ObjectDBX Classes
 90
     4095
 91
        4
280
     0
281
     0
  0
CLASS
  1
MATERIAL
  2
AcDbMaterial
  3
ObjectDBX Classes
 90
     1153
 91
        4
280
     0
281
     0
  0
CLASS
  1
SUN
  2
AcDbSun
  3
SCENEOE
 90
     1024
 91
        4
280
     0
281
     0
  0
ENDSEC
  0
SECTION
  2
TABLES
  0
TABLE
  2
VPORT
  5
8
330
0
100
AcDbSymbolTable
 70
     1
  0
VPORT
  5
29
330
8
100
AcDbSymbolTableRecord
100
AcDbViewportTableRecord
  2
*Active
 70
     0
 10
0.0
 20
0.0
 11
1.0
 21
1.0
 12
0.0
 22
0.0
 13
0.0
 23
0.0
 14
0.5
 24
0.5
 15
0.5
 25
0.5
 16
0.0
 26
0.0
 36
1.0
 17
91.00082462281999
 27
-128.4993055234307
 37
0.0
 40
256.9986110468615
 41
0.7081814508812795
 42
50.0
 43
0.0
 44
0.0
 50
0.0
 51
0.0
 71
     0
 72
   100
 73
     1
 74
     3
 75
     0
 76
     0
 77
     0
 78
     0
281
     0
 65
     1
110
0.0
120
0.0
130
0.0
111
1.0
121
0.0
131
0.0
112
0.0
122
1.0
132
0.0
 79
     0
146
0.0
 60
     3
 61
     5
292
     1
282
     1
141
0.0
142
0.0
 63
   250
361
3F
  0
ENDTAB
  0
TABLE
  2
LTYPE
  5
5
330
0
100
AcDbSymbolTable
 70
     2
  0
LTYPE
  5
14
330
5
100
AcDbSymbolTableRecord
100
AcDbLinetypeTableRecord
  2
ByBlock
 70
     0
  3

 72
    65
 73
     0
 40
0.0
  0
LTYPE
  5
15
330
5
100
AcDbSymbolTableRecord
100
AcDbLinetypeTableRecord
  2
ByLayer
 70
     0
  3

 72
    65
 73
     0
 40
0.0
  0
LTYPE
  5
16
330
5
100
AcDbSymbolTableRecord
100
AcDbLinetypeTableRecord
  2
Continuous
 70
     0
  3
Solid line
 72
    65
 73
     0
 40
0.0
  0
LTYPE
  5
CB
330
5
100
AcDbSymbolTableRecord
100
AcDbLinetypeTableRecord
  2
AI-Linetype-1
 70
     0
  3
Adobe Illustrator Linetype No. 1
 72
    65
 73
     2
 40
1.411111110758333
 49
0.7055555553791667
 74
     0
 49
-0.7055555553791667
 74
     0
  0
ENDTAB
  0
TABLE
  2
LAYER
  5
2
330
0
100
AcDbSymbolTable
 70
     2
  0
LAYER
  5
10
330
2
100
AcDbSymbolTableRecord
100
AcDbLayerTableRecord
  2
0
 70
     0
 62
     7
  6
Continuous
370
    -3
390
F
347
3E
  0
LAYER
  5
40
330
2
100
AcDbSymbolTableRecord
100
AcDbLayerTableRecord
  2
_U+30EC_U+30A4_U+30E4_U+30FC 1
 70
     0
 62
     7
  6
Continuous
370
    -3
390
F
347
3E
  0
ENDTAB
  0
TABLE
  2
STYLE
  5
3
330
0
100
AcDbSymbolTable
 70
     1
  0
STYLE
  5
11
330
3
100
AcDbSymbolTableRecord
100
AcDbTextStyleTableRecord
  2
Standard
 70
     0
 40
0.0
 41
1.0
 50
0.0
 71
     0
 42
0.2
  3
txt
  4

  0
ENDTAB
  0
TABLE
  2
VIEW
  5
6
330
0
100
AcDbSymbolTable
 70
     0
  0
ENDTAB
  0
TABLE
  2
UCS
  5
7
330
0
100
AcDbSymbolTable
 70
     0
  0
ENDTAB
  0
TABLE
  2
APPID
  5
9
330
0
100
AcDbSymbolTable
 70
     1
  0
APPID
  5
12
330
9
100
AcDbSymbolTableRecord
100
AcDbRegAppTableRecord
  2
ACAD
 70
     0
  0
ENDTAB
  0
TABLE
  2
DIMSTYLE
  5
A
330
0
100
AcDbSymbolTable
 70
     1
100
AcDbDimStyleTable
  0
DIMSTYLE
105
27
330
A
100
AcDbSymbolTableRecord
100
AcDbDimStyleTableRecord
  2
Standard
 70
     0
178
     0
340
11
  0
ENDTAB
  0
TABLE
  2
BLOCK_RECORD
  5
1
330
0
100
AcDbSymbolTable
 70
     6
  0
BLOCK_RECORD
  5
1F
330
1
100
AcDbSymbolTableRecord
100
AcDbBlockTableRecord
  2
*Model_Space
340
22
 70
     0
280
     1
281
     0
  0
BLOCK_RECORD
  5
1B
330
1
100
AcDbSymbolTableRecord
100
AcDbBlockTableRecord
  2
*Paper_Space
340
1E
 70
     0
280
     1
281
     0
  0
BLOCK_RECORD
  5
23
330
1
100
AcDbSymbolTableRecord
100
AcDbBlockTableRecord
  2
*Paper_Space0
340
26
 70
     0
280
     1
281
     0
  0
BLOCK_RECORD
  5
4F
330
1
100
AcDbSymbolTableRecord
100
AcDbBlockTableRecord
  2
block 2
340
0
102
{BLKREFS
331
50
102
}
 70
     0
280
     1
281
     0
  0
BLOCK_RECORD
  5
6A
330
1
100
AcDbSymbolTableRecord
100
AcDbBlockTableRecord
  2
block 3
340
0
102
{BLKREFS
331
6B
102
}
 70
     0
280
     1
281
     0
  0
BLOCK_RECORD
  5
A8
330
1
100
AcDbSymbolTableRecord
100
AcDbBlockTableRecord
  2
block 4
340
0
102
{BLKREFS
331
A9
102
}
 70
     0
280
     1
281
     0
  0
BLOCK_RECORD
  5
BE
330
1
100
AcDbSymbolTableRecord
100
AcDbBlockTableRecord
  2
block 5
340
0
102
{BLKREFS
331
BF
102
}
 70
     0
280
     1
281
     0
  0
BLOCK_RECORD
  5
CF
330
1
100
AcDbSymbolTableRecord
100
AcDbBlockTableRecord
  2
block 6
340
0
102
{BLKREFS
331
D0
102
}
 70
     0
280
     1
281
     0
  0
ENDTAB
  0
ENDSEC
  0
SECTION
  2
BLOCKS
  0
BLOCK
  5
20
330
1F
100
AcDbEntity
  8
0
100
AcDbBlockBegin
  2
*Model_Space
 70
     0
 10
0.0
 20
0.0
 30
0.0
  3
*Model_Space
  1

  0
ENDBLK
  5
21
330
1F
100
AcDbEntity
  8
0
100
AcDbBlockEnd
  0
BLOCK
  5
1C
330
1B
100
AcDbEntity
 67
     1
  8
0
100
AcDbBlockBegin
  2
*Paper_Space
 70
     0
 10
0.0
 20
0.0
 30
0.0
  3
*Paper_Space
  1

  0
ENDBLK
  5
1D
330
1B
100
AcDbEntity
 67
     1
  8
0
100
AcDbBlockEnd
  0
BLOCK
  5
24
330
23
100
AcDbEntity
  8
0
100
AcDbBlockBegin
  2
*Paper_Space0
 70
     0
 10
0.0
 20
0.0
 30
0.0
  3
*Paper_Space0
  1

  0
ENDBLK
  5
25
330
23
100
AcDbEntity
  8
0
100
AcDbBlockEnd
  0
BLOCK
  5
51
330
4F
100
AcDbEntity
  8
0
100
AcDbBlockBegin
  2
block 2
 70
     0
 10
0.0
 20
0.0
 30
0.0
  3
block 2
  1

  0
SPLINE
  5
53
330
4F
100
AcDbEntity
  8
_U+30EC_U+30A4_U+30E4_U+30FC 1
370
     0
100
AcDbSpline
210
0.0
220
0.0
230
1.0
 70
    11
 71
     3
 72
    26
 73
    22
 74
     0
 42
0.0000000001
 43
0.0000000001
 12
1.0
 22
0.0
 32
0.0
 13
1.0
 23
0.0
 33
0.0
 40
0.0
 40
0.0
 40
0.0
 40
0.0
 40
1.0
 40
1.0
 40
1.0
 40
2.0
 40
2.0
 40
2.0
 40
3.0
 40
3.0
 40
3.0
 40
4.0
 40
4.0
 40
4.0
 40
5.0
 40
5.0
 40
5.0
 40
6.0
 40
6.0
 40
6.0
 40
7.0
 40
7.0
 40
7.0
 40
7.0
 10
100.7111653394055
 20
-130.9270643118863
 30
0.0
 10
100.7111653394055
 20
-130.9270643118863
 30
0.0
 10
99.60701223638297
 20
-130.9270643118863
 30
0.0
 10
99.60701223638297
 20
-130.9270643118863
 30
0.0
 10
99.60701223638297
 20
-130.9270643118863
 30
0.0
 10
99.60701223638297
 20
-131.2794975800274
 30
0.0
 10
99.60701223638297
 20
-131.2794975800274
 30
0.0
 10
99.60701223638297
 20
-131.2794975800274
 30
0.0
 10
99.45887313051723
 20
-131.2794975800274
 30
0.0
 10
99.45887313051723
 20
-131.2794975800274
 30
0.0
 10
99.44405921993065
 20
-130.9246527450466
 30
0.0
 10
99.28110620347834
 20
-130.875043370059
 30
0.0
 10
99.16672903336804
 20
-130.8433484915947
 30
0.0
 10
99.16672903336804
 20
-130.8433484915947
 30
0.0
 10
99.16672903336804
 20
-130.6872856661129
 30
0.0
 10
99.16672903336804
 20
-130.6872856661129
 30
0.0
 10
99.16672903336804
 20
-130.6872856661129
 30
0.0
 10
100.7111653394055
 20
-130.6872856661129
 30
0.0
 10
100.7111653394055
 20
-130.6872856661129
 30
0.0
 10
100.7111653394055
 20
-130.6872856661129
 30
0.0
 10
100.7111653394055
 20
-130.9270643118863
 30
0.0
 10
100.7111653394055
 20
-130.9270643118863
 30
0.0
  0
HATCH
  5
54
330
4F
100
AcDbEntity
  8
_U+30EC_U+30A4_U+30E4_U+30FC 1
 62
     7
420
 16777215
100
AcDbHatch
 10
0.0
 20
0.0
 30
0.0
210
0.0
220
0.0
230
1.0
  2
SOLID
 70
     1
 71
     0
 91
        1
 92
        1
 93
        1
 72
     4
 94
        3
 73
     0
 74
     1
 95
       26
 96
       22
 40
0.0
 40
0.0
 40
0.0
 40
0.0
 40
1.0
 40
1.0
 40
1.0
 40
2.0
 40
2.0
 40
2.0
 40
3.0
 40
3.0
 40
3.0
 40
4.0
 40
4.0
 40
4.0
 40
5.0
 40
5.0
 40
5.0
 40
6.0
 40
6.0
 40
6.0
 40
7.0
 40
7.0
 40
7.0
 40
7.0
 10
100.7111653394055
 20
-130.9270643118863
 10
100.7111653394055
 20
-130.9270643118863
 10
99.60701223638297
 20
-130.9270643118863
 10
99.60701223638297
 20
-130.9270643118863
 10
99.60701223638297
 20
-130.9270643118863
 10
99.60701223638297
 20
-131.2794975800274
 10
99.60701223638297
 20
-131.2794975800274
 10
99.60701223638297
 20
-131.2794975800274
 10
99.45887313051723
 20
-131.2794975800274
 10
99.45887313051723
 20
-131.2794975800274
 10
99.44405921993065
 20
-130.9246527450466
 10
99.28110620347834
 20
-130.875043370059
 10
99.16672903336804
 20
-130.8433484915947
 10
99.16672903336804
 20
-130.8433484915947
 10
99.16672903336804
 20
-130.6872856661129
 10
99.16672903336804
 20
-130.6872856661129
 10
99.16672903336804
 20
-130.6872856661129
 10
100.7111653394055
 20
-130.6872856661129
 10
100.7111653394055
 20
-130.6872856661129
 10
100.7111653394055
 20
-130.6872856661129
 10
100.7111653394055
 20
-130.9270643118863
 10
100.7111653394055
 20
-130.9270643118863
 97
        0
 97
        0
 75
     2
 76
     1
 98
        0
  0
SPLINE
  5
55
330
4F
100
AcDbEntity
  8
_U+30EC_U+30A4_U+30E4_U+30FC 1
370
     0
100
AcDbSpline
210
0.0
220
0.0
230
1.0
 70
    11
 71
     3
 72
    53
 73
    49
 74
     0
 42
0.0000000001
 43
0.0000000001
 12
1.0
 22
0.0
 32
0.0
 13
1.0
 23
0.0
 33
0.0
 40
0.0
 40
0.0
 40
0.0
 40
0.0
 40
1.0
 40
1.0
 40
1.0
 40
2.0
 40
2.0
 40
2.0
 40
3.0
 40
3.0
 40
3.0
 40
4.0
 40
4.0
 40
4.0
 40
5.0
 40
5.0
 40
5.0
 40
6.0
 40
6.0
 40
6.0
 40
7.0
 40
7.0
 40
7.0
 40
8.0
 40
8.0
 40
8.0
 40
9.0
 40
9.0
 40
9.0
 40
10.0
 40
10.0
 40
10.0
 40
11.0
 40
11.0
 40
11.0
 40
12.0
 40
12.0
 40
12.0
 40
13.0
 40
13.0
 40
13.0
 40
14.0
 40
14.0
 40
14.0
 40
15.0
 40
15.0
 40
15.0
 40
16.0
 40
16.0
 40
16.0
 40
16.0
 10
100.7618082430387
 20
-129.6375650717573
 30
0.0
 10
100.7618082430387
 20
-129.7209363825003
 30
0.0
 10
100.744927275161
 20
-129.8298013998342
 30
0.0
 10
100.6815375182324
 20
-129.9379773980711
 30
0.0
 10
100.5716389722529
 20
-130.123668044726
 30
0.0
 10
100.4403808342649
 20
-130.1460611653802
 30
0.0
 10
100.3325493455766
 20
-130.1663872287431
 30
0.0
 10
100.3325493455766
 20
-130.1663872287431
 30
0.0
 10
100.3325493455766
 20
-129.9290201498094
 30
0.0
 10
100.3325493455766
 20
-129.9290201498094
 30
0.0
 10
100.5313313550755
 20
-129.8704535265602
 30
0.0
 10
100.5609591762487
 20
-129.7347167644413
 30
0.0
 10
100.5609591762487
 20
-129.6351535049176
 30
0.0
 10
100.5609591762487
 20
-129.4859808704063
 30
0.0
 10
100.4613959167249
 20
-129.3233723635025
 30
0.0
 10
100.2288519714706
 20
-129.3233723635025
 30
0.0
 10
99.9728813769165
 20
-129.3233723635025
 30
0.0
 10
99.90294593856594
 20
-129.5152641820309
 30
0.0
 10
99.90294593856594
 20
-129.6441107531793
 30
0.0
 10
99.90294593856594
 20
-129.6782171984832
 30
0.0
 10
99.90294593856594
 20
-129.8298013998342
 30
0.0
 10
100.0321370192628
 20
-129.9245415256786
 30
0.0
 10
100.0321370192628
 20
-129.9245415256786
 30
0.0
 10
100.0131889940939
 20
-130.1122992296247
 30
0.0
 10
100.0131889940939
 20
-130.1122992296247
 30
0.0
 10
100.0131889940939
 20
-130.1122992296247
 30
0.0
 10
99.16672903336804
 20
-129.9834526584764
 30
0.0
 10
99.16672903336804
 20
-129.9834526584764
 30
0.0
 10
99.16672903336804
 20
-129.9834526584764
 30
0.0
 10
99.16672903336804
 20
-129.1514620987885
 30
0.0
 10
99.16672903336804
 20
-129.1514620987885
 30
0.0
 10
99.16672903336804
 20
-129.1514620987885
 30
0.0
 10
99.36137692828466
 20
-129.1514620987885
 30
0.0
 10
99.36137692828466
 20
-129.1514620987885
 30
0.0
 10
99.36137692828466
 20
-129.1514620987885
 30
0.0
 10
99.36137692828466
 20
-129.8091308269227
 30
0.0
 10
99.36137692828466
 20
-129.8091308269227
 30
0.0
 10
99.36137692828466
 20
-129.8091308269227
 30
0.0
 10
99.78443465387333
 20
-129.8794107748218
 30
0.0
 10
99.78443465387333
 20
-129.8794107748218
 30
0.0
 10
99.7506727181179
 20
-129.8139539606021
 30
0.0
 10
99.71036510094046
 20
-129.7257595161797
 30
0.0
 10
99.71036510094046
 20
-129.5989800023225
 30
0.0
 10
99.71036510094046
 20
-129.3278509876333
 30
0.0
 10
99.89674476669248
 20
-129.0746364694675
 30
0.0
 10
100.2099039463017
 20
-129.0746364694675
 30
0.0
 10
100.5271972404932
 20
-129.0746364694675
 30
0.0
 10
100.7618082430387
 20
-129.3140706056923
 30
0.0
 10
100.7618082430387
 20
-129.6375650717573
 30
0.0
  0
HATCH
  5
56
330
4F
100
AcDbEntity
  8
_U+30EC_U+30A4_U+30E4_U+30FC 1
 62
     7
420
 16777215
100
AcDbHatch
 10
0.0
 20
0.0
 30
0.0
210
0.0
220
0.0
230
1.0
  2
SOLID
 70
     1
 71
     0
 91
        1
 92
        1
 93
        1
 72
     4
 94
        3
 73
     0
 74
     1
 95
       53
 96
       49
 40
0.0
 40
0.0
 40
0.0
 40
0.0
 40
1.0
 40
1.0
 40
1.0
 40
2.0
 40
2.0
 40
2.0
 40
3.0
 40
3.0
 40
3.0
 40
4.0
 40
4.0
 40
4.0
 40
5.0
 40
5.0
 40
5.0
 40
6.0
 40
6.0
 40
6.0
 40
7.0
 40
7.0
 40
7.0
 40
8.0
 40
8.0
 40
8.0
 40
9.0
 40
9.0
 40
9.0
 40
10.0
 40
10.0
 40
10.0
 40
11.0
 40
11.0
 40
11.0
 40
12.0
 40
12.0
 40
12.0
 40
13.0
 40
13.0
 40
13.0
 40
14.0
 40
14.0
 40
14.0
 40
15.0
 40
15.0
 40
15.0
 40
16.0
 40
16.0
 40
16.0
 40
16.0
 10
100.7618082430387
 20
-129.6375650717573
 10
100.7618082430387
 20
-129.7209363825003
 10
100.744927275161
 20
-129.8298013998342
 10
100.6815375182324
 20
-129.9379773980711
 10
100.5716389722529
 20
-130.123668044726
 10
100.4403808342649
 20
-130.1460611653802
 10
100.3325493455766
 20
-130.1663872287431
 10
100.3325493455766
 20
-130.1663872287431
 10
100.3325493455766
 20
-129.9290201498094
 10
100.3325493455766
 20
-129.9290201498094
 10
100.5313313550755
 20
-129.8704535265602
 10
100.5609591762487
 20
-129.7347167644413
 10
100.5609591762487
 20
-129.6351535049176
 10
100.5609591762487
 20
-129.4859808704063
 10
100.4613959167249
 20
-129.3233723635025
 10
100.2288519714706
 20
-129.3233723635025
 10
99.9728813769165
 20
-129.3233723635025
 10
99.90294593856594
 20
-129.5152641820309
 10
99.90294593856594
 20
-129.6441107531793
 10
99.90294593856594
 20
-129.6782171984832
 10
99.90294593856594
 20
-129.8298013998342
 10
100.0321370192628
 20
-129.9245415256786
 10
100.0321370192628
 20
-129.9245415256786
 10
100.0131889940939
 20
-130.1122992296247
 10
100.0131889940939
 20
-130.1122992296247
 10
100.0131889940939
 20
-130.1122992296247
 10
99.16672903336804
 20
-129.9834526584764
 10
99.16672903336804
 20
-129.9834526584764
 10
99.16672903336804
 20
-129.9834526584764
 10
99.16672903336804
 20
-129.1514620987885
 10
99.16672903336804
 20
-129.1514620987885
 10
99.16672903336804
 20
-129.1514620987885
 10
99.36137692828466
 20
-129.1514620987885
 10
99.36137692828466
 20
-129.1514620987885
 10
99.36137692828466
 20
-129.1514620987885
 10
99.36137692828466
 20
-129.8091308269227
 10
99.36137692828466
 20
-129.8091308269227
 10
99.36137692828466
 20
-129.8091308269227
 10
99.78443465387333
 20
-129.8794107748218
 10
99.78443465387333
 20
-129.8794107748218
 10
99.7506727181179
 20
-129.8139539606021
 10
99.71036510094046
 20
-129.7257595161797
 10
99.71036510094046
 20
-129.5989800023225
 10
99.71036510094046
 20
-129.3278509876333
 10
99.89674476669248
 20
-129.0746364694675
 10
100.2099039463017
 20
-129.0746364694675
 10
100.5271972404932
 20
-129.0746364694675
 10
100.7618082430387
 20
-129.3140706056923
 10
100.7618082430387
 20
-129.6375650717573
 97
        0
 97
        0
 75
     2
 76
     1
 98
        0
  0
POLYLINE
  5
57
330
4F
100
AcDbEntity
  8
_U+30EC_U+30A4_U+30E4_U+30FC 1
370
     0
100
AcDb2dPolyline
 66
     1
 10
0.0
 20
0.0
 30
0.0
  0
VERTEX
  5
58
330
57
100
AcDbEntity
  8
_U+30EC_U+30A4_U+30E4_U+30FC 1
370
     0
100
AcDbVertex
100
AcDb2dVertex
 10
100.7111653394055
 20
-128.8296901804662
 30
0.0
  0
VERTEX
  5
59
330
57
100
AcDbEntity
  8
_U+30EC_U+30A4_U+30E4_U+30FC 1
370
     0
100
AcDbVertex
100
AcDb2dVertex
 10
100.4593288594338
 20
-128.8296901804662
 30
0.0
  0
VERTEX
  5
5A
330
57
100
AcDbEntity
  8
_U+30EC_U+30A4_U+30E4_U+30FC 1
370
     0
100
AcDbVertex
100
AcDb2dVertex
 10
100.4593288594338
 20
-128.5606282230682
 30
0.0
  0
VERTEX
  5
5B
330
57
100
AcDbEntity
  8
_U+30EC_U+30A4_U+30E4_U+30FC 1
370
     0
100
AcDbVertex
100
AcDb2dVertex
 10
100.7111653394055
 20
-128.5606282230682
 30
0.0
  0
VERTEX
  5
5C
330
57
100
AcDbEntity
  8
_U+30EC_U+30A4_U+30E4_U+30FC 1
370
     0
100
AcDbVertex
100
AcDb2dVertex
 10
100.7111653394055
 20
-128.8296901804662
 30
0.0
  0
SEQEND
  5
5D
330
57
100
AcDbEntity
  8
_U+30EC_U+30A4_U+30E4_U+30FC 1
370
     0
  0
HATCH
  5
5E
330
4F
100
AcDbEntity
  8
_U+30EC_U+30A4_U+30E4_U+30FC 1
 62
     7
420
 16777215
100
AcDbHatch
 10
0.0
 20
0.0
 30
0.0
210
0.0
220
0.0
230
1.0
  2
SOLID
 70
     1
 71
     0
 91
        1
 92
        1
 93
        4
 72
     1
 10
100.7111653394055
 20
-128.8296901804662
 11
100.4593288594338
 21
-128.8296901804662
 72
     1
 10
100.4593288594338
 20
-128.8296901804662
 11
100.4593288594338
 21
-128.5606282230682
 72
     1
 10
100.4593288594338
 20
-128.5606282230682
 11
100.7111653394055
 21
-128.5606282230682
 72
     1
 10
100.7111653394055
 20
-128.5606282230682
 11
100.7111653394055
 21
-128.8296901804662
 97
        0
 75
     2
 76
     1
 98
        0
  0
SPLINE
  5
5F
330
4F
100
AcDbEntity
  8
_U+30EC_U+30A4_U+30E4_U+30FC 1
370
     0
100
AcDbSpline
210
0.0
220
0.0
230
1.0
 70
    11
 71
     3
 72
    53
 73
    49
 74
     0
 42
0.0000000001
 43
0.0000000001
 12
1.0
 22
0.0
 32
0.0
 13
1.0
 23
0.0
 33
0.0
 40
0.0
 40
0.0
 40
0.0
 40
0.0
 40
1.0
 40
1.0
 40
1.0
 40
2.0
 40
2.0
 40
2.0
 40
3.0
 40
3.0
 40
3.0
 40
4.0
 40
4.0
 40
4.0
 40
5.0
 40
5.0
 40
5.0
 40
6.0
 40
6.0
 40
6.0
 40
7.0
 40
7.0
 40
7.0
 40
8.0
 40
8.0
 40
8.0
 40
9.0
 40
9.0
 40
9.0
 40
10.0
 40
10.0
 40
10.0
 40
11.0
 40
11.0
 40
11.0
 40
12.0
 40
12.0
 40
12.0
 40
13.0
 40
13.0
 40
13.0
 40
14.0
 40
14.0
 40
14.0
 40
15.0
 40
15.0
 40
15.0
 40
16.0
 40
16.0
 40
16.0
 40
16.0
 10
100.7618082430387
 20
-127.7940944776001
 30
0.0
 10
100.7618082430387
 20
-127.8778102978917
 30
0.0
 10
100.744927275161
 20
-127.9859862961285
 30
0.0
 10
100.6815375182324
 20
-128.0948513134624
 30
0.0
 10
100.5716389722529
 20
-128.2801974505688
 30
0.0
 10
100.4403808342649
 20
-128.302590571223
 30
0.0
 10
100.3325493455766
 20
-128.3229166345859
 30
0.0
 10
100.3325493455766
 20
-128.3229166345859
 30
0.0
 10
100.3325493455766
 20
-128.0855495556522
 30
0.0
 10
100.3325493455766
 20
-128.0855495556522
 30
0.0
 10
100.5313313550755
 20
-128.026982932403
 30
0.0
 10
100.5609591762487
 20
-127.8912461702841
 30
0.0
 10
100.5609591762487
 20
-127.7916829107604
 30
0.0
 10
100.5609591762487
 20
-127.6425102762491
 30
0.0
 10
100.4613959167249
 20
-127.4795572597968
 30
0.0
 10
100.2288519714706
 20
-127.4795572597968
 30
0.0
 10
99.9728813769165
 20
-127.4795572597968
 30
0.0
 10
99.90294593856594
 20
-127.6717935878737
 30
0.0
 10
99.90294593856594
 20
-127.8006401590221
 30
0.0
 10
99.90294593856594
 20
-127.834746604326
 30
0.0
 10
99.90294593856594
 20
-127.9859862961285
 30
0.0
 10
100.0321370192628
 20
-128.0810709315214
 30
0.0
 10
100.0321370192628
 20
-128.0810709315214
 30
0.0
 10
100.0131889940939
 20
-128.2688286354675
 30
0.0
 10
100.0131889940939
 20
-128.2688286354675
 30
0.0
 10
100.0131889940939
 20
-128.2688286354675
 30
0.0
 10
99.16672903336804
 20
-128.1399820643192
 30
0.0
 10
99.16672903336804
 20
-128.1399820643192
 30
0.0
 10
99.16672903336804
 20
-128.1399820643192
 30
0.0
 10
99.16672903336804
 20
-127.3079915046313
 30
0.0
 10
99.16672903336804
 20
-127.3079915046313
 30
0.0
 10
99.16672903336804
 20
-127.3079915046313
 30
0.0
 10
99.36137692828466
 20
-127.3079915046313
 30
0.0
 10
99.36137692828466
 20
-127.3079915046313
 30
0.0
 10
99.36137692828466
 20
-127.3079915046313
 30
0.0
 10
99.36137692828466
 20
-127.9656602327655
 30
0.0
 10
99.36137692828466
 20
-127.9656602327655
 30
0.0
 10
99.36137692828466
 20
-127.9656602327655
 30
0.0
 10
99.78443465387333
 20
-128.0359401806646
 30
0.0
 10
99.78443465387333
 20
-128.0359401806646
 30
0.0
 10
99.7506727181179
 20
-127.9704833664449
 30
0.0
 10
99.71036510094046
 20
-127.8822889220225
 30
0.0
 10
99.71036510094046
 20
-127.7555094081653
 30
0.0
 10
99.71036510094046
 20
-127.4843803934761
 30
0.0
 10
99.89674476669248
 20
-127.2311658753103
 30
0.0
 10
100.2099039463017
 20
-127.2311658753103
 30
0.0
 10
100.5271972404932
 20
-127.2311658753103
 30
0.0
 10
100.7618082430387
 20
-127.4706000115351
 30
0.0
 10
100.7618082430387
 20
-127.7940944776001
 30
0.0
  0
HATCH
  5
60
330
4F
100
AcDbEntity
  8
_U+30EC_U+30A4_U+30E4_U+30FC 1
 62
     7
420
 16777215
100
AcDbHatch
 10
0.0
 20
0.0
 30
0.0
210
0.0
220
0.0
230
1.0
  2
SOLID
 70
     1
 71
     0
 91
        1
 92
        1
 93
        1
 72
     4
 94
        3
 73
     0
 74
     1
 95
       53
 96
       49
 40
0.0
 40
0.0
 40
0.0
 40
0.0
 40
1.0
 40
1.0
 40
1.0
 40
2.0
 40
2.0
 40
2.0
 40
3.0
 40
3.0
 40
3.0
 40
4.0
 40
4.0
 40
4.0
 40
5.0
 40
5.0
 40
5.0
 40
6.0
 40
6.0
 40
6.0
 40
7.0
 40
7.0
 40
7.0
 40
8.0
 40
8.0
 40
8.0
 40
9.0
 40
9.0
 40
9.0
 40
10.0
 40
10.0
 40
10.0
 40
11.0
 40
11.0
 40
11.0
 40
12.0
 40
12.0
 40
12.0
 40
13.0
 40
13.0
 40
13.0
 40
14.0
 40
14.0
 40
14.0
 40
15.0
 40
15.0
 40
15.0
 40
16.0
 40
16.0
 40
16.0
 40
16.0
 10
100.7618082430387
 20
-127.7940944776001
 10
100.7618082430387
 20
-127.8778102978917
 10
100.744927275161
 20
-127.9859862961285
 10
100.6815375182324
 20
-128.0948513134624
 10
100.5716389722529
 20
-128.2801974505688
 10
100.4403808342649
 20
-128.302590571223
 10
100.3325493455766
 20
-128.3229166345859
 10
100.3325493455766
 20
-128.3229166345859
 10
100.3325493455766
 20
-128.0855495556522
 10
100.3325493455766
 20
-128.0855495556522
 10
100.5313313550755
 20
-128.026982932403
 10
100.5609591762487
 20
-127.8912461702841
 10
100.5609591762487
 20
-127.7916829107604
 10
100.5609591762487
 20
-127.6425102762491
 10
100.4613959167249
 20
-127.4795572597968
 10
100.2288519714706
 20
-127.4795572597968
 10
99.9728813769165
 20
-127.4795572597968
 10
99.90294593856594
 20
-127.6717935878737
 10
99.90294593856594
 20
-127.8006401590221
 10
99.90294593856594
 20
-127.834746604326
 10
99.90294593856594
 20
-127.9859862961285
 10
100.0321370192628
 20
-128.0810709315214
 10
100.0321370192628
 20
-128.0810709315214
 10
100.0131889940939
 20
-128.2688286354675
 10
100.0131889940939
 20
-128.2688286354675
 10
100.0131889940939
 20
-128.2688286354675
 10
99.16672903336804
 20
-128.1399820643192
 10
99.16672903336804
 20
-128.1399820643192
 10
99.16672903336804
 20
-128.1399820643192
 10
99.16672903336804
 20
-127.3079915046313
 10
99.16672903336804
 20
-127.3079915046313
 10
99.16672903336804
 20
-127.3079915046313
 10
99.36137692828466
 20
-127.3079915046313
 10
99.36137692828466
 20
-127.3079915046313
 10
99.36137692828466
 20
-127.3079915046313
 10
99.36137692828466
 20
-127.9656602327655
 10
99.36137692828466
 20
-127.9656602327655
 10
99.36137692828466
 20
-127.9656602327655
 10
99.78443465387333
 20
-128.0359401806646
 10
99.78443465387333
 20
-128.0359401806646
 10
99.7506727181179
 20
-127.9704833664449
 10
99.71036510094046
 20
-127.8822889220225
 10
99.71036510094046
 20
-127.7555094081653
 10
99.71036510094046
 20
-127.4843803934761
 10
99.89674476669248
 20
-127.2311658753103
 10
100.2099039463017
 20
-127.2311658753103
 10
100.5271972404932
 20
-127.2311658753103
 10
100.7618082430387
 20
-127.4706000115351
 10
100.7618082430387
 20
-127.7940944776001
 97
        0
 97
        0
 75
     2
 76
     1
 98
        0
  0
ENDBLK
  5
52
330
4F
100
AcDbEntity
  8
0
100
AcDbBlockEnd
  0
BLOCK
  5
6C
330
6A
100
AcDbEntity
  8
0
100
AcDbBlockBegin
  2
block 3
 70
     0
 10
0.0
 20
0.0
 30
0.0
  3
block 3
  1

  0
SPLINE
  5
6E
330
6A
100
AcDbEntity
  8
_U+30EC_U+30A4_U+30E4_U+30FC 1
370
     0
100
AcDbSpline
210
0.0
220
0.0
230
1.0
 70
    11
 71
     3
 72
    26
 73
    22
 74
     0
 42
0.0000000001
 43
0.0000000001
 12
1.0
 22
0.0
 32
0.0
 13
1.0
 23
0.0
 33
0.0
 40
0.0
 40
0.0
 40
0.0
 40
0.0
 40
1.0
 40
1.0
 40
1.0
 40
2.0
 40
2.0
 40
2.0
 40
3.0
 40
3.0
 40
3.0
 40
4.0
 40
4.0
 40
4.0
 40
5.0
 40
5.0
 40
5.0
 40
6.0
 40
6.0
 40
6.0
 40
7.0
 40
7.0
 40
7.0
 40
7.0
 10
100.7111653394055
 20
-137.5919460376506
 30
0.0
 10
100.7111653394055
 20
-137.5919460376506
 30
0.0
 10
99.60701223638297
 20
-137.5919460376506
 30
0.0
 10
99.60701223638297
 20
-137.5919460376506
 30
0.0
 10
99.60701223638297
 20
-137.5919460376506
 30
0.0
 10
99.60701223638297
 20
-137.9443793057917
 30
0.0
 10
99.60701223638297
 20
-137.9443793057917
 30
0.0
 10
99.60701223638297
 20
-137.9443793057917
 30
0.0
 10
99.45887313051723
 20
-137.9443793057917
 30
0.0
 10
99.45887313051723
 20
-137.9443793057917
 30
0.0
 10
99.44405921993065
 20
-137.5895344708109
 30
0.0
 10
99.28110620347834
 20
-137.5399250958233
 30
0.0
 10
99.16672903336804
 20
-137.5082302173591
 30
0.0
 10
99.16672903336804
 20
-137.5082302173591
 30
0.0
 10
99.16672903336804
 20
-137.3521673918772
 30
0.0
 10
99.16672903336804
 20
-137.3521673918772
 30
0.0
 10
99.16672903336804
 20
-137.3521673918772
 30
0.0
 10
100.7111653394055
 20
-137.3521673918772
 30
0.0
 10
100.7111653394055
 20
-137.3521673918772
 30
0.0
 10
100.7111653394055
 20
-137.3521673918772
 30
0.0
 10
100.7111653394055
 20
-137.5919460376506
 30
0.0
 10
100.7111653394055
 20
-137.5919460376506
 30
0.0
  0
HATCH
  5
6F
330
6A
100
AcDbEntity
  8
_U+30EC_U+30A4_U+30E4_U+30FC 1
 62
   179
420
  2234388
100
AcDbHatch
 10
0.0
 20
0.0
 30
0.0
210
0.0
220
0.0
230
1.0
  2
SOLID
 70
     1
 71
     0
 91
        1
 92
        1
 93
        1
 72
     4
 94
        3
 73
     0
 74
     1
 95
       26
 96
       22
 40
0.0
 40
0.0
 40
0.0
 40
0.0
 40
1.0
 40
1.0
 40
1.0
 40
2.0
 40
2.0
 40
2.0
 40
3.0
 40
3.0
 40
3.0
 40
4.0
 40
4.0
 40
4.0
 40
5.0
 40
5.0
 40
5.0
 40
6.0
 40
6.0
 40
6.0
 40
7.0
 40
7.0
 40
7.0
 40
7.0
 10
100.7111653394055
 20
-137.5919460376506
 10
100.7111653394055
 20
-137.5919460376506
 10
99.60701223638297
 20
-137.5919460376506
 10
99.60701223638297
 20
-137.5919460376506
 10
99.60701223638297
 20
-137.5919460376506
 10
99.60701223638297
 20
-137.9443793057917
 10
99.60701223638297
 20
-137.9443793057917
 10
99.60701223638297
 20
-137.9443793057917
 10
99.45887313051723
 20
-137.9443793057917
 10
99.45887313051723
 20
-137.9443793057917
 10
99.44405921993065
 20
-137.5895344708109
 10
99.28110620347834
 20
-137.5399250958233
 10
99.16672903336804
 20
-137.5082302173591
 10
99.16672903336804
 20
-137.5082302173591
 10
99.16672903336804
 20
-137.3521673918772
 10
99.16672903336804
 20
-137.3521673918772
 10
99.16672903336804
 20
-137.3521673918772
 10
100.7111653394055
 20
-137.3521673918772
 10
100.7111653394055
 20
-137.3521673918772
 10
100.7111653394055
 20
-137.3521673918772
 10
100.7111653394055
 20
-137.5919460376506
 10
100.7111653394055
 20
-137.5919460376506
 97
        0
 97
        0
 75
     2
 76
     1
 98
        0
  0
ENDBLK
  5
6D
330
6A
100
AcDbEntity
  8
0
100
AcDbBlockEnd
  0
BLOCK
  5
AA
330
A8
100
AcDbEntity
  8
0
100
AcDbBlockBegin
  2
block 4
 70
     0
 10
0.0
 20
0.0
 30
0.0
  3
block 4
  1

  0
SPLINE
  5
AC
330
A8
100
AcDbEntity
  8
_U+30EC_U+30A4_U+30E4_U+30FC 1
370
     0
100
AcDbSpline
210
0.0
220
0.0
230
1.0
 70
    11
 71
     3
 72
    26
 73
    22
 74
     0
 42
0.0000000001
 43
0.0000000001
 12
1.0
 22
0.0
 32
0.0
 13
1.0
 23
0.0
 33
0.0
 40
0.0
 40
0.0
 40
0.0
 40
0.0
 40
1.0
 40
1.0
 40
1.0
 40
2.0
 40
2.0
 40
2.0
 40
3.0
 40
3.0
 40
3.0
 40
4.0
 40
4.0
 40
4.0
 40
5.0
 40
5.0
 40
5.0
 40
6.0
 40
6.0
 40
6.0
 40
7.0
 40
7.0
 40
7.0
 40
7.0
 10
88.20512421840012
 20
-141.4773247259154
 30
0.0
 10
88.20512421840012
 20
-141.4773247259154
 30
0.0
 10
88.20512421840012
 20
-140.3731716228928
 30
0.0
 10
88.20512421840012
 20
-140.3731716228928
 30
0.0
 10
88.20512421840012
 20
-140.3731716228928
 30
0.0
 10
87.85269095025906
 20
-140.3731716228928
 30
0.0
 10
87.85269095025906
 20
-140.3731716228928
 30
0.0
 10
87.85269095025906
 20
-140.3731716228928
 30
0.0
 10
87.85269095025906
 20
-140.2250325170271
 30
0.0
 10
87.85269095025906
 20
-140.2250325170271
 30
0.0
 10
88.20753578523978
 20
-140.2102186064405
 30
0.0
 10
88.25714516022738
 20
-140.0472655899882
 30
0.0
 10
88.28884003869169
 20
-139.9328884198779
 30
0.0
 10
88.28884003869169
 20
-139.9328884198779
 30
0.0
 10
88.4449028641735
 20
-139.9328884198779
 30
0.0
 10
88.4449028641735
 20
-139.9328884198779
 30
0.0
 10
88.4449028641735
 20
-139.9328884198779
 30
0.0
 10
88.4449028641735
 20
-141.4773247259154
 30
0.0
 10
88.4449028641735
 20
-141.4773247259154
 30
0.0
 10
88.4449028641735
 20
-141.4773247259154
 30
0.0
 10
88.20512421840012
 20
-141.4773247259154
 30
0.0
 10
88.20512421840012
 20
-141.4773247259154
 30
0.0
  0
HATCH
  5
AD
330
A8
100
AcDbEntity
  8
_U+30EC_U+30A4_U+30E4_U+30FC 1
 62
   179
420
  2234388
100
AcDbHatch
 10
0.0
 20
0.0
 30
0.0
210
0.0
220
0.0
230
1.0
  2
SOLID
 70
     1
 71
     0
 91
        1
 92
        1
 93
        1
 72
     4
 94
        3
 73
     0
 74
     1
 95
       26
 96
       22
 40
0.0
 40
0.0
 40
0.0
 40
0.0
 40
1.0
 40
1.0
 40
1.0
 40
2.0
 40
2.0
 40
2.0
 40
3.0
 40
3.0
 40
3.0
 40
4.0
 40
4.0
 40
4.0
 40
5.0
 40
5.0
 40
5.0
 40
6.0
 40
6.0
 40
6.0
 40
7.0
 40
7.0
 40
7.0
 40
7.0
 10
88.20512421840012
 20
-141.4773247259154
 10
88.20512421840012
 20
-141.4773247259154
 10
88.20512421840012
 20
-140.3731716228928
 10
88.20512421840012
 20
-140.3731716228928
 10
88.20512421840012
 20
-140.3731716228928
 10
87.85269095025906
 20
-140.3731716228928
 10
87.85269095025906
 20
-140.3731716228928
 10
87.85269095025906
 20
-140.3731716228928
 10
87.85269095025906
 20
-140.2250325170271
 10
87.85269095025906
 20
-140.2250325170271
 10
88.20753578523978
 20
-140.2102186064405
 10
88.25714516022738
 20
-140.0472655899882
 10
88.28884003869169
 20
-139.9328884198779
 10
88.28884003869169
 20
-139.9328884198779
 10
88.4449028641735
 20
-139.9328884198779
 10
88.4449028641735
 20
-139.9328884198779
 10
88.4449028641735
 20
-139.9328884198779
 10
88.4449028641735
 20
-141.4773247259154
 10
88.4449028641735
 20
-141.4773247259154
 10
88.4449028641735
 20
-141.4773247259154
 10
88.20512421840012
 20
-141.4773247259154
 10
88.20512421840012
 20
-141.4773247259154
 97
        0
 97
        0
 75
     2
 76
     1
 98
        0
  0
SPLINE
  5
AE
330
A8
100
AcDbEntity
  8
_U+30EC_U+30A4_U+30E4_U+30FC 1
370
     0
100
AcDbSpline
210
0.0
220
0.0
230
1.0
 70
    11
 71
     3
 72
    29
 73
    25
 74
     0
 42
0.0000000001
 43
0.0000000001
 12
1.0
 22
0.0
 32
0.0
 13
1.0
 23
0.0
 33
0.0
 40
0.0
 40
0.0
 40
0.0
 40
0.0
 40
1.0
 40
1.0
 40
1.0
 40
2.0
 40
2.0
 40
2.0
 40
3.0
 40
3.0
 40
3.0
 40
4.0
 40
4.0
 40
4.0
 40
5.0
 40
5.0
 40
5.0
 40
6.0
 40
6.0
 40
6.0
 40
7.0
 40
7.0
 40
7.0
 40
8.0
 40
8.0
 40
8.0
 40
8.0
 10
89.5149495218921
 20
-141.5279676295486
 30
0.0
 10
89.23004012526194
 20
-141.5279676295486
 30
0.0
 10
88.95891111057277
 20
-141.3905083196871
 30
0.0
 10
88.95891111057277
 20
-141.0415201470313
 30
0.0
 10
88.95891111057277
 20
-140.7855495524772
 30
0.0
 10
89.11049531192377
 20
-140.6904649170843
 30
0.0
 10
89.22349444383997
 20
-140.6291422174469
 30
0.0
 10
89.0901692485608
 20
-140.5698865751006
 30
0.0
 10
89.00852048556037
 20
-140.4555094049903
 30
0.0
 10
89.00852048556037
 20
-140.2946234458291
 30
0.0
 10
89.00852048556037
 20
-140.0197048261062
 30
0.0
 10
89.22108287700028
 20
-139.8843125735359
 30
0.0
 10
89.5149495218921
 20
-139.8843125735359
 30
0.0
 10
89.81811792459409
 20
-139.8843125735359
 30
0.0
 10
90.02137855822383
 20
-140.0283175648193
 30
0.0
 10
90.02137855822383
 20
-140.2946234458291
 30
0.0
 10
90.02137855822383
 20
-140.4555094049903
 30
0.0
 10
89.93800724748078
 20
-140.5698865751006
 30
0.0
 10
89.80433754265309
 20
-140.6291422174469
 30
0.0
 10
89.89942217804598
 20
-140.6797851210801
 30
0.0
 10
90.06892087592027
 20
-140.774869756473
 30
0.0
 10
90.06892087592027
 20
-141.037386032449
 30
0.0
 10
90.06892087592027
 20
-141.4118679116957
 30
0.0
 10
89.77057560689764
 20
-141.5279676295486
 30
0.0
 10
89.5149495218921
 20
-141.5279676295486
 30
0.0
  0
SPLINE
  5
AF
330
A8
100
AcDbEntity
  8
_U+30EC_U+30A4_U+30E4_U+30FC 1
370
     0
100
AcDbSpline
210
0.0
220
0.0
230
1.0
 70
    11
 71
     3
 72
    17
 73
    13
 74
     0
 42
0.0000000001
 43
0.0000000001
 12
1.0
 22
0.0
 32
0.0
 13
1.0
 23
0.0
 33
0.0
 40
0.0
 40
0.0
 40
0.0
 40
0.0
 40
1.0
 40
1.0
 40
1.0
 40
2.0
 40
2.0
 40
2.0
 40
3.0
 40
3.0
 40
3.0
 40
4.0
 40
4.0
 40
4.0
 40
4.0
 10
89.5149495218921
 20
-140.7369737061352
 30
0.0
 10
89.36129826324996
 20
-140.7369737061352
 30
0.0
 10
89.19868975634617
 20
-140.8237901123635
 30
0.0
 10
89.19868975634617
 20
-141.0267062364447
 30
0.0
 10
89.19868975634617
 20
-141.2320339273656
 30
0.0
 10
89.33408200891648
 20
-141.3333197346319
 30
0.0
 10
89.5149495218921
 20
-141.3333197346319
 30
0.0
 10
89.71407604093955
 20
-141.3333197346319
 30
0.0
 10
89.83155379698655
 20
-141.2106743353571
 30
0.0
 10
89.83155379698655
 20
-141.0329074083182
 30
0.0
 10
89.83155379698655
 20
-140.8110432590681
 30
0.0
 10
89.65757647498144
 20
-140.7369737061352
 30
0.0
 10
89.5149495218921
 20
-140.7369737061352
 30
0.0
  0
SPLINE
  5
B0
330
A8
100
AcDbEntity
  8
_U+30EC_U+30A4_U+30E4_U+30FC 1
370
     0
100
AcDbSpline
210
0.0
220
0.0
230
1.0
 70
    11
 71
     3
 72
    17
 73
    13
 74
     0
 42
0.0000000001
 43
0.0000000001
 12
1.0
 22
0.0
 32
0.0
 13
1.0
 23
0.0
 33
0.0
 40
0.0
 40
0.0
 40
0.0
 40
0.0
 40
1.0
 40
1.0
 40
1.0
 40
2.0
 40
2.0
 40
2.0
 40
3.0
 40
3.0
 40
3.0
 40
4.0
 40
4.0
 40
4.0
 40
4.0
 10
89.5149495218921
 20
-140.0768934111613
 30
0.0
 10
89.33890514259583
 20
-140.0768934111613
 30
0.0
 10
89.24829913133377
 20
-140.1719780465542
 30
0.0
 10
89.24829913133377
 20
-140.3073702991246
 30
0.0
 10
89.24829913133377
 20
-140.4300156983994
 30
0.0
 10
89.32512476065483
 20
-140.548526983092
 30
0.0
 10
89.5149495218921
 20
-140.548526983092
 30
0.0
 10
89.7051187926779
 20
-140.548526983092
 30
0.0
 10
89.78194442199896
 20
-140.4300156983994
 30
0.0
 10
89.78194442199896
 20
-140.3073702991246
 30
0.0
 10
89.78194442199896
 20
-140.1719780465542
 30
0.0
 10
89.68927135344575
 20
-140.0768934111613
 30
0.0
 10
89.5149495218921
 20
-140.0768934111613
 30
0.0
  0
HATCH
  5
B1
330
A8
100
AcDbEntity
  8
_U+30EC_U+30A4_U+30E4_U+30FC 1
 62
   179
420
  2234388
100
AcDbHatch
 10
0.0
 20
0.0
 30
0.0
210
0.0
220
0.0
230
1.0
  2
SOLID
 70
     1
 71
     0
 91
        3
 92
        1
 93
        1
 72
     4
 94
        3
 73
     0
 74
     1
 95
       29
 96
       25
 40
0.0
 40
0.0
 40
0.0
 40
0.0
 40
1.0
 40
1.0
 40
1.0
 40
2.0
 40
2.0
 40
2.0
 40
3.0
 40
3.0
 40
3.0
 40
4.0
 40
4.0
 40
4.0
 40
5.0
 40
5.0
 40
5.0
 40
6.0
 40
6.0
 40
6.0
 40
7.0
 40
7.0
 40
7.0
 40
8.0
 40
8.0
 40
8.0
 40
8.0
 10
89.5149495218921
 20
-141.5279676295486
 10
89.23004012526194
 20
-141.5279676295486
 10
88.95891111057277
 20
-141.3905083196871
 10
88.95891111057277
 20
-141.0415201470313
 10
88.95891111057277
 20
-140.7855495524772
 10
89.11049531192377
 20
-140.6904649170843
 10
89.22349444383997
 20
-140.6291422174469
 10
89.0901692485608
 20
-140.5698865751006
 10
89.00852048556037
 20
-140.4555094049903
 10
89.00852048556037
 20
-140.2946234458291
 10
89.00852048556037
 20
-140.0197048261062
 10
89.22108287700028
 20
-139.8843125735359
 10
89.5149495218921
 20
-139.8843125735359
 10
89.81811792459409
 20
-139.8843125735359
 10
90.02137855822383
 20
-140.0283175648193
 10
90.02137855822383
 20
-140.2946234458291
 10
90.02137855822383
 20
-140.4555094049903
 10
89.93800724748078
 20
-140.5698865751006
 10
89.80433754265309
 20
-140.6291422174469
 10
89.89942217804598
 20
-140.6797851210801
 10
90.06892087592027
 20
-140.774869756473
 10
90.06892087592027
 20
-141.037386032449
 10
90.06892087592027
 20
-141.4118679116957
 10
89.77057560689764
 20
-141.5279676295486
 10
89.5149495218921
 20
-141.5279676295486
 97
        0
 97
        0
 92
        1
 93
        1
 72
     4
 94
        3
 73
     0
 74
     1
 95
       17
 96
       13
 40
0.0
 40
0.0
 40
0.0
 40
0.0
 40
1.0
 40
1.0
 40
1.0
 40
2.0
 40
2.0
 40
2.0
 40
3.0
 40
3.0
 40
3.0
 40
4.0
 40
4.0
 40
4.0
 40
4.0
 10
89.5149495218921
 20
-140.7369737061352
 10
89.36129826324996
 20
-140.7369737061352
 10
89.19868975634617
 20
-140.8237901123635
 10
89.19868975634617
 20
-141.0267062364447
 10
89.19868975634617
 20
-141.2320339273656
 10
89.33408200891648
 20
-141.3333197346319
 10
89.5149495218921
 20
-141.3333197346319
 10
89.71407604093955
 20
-141.3333197346319
 10
89.83155379698655
 20
-141.2106743353571
 10
89.83155379698655
 20
-141.0329074083182
 10
89.83155379698655
 20
-140.8110432590681
 10
89.65757647498144
 20
-140.7369737061352
 10
89.5149495218921
 20
-140.7369737061352
 97
        0
 97
        0
 92
        1
 93
        1
 72
     4
 94
        3
 73
     0
 74
     1
 95
       17
 96
       13
 40
0.0
 40
0.0
 40
0.0
 40
0.0
 40
1.0
 40
1.0
 40
1.0
 40
2.0
 40
2.0
 40
2.0
 40
3.0
 40
3.0
 40
3.0
 40
4.0
 40
4.0
 40
4.0
 40
4.0
 10
89.5149495218921
 20
-140.0768934111613
 10
89.33890514259583
 20
-140.0768934111613
 10
89.24829913133377
 20
-140.1719780465542
 10
89.24829913133377
 20
-140.3073702991246
 10
89.24829913133377
 20
-140.4300156983994
 10
89.32512476065483
 20
-140.548526983092
 10
89.5149495218921
 20
-140.548526983092
 10
89.7051187926779
 20
-140.548526983092
 10
89.78194442199896
 20
-140.4300156983994
 10
89.78194442199896
 20
-140.3073702991246
 10
89.78194442199896
 20
-140.1719780465542
 10
89.68927135344575
 20
-140.0768934111613
 10
89.5149495218921
 20
-140.0768934111613
 97
        0
 97
        0
 75
     2
 76
     1
 98
        0
  0
ENDBLK
  5
AB
330
A8
100
AcDbEntity
  8
0
100
AcDbBlockEnd
  0
BLOCK
  5
C0
330
BE
100
AcDbEntity
  8
0
100
AcDbBlockBegin
  2
block 5
 70
     0
 10
0.0
 20
0.0
 30
0.0
  3
block 5
  1

  0
SPLINE
  5
C2
330
BE
100
AcDbEntity
  8
_U+30EC_U+30A4_U+30E4_U+30FC 1
370
     0
100
AcDbSpline
210
0.0
220
0.0
230
1.0
 70
    11
 71
     3
 72
    29
 73
    25
 74
     0
 42
0.0000000001
 43
0.0000000001
 12
1.0
 22
0.0
 32
0.0
 13
1.0
 23
0.0
 33
0.0
 40
0.0
 40
0.0
 40
0.0
 40
0.0
 40
1.0
 40
1.0
 40
1.0
 40
2.0
 40
2.0
 40
2.0
 40
3.0
 40
3.0
 40
3.0
 40
4.0
 40
4.0
 40
4.0
 40
5.0
 40
5.0
 40
5.0
 40
6.0
 40
6.0
 40
6.0
 40
7.0
 40
7.0
 40
7.0
 40
8.0
 40
8.0
 40
8.0
 40
8.0
 10
83.92424856842867
 20
-115.8787149775407
 30
0.0
 10
83.6393391717985
 20
-115.8787149775407
 30
0.0
 10
83.36803790233508
 20
-115.741083412905
 30
0.0
 10
83.36803790233508
 20
-115.3920952402492
 30
0.0
 10
83.36803790233508
 20
-115.1361246456951
 30
0.0
 10
83.5194498489118
 20
-115.040867755528
 30
0.0
 10
83.63262123560227
 20
-114.9795450558905
 30
0.0
 10
83.49912378554883
 20
-114.9202894135442
 30
0.0
 10
83.41781953209694
 20
-114.8060844982082
 30
0.0
 10
83.41781953209694
 20
-114.6453707938213
 30
0.0
 10
83.41781953209694
 20
-114.3702799193241
 30
0.0
 10
83.63038192353686
 20
-114.2348876667538
 30
0.0
 10
83.92424856842867
 20
-114.2348876667538
 30
0.0
 10
84.22707246158213
 20
-114.2348876667538
 30
0.0
 10
84.43067760476039
 20
-114.378720403263
 30
0.0
 10
84.43067760476039
 20
-114.6453707938213
 30
0.0
 10
84.43067760476039
 20
-114.8060844982082
 30
0.0
 10
84.34696178446882
 20
-114.9202894135442
 30
0.0
 10
84.21363658918965
 20
-114.9795450558905
 30
0.0
 10
84.30854896980829
 20
-115.030360214298
 30
0.0
 10
84.47804766768257
 20
-115.1256171044651
 30
0.0
 10
84.47804766768257
 20
-115.3879611256669
 30
0.0
 10
84.47804766768257
 20
-115.7622707501393
 30
0.0
 10
84.17970239865994
 20
-115.8787149775407
 30
0.0
 10
83.92424856842867
 20
-115.8787149775407
 30
0.0
  0
SPLINE
  5
C3
330
BE
100
AcDbEntity
  8
_U+30EC_U+30A4_U+30E4_U+30FC 1
370
     0
100
AcDbSpline
210
0.0
220
0.0
230
1.0
 70
    11
 71
     3
 72
    17
 73
    13
 74
     0
 42
0.0000000001
 43
0.0000000001
 12
1.0
 22
0.0
 32
0.0
 13
1.0
 23
0.0
 33
0.0
 40
0.0
 40
0.0
 40
0.0
 40
0.0
 40
1.0
 40
1.0
 40
1.0
 40
2.0
 40
2.0
 40
2.0
 40
3.0
 40
3.0
 40
3.0
 40
4.0
 40
4.0
 40
4.0
 40
4.0
 10
83.92424856842867
 20
-115.0875487993531
 30
0.0
 10
83.77042505501225
 20
-115.0875487993531
 30
0.0
 10
83.6076442933342
 20
-115.1741929508072
 30
0.0
 10
83.6076442933342
 20
-115.3772813296626
 30
0.0
 10
83.6076442933342
 20
-115.5824367658093
 30
0.0
 10
83.74338105545304
 20
-115.6840670826241
 30
0.0
 10
83.92424856842867
 20
-115.6840670826241
 30
0.0
 10
84.12320283270184
 20
-115.6840670826241
 30
0.0
 10
84.24068058874886
 20
-115.5614216833492
 30
0.0
 10
84.24068058874886
 20
-115.3836547563103
 30
0.0
 10
84.24068058874886
 20
-115.1614460975117
 30
0.0
 10
84.06670326674374
 20
-115.0875487993531
 30
0.0
 10
83.92424856842867
 20
-115.0875487993531
 30
0.0
  0
SPLINE
  5
C4
330
BE
100
AcDbEntity
  8
_U+30EC_U+30A4_U+30E4_U+30FC 1
370
     0
100
AcDbSpline
210
0.0
220
0.0
230
1.0
 70
    11
 71
     3
 72
    17
 73
    13
 74
     0
 42
0.0000000001
 43
0.0000000001
 12
1.0
 22
0.0
 32
0.0
 13
1.0
 23
0.0
 33
0.0
 40
0.0
 40
0.0
 40
0.0
 40
0.0
 40
1.0
 40
1.0
 40
1.0
 40
2.0
 40
2.0
 40
2.0
 40
3.0
 40
3.0
 40
3.0
 40
4.0
 40
4.0
 40
4.0
 40
4.0
 10
83.92424856842867
 20
-114.4274685043792
 30
0.0
 10
83.74785967958387
 20
-114.4274685043792
 30
0.0
 10
83.65742592309607
 20
-114.5225531397721
 30
0.0
 10
83.65742592309607
 20
-114.6579453923425
 30
0.0
 10
83.65742592309607
 20
-114.7807630463916
 30
0.0
 10
83.73425155241713
 20
-114.8992743310842
 30
0.0
 10
83.92424856842867
 20
-114.8992743310842
 30
0.0
 10
84.11407332966593
 20
-114.8992743310842
 30
0.0
 10
84.190898958987
 20
-114.7807630463916
 30
0.0
 10
84.190898958987
 20
-114.6579453923425
 30
0.0
 10
84.190898958987
 20
-114.5225531397721
 30
0.0
 10
84.09822589043378
 20
-114.4274685043792
 30
0.0
 10
83.92424856842867
 20
-114.4274685043792
 30
0.0
  0
HATCH
  5
C5
330
BE
100
AcDbEntity
  8
_U+30EC_U+30A4_U+30E4_U+30FC 1
 62
   179
420
  2234388
100
AcDbHatch
 10
0.0
 20
0.0
 30
0.0
210
0.0
220
0.0
230
1.0
  2
SOLID
 70
     1
 71
     0
 91
        3
 92
        1
 93
        1
 72
     4
 94
        3
 73
     0
 74
     1
 95
       29
 96
       25
 40
0.0
 40
0.0
 40
0.0
 40
0.0
 40
1.0
 40
1.0
 40
1.0
 40
2.0
 40
2.0
 40
2.0
 40
3.0
 40
3.0
 40
3.0
 40
4.0
 40
4.0
 40
4.0
 40
5.0
 40
5.0
 40
5.0
 40
6.0
 40
6.0
 40
6.0
 40
7.0
 40
7.0
 40
7.0
 40
8.0
 40
8.0
 40
8.0
 40
8.0
 10
83.92424856842867
 20
-115.8787149775407
 10
83.6393391717985
 20
-115.8787149775407
 10
83.36803790233508
 20
-115.741083412905
 10
83.36803790233508
 20
-115.3920952402492
 10
83.36803790233508
 20
-115.1361246456951
 10
83.5194498489118
 20
-115.040867755528
 10
83.63262123560227
 20
-114.9795450558905
 10
83.49912378554883
 20
-114.9202894135442
 10
83.41781953209694
 20
-114.8060844982082
 10
83.41781953209694
 20
-114.6453707938213
 10
83.41781953209694
 20
-114.3702799193241
 10
83.63038192353686
 20
-114.2348876667538
 10
83.92424856842867
 20
-114.2348876667538
 10
84.22707246158213
 20
-114.2348876667538
 10
84.43067760476039
 20
-114.378720403263
 10
84.43067760476039
 20
-114.6453707938213
 10
84.43067760476039
 20
-114.8060844982082
 10
84.34696178446882
 20
-114.9202894135442
 10
84.21363658918965
 20
-114.9795450558905
 10
84.30854896980829
 20
-115.030360214298
 10
84.47804766768257
 20
-115.1256171044651
 10
84.47804766768257
 20
-115.3879611256669
 10
84.47804766768257
 20
-115.7622707501393
 10
84.17970239865994
 20
-115.8787149775407
 10
83.92424856842867
 20
-115.8787149775407
 97
        0
 97
        0
 92
        1
 93
        1
 72
     4
 94
        3
 73
     0
 74
     1
 95
       17
 96
       13
 40
0.0
 40
0.0
 40
0.0
 40
0.0
 40
1.0
 40
1.0
 40
1.0
 40
2.0
 40
2.0
 40
2.0
 40
3.0
 40
3.0
 40
3.0
 40
4.0
 40
4.0
 40
4.0
 40
4.0
 10
83.92424856842867
 20
-115.0875487993531
 10
83.77042505501225
 20
-115.0875487993531
 10
83.6076442933342
 20
-115.1741929508072
 10
83.6076442933342
 20
-115.3772813296626
 10
83.6076442933342
 20
-115.5824367658093
 10
83.74338105545304
 20
-115.6840670826241
 10
83.92424856842867
 20
-115.6840670826241
 10
84.12320283270184
 20
-115.6840670826241
 10
84.24068058874886
 20
-115.5614216833492
 10
84.24068058874886
 20
-115.3836547563103
 10
84.24068058874886
 20
-115.1614460975117
 10
84.06670326674374
 20
-115.0875487993531
 10
83.92424856842867
 20
-115.0875487993531
 97
        0
 97
        0
 92
        1
 93
        1
 72
     4
 94
        3
 73
     0
 74
     1
 95
       17
 96
       13
 40
0.0
 40
0.0
 40
0.0
 40
0.0
 40
1.0
 40
1.0
 40
1.0
 40
2.0
 40
2.0
 40
2.0
 40
3.0
 40
3.0
 40
3.0
 40
4.0
 40
4.0
 40
4.0
 40
4.0
 10
83.92424856842867
 20
-114.4274685043792
 10
83.74785967958387
 20
-114.4274685043792
 10
83.65742592309607
 20
-114.5225531397721
 10
83.65742592309607
 20
-114.6579453923425
 10
83.65742592309607
 20
-114.7807630463916
 10
83.73425155241713
 20
-114.8992743310842
 10
83.92424856842867
 20
-114.8992743310842
 10
84.11407332966593
 20
-114.8992743310842
 10
84.190898958987
 20
-114.7807630463916
 10
84.190898958987
 20
-114.6579453923425
 10
84.190898958987
 20
-114.5225531397721
 10
84.09822589043378
 20
-114.4274685043792
 10
83.92424856842867
 20
-114.4274685043792
 97
        0
 97
        0
 75
     2
 76
     1
 98
        0
  0
ENDBLK
  5
C1
330
BE
100
AcDbEntity
  8
0
100
AcDbBlockEnd
  0
BLOCK
  5
D1
330
CF
100
AcDbEntity
  8
0
100
AcDbBlockBegin
  2
block 6
 70
     0
 10
0.0
 20
0.0
 30
0.0
  3
block 6
  1

  0
SPLINE
  5
D3
330
CF
100
AcDbEntity
  8
_U+30EC_U+30A4_U+30E4_U+30FC 1
370
     0
100
AcDbSpline
210
0.0
220
0.0
230
1.0
 70
    11
 71
     3
 72
    26
 73
    22
 74
     0
 42
0.0000000001
 43
0.0000000001
 12
1.0
 22
0.0
 32
0.0
 13
1.0
 23
0.0
 33
0.0
 40
0.0
 40
0.0
 40
0.0
 40
0.0
 40
1.0
 40
1.0
 40
1.0
 40
2.0
 40
2.0
 40
2.0
 40
3.0
 40
3.0
 40
3.0
 40
4.0
 40
4.0
 40
4.0
 40
5.0
 40
5.0
 40
5.0
 40
6.0
 40
6.0
 40
6.0
 40
7.0
 40
7.0
 40
7.0
 40
7.0
 10
82.19773896599571
 20
-130.4320040906559
 30
0.0
 10
82.19773896599571
 20
-130.4320040906559
 30
0.0
 10
82.19773896599571
 20
-129.3275064780848
 30
0.0
 10
82.19773896599571
 20
-129.3275064780848
 30
0.0
 10
82.19773896599571
 20
-129.3275064780848
 30
0.0
 10
81.86769881850877
 20
-129.3275064780848
 30
0.0
 10
81.86769881850877
 20
-129.3275064780848
 30
0.0
 10
81.86769881850877
 20
-129.3275064780848
 30
0.0
 10
81.86769881850877
 20
-129.179367372219
 30
0.0
 10
81.86769881850877
 20
-129.179367372219
 30
0.0
 10
82.19980602328685
 20
-129.164897971181
 30
0.0
 10
82.24631481233773
 20
-129.0019449547287
 30
0.0
 10
82.27594263351088
 20
-128.8875677846184
 30
0.0
 10
82.27594263351088
 20
-128.8875677846184
 30
0.0
 10
82.42201468208548
 20
-128.8875677846184
 30
0.0
 10
82.42201468208548
 20
-128.8875677846184
 30
0.0
 10
82.42201468208548
 20
-128.8875677846184
 30
0.0
 10
82.42201468208548
 20
-130.4320040906559
 30
0.0
 10
82.42201468208548
 20
-130.4320040906559
 30
0.0
 10
82.42201468208548
 20
-130.4320040906559
 30
0.0
 10
82.19773896599571
 20
-130.4320040906559
 30
0.0
 10
82.19773896599571
 20
-130.4320040906559
 30
0.0
  0
HATCH
  5
D4
330
CF
100
AcDbEntity
  8
_U+30EC_U+30A4_U+30E4_U+30FC 1
 62
     7
420
 16777215
100
AcDbHatch
 10
0.0
 20
0.0
 30
0.0
210
0.0
220
0.0
230
1.0
  2
SOLID
 70
     1
 71
     0
 91
        1
 92
        1
 93
        1
 72
     4
 94
        3
 73
     0
 74
     1
 95
       26
 96
       22
 40
0.0
 40
0.0
 40
0.0
 40
0.0
 40
1.0
 40
1.0
 40
1.0
 40
2.0
 40
2.0
 40
2.0
 40
3.0
 40
3.0
 40
3.0
 40
4.0
 40
4.0
 40
4.0
 40
5.0
 40
5.0
 40
5.0
 40
6.0
 40
6.0
 40
6.0
 40
7.0
 40
7.0
 40
7.0
 40
7.0
 10
82.19773896599571
 20
-130.4320040906559
 10
82.19773896599571
 20
-130.4320040906559
 10
82.19773896599571
 20
-129.3275064780848
 10
82.19773896599571
 20
-129.3275064780848
 10
82.19773896599571
 20
-129.3275064780848
 10
81.86769881850877
 20
-129.3275064780848
 10
81.86769881850877
 20
-129.3275064780848
 10
81.86769881850877
 20
-129.3275064780848
 10
81.86769881850877
 20
-129.179367372219
 10
81.86769881850877
 20
-129.179367372219
 10
82.19980602328685
 20
-129.164897971181
 10
82.24631481233773
 20
-129.0019449547287
 10
82.27594263351088
 20
-128.8875677846184
 10
82.27594263351088
 20
-128.8875677846184
 10
82.42201468208548
 20
-128.8875677846184
 10
82.42201468208548
 20
-128.8875677846184
 10
82.42201468208548
 20
-128.8875677846184
 10
82.42201468208548
 20
-130.4320040906559
 10
82.42201468208548
 20
-130.4320040906559
 10
82.42201468208548
 20
-130.4320040906559
 10
82.19773896599571
 20
-130.4320040906559
 10
82.19773896599571
 20
-130.4320040906559
 97
        0
 97
        0
 75
     2
 76
     1
 98
        0
  0
ENDBLK
  5
D2
330
CF
100
AcDbEntity
  8
0
100
AcDbBlockEnd
  0
ENDSEC
  0
SECTION
  2
ENTITIES
  0
SPLINE
  5
41
330
1F
100
AcDbEntity
  8
_U+30EC_U+30A4_U+30E4_U+30FC 1
 62
     7
420
 16777215
370
     9
100
AcDbSpline
210
0.0
220
0.0
230
1.0
 70
    11
 71
     3
 72
    17
 73
    13
 74
     0
 42
0.0000000001
 43
0.0000000001
 12
1.0
 22
0.0
 32
0.0
 13
1.0
 23
0.0
 33
0.0
 40
0.0
 40
0.0
 40
0.0
 40
0.0
 40
1.0
 40
1.0
 40
1.0
 40
2.0
 40
2.0
 40
2.0
 40
3.0
 40
3.0
 40
3.0
 40
4.0
 40
4.0
 40
4.0
 40
4.0
 10
101.8594301791272
 20
-121.5739602473842
 30
0.0
 10
101.8594301791272
 20
-121.5188563585093
 30
0.0
 10
101.8146274024924
 20
-121.4740535807426
 30
0.0
 10
101.7594882372325
 20
-121.4740535807426
 30
0.0
 10
101.7043843497494
 20
-121.4740535807426
 30
0.0
 10
101.6592666412517
 20
-121.5188563585093
 30
0.0
 10
101.6592666412517
 20
-121.5739602473842
 30
0.0
 10
101.6592666412517
 20
-121.6290994140373
 30
0.0
 10
101.7043843497494
 20
-121.6738669140259
 30
0.0
 10
101.7594882372325
 20
-121.6738669140259
 30
0.0
 10
101.8146274024924
 20
-121.6738669140259
 30
0.0
 10
101.8594301791272
 20
-121.6290994140373
 30
0.0
 10
101.8594301791272
 20
-121.5739602473842
 30
0.0
  0
SPLINE
  5
42
330
1F
100
AcDbEntity
  8
_U+30EC_U+30A4_U+30E4_U+30FC 1
 62
     7
420
 16777215
370
     9
100
AcDbSpline
210
0.0
220
0.0
230
1.0
 70
    11
 71
     3
 72
    17
 73
    13
 74
     0
 42
0.0000000001
 43
0.0000000001
 12
1.0
 22
0.0
 32
0.0
 13
1.0
 23
0.0
 33
0.0
 40
0.0
 40
0.0
 40
0.0
 40
0.0
 40
1.0
 40
1.0
 40
1.0
 40
2.0
 40
2.0
 40
2.0
 40
3.0
 40
3.0
 40
3.0
 40
4.0
 40
4.0
 40
4.0
 40
4.0
 10
101.8594301791272
 20
-137.0741338546203
 30
0.0
 10
101.8594301791272
 20
-137.0190299657454
 30
0.0
 10
101.8146274024924
 20
-136.9742271879787
 30
0.0
 10
101.7594882372325
 20
-136.9742271879787
 30
0.0
 10
101.7043843497494
 20
-136.9742271879787
 30
0.0
 10
101.6592666412517
 20
-137.0190299657454
 30
0.0
 10
101.6592666412517
 20
-137.0741338546203
 30
0.0
 10
101.6592666412517
 20
-137.1292730212734
 30
0.0
 10
101.7043843497494
 20
-137.174040521262
 30
0.0
 10
101.7594882372325
 20
-137.174040521262
 30
0.0
 10
101.8146274024924
 20
-137.174040521262
 30
0.0
 10
101.8594301791272
 20
-137.1292730212734
 30
0.0
 10
101.8594301791272
 20
-137.0741338546203
 30
0.0
  0
POLYLINE
  5
43
330
1F
100
AcDbEntity
  8
_U+30EC_U+30A4_U+30E4_U+30FC 1
 62
     7
420
 16777215
370
     9
100
AcDb2dPolyline
 66
     1
 10
0.0
 20
0.0
 30
0.0
  0
VERTEX
  5
44
330
43
100
AcDbEntity
  8
_U+30EC_U+30A4_U+30E4_U+30FC 1
 62
     7
420
 16777215
370
     9
100
AcDbVertex
100
AcDb2dVertex
 10
101.7594882372325
 20
-121.5739602473842
 30
0.0
  0
VERTEX
  5
45
330
43
100
AcDbEntity
  8
_U+30EC_U+30A4_U+30E4_U+30FC 1
 62
     7
420
 16777215
370
     9
100
AcDbVertex
100
AcDb2dVertex
 10
101.7594882372325
 20
-137.0741338546203
 30
0.0
  0
SEQEND
  5
46
330
43
100
AcDbEntity
  8
_U+30EC_U+30A4_U+30E4_U+30FC 1
 62
     7
420
 16777215
370
     9
  0
POLYLINE
  5
47
330
1F
100
AcDbEntity
  8
_U+30EC_U+30A4_U+30E4_U+30FC 1
 62
     7
420
 16777215
370
     9
100
AcDb2dPolyline
 66
     1
 10
0.0
 20
0.0
 30
0.0
  0
VERTEX
  5
48
330
47
100
AcDbEntity
  8
_U+30EC_U+30A4_U+30E4_U+30FC 1
 62
     7
420
 16777215
370
     9
100
AcDbVertex
100
AcDb2dVertex
 10
100.7635260404194
 20
-121.5739602473842
 30
0.0
  0
VERTEX
  5
49
330
47
100
AcDbEntity
  8
_U+30EC_U+30A4_U+30E4_U+30FC 1
 62
     7
420
 16777215
370
     9
100
AcDbVertex
100
AcDb2dVertex
 10
102.7592604339484
 20
-121.5739602473842
 30
0.0
  0
SEQEND
  5
4A
330
47
100
AcDbEntity
  8
_U+30EC_U+30A4_U+30E4_U+30FC 1
 62
     7
420
 16777215
370
     9
  0
POLYLINE
  5
4B
330
1F
100
AcDbEntity
  8
_U+30EC_U+30A4_U+30E4_U+30FC 1
 62
     7
420
 16777215
370
     9
100
AcDb2dPolyline
 66
     1
 10
0.0
 20
0.0
 30
0.0
  0
VERTEX
  5
4C
330
4B
100
AcDbEntity
  8
_U+30EC_U+30A4_U+30E4_U+30FC 1
 62
     7
420
 16777215
370
     9
100
AcDbVertex
100
AcDb2dVertex
 10
100.7635260404194
 20
-137.0741338546203
 30
0.0
  0
VERTEX
  5
4D
330
4B
100
AcDbEntity
  8
_U+30EC_U+30A4_U+30E4_U+30FC 1
 62
     7
420
 16777215
370
     9
100
AcDbVertex
100
AcDb2dVertex
 10
102.7592604339484
 20
-137.0741338546203
 30
0.0
  0
SEQEND
  5
4E
330
4B
100
AcDbEntity
  8
_U+30EC_U+30A4_U+30E4_U+30FC 1
 62
     7
420
 16777215
370
     9
  0
INSERT
  5
50
330
1F
100
AcDbEntity
  8
_U+30EC_U+30A4_U+30E4_U+30FC 1
100
AcDbBlockReference
  2
block 2
 10
0.0
 20
0.0
 30
0.0
  0
SPLINE
  5
61
330
1F
100
AcDbEntity
  8
_U+30EC_U+30A4_U+30E4_U+30FC 1
 62
   179
420
  2234388
370
     9
100
AcDbSpline
210
0.0
220
0.0
230
1.0
 70
    11
 71
     3
 72
    17
 73
    13
 74
     0
 42
0.0000000001
 43
0.0000000001
 12
1.0
 22
0.0
 32
0.0
 13
1.0
 23
0.0
 33
0.0
 40
0.0
 40
0.0
 40
0.0
 40
0.0
 40
1.0
 40
1.0
 40
1.0
 40
2.0
 40
2.0
 40
2.0
 40
3.0
 40
3.0
 40
3.0
 40
4.0
 40
4.0
 40
4.0
 40
4.0
 10
101.8594301791272
 20
-138.0684027432607
 30
0.0
 10
101.8594301791272
 20
-138.0132988543858
 30
0.0
 10
101.8146274024924
 20
-137.968496076619
 30
0.0
 10
101.7594882372325
 20
-137.968496076619
 30
0.0
 10
101.7043843497494
 20
-137.968496076619
 30
0.0
 10
101.6592666412517
 20
-138.0132988543858
 30
0.0
 10
101.6592666412517
 20
-138.0684027432607
 30
0.0
 10
101.6592666412517
 20
-138.1235419099138
 30
0.0
 10
101.7043843497494
 20
-138.1683094099023
 30
0.0
 10
101.7594882372325
 20
-138.1683094099023
 30
0.0
 10
101.8146274024924
 20
-138.1683094099023
 30
0.0
 10
101.8594301791272
 20
-138.1235419099138
 30
0.0
 10
101.8594301791272
 20
-138.0684027432607
 30
0.0
  0
POLYLINE
  5
62
330
1F
100
AcDbEntity
  8
_U+30EC_U+30A4_U+30E4_U+30FC 1
 62
   179
420
  2234388
370
     9
100
AcDb2dPolyline
 66
     1
 10
0.0
 20
0.0
 30
0.0
  0
VERTEX
  5
63
330
62
100
AcDbEntity
  8
_U+30EC_U+30A4_U+30E4_U+30FC 1
 62
   179
420
  2234388
370
     9
100
AcDbVertex
100
AcDb2dVertex
 10
101.7594882372325
 20
-136.4209657992278
 30
0.0
  0
VERTEX
  5
64
330
62
100
AcDbEntity
  8
_U+30EC_U+30A4_U+30E4_U+30FC 1
 62
   179
420
  2234388
370
     9
100
AcDbVertex
100
AcDb2dVertex
 10
101.7594882372325
 20
-138.0684027432607
 30
0.0
  0
SEQEND
  5
65
330
62
100
AcDbEntity
  8
_U+30EC_U+30A4_U+30E4_U+30FC 1
 62
   179
420
  2234388
370
     9
  0
POLYLINE
  5
66
330
1F
100
AcDbEntity
  8
_U+30EC_U+30A4_U+30E4_U+30FC 1
 62
   179
420
  2234388
370
     9
100
AcDb2dPolyline
 66
     1
 10
0.0
 20
0.0
 30
0.0
  0
VERTEX
  5
67
330
66
100
AcDbEntity
  8
_U+30EC_U+30A4_U+30E4_U+30FC 1
 62
   179
420
  2234388
370
     9
100
AcDbVertex
100
AcDb2dVertex
 10
100.7635260404194
 20
-138.0684027432607
 30
0.0
  0
VERTEX
  5
68
330
66
100
AcDbEntity
  8
_U+30EC_U+30A4_U+30E4_U+30FC 1
 62
   179
420
  2234388
370
     9
100
AcDbVertex
100
AcDb2dVertex
 10
102.7592604339484
 20
-138.0684027432607
 30
0.0
  0
SEQEND
  5
69
330
66
100
AcDbEntity
  8
_U+30EC_U+30A4_U+30E4_U+30FC 1
 62
   179
420
  2234388
370
     9
  0
INSERT
  5
6B
330
1F
100
AcDbEntity
  8
_U+30EC_U+30A4_U+30E4_U+30FC 1
100
AcDbBlockReference
  2
block 3
 10
0.0
 20
0.0
 30
0.0
  0
SPLINE
  5
70
330
1F
100
AcDbEntity
  8
_U+30EC_U+30A4_U+30E4_U+30FC 1
 62
   253
420
 11711154
370
     9
100
AcDbSpline
210
0.0
220
0.0
230
1.0
 70
    11
 71
     3
 72
    56
 73
    52
 74
     0
 42
0.0000000001
 43
0.0000000001
 12
1.0
 22
0.0
 32
0.0
 13
1.0
 23
0.0
 33
0.0
 40
0.0
 40
0.0
 40
0.0
 40
0.0
 40
1.0
 40
1.0
 40
1.0
 40
2.0
 40
2.0
 40
2.0
 40
3.0
 40
3.0
 40
3.0
 40
4.0
 40
4.0
 40
4.0
 40
5.0
 40
5.0
 40
5.0
 40
6.0
 40
6.0
 40
6.0
 40
7.0
 40
7.0
 40
7.0
 40
8.0
 40
8.0
 40
8.0
 40
9.0
 40
9.0
 40
9.0
 40
10.0
 40
10.0
 40
10.0
 40
11.0
 40
11.0
 40
11.0
 40
12.0
 40
12.0
 40
12.0
 40
13.0
 40
13.0
 40
13.0
 40
14.0
 40
14.0
 40
14.0
 40
15.0
 40
15.0
 40
15.0
 40
16.0
 40
16.0
 40
16.0
 40
17.0
 40
17.0
 40
17.0
 40
17.0
 10
80.19443017629186
 20
-120.5900630254081
 30
0.0
 10
80.19443017629186
 20
-120.5900630254081
 30
0.0
 10
84.01638924545223
 20
-120.4429546921114
 30
0.0
 10
84.16318007504061
 20
-120.4429546921114
 30
0.0
 10
84.16318007504061
 20
-120.4429546921114
 30
0.0
 10
87.51456887842845
 20
-120.3251269143631
 30
0.0
 10
87.72055581761774
 20
-120.795732469801
 30
0.0
 10
87.72055581761774
 20
-120.795732469801
 30
0.0
 10
88.07333358639539
 20
-121.4427269140836
 30
0.0
 10
87.4856058236118
 20
-121.5602019140544
 30
0.0
 10
87.4856058236118
 20
-121.5602019140544
 30
0.0
 10
84.39880034680722
 20
-121.5602019140544
 30
0.0
 10
84.39880034680722
 20
-121.5602019140544
 30
0.0
 10
84.39880034680722
 20
-121.5602019140544
 30
0.0
 10
84.42776340162386
 20
-137.0527907990702
 30
0.0
 10
84.42776340162386
 20
-137.0527907990702
 30
0.0
 10
84.42776340162386
 20
-137.0527907990702
 30
0.0
 10
86.95643917044531
 20
-137.1117046879442
 30
0.0
 10
86.95643917044531
 20
-137.1117046879442
 30
0.0
 10
86.95643917044531
 20
-137.1117046879442
 30
0.0
 10
87.72055581761774
 20
-137.2588130212406
 30
0.0
 10
87.69095776281729
 20
-137.6408713544786
 30
0.0
 10
87.69095776281729
 20
-137.6408713544786
 30
0.0
 10
97.42180334789606
 20
-137.5230435767307
 30
0.0
 10
97.42180334789606
 20
-137.5230435767307
 30
0.0
 10
97.42180334789606
 20
-137.5230435767307
 30
0.0
 10
97.95097000106257
 20
-137.7287130211232
 30
0.0
 10
97.8923736136686
 20
-138.1404046876874
 30
0.0
 10
97.8923736136686
 20
-138.1404046876874
 30
0.0
 10
79.84165240751419
 20
-138.111124132139
 30
0.0
 10
79.84165240751419
 20
-138.111124132139
 30
0.0
 10
79.84165240751419
 20
-138.111124132139
 30
0.0
 10
80.16546712147522
 20
-137.3466546878859
 30
0.0
 10
80.16546712147522
 20
-137.3466546878859
 30
0.0
 10
80.16546712147522
 20
-137.3466546878859
 30
0.0
 10
80.54720794506953
 20
-137.1409852434927
 30
0.0
 10
80.54720794506953
 20
-137.1409852434927
 30
0.0
 10
80.54720794506953
 20
-137.1409852434927
 30
0.0
 10
81.2823615374253
 20
-137.0820713546187
 30
0.0
 10
81.2823615374253
 20
-137.0820713546187
 30
0.0
 10
81.2823615374253
 20
-137.0820713546187
 30
0.0
 10
83.39902815009131
 20
-137.0235102435218
 30
0.0
 10
83.39902815009131
 20
-137.0235102435218
 30
0.0
 10
83.39902815009131
 20
-137.0235102435218
 30
0.0
 10
83.36943009529087
 20
-121.5602019140544
 30
0.0
 10
83.36943009529087
 20
-121.5602019140544
 30
0.0
 10
83.36943009529087
 20
-121.5602019140544
 30
0.0
 10
80.40041711548113
 20
-121.5602019140544
 30
0.0
 10
80.40041711548113
 20
-121.5602019140544
 30
0.0
 10
80.40041711548113
 20
-121.5602019140544
 30
0.0
 10
79.40068019654211
 20
-121.1781435808164
 30
0.0
 10
80.19443017629186
 20
-120.5900630254081
 30
0.0
  0
HATCH
  5
71
330
1F
100
AcDbEntity
  8
_U+30EC_U+30A4_U+30E4_U+30FC 1
 62
   253
420
 11711154
100
AcDbHatch
 10
0.0
 20
0.0
 30
0.0
210
0.0
220
0.0
230
1.0
  2
SOLID
 70
     1
 71
     0
 91
        1
 92
        1
 93
        1
 72
     4
 94
        3
 73
     0
 74
     1
 95
       56
 96
       52
 40
0.0
 40
0.0
 40
0.0
 40
0.0
 40
1.0
 40
1.0
 40
1.0
 40
2.0
 40
2.0
 40
2.0
 40
3.0
 40
3.0
 40
3.0
 40
4.0
 40
4.0
 40
4.0
 40
5.0
 40
5.0
 40
5.0
 40
6.0
 40
6.0
 40
6.0
 40
7.0
 40
7.0
 40
7.0
 40
8.0
 40
8.0
 40
8.0
 40
9.0
 40
9.0
 40
9.0
 40
10.0
 40
10.0
 40
10.0
 40
11.0
 40
11.0
 40
11.0
 40
12.0
 40
12.0
 40
12.0
 40
13.0
 40
13.0
 40
13.0
 40
14.0
 40
14.0
 40
14.0
 40
15.0
 40
15.0
 40
15.0
 40
16.0
 40
16.0
 40
16.0
 40
17.0
 40
17.0
 40
17.0
 40
17.0
 10
80.19443017629186
 20
-120.5900630254081
 10
80.19443017629186
 20
-120.5900630254081
 10
84.01638924545223
 20
-120.4429546921114
 10
84.16318007504061
 20
-120.4429546921114
 10
84.16318007504061
 20
-120.4429546921114
 10
87.51456887842845
 20
-120.3251269143631
 10
87.72055581761774
 20
-120.795732469801
 10
87.72055581761774
 20
-120.795732469801
 10
88.07333358639539
 20
-121.4427269140836
 10
87.4856058236118
 20
-121.5602019140544
 10
87.4856058236118
 20
-121.5602019140544
 10
84.39880034680722
 20
-121.5602019140544
 10
84.39880034680722
 20
-121.5602019140544
 10
84.39880034680722
 20
-121.5602019140544
 10
84.42776340162386
 20
-137.0527907990702
 10
84.42776340162386
 20
-137.0527907990702
 10
84.42776340162386
 20
-137.0527907990702
 10
86.95643917044531
 20
-137.1117046879442
 10
86.95643917044531
 20
-137.1117046879442
 10
86.95643917044531
 20
-137.1117046879442
 10
87.72055581761774
 20
-137.2588130212406
 10
87.69095776281729
 20
-137.6408713544786
 10
87.69095776281729
 20
-137.6408713544786
 10
97.42180334789606
 20
-137.5230435767307
 10
97.42180334789606
 20
-137.5230435767307
 10
97.42180334789606
 20
-137.5230435767307
 10
97.95097000106257
 20
-137.7287130211232
 10
97.8923736136686
 20
-138.1404046876874
 10
97.8923736136686
 20
-138.1404046876874
 10
79.84165240751419
 20
-138.111124132139
 10
79.84165240751419
 20
-138.111124132139
 10
79.84165240751419
 20
-138.111124132139
 10
80.16546712147522
 20
-137.3466546878859
 10
80.16546712147522
 20
-137.3466546878859
 10
80.16546712147522
 20
-137.3466546878859
 10
80.54720794506953
 20
-137.1409852434927
 10
80.54720794506953
 20
-137.1409852434927
 10
80.54720794506953
 20
-137.1409852434927
 10
81.2823615374253
 20
-137.0820713546187
 10
81.2823615374253
 20
-137.0820713546187
 10
81.2823615374253
 20
-137.0820713546187
 10
83.39902815009131
 20
-137.0235102435218
 10
83.39902815009131
 20
-137.0235102435218
 10
83.39902815009131
 20
-137.0235102435218
 10
83.36943009529087
 20
-121.5602019140544
 10
83.36943009529087
 20
-121.5602019140544
 10
83.36943009529087
 20
-121.5602019140544
 10
80.40041711548113
 20
-121.5602019140544
 10
80.40041711548113
 20
-121.5602019140544
 10
80.40041711548113
 20
-121.5602019140544
 10
79.40068019654211
 20
-121.1781435808164
 10
80.19443017629186
 20
-120.5900630254081
 97
        0
 97
        0
 75
     2
 76
     1
 98
        0
  0
POLYLINE
  5
72
330
1F
100
AcDbEntity
  8
_U+30EC_U+30A4_U+30E4_U+30FC 1
 62
   179
420
  2234388
370
    25
100
AcDb2dPolyline
 66
     1
 10
0.0
 20
0.0
 30
0.0
  0
VERTEX
  5
73
330
72
100
AcDbEntity
  8
_U+30EC_U+30A4_U+30E4_U+30FC 1
 62
   179
420
  2234388
370
    25
100
AcDbVertex
100
AcDb2dVertex
 10
80.88136109089093
 20
-137.0741338546203
 30
0.0
  0
VERTEX
  5
74
330
72
100
AcDbEntity
  8
_U+30EC_U+30A4_U+30E4_U+30FC 1
 62
   179
420
  2234388
370
    25
100
AcDbVertex
100
AcDb2dVertex
 10
83.38181259497496
 20
-137.0741338546203
 30
0.0
  0
SEQEND
  5
75
330
72
100
AcDbEntity
  8
_U+30EC_U+30A4_U+30E4_U+30FC 1
 62
   179
420
  2234388
370
    25
  0
POLYLINE
  5
76
330
1F
100
AcDbEntity
  8
_U+30EC_U+30A4_U+30E4_U+30FC 1
 62
   179
420
  2234388
370
    25
100
AcDb2dPolyline
 66
     1
 10
0.0
 20
0.0
 30
0.0
  0
VERTEX
  5
77
330
76
100
AcDbEntity
  8
_U+30EC_U+30A4_U+30E4_U+30FC 1
 62
   179
420
  2234388
370
    25
100
AcDbVertex
100
AcDb2dVertex
 10
79.88158886891839
 20
-138.0739060765929
 30
0.0
  0
VERTEX
  5
78
330
76
100
AcDbEntity
  8
_U+30EC_U+30A4_U+30E4_U+30FC 1
 62
   179
420
  2234388
370
    25
100
AcDbVertex
100
AcDb2dVertex
 10
97.88136941997436
 20
-138.0739060765929
 30
0.0
  0
SEQEND
  5
79
330
76
100
AcDbEntity
  8
_U+30EC_U+30A4_U+30E4_U+30FC 1
 62
   179
420
  2234388
370
    25
  0
POLYLINE
  5
7A
330
1F
100
AcDbEntity
  8
_U+30EC_U+30A4_U+30E4_U+30FC 1
 62
   179
420
  2234388
370
    25
100
AcDb2dPolyline
 66
     1
 10
0.0
 20
0.0
 30
0.0
  0
VERTEX
  5
7B
330
7A
100
AcDbEntity
  8
_U+30EC_U+30A4_U+30E4_U+30FC 1
 62
   179
420
  2234388
370
    25
100
AcDbVertex
100
AcDb2dVertex
 10
87.74743748359859
 20
-137.5737024656067
 30
0.0
  0
VERTEX
  5
7C
330
7A
100
AcDbEntity
  8
_U+30EC_U+30A4_U+30E4_U+30FC 1
 62
   179
420
  2234388
370
    25
100
AcDbVertex
100
AcDb2dVertex
 10
97.38113053121002
 20
-137.5737024656067
 30
0.0
  0
SEQEND
  5
7D
330
7A
100
AcDbEntity
  8
_U+30EC_U+30A4_U+30E4_U+30FC 1
 62
   179
420
  2234388
370
    25
  0
POLYLINE
  5
7E
330
1F
100
AcDbEntity
  8
_U+30EC_U+30A4_U+30E4_U+30FC 1
 62
   179
420
  2234388
370
    25
100
AcDb2dPolyline
 66
     1
 10
0.0
 20
0.0
 30
0.0
  0
VERTEX
  5
7F
330
7E
100
AcDbEntity
  8
_U+30EC_U+30A4_U+30E4_U+30FC 1
 62
   179
420
  2234388
370
    25
100
AcDbVertex
100
AcDb2dVertex
 10
80.38182775768242
 20
-121.5736427473843
 30
0.0
  0
VERTEX
  5
80
330
7E
100
AcDbEntity
  8
_U+30EC_U+30A4_U+30E4_U+30FC 1
 62
   179
420
  2234388
370
    25
100
AcDbVertex
100
AcDb2dVertex
 10
83.38181259497496
 20
-121.5736427473843
 30
0.0
  0
SEQEND
  5
81
330
7E
100
AcDbEntity
  8
_U+30EC_U+30A4_U+30E4_U+30FC 1
 62
   179
420
  2234388
370
    25
  0
POLYLINE
  5
82
330
1F
100
AcDbEntity
  8
_U+30EC_U+30A4_U+30E4_U+30FC 1
 62
   179
420
  2234388
370
    25
100
AcDb2dPolyline
 66
     1
 10
0.0
 20
0.0
 30
0.0
  0
VERTEX
  5
83
330
82
100
AcDbEntity
  8
_U+30EC_U+30A4_U+30E4_U+30FC 1
 62
   179
420
  2234388
370
    25
100
AcDbVertex
100
AcDb2dVertex
 10
83.38181259497496
 20
-121.5736427473843
 30
0.0
  0
VERTEX
  5
84
330
82
100
AcDbEntity
  8
_U+30EC_U+30A4_U+30E4_U+30FC 1
 62
   179
420
  2234388
370
    25
100
AcDbVertex
100
AcDb2dVertex
 10
83.38181259497496
 20
-137.0741338546203
 30
0.0
  0
SEQEND
  5
85
330
82
100
AcDbEntity
  8
_U+30EC_U+30A4_U+30E4_U+30FC 1
 62
   179
420
  2234388
370
    25
  0
POLYLINE
  5
86
330
1F
100
AcDbEntity
  8
_U+30EC_U+30A4_U+30E4_U+30FC 1
 62
   179
420
  2234388
370
    25
100
AcDb2dPolyline
 66
     1
 10
0.0
 20
0.0
 30
0.0
  0
VERTEX
  5
87
330
86
100
AcDbEntity
  8
_U+30EC_U+30A4_U+30E4_U+30FC 1
 62
   179
420
  2234388
370
    25
100
AcDbVertex
100
AcDb2dVertex
 10
84.38158479169087
 20
-121.5736427473843
 30
0.0
  0
VERTEX
  5
88
330
86
100
AcDbEntity
  8
_U+30EC_U+30A4_U+30E4_U+30FC 1
 62
   179
420
  2234388
370
    25
100
AcDbVertex
100
AcDb2dVertex
 10
84.38158479169087
 20
-137.0741338546203
 30
0.0
  0
SEQEND
  5
89
330
86
100
AcDbEntity
  8
_U+30EC_U+30A4_U+30E4_U+30FC 1
 62
   179
420
  2234388
370
    25
  0
POLYLINE
  5
8A
330
1F
100
AcDbEntity
  8
_U+30EC_U+30A4_U+30E4_U+30FC 1
 62
   179
420
  2234388
370
    25
100
AcDb2dPolyline
 66
     1
 10
0.0
 20
0.0
 30
0.0
  0
VERTEX
  5
8B
330
8A
100
AcDbEntity
  8
_U+30EC_U+30A4_U+30E4_U+30FC 1
 62
   179
420
  2234388
370
    25
100
AcDbVertex
100
AcDb2dVertex
 10
84.38158479169087
 20
-121.5736427473843
 30
0.0
  0
VERTEX
  5
8C
330
8A
100
AcDbEntity
  8
_U+30EC_U+30A4_U+30E4_U+30FC 1
 62
   179
420
  2234388
370
    25
100
AcDbVertex
100
AcDb2dVertex
 10
87.38157165959927
 20
-121.5736427473843
 30
0.0
  0
SEQEND
  5
8D
330
8A
100
AcDbEntity
  8
_U+30EC_U+30A4_U+30E4_U+30FC 1
 62
   179
420
  2234388
370
    25
  0
POLYLINE
  5
8E
330
1F
100
AcDbEntity
  8
_U+30EC_U+30A4_U+30E4_U+30FC 1
 62
   179
420
  2234388
370
    25
100
AcDb2dPolyline
 66
     1
 10
0.0
 20
0.0
 30
0.0
  0
VERTEX
  5
8F
330
8E
100
AcDbEntity
  8
_U+30EC_U+30A4_U+30E4_U+30FC 1
 62
   179
420
  2234388
370
    25
100
AcDbVertex
100
AcDb2dVertex
 10
84.38158479169087
 20
-137.0741338546203
 30
0.0
  0
VERTEX
  5
90
330
8E
100
AcDbEntity
  8
_U+30EC_U+30A4_U+30E4_U+30FC 1
 62
   179
420
  2234388
370
    25
100
AcDbVertex
100
AcDb2dVertex
 10
86.88133278347254
 20
-137.0741338546203
 30
0.0
  0
SEQEND
  5
91
330
8E
100
AcDbEntity
  8
_U+30EC_U+30A4_U+30E4_U+30FC 1
 62
   179
420
  2234388
370
    25
  0
SPLINE
  5
92
330
1F
100
AcDbEntity
  8
_U+30EC_U+30A4_U+30E4_U+30FC 1
 62
   179
420
  2234388
370
    25
100
AcDbSpline
210
0.0
220
0.0
230
1.0
 70
     8
 71
     3
 72
     8
 73
     4
 74
     0
 42
0.0000000001
 43
0.0000000001
 12
1.0
 22
0.0
 32
0.0
 13
1.0
 23
0.0
 33
0.0
 40
0.0
 40
0.0
 40
0.0
 40
0.0
 40
1.0
 40
1.0
 40
1.0
 40
1.0
 10
97.88136941997436
 20
-138.0739060765929
 30
0.0
 10
97.88136941997436
 20
-137.7976105211064
 30
0.0
 10
97.65742361966267
 20
-137.5737024656067
 30
0.0
 10
97.38113053121002
 20
-137.5737024656067
 30
0.0
  0
SPLINE
  5
93
330
1F
100
AcDbEntity
  8
_U+30EC_U+30A4_U+30E4_U+30FC 1
 62
   179
420
  2234388
370
     9
100
AcDbSpline
210
0.0
220
0.0
230
1.0
 70
    11
 71
     3
 72
    17
 73
    13
 74
     0
 42
0.0000000001
 43
0.0000000001
 12
1.0
 22
0.0
 32
0.0
 13
1.0
 23
0.0
 33
0.0
 40
0.0
 40
0.0
 40
0.0
 40
0.0
 40
1.0
 40
1.0
 40
1.0
 40
2.0
 40
2.0
 40
2.0
 40
3.0
 40
3.0
 40
3.0
 40
4.0
 40
4.0
 40
4.0
 40
4.0
 10
79.98149351505766
 20
-142.0743707978146
 30
0.0
 10
79.98149351505766
 20
-142.0185613533842
 30
0.0
 10
79.93672601619977
 20
-141.9737585756175
 30
0.0
 10
79.88158886891839
 20
-141.9737585756175
 30
0.0
 10
79.82648296345675
 20
-141.9737585756175
 30
0.0
 10
79.78168018682199
 20
-142.0185613533842
 30
0.0
 10
79.78168018682199
 20
-142.0743707978146
 30
0.0
 10
79.78168018682199
 20
-142.1294746866895
 30
0.0
 10
79.82648296345675
 20
-142.1742774644563
 30
0.0
 10
79.88158886891839
 20
-142.1742774644563
 30
0.0
 10
79.93672601619977
 20
-142.1742774644563
 30
0.0
 10
79.98149351505766
 20
-142.1294746866895
 30
0.0
 10
79.98149351505766
 20
-142.0743707978146
 30
0.0
  0
SPLINE
  5
94
330
1F
100
AcDbEntity
  8
_U+30EC_U+30A4_U+30E4_U+30FC 1
 62
   179
420
  2234388
370
     9
100
AcDbSpline
210
0.0
220
0.0
230
1.0
 70
    11
 71
     3
 72
    17
 73
    13
 74
     0
 42
0.0000000001
 43
0.0000000001
 12
1.0
 22
0.0
 32
0.0
 13
1.0
 23
0.0
 33
0.0
 40
0.0
 40
0.0
 40
0.0
 40
0.0
 40
1.0
 40
1.0
 40
1.0
 40
2.0
 40
2.0
 40
2.0
 40
3.0
 40
3.0
 40
3.0
 40
4.0
 40
4.0
 40
4.0
 40
4.0
 10
97.98127361140057
 20
-142.0743707978146
 30
0.0
 10
97.98127361140057
 20
-142.0185613533842
 30
0.0
 10
97.9364708347658
 20
-141.9737585756175
 30
0.0
 10
97.88136941997436
 20
-141.9737585756175
 30
0.0
 10
97.82622778202278
 20
-141.9737585756175
 30
0.0
 10
97.7814602831649
 20
-142.0185613533842
 30
0.0
 10
97.7814602831649
 20
-142.0743707978146
 30
0.0
 10
97.7814602831649
 20
-142.1294746866895
 30
0.0
 10
97.82622778202278
 20
-142.1742774644563
 30
0.0
 10
97.88136941997436
 20
-142.1742774644563
 30
0.0
 10
97.9364708347658
 20
-142.1742774644563
 30
0.0
 10
97.98127361140057
 20
-142.1294746866895
 30
0.0
 10
97.98127361140057
 20
-142.0743707978146
 30
0.0
  0
SPLINE
  5
95
330
1F
100
AcDbEntity
  8
_U+30EC_U+30A4_U+30E4_U+30FC 1
 62
   179
420
  2234388
370
    25
100
AcDbSpline
210
0.0
220
0.0
230
1.0
 70
     8
 71
     3
 72
     8
 73
     4
 74
     0
 42
0.0000000001
 43
0.0000000001
 12
1.0
 22
0.0
 32
0.0
 13
1.0
 23
0.0
 33
0.0
 40
0.0
 40
0.0
 40
0.0
 40
0.0
 40
1.0
 40
1.0
 40
1.0
 40
1.0
 10
87.74743748359859
 20
-137.5737024656067
 30
0.0
 10
87.56900248815084
 20
-137.2643163545728
 30
0.0
 10
87.23894360768246
 20
-137.0741338546203
 30
0.0
 10
86.88133278347254
 20
-137.0741338546203
 30
0.0
  0
SPLINE
  5
96
330
1F
100
AcDbEntity
  8
_U+30EC_U+30A4_U+30E4_U+30FC 1
 62
   179
420
  2234388
370
    25
100
AcDbSpline
210
0.0
220
0.0
230
1.0
 70
     8
 71
     3
 72
    11
 73
     7
 74
     0
 42
0.0000000001
 43
0.0000000001
 12
1.0
 22
0.0
 32
0.0
 13
1.0
 23
0.0
 33
0.0
 40
0.0
 40
0.0
 40
0.0
 40
0.0
 40
1.0
 40
1.0
 40
1.0
 40
2.0
 40
2.0
 40
2.0
 40
2.0
 10
87.38157165959927
 20
-121.5736427473843
 30
0.0
 10
87.65786942253007
 20
-121.5736427473843
 30
0.0
 10
87.88110498018845
 20
-121.3500521918848
 30
0.0
 10
87.88110498018845
 20
-121.0740741363983
 30
0.0
 10
87.88110498018845
 20
-120.8146766364631
 30
0.0
 10
87.68266748525102
 20
-120.598318025406
 30
0.0
 10
87.42429304739825
 20
-120.5759166365227
 30
0.0
  0
SPLINE
  5
97
330
1F
100
AcDbEntity
  8
_U+30EC_U+30A4_U+30E4_U+30FC 1
 62
   179
420
  2234388
370
    25
100
AcDbSpline
210
0.0
220
0.0
230
1.0
 70
     8
 71
     3
 72
    11
 73
     7
 74
     0
 42
0.0000000001
 43
0.0000000001
 12
1.0
 22
0.0
 32
0.0
 13
1.0
 23
0.0
 33
0.0
 40
0.0
 40
0.0
 40
0.0
 40
0.0
 40
1.0
 40
1.0
 40
1.0
 40
2.0
 40
2.0
 40
2.0
 40
2.0
 10
80.33843609102642
 20
-120.5759166365227
 30
0.0
 10
80.06351434629846
 20
-120.5996938587389
 30
0.0
 10
79.85953824039122
 20
-120.8418758031227
 30
0.0
 10
79.88296268423805
 20
-121.1171483030541
 30
0.0
 10
79.90571685032421
 20
-121.3755227474339
 30
0.0
 10
80.12207545591556
 20
-121.5736427473843
 30
0.0
 10
80.38182775768242
 20
-121.5736427473843
 30
0.0
  0
SPLINE
  5
98
330
1F
100
AcDbEntity
  8
_U+30EC_U+30A4_U+30E4_U+30FC 1
 62
   179
420
  2234388
370
    25
100
AcDbSpline
210
0.0
220
0.0
230
1.0
 70
     8
 71
     3
 72
     8
 73
     4
 74
     0
 42
0.0000000001
 43
0.0000000001
 12
1.0
 22
0.0
 32
0.0
 13
1.0
 23
0.0
 33
0.0
 40
0.0
 40
0.0
 40
0.0
 40
0.0
 40
1.0
 40
1.0
 40
1.0
 40
1.0
 10
80.88136109089093
 20
-137.0741338546203
 30
0.0
 10
80.32947350617995
 20
-137.0741338546203
 30
0.0
 10
79.88158886891839
 20
-137.5220205211749
 30
0.0
 10
79.88158886891839
 20
-138.0739060765929
 30
0.0
  0
SPLINE
  5
99
330
1F
100
AcDbEntity
  8
_U+30EC_U+30A4_U+30E4_U+30FC 1
 62
   179
420
  2234388
370
     9
100
AcDbSpline
210
0.0
220
0.0
230
1.0
 70
    11
 71
     3
 72
    17
 73
    13
 74
     0
 42
0.0000000001
 43
0.0000000001
 12
1.0
 22
0.0
 32
0.0
 13
1.0
 23
0.0
 33
0.0
 40
0.0
 40
0.0
 40
0.0
 40
0.0
 40
1.0
 40
1.0
 40
1.0
 40
2.0
 40
2.0
 40
2.0
 40
3.0
 40
3.0
 40
3.0
 40
4.0
 40
4.0
 40
4.0
 40
4.0
 10
87.98171942244899
 20
-116.4242513597828
 30
0.0
 10
87.98171942244899
 20
-116.36911219313
 30
0.0
 10
87.9369166446826
 20
-116.3243446931411
 30
0.0
 10
87.88110498018845
 20
-116.3243446931411
 30
0.0
 10
87.82600109270538
 20
-116.3243446931411
 30
0.0
 10
87.78119831607061
 20
-116.36911219313
 30
0.0
 10
87.78119831607061
 20
-116.4242513597828
 30
0.0
 10
87.78119831607061
 20
-116.479355248658
 30
0.0
 10
87.82600109270538
 20
-116.5241580264244
 30
0.0
 10
87.88110498018845
 20
-116.5241580264244
 30
0.0
 10
87.9369166446826
 20
-116.5241580264244
 30
0.0
 10
87.98171942244899
 20
-116.479355248658
 30
0.0
 10
87.98171942244899
 20
-116.4242513597828
 30
0.0
  0
SPLINE
  5
9A
330
1F
100
AcDbEntity
  8
_U+30EC_U+30A4_U+30E4_U+30FC 1
 62
   179
420
  2234388
370
     9
100
AcDbSpline
210
0.0
220
0.0
230
1.0
 70
    11
 71
     3
 72
    17
 73
    13
 74
     0
 42
0.0000000001
 43
0.0000000001
 12
1.0
 22
0.0
 32
0.0
 13
1.0
 23
0.0
 33
0.0
 40
0.0
 40
0.0
 40
0.0
 40
0.0
 40
1.0
 40
1.0
 40
1.0
 40
2.0
 40
2.0
 40
2.0
 40
3.0
 40
3.0
 40
3.0
 40
4.0
 40
4.0
 40
4.0
 40
4.0
 10
79.98149351505766
 20
-116.4242513597828
 30
0.0
 10
79.98149351505766
 20
-116.36911219313
 30
0.0
 10
79.93672601619977
 20
-116.3243446931411
 30
0.0
 10
79.88158886891839
 20
-116.3243446931411
 30
0.0
 10
79.82648296345675
 20
-116.3243446931411
 30
0.0
 10
79.78168018682199
 20
-116.36911219313
 30
0.0
 10
79.78168018682199
 20
-116.4242513597828
 30
0.0
 10
79.78168018682199
 20
-116.479355248658
 30
0.0
 10
79.82648296345675
 20
-116.5241580264244
 30
0.0
 10
79.88158886891839
 20
-116.5241580264244
 30
0.0
 10
79.93672601619977
 20
-116.5241580264244
 30
0.0
 10
79.98149351505766
 20
-116.479355248658
 30
0.0
 10
79.98149351505766
 20
-116.4242513597828
 30
0.0
  0
SPLINE
  5
9B
330
1F
100
AcDbEntity
  8
_U+30EC_U+30A4_U+30E4_U+30FC 1
 62
   179
420
  2234388
370
    25
100
AcDbSpline
210
0.0
220
0.0
230
1.0
 70
     8
 71
     3
 72
     8
 73
     4
 74
     0
 42
0.0000000001
 43
0.0000000001
 12
1.0
 22
0.0
 32
0.0
 13
1.0
 23
0.0
 33
0.0
 40
0.0
 40
0.0
 40
0.0
 40
0.0
 40
1.0
 40
1.0
 40
1.0
 40
1.0
 10
87.42429304739825
 20
-120.5759166365227
 30
0.0
 10
85.06646755199583
 20
-120.3737044143511
 30
0.0
 10
82.69625955690933
 20
-120.3737044143511
 30
0.0
 10
80.33843609102642
 20
-120.5759166365227
 30
0.0
  0
POLYLINE
  5
9C
330
1F
100
AcDbEntity
  8
_U+30EC_U+30A4_U+30E4_U+30FC 1
 62
   179
420
  2234388
370
     9
100
AcDb2dPolyline
 66
     1
 10
0.0
 20
0.0
 30
0.0
  0
VERTEX
  5
9D
330
9C
100
AcDbEntity
  8
_U+30EC_U+30A4_U+30E4_U+30FC 1
 62
   179
420
  2234388
370
     9
100
AcDbVertex
100
AcDb2dVertex
 10
79.88158886891839
 20
-142.0743707978146
 30
0.0
  0
VERTEX
  5
9E
330
9C
100
AcDbEntity
  8
_U+30EC_U+30A4_U+30E4_U+30FC 1
 62
   179
420
  2234388
370
     9
100
AcDbVertex
100
AcDb2dVertex
 10
97.88136941997436
 20
-142.0743707978146
 30
0.0
  0
SEQEND
  5
9F
330
9C
100
AcDbEntity
  8
_U+30EC_U+30A4_U+30E4_U+30FC 1
 62
   179
420
  2234388
370
     9
  0
POLYLINE
  5
A0
330
1F
100
AcDbEntity
  8
_U+30EC_U+30A4_U+30E4_U+30FC 1
 62
   179
420
  2234388
370
     9
100
AcDb2dPolyline
 66
     1
 10
0.0
 20
0.0
 30
0.0
  0
VERTEX
  5
A1
330
A0
100
AcDbEntity
  8
_U+30EC_U+30A4_U+30E4_U+30FC 1
 62
   179
420
  2234388
370
     9
100
AcDbVertex
100
AcDb2dVertex
 10
79.88158886891839
 20
-139.8137002428243
 30
0.0
  0
VERTEX
  5
A2
330
A0
100
AcDbEntity
  8
_U+30EC_U+30A4_U+30E4_U+30FC 1
 62
   179
420
  2234388
370
     9
100
AcDbVertex
100
AcDb2dVertex
 10
79.88158886891839
 20
-143.0741430197872
 30
0.0
  0
SEQEND
  5
A3
330
A0
100
AcDbEntity
  8
_U+30EC_U+30A4_U+30E4_U+30FC 1
 62
   179
420
  2234388
370
     9
  0
POLYLINE
  5
A4
330
1F
100
AcDbEntity
  8
_U+30EC_U+30A4_U+30E4_U+30FC 1
 62
   179
420
  2234388
370
     9
100
AcDb2dPolyline
 66
     1
 10
0.0
 20
0.0
 30
0.0
  0
VERTEX
  5
A5
330
A4
100
AcDbEntity
  8
_U+30EC_U+30A4_U+30E4_U+30FC 1
 62
   179
420
  2234388
370
     9
100
AcDbVertex
100
AcDb2dVertex
 10
97.88136941997436
 20
-140.6143294092909
 30
0.0
  0
VERTEX
  5
A6
330
A4
100
AcDbEntity
  8
_U+30EC_U+30A4_U+30E4_U+30FC 1
 62
   179
420
  2234388
370
     9
100
AcDbVertex
100
AcDb2dVertex
 10
97.88136941997436
 20
-143.0741430197872
 30
0.0
  0
SEQEND
  5
A7
330
A4
100
AcDbEntity
  8
_U+30EC_U+30A4_U+30E4_U+30FC 1
 62
   179
420
  2234388
370
     9
  0
INSERT
  5
A9
330
1F
100
AcDbEntity
  8
_U+30EC_U+30A4_U+30E4_U+30FC 1
100
AcDbBlockReference
  2
block 4
 10
0.0
 20
0.0
 30
0.0
  0
POLYLINE
  5
B2
330
1F
100
AcDbEntity
  8
_U+30EC_U+30A4_U+30E4_U+30FC 1
 62
   179
420
  2234388
370
     9
100
AcDb2dPolyline
 66
     1
 10
0.0
 20
0.0
 30
0.0
  0
VERTEX
  5
B3
330
B2
100
AcDbEntity
  8
_U+30EC_U+30A4_U+30E4_U+30FC 1
 62
   179
420
  2234388
370
     9
100
AcDbVertex
100
AcDb2dVertex
 10
79.88158886891839
 20
-116.4242513597828
 30
0.0
  0
VERTEX
  5
B4
330
B2
100
AcDbEntity
  8
_U+30EC_U+30A4_U+30E4_U+30FC 1
 62
   179
420
  2234388
370
     9
100
AcDbVertex
100
AcDb2dVertex
 10
87.88110498018845
 20
-116.4242513597828
 30
0.0
  0
SEQEND
  5
B5
330
B2
100
AcDbEntity
  8
_U+30EC_U+30A4_U+30E4_U+30FC 1
 62
   179
420
  2234388
370
     9
  0
POLYLINE
  5
B6
330
1F
100
AcDbEntity
  8
_U+30EC_U+30A4_U+30E4_U+30FC 1
 62
   179
420
  2234388
370
     9
100
AcDb2dPolyline
 66
     1
 10
0.0
 20
0.0
 30
0.0
  0
VERTEX
  5
B7
330
B6
100
AcDbEntity
  8
_U+30EC_U+30A4_U+30E4_U+30FC 1
 62
   179
420
  2234388
370
     9
100
AcDbVertex
100
AcDb2dVertex
 10
79.88158886891839
 20
-118.5843096925763
 30
0.0
  0
VERTEX
  5
B8
330
B6
100
AcDbEntity
  8
_U+30EC_U+30A4_U+30E4_U+30FC 1
 62
   179
420
  2234388
370
     9
100
AcDbVertex
100
AcDb2dVertex
 10
79.88158886891839
 20
-115.4241263600328
 30
0.0
  0
SEQEND
  5
B9
330
B6
100
AcDbEntity
  8
_U+30EC_U+30A4_U+30E4_U+30FC 1
 62
   179
420
  2234388
370
     9
  0
POLYLINE
  5
BA
330
1F
100
AcDbEntity
  8
_U+30EC_U+30A4_U+30E4_U+30FC 1
 62
   179
420
  2234388
370
     9
100
AcDb2dPolyline
 66
     1
 10
0.0
 20
0.0
 30
0.0
  0
VERTEX
  5
BB
330
BA
100
AcDbEntity
  8
_U+30EC_U+30A4_U+30E4_U+30FC 1
 62
   179
420
  2234388
370
     9
100
AcDbVertex
100
AcDb2dVertex
 10
87.88110498018845
 20
-118.5843096925763
 30
0.0
  0
VERTEX
  5
BC
330
BA
100
AcDbEntity
  8
_U+30EC_U+30A4_U+30E4_U+30FC 1
 62
   179
420
  2234388
370
     9
100
AcDbVertex
100
AcDb2dVertex
 10
87.88110498018845
 20
-115.4241263600328
 30
0.0
  0
SEQEND
  5
BD
330
BA
100
AcDbEntity
  8
_U+30EC_U+30A4_U+30E4_U+30FC 1
 62
   179
420
  2234388
370
     9
  0
INSERT
  5
BF
330
1F
100
AcDbEntity
  8
_U+30EC_U+30A4_U+30E4_U+30FC 1
100
AcDbBlockReference
  2
block 5
 10
0.0
 20
0.0
 30
0.0
  0
POLYLINE
  5
C6
330
1F
100
AcDbEntity
  8
_U+30EC_U+30A4_U+30E4_U+30FC 1
  6
AI-Linetype-1
 62
   251
420
  5855577
370
    25
100
AcDb2dPolyline
 66
     1
 10
0.0
 20
0.0
 30
0.0
  0
VERTEX
  5
C7
330
C6
100
AcDbEntity
  8
_U+30EC_U+30A4_U+30E4_U+30FC 1
  6
AI-Linetype-1
 62
   251
420
  5855577
370
    25
100
AcDbVertex
100
AcDb2dVertex
 10
88.48160553343527
 20
-121.6570041362526
 30
0.0
  0
VERTEX
  5
C8
330
C6
100
AcDbEntity
  8
_U+30EC_U+30A4_U+30E4_U+30FC 1
  6
AI-Linetype-1
 62
   251
420
  5855577
370
    25
100
AcDbVertex
100
AcDb2dVertex
 10
88.48160553343527
 20
-119.8248880255994
 30
0.0
  0
VERTEX
  5
C9
330
C6
100
AcDbEntity
  8
_U+30EC_U+30A4_U+30E4_U+30FC 1
  6
AI-Linetype-1
 62
   251
420
  5855577
370
    25
100
AcDbVertex
100
AcDb2dVertex
 10
79.2805946440502
 20
-119.8248880255994
 30
0.0
  0
VERTEX
  5
CA
330
C6
100
AcDbEntity
  8
_U+30EC_U+30A4_U+30E4_U+30FC 1
  6
AI-Linetype-1
 62
   251
420
  5855577
370
    25
100
AcDbVertex
100
AcDb2dVertex
 10
79.2805946440502
 20
-121.8182235806565
 30
0.0
  0
SEQEND
  5
CC
330
C6
100
AcDbEntity
  8
_U+30EC_U+30A4_U+30E4_U+30FC 1
  6
AI-Linetype-1
 62
   251
420
  5855577
370
    25
  0
SPLINE
  5
CD
330
1F
100
AcDbEntity
  8
_U+30EC_U+30A4_U+30E4_U+30FC 1
 62
     7
420
 16777215
370
     9
100
AcDbSpline
210
0.0
220
0.0
230
1.0
 70
    11
 71
     3
 72
    17
 73
    13
 74
     0
 42
0.0000000001
 43
0.0000000001
 12
1.0
 22
0.0
 32
0.0
 13
1.0
 23
0.0
 33
0.0
 40
0.0
 40
0.0
 40
0.0
 40
0.0
 40
1.0
 40
1.0
 40
1.0
 40
2.0
 40
2.0
 40
2.0
 40
3.0
 40
3.0
 40
3.0
 40
4.0
 40
4.0
 40
4.0
 40
4.0
 10
83.47381703707218
 20
-130.6683244117774
 30
0.0
 10
83.47381703707218
 20
-130.6132205229025
 30
0.0
 10
83.42901426043741
 20
-130.5684177451357
 30
0.0
 10
83.3737360902677
 20
-130.5684177451357
 30
0.0
 10
83.31859481881
 20
-130.5684177451357
 30
0.0
 10
83.27382731995212
 20
-130.6132205229025
 30
0.0
 10
83.27382731995212
 20
-130.6683244117774
 30
0.0
 10
83.27382731995212
 20
-130.7234635784305
 30
0.0
 10
83.31859481881
 20
-130.768231078419
 30
0.0
 10
83.3737360902677
 20
-130.768231078419
 30
0.0
 10
83.42901426043741
 20
-130.768231078419
 30
0.0
 10
83.47381703707218
 20
-130.7234635784305
 30
0.0
 10
83.47381703707218
 20
-130.6683244117774
 30
0.0
  0
SPLINE
  5
CE
330
1F
100
AcDbEntity
  8
_U+30EC_U+30A4_U+30E4_U+30FC 1
 62
     7
420
 16777215
370
     9
100
AcDbSpline
210
0.0
220
0.0
230
1.0
 70
    11
 71
     3
 72
    17
 73
    13
 74
     0
 42
0.0000000001
 43
0.0000000001
 12
1.0
 22
0.0
 32
0.0
 13
1.0
 23
0.0
 33
0.0
 40
0.0
 40
0.0
 40
0.0
 40
0.0
 40
1.0
 40
1.0
 40
1.0
 40
2.0
 40
2.0
 40
2.0
 40
3.0
 40
3.0
 40
3.0
 40
4.0
 40
4.0
 40
4.0
 40
4.0
 10
84.4735539560112
 20
-130.6683244117774
 30
0.0
 10
84.4735539560112
 20
-130.6132205229025
 30
0.0
 10
84.42878645715332
 20
-130.5684177451357
 30
0.0
 10
84.37347090300898
 20
-130.5684177451357
 30
0.0
 10
84.31836701552591
 20
-130.5684177451357
 30
0.0
 10
84.27356423889114
 20
-130.6132205229025
 30
0.0
 10
84.27356423889114
 20
-130.6683244117774
 30
0.0
 10
84.27356423889114
 20
-130.7234635784305
 30
0.0
 10
84.31836701552591
 20
-130.768231078419
 30
0.0
 10
84.37347090300898
 20
-130.768231078419
 30
0.0
 10
84.42878645715332
 20
-130.768231078419
 30
0.0
 10
84.4735539560112
 20
-130.7234635784305
 30
0.0
 10
84.4735539560112
 20
-130.6683244117774
 30
0.0
  0
INSERT
  5
D0
330
1F
100
AcDbEntity
  8
_U+30EC_U+30A4_U+30E4_U+30FC 1
100
AcDbBlockReference
  2
block 6
 10
0.0
 20
0.0
 30
0.0
  0
POLYLINE
  5
D5
330
1F
100
AcDbEntity
  8
_U+30EC_U+30A4_U+30E4_U+30FC 1
 62
     7
420
 16777215
370
     9
100
AcDb2dPolyline
 66
     1
 10
0.0
 20
0.0
 30
0.0
  0
VERTEX
  5
D6
330
D5
100
AcDbEntity
  8
_U+30EC_U+30A4_U+30E4_U+30FC 1
 62
     7
420
 16777215
370
     9
100
AcDbVertex
100
AcDb2dVertex
 10
85.23491893658716
 20
-130.6683244117774
 30
0.0
  0
VERTEX
  5
D7
330
D5
100
AcDbEntity
  8
_U+30EC_U+30A4_U+30E4_U+30FC 1
 62
     7
420
 16777215
370
     9
100
AcDbVertex
100
AcDb2dVertex
 10
81.39588542341797
 20
-130.6683244117774
 30
0.0
  0
SEQEND
  5
D8
330
D5
100
AcDbEntity
  8
_U+30EC_U+30A4_U+30E4_U+30FC 1
 62
     7
420
 16777215
370
     9
  0
ENDSEC
  0
SECTION
  2
OBJECTS
  0
DICTIONARY
  5
C
330
0
100
AcDbDictionary
281
     1
  3
ACAD_GROUP
350
D
  3
ACAD_LAYOUT
350
1A
  3
ACAD_MATERIAL
350
3B
  3
ACAD_MLEADERSTYLE
350
DA
  3
ACAD_MLINESTYLE
350
17
  3
ACAD_PLOTSETTINGS
350
19
  3
ACAD_PLOTSTYLENAME
350
E
  3
ACAD_TABLESTYLE
350
D9
  3
ACAD_VISUALSTYLE
350
2A
  0
SUN
  5
3F
330
29
100
AcDbSun
 90
        1
290
     0
 63
     7
421
 16777215
 40
1.0
291
     1
 91
  2455826
 92
 54000000
292
     0
 70
     2
 71
   256
280
     1
  0
DICTIONARY
  5
D
102
{ACAD_REACTORS
330
C
102
}
330
C
100
AcDbDictionary
281
     1
  0
DICTIONARY
  5
1A
102
{ACAD_REACTORS
330
C
102
}
330
C
100
AcDbDictionary
281
     1
  3
Layout1
350
1E
  3
Layout2
350
26
  3
Model
350
22
  0
DICTIONARY
  5
3B
102
{ACAD_REACTORS
330
C
102
}
330
C
100
AcDbDictionary
281
     1
  3
ByBlock
350
3D
  3
ByLayer
350
3C
  3
Global
350
3E
  0
DICTIONARY
  5
DA
102
{ACAD_REACTORS
330
C
102
}
330
C
100
AcDbDictionary
281
     1
  0
DICTIONARY
  5
17
102
{ACAD_REACTORS
330
C
102
}
330
C
100
AcDbDictionary
281
     1
  3
Standard
350
18
  0
DICTIONARY
  5
19
102
{ACAD_REACTORS
330
C
102
}
330
C
100
AcDbDictionary
281
     1
  0
ACDBDICTIONARYWDFLT
  5
E
102
{ACAD_REACTORS
330
C
102
}
330
C
100
AcDbDictionary
281
     1
  3
Normal
350
F
100
AcDbDictionaryWithDefault
340
F
  0
DICTIONARY
  5
D9
102
{ACAD_REACTORS
330
C
102
}
330
C
100
AcDbDictionary
281
     1
  0
DICTIONARY
  5
2A
102
{ACAD_REACTORS
330
C
102
}
330
C
100
AcDbDictionary
281
     1
  3
2dWireframe
350
2F
  3
3D Hidden
350
31
  3
3dWireframe
350
30
  3
Basic
350
32
  3
Brighten
350
36
  3
ColorChange
350
3A
  3
Conceptual
350
34
  3
Dim
350
35
  3
Facepattern
350
39
  3
Flat
350
2B
  3
FlatWithEdges
350
2C
  3
Gouraud
350
2D
  3
GouraudWithEdges
350
2E
  3
Linepattern
350
38
  3
Realistic
350
33
  3
Thicken
350
37
  0
LAYOUT
  5
1E
102
{ACAD_REACTORS
330
1A
102
}
330
1A
100
AcDbPlotSettings
  1

  2
none_device
  4

  6

 40
0.0
 41
0.0
 42
0.0
 43
0.0
 44
0.0
 45
0.0
 46
0.0
 47
0.0
 48
0.0
 49
0.0
140
0.0
141
0.0
142
1.0
143
1.0
 70
   688
 72
     0
 73
     0
 74
     5
  7

 75
    16
 76
     0
 77
     2
 78
   300
147
1.0
148
0.0
149
0.0
100
AcDbLayout
  1
Layout1
 70
     1
 71
     1
 10
0.0
 20
0.0
 11
12.0
 21
9.0
 12
0.0
 22
0.0
 32
0.0
 14
1.000000000000000E+20
 24
1.000000000000000E+20
 34
1.000000000000000E+20
 15
-1.000000000000000E+20
 25
-1.000000000000000E+20
 35
-1.000000000000000E+20
146
0.0
 13
0.0
 23
0.0
 33
0.0
 16
1.0
 26
0.0
 36
0.0
 17
0.0
 27
1.0
 37
0.0
 76
     0
330
1B
  0
LAYOUT
  5
26
102
{ACAD_REACTORS
330
1A
102
}
330
1A
100
AcDbPlotSettings
  1

  2
none_device
  4

  6

 40
0.0
 41
0.0
 42
0.0
 43
0.0
 44
0.0
 45
0.0
 46
0.0
 47
0.0
 48
0.0
 49
0.0
140
0.0
141
0.0
142
1.0
143
1.0
 70
   688
 72
     0
 73
     0
 74
     5
  7

 75
    16
 76
     0
 77
     2
 78
   300
147
1.0
148
0.0
149
0.0
100
AcDbLayout
  1
Layout2
 70
     1
 71
     2
 10
0.0
 20
0.0
 11
0.0
 21
0.0
 12
0.0
 22
0.0
 32
0.0
 14
0.0
 24
0.0
 34
0.0
 15
0.0
 25
0.0
 35
0.0
146
0.0
 13
0.0
 23
0.0
 33
0.0
 16
1.0
 26
0.0
 36
0.0
 17
0.0
 27
1.0
 37
0.0
 76
     0
330
23
  0
LAYOUT
  5
22
102
{ACAD_REACTORS
330
1A
102
}
330
1A
100
AcDbPlotSettings
  1

  2
none_device
  4

  6

 40
0.0
 41
0.0
 42
0.0
 43
0.0
 44
0.0
 45
0.0
 46
0.0
 47
0.0
 48
0.0
 49
0.0
140
0.0
141
0.0
142
1.0
143
1.0
 70
  1712
 72
     0
 73
     0
 74
     0
  7

 75
     0
 76
     0
 77
     2
 78
   300
147
1.0
148
0.0
149
0.0
100
AcDbLayout
  1
Model
 70
     1
 71
     0
 10
0.0
 20
0.0
 11
12.0
 21
9.0
 12
0.0
 22
0.0
 32
0.0
 14
1.000000000000000E+20
 24
1.000000000000000E+20
 34
1.000000000000000E+20
 15
-1.000000000000000E+20
 25
-1.000000000000000E+20
 35
-1.000000000000000E+20
146
0.0
 13
0.0
 23
0.0
 33
0.0
 16
1.0
 26
0.0
 36
0.0
 17
0.0
 27
1.0
 37
0.0
 76
     0
330
1F
331
29
  0
MATERIAL
  5
3D
102
{ACAD_REACTORS
330
3B
102
}
330
3B
100
AcDbMaterial
  1
ByBlock
 72
     1
 94
      127
  0
MATERIAL
  5
3C
102
{ACAD_REACTORS
330
3B
102
}
330
3B
100
AcDbMaterial
  1
ByLayer
 72
     1
 94
      127
  0
MATERIAL
  5
3E
102
{ACAD_REACTORS
330
3B
102
}
330
3B
100
AcDbMaterial
  1
Global
 72
     1
 94
      127
  0
MLINESTYLE
  5
18
102
{ACAD_REACTORS
330
17
102
}
330
17
100
AcDbMlineStyle
  2
Standard
 70
     0
  3

 62
   256
 51
90.0
 52
90.0
 71
     2
 49
0.5
 62
   256
  6
BYLAYER
 49
-0.5
 62
   256
  6
BYLAYER
  0
ACDBPLACEHOLDER
  5
F
102
{ACAD_REACTORS
330
E
102
}
330
E
  0
VISUALSTYLE
  5
2F
102
{ACAD_REACTORS
330
2A
102
}
330
2A
100
AcDbVisualStyle
  2
2dWireframe
 70
     4
177
     2
291
     0
 71
     0
176
     1
 72
     2
176
     1
 73
     0
176
     1
 90
        0
176
     1
 40
-0.6
176
     1
 41
-30.0
176
     1
 62
     5
 63
     7
421
 16777215
176
     1
 74
     1
176
     1
 91
        4
176
     1
 64
     7
176
     1
 65
   257
176
     1
 75
     1
176
     1
175
     1
176
     1
 42
1.0
176
     1
 92
        0
176
     1
 66
   257
176
     1
 43
1.0
176
     1
 76
     1
176
     1
 77
     6
176
     1
 78
     2
176
     1
 67
     7
176
     1
 79
     5
176
     1
170
     0
176
     1
171
     0
176
     1
290
     0
176
     1
 93
        1
176
     1
 44
0.0
176
     1
173
     0
176
     1
  0
VISUALSTYLE
  5
31
102
{ACAD_REACTORS
330
2A
102
}
330
2A
100
AcDbVisualStyle
  2
3D Hidden
 70
     6
177
     2
291
     0
 71
     1
176
     1
 72
     2
176
     1
 73
     2
176
     1
 90
        0
176
     1
 40
-0.6
176
     1
 41
-30.0
176
     1
 62
     5
 63
     7
421
 16777215
176
     1
 74
     2
176
     1
 91
        2
176
     1
 64
     7
176
     1
 65
   257
176
     1
 75
     2
176
     1
175
     1
176
     1
 42
40.0
176
     1
 92
        0
176
     1
 66
   257
176
     1
 43
1.0
176
     1
 76
     1
176
     1
 77
     6
176
     1
 78
     2
176
     1
 67
     7
176
     1
 79
     3
176
     1
170
     0
176
     1
171
     0
176
     1
290
     0
176
     1
 93
        1
176
     1
 44
0.0
176
     1
173
     0
176
     1
  0
VISUALSTYLE
  5
30
102
{ACAD_REACTORS
330
2A
102
}
330
2A
100
AcDbVisualStyle
  2
3dWireframe
 70
     5
177
     2
291
     0
 71
     0
176
     1
 72
     2
176
     1
 73
     0
176
     1
 90
        0
176
     1
 40
-0.6
176
     1
 41
-30.0
176
     1
 62
     5
 63
     7
421
 16777215
176
     1
 74
     1
176
     1
 91
        4
176
     1
 64
     7
176
     1
 65
   257
176
     1
 75
     1
176
     1
175
     1
176
     1
 42
1.0
176
     1
 92
        0
176
     1
 66
   257
176
     1
 43
1.0
176
     1
 76
     1
176
     1
 77
     6
176
     1
 78
     2
176
     1
 67
     7
176
     1
 79
     5
176
     1
170
     0
176
     1
171
     0
176
     1
290
     0
176
     1
 93
        1
176
     1
 44
0.0
176
     1
173
     0
176
     1
  0
VISUALSTYLE
  5
32
102
{ACAD_REACTORS
330
2A
102
}
330
2A
100
AcDbVisualStyle
  2
Basic
 70
     7
177
     2
291
     1
 71
     1
176
     1
 72
     0
176
     1
 73
     1
176
     1
 90
        0
176
     1
 40
-0.6
176
     1
 41
-30.0
176
     1
 62
     5
 63
     7
421
 16777215
176
     1
 74
     0
176
     1
 91
        4
176
     1
 64
     7
176
     1
 65
   257
176
     1
 75
     1
176
     1
175
     1
176
     1
 42
1.0
176
     1
 92
        8
176
     1
 66
     7
176
     1
 43
1.0
176
     1
 76
     1
176
     1
 77
     6
176
     1
 78
     2
176
     1
 67
     7
176
     1
 79
     5
176
     1
170
     0
176
     1
171
     0
176
     1
290
     0
176
     1
 93
        1
176
     1
 44
0.0
176
     1
173
     0
176
     1
  0
VISUALSTYLE
  5
36
102
{ACAD_REACTORS
330
2A
102
}
330
2A
100
AcDbVisualStyle
  2
Brighten
 70
    12
177
     2
291
     1
 71
     2
176
     1
 72
     2
176
     1
 73
     0
176
     1
 90
        0
176
     1
 40
-0.6
176
     1
 41
-30.0
176
     1
 62
     5
 63
     7
421
 16777215
176
     1
 74
     1
176
     1
 91
        4
176
     1
 64
     7
176
     1
 65
   257
176
     1
 75
     1
176
     1
175
     1
176
     1
 42
1.0
176
     1
 92
        8
176
     1
 66
     7
176
     1
 43
1.0
176
     1
 76
     1
176
     1
 77
     6
176
     1
 78
     2
176
     1
 67
     7
176
     1
 79
     5
176
     1
170
     0
176
     1
171
     0
176
     1
290
     0
176
     1
 93
        1
176
     1
 44
50.0
176
     1
173
     0
176
     1
  0
VISUALSTYLE
  5
3A
102
{ACAD_REACTORS
330
2A
102
}
330
2A
100
AcDbVisualStyle
  2
ColorChange
 70
    16
177
     2
291
     1
 71
     2
176
     1
 72
     2
176
     1
 73
     3
176
     1
 90
        0
176
     1
 40
-0.6
176
     1
 41
-30.0
176
     1
 62
     5
 63
     8
421
  8421504
176
     1
 74
     1
176
     1
 91
        4
176
     1
 64
     7
176
     1
 65
   257
176
     1
 75
     1
176
     1
175
     1
176
     1
 42
1.0
176
     1
 92
        8
176
     1
 66
     8
424
  8421504
176
     1
 43
1.0
176
     1
 76
     1
176
     1
 77
     6
176
     1
 78
     2
176
     1
 67
     7
176
     1
 79
     5
176
     1
170
     0
176
     1
171
     0
176
     1
290
     0
176
     1
 93
        1
176
     1
 44
0.0
176
     1
173
     0
176
     1
  0
VISUALSTYLE
  5
34
102
{ACAD_REACTORS
330
2A
102
}
330
2A
100
AcDbVisualStyle
  2
Conceptual
 70
     9
177
     2
291
     0
 71
     3
176
     1
 72
     2
176
     1
 73
     0
176
     1
 90
        0
176
     1
 40
-0.6
176
     1
 41
-30.0
176
     1
 62
     5
 63
     7
421
 16777215
176
     1
 74
     2
176
     1
 91
        2
176
     1
 64
     7
176
     1
 65
   257
176
     1
 75
     1
176
     1
175
     1
176
     1
 42
40.0
176
     1
 92
        8
176
     1
 66
     7
176
     1
 43
1.0
176
     1
 76
     1
176
     1
 77
     6
176
     1
 78
     2
176
     1
 67
     7
176
     1
 79
     3
176
     1
170
     0
176
     1
171
     0
176
     1
290
     0
176
     1
 93
        1
176
     1
 44
0.0
176
     1
173
     0
176
     1
  0
VISUALSTYLE
  5
35
102
{ACAD_REACTORS
330
2A
102
}
330
2A
100
AcDbVisualStyle
  2
Dim
 70
    11
177
     2
291
     1
 71
     2
176
     1
 72
     2
176
     1
 73
     0
176
     1
 90
        0
176
     1
 40
-0.6
176
     1
 41
-30.0
176
     1
 62
     5
 63
     7
421
 16777215
176
     1
 74
     1
176
     1
 91
        4
176
     1
 64
     7
176
     1
 65
   257
176
     1
 75
     1
176
     1
175
     1
176
     1
 42
1.0
176
     1
 92
        8
176
     1
 66
     7
176
     1
 43
1.0
176
     1
 76
     1
176
     1
 77
     6
176
     1
 78
     2
176
     1
 67
     7
176
     1
 79
     5
176
     1
170
     0
176
     1
171
     0
176
     1
290
     0
176
     1
 93
        1
176
     1
 44
-50.0
176
     1
173
     0
176
     1
  0
VISUALSTYLE
  5
39
102
{ACAD_REACTORS
330
2A
102
}
330
2A
100
AcDbVisualStyle
  2
Facepattern
 70
    15
177
     2
291
     1
 71
     2
176
     1
 72
     2
176
     1
 73
     0
176
     1
 90
        0
176
     1
 40
-0.6
176
     1
 41
-30.0
176
     1
 62
     5
 63
     7
421
 16777215
176
     1
 74
     1
176
     1
 91
        4
176
     1
 64
     7
176
     1
 65
   257
176
     1
 75
     1
176
     1
175
     1
176
     1
 42
1.0
176
     1
 92
        8
176
     1
 66
     7
176
     1
 43
1.0
176
     1
 76
     1
176
     1
 77
     6
176
     1
 78
     2
176
     1
 67
     7
176
     1
 79
     5
176
     1
170
     0
176
     1
171
     0
176
     1
290
     0
176
     1
 93
        1
176
     1
 44
0.0
176
     1
173
     0
176
     1
  0
VISUALSTYLE
  5
2B
102
{ACAD_REACTORS
330
2A
102
}
330
2A
100
AcDbVisualStyle
  2
Flat
 70
     0
177
     2
291
     1
 71
     2
176
     1
 72
     1
176
     1
 73
     1
176
     1
 90
        2
176
     1
 40
-0.6
176
     1
 41
30.0
176
     1
 62
     5
 63
     7
421
 16777215
176
     1
 74
     0
176
     1
 91
        4
176
     1
 64
     7
176
     1
 65
   257
176
     1
 75
     1
176
     1
175
     1
176
     1
 42
1.0
176
     1
 92
        8
176
     1
 66
     7
176
     1
 43
1.0
176
     1
 76
     1
176
     1
 77
     6
176
     1
 78
     2
176
     1
 67
     7
176
     1
 79
     5
176
     1
170
     0
176
     1
171
     0
176
     1
290
     0
176
     1
 93
       13
176
     1
 44
0.0
176
     1
173
     0
176
     1
  0
VISUALSTYLE
  5
2C
102
{ACAD_REACTORS
330
2A
102
}
330
2A
100
AcDbVisualStyle
  2
FlatWithEdges
 70
     1
177
     2
291
     1
 71
     2
176
     1
 72
     1
176
     1
 73
     1
176
     1
 90
        2
176
     1
 40
-0.6
176
     1
 41
30.0
176
     1
 62
     5
 63
     7
421
 16777215
176
     1
 74
     1
176
     1
 91
        4
176
     1
 64
     7
176
     1
 65
   257
176
     1
 75
     1
176
     1
175
     1
176
     1
 42
1.0
176
     1
 92
        0
176
     1
 66
   257
176
     1
 43
1.0
176
     1
 76
     1
176
     1
 77
     6
176
     1
 78
     2
176
     1
 67
     7
176
     1
 79
     5
176
     1
170
     0
176
     1
171
     0
176
     1
290
     0
176
     1
 93
       13
176
     1
 44
0.0
176
     1
173
     0
176
     1
  0
VISUALSTYLE
  5
2D
102
{ACAD_REACTORS
330
2A
102
}
330
2A
100
AcDbVisualStyle
  2
Gouraud
 70
     2
177
     2
291
     1
 71
     2
176
     1
 72
     2
176
     1
 73
     1
176
     1
 90
        2
176
     1
 40
-0.6
176
     1
 41
30.0
176
     1
 62
     5
 63
     7
421
 16777215
176
     1
 74
     0
176
     1
 91
        4
176
     1
 64
     7
176
     1
 65
   257
176
     1
 75
     1
176
     1
175
     1
176
     1
 42
1.0
176
     1
 92
        0
176
     1
 66
     7
176
     1
 43
1.0
176
     1
 76
     1
176
     1
 77
     6
176
     1
 78
     2
176
     1
 67
     7
176
     1
 79
     5
176
     1
170
     0
176
     1
171
     0
176
     1
290
     0
176
     1
 93
       13
176
     1
 44
0.0
176
     1
173
     0
176
     1
  0
VISUALSTYLE
  5
2E
102
{ACAD_REACTORS
330
2A
102
}
330
2A
100
AcDbVisualStyle
  2
GouraudWithEdges
 70
     3
177
     2
291
     1
 71
     2
176
     1
 72
     2
176
     1
 73
     1
176
     1
 90
        2
176
     1
 40
-0.6
176
     1
 41
30.0
176
     1
 62
     5
 63
     7
421
 16777215
176
     1
 74
     1
176
     1
 91
        4
176
     1
 64
     7
176
     1
 65
   257
176
     1
 75
     1
176
     1
175
     1
176
     1
 42
1.0
176
     1
 92
        0
176
     1
 66
   257
176
     1
 43
1.0
176
     1
 76
     1
176
     1
 77
     6
176
     1
 78
     2
176
     1
 67
     7
176
     1
 79
     5
176
     1
170
     0
176
     1
171
     0
176
     1
290
     0
176
     1
 93
       13
176
     1
 44
0.0
176
     1
173
     0
176
     1
  0
VISUALSTYLE
  5
38
102
{ACAD_REACTORS
330
2A
102
}
330
2A
100
AcDbVisualStyle
  2
Linepattern
 70
    14
177
     2
291
     1
 71
     2
176
     1
 72
     2
176
     1
 73
     0
176
     1
 90
        0
176
     1
 40
-0.6
176
     1
 41
-30.0
176
     1
 62
     5
 63
     7
421
 16777215
176
     1
 74
     1
176
     1
 91
        4
176
     1
 64
     7
176
     1
 65
   257
176
     1
 75
     7
176
     1
175
     7
176
     1
 42
1.0
176
     1
 92
        8
176
     1
 66
     7
176
     1
 43
1.0
176
     1
 76
     1
176
     1
 77
     6
176
     1
 78
     2
176
     1
 67
     7
176
     1
 79
     5
176
     1
170
     0
176
     1
171
     0
176
     1
290
     0
176
     1
 93
        1
176
     1
 44
0.0
176
     1
173
     0
176
     1
  0
VISUALSTYLE
  5
33
102
{ACAD_REACTORS
330
2A
102
}
330
2A
100
AcDbVisualStyle
  2
Realistic
 70
     8
177
     2
291
     0
 71
     2
176
     1
 72
     2
176
     1
 73
     0
176
     1
 90
        0
176
     1
 40
-0.6
176
     1
 41
-30.0
176
     1
 62
     5
 63
     7
421
 16777215
176
     1
 74
     1
176
     1
 91
        0
176
     1
 64
     7
176
     1
 65
   257
176
     1
 75
     1
176
     1
175
     1
176
     1
 42
1.0
176
     1
 92
        8
176
     1
 66
     8
424
  7895160
176
     1
 43
1.0
176
     1
 76
     1
176
     1
 77
     6
176
     1
 78
     2
176
     1
 67
     7
176
     1
 79
     5
176
     1
170
     0
176
     1
171
     0
176
     1
290
     0
176
     1
 93
       13
176
     1
 44
0.0
176
     1
173
     0
176
     1
  0
VISUALSTYLE
  5
37
102
{ACAD_REACTORS
330
2A
102
}
330
2A
100
AcDbVisualStyle
  2
Thicken
 70
    13
177
     2
291
     1
 71
     2
176
     1
 72
     2
176
     1
 73
     0
176
     1
 90
        0
176
     1
 40
-0.6
176
     1
 41
-30.0
176
     1
 62
     5
 63
     7
421
 16777215
176
     1
 74
     1
176
     1
 91
        4
176
     1
 64
     7
176
     1
 65
   257
176
     1
 75
     1
176
     1
175
     1
176
     1
 42
1.0
176
     1
 92
       12
176
     1
 66
     7
176
     1
 43
1.0
176
     1
 76
     1
176
     1
 77
     6
176
     1
 78
     2
176
     1
 67
     7
176
     1
 79
     5
176
     1
170
     0
176
     1
171
     0
176
     1
290
     0
176
     1
 93
        1
176
     1
 44
0.0
176
     1
173
     0
176
     1
  0
ENDSEC
  0
EOF
