  0
SECTION
  2
HEADER
  9
$ACADVER
  1
AC1024
  9
$ACADMAINTVER
 70
     6
  9
$DWGCODEPAGE
  3
UNDEFINED
  9
$INSBASE
 10
0.0
 20
0.0
 30
0.0
  9
$EXTMIN
 10
1.000000000000000E+20
 20
1.000000000000000E+20
 30
1.000000000000000E+20
  9
$EXTMAX
 10
-1.000000000000000E+20
 20
-1.000000000000000E+20
 30
-1.000000000000000E+20
  9
$LIMMIN
 10
0.0
 20
0.0
  9
$LIMMAX
 10
12.0
 20
9.0
  9
$ORTHOMODE
 70
     0
  9
$REGENMODE
 70
     1
  9
$FILLMODE
 70
     1
  9
$QTEXTMODE
 70
     0
  9
$MIRRTEXT
 70
     1
  9
$LTSCALE
 40
1.0
  9
$ATTMODE
 70
     1
  9
$TEXTSIZE
 40
0.2
  9
$TRACEWID
 40
0.05
  9
$TEXTSTYLE
  7
Standard
  9
$CLAYER
  8
0
  9
$CELTYPE
  6
ByLayer
  9
$CECOLOR
 62
   256
  9
$CELTSCALE
 40
1.0
  9
$DISPSILH
 70
     0
  9
$DIMSCALE
 40
1.0
  9
$DIMASZ
 40
0.18
  9
$DIMEXO
 40
0.0625
  9
$DIMDLI
 40
0.38
  9
$DIMRND
 40
0.0
  9
$DIMDLE
 40
0.0
  9
$DIMEXE
 40
0.18
  9
$DIMTP
 40
0.0
  9
$DIMTM
 40
0.0
  9
$DIMTXT
 40
0.18
  9
$DIMCEN
 40
0.09
  9
$DIMTSZ
 40
0.0
  9
$DIMTOL
 70
     0
  9
$DIMLIM
 70
     0
  9
$DIMTIH
 70
     1
  9
$DIMTOH
 70
     1
  9
$DIMSE1
 70
     0
  9
$DIMSE2
 70
     0
  9
$DIMTAD
 70
     0
  9
$DIMZIN
 70
     0
  9
$DIMBLK
  1

  9
$DIMASO
 70
     1
  9
$DIMSHO
 70
     1
  9
$DIMPOST
  1

  9
$DIMAPOST
  1

  9
$DIMALT
 70
     0
  9
$DIMALTD
 70
     2
  9
$DIMALTF
 40
25.4
  9
$DIMLFAC
 40
1.0
  9
$DIMTOFL
 70
     0
  9
$DIMTVP
 40
0.0
  9
$DIMTIX
 70
     0
  9
$DIMSOXD
 70
     0
  9
$DIMSAH
 70
     0
  9
$DIMBLK1
  1

  9
$DIMBLK2
  1

  9
$DIMSTYLE
  2
Standard
  9
$DIMCLRD
 70
     0
  9
$DIMCLRE
 70
     0
  9
$DIMCLRT
 70
     0
  9
$DIMTFAC
 40
1.0
  9
$DIMGAP
 40
0.09
  9
$DIMJUST
 70
     0
  9
$DIMSD1
 70
     0
  9
$DIMSD2
 70
     0
  9
$DIMTOLJ
 70
     1
  9
$DIMTZIN
 70
     0
  9
$DIMALTZ
 70
     0
  9
$DIMALTTZ
 70
     0
  9
$DIMUPT
 70
     0
  9
$DIMDEC
 70
     4
  9
$DIMTDEC
 70
     4
  9
$DIMALTU
 70
     2
  9
$DIMALTTD
 70
     2
  9
$DIMTXSTY
  7
Standard
  9
$DIMAUNIT
 70
     0
  9
$DIMADEC
 70
     0
  9
$DIMALTRND
 40
0.0
  9
$DIMAZIN
 70
     0
  9
$DIMDSEP
 70
    46
  9
$DIMATFIT
 70
     3
  9
$DIMFRAC
 70
     0
  9
$DIMLDRBLK
  1

  9
$DIMLUNIT
 70
     2
  9
$DIMLWD
 70
    -2
  9
$DIMLWE
 70
    -2
  9
$DIMTMOVE
 70
     0
  9
$DIMFXL
 40
1.0
  9
$DIMFXLON
 70
     0
  9
$DIMJOGANG
 40
0.7853981633974483
  9
$DIMTFILL
 70
     0
  9
$DIMTFILLCLR
 70
     0
  9
$DIMARCSYM
 70
     0
  9
$DIMLTYPE
  6

  9
$DIMLTEX1
  6

  9
$DIMLTEX2
  6

  9
$DIMTXTDIRECTION
 70
     0
  9
$LUNITS
 70
     2
  9
$LUPREC
 70
     4
  9
$SKETCHINC
 40
0.1
  9
$FILLETRAD
 40
0.5
  9
$AUNITS
 70
     0
  9
$AUPREC
 70
     0
  9
$MENU
  1
.
  9
$ELEVATION
 40
0.0
  9
$PELEVATION
 40
0.0
  9
$THICKNESS
 40
0.0
  9
$LIMCHECK
 70
     0
  9
$CHAMFERA
 40
0.5
  9
$CHAMFERB
 40
0.5
  9
$CHAMFERC
 40
1.0
  9
$CHAMFERD
 40
0.0
  9
$SKPOLY
 70
     0
  9
$TDCREATE
 40
2457917.618553241
  9
$TDUCREATE
 40
2457917.243553241
  9
$TDUPDATE
 40
2457917.618553241
  9
$TDUUPDATE
 40
2457917.243553241
  9
$TDINDWG
 40
0.0000000116
  9
$TDUSRTIMER
 40
0.0000000116
  9
$USRTIMER
 70
     1
  9
$ANGBASE
 50
0.0
  9
$ANGDIR
 70
     0
  9
$PDMODE
 70
     0
  9
$PDSIZE
 40
0.0
  9
$PLINEWID
 40
0.0
  9
$SPLFRAME
 70
     0
  9
$SPLINETYPE
 70
     6
  9
$SPLINESEGS
 70
     8
  9
$HANDSEED
  5
AC
  9
$SURFTAB1
 70
     6
  9
$SURFTAB2
 70
     6
  9
$SURFTYPE
 70
     6
  9
$SURFU
 70
     6
  9
$SURFV
 70
     6
  9
$UCSBASE
  2

  9
$UCSNAME
  2

  9
$UCSORG
 10
0.0
 20
0.0
 30
0.0
  9
$UCSXDIR
 10
1.0
 20
0.0
 30
0.0
  9
$UCSYDIR
 10
0.0
 20
1.0
 30
0.0
  9
$UCSORTHOREF
  2

  9
$UCSORTHOVIEW
 70
     0
  9
$UCSORGTOP
 10
0.0
 20
0.0
 30
0.0
  9
$UCSORGBOTTOM
 10
0.0
 20
0.0
 30
0.0
  9
$UCSORGLEFT
 10
0.0
 20
0.0
 30
0.0
  9
$UCSORGRIGHT
 10
0.0
 20
0.0
 30
0.0
  9
$UCSORGFRONT
 10
0.0
 20
0.0
 30
0.0
  9
$UCSORGBACK
 10
0.0
 20
0.0
 30
0.0
  9
$PUCSBASE
  2

  9
$PUCSNAME
  2

  9
$PUCSORG
 10
0.0
 20
0.0
 30
0.0
  9
$PUCSXDIR
 10
1.0
 20
0.0
 30
0.0
  9
$PUCSYDIR
 10
0.0
 20
1.0
 30
0.0
  9
$PUCSORTHOREF
  2

  9
$PUCSORTHOVIEW
 70
     0
  9
$PUCSORGTOP
 10
0.0
 20
0.0
 30
0.0
  9
$PUCSORGBOTTOM
 10
0.0
 20
0.0
 30
0.0
  9
$PUCSORGLEFT
 10
0.0
 20
0.0
 30
0.0
  9
$PUCSORGRIGHT
 10
0.0
 20
0.0
 30
0.0
  9
$PUCSORGFRONT
 10
0.0
 20
0.0
 30
0.0
  9
$PUCSORGBACK
 10
0.0
 20
0.0
 30
0.0
  9
$USERI1
 70
     0
  9
$USERI2
 70
     0
  9
$USERI3
 70
     0
  9
$USERI4
 70
     0
  9
$USERI5
 70
     0
  9
$USERR1
 40
0.0
  9
$USERR2
 40
0.0
  9
$USERR3
 40
0.0
  9
$USERR4
 40
0.0
  9
$USERR5
 40
0.0
  9
$WORLDVIEW
 70
     1
  9
$SHADEDGE
 70
     3
  9
$SHADEDIF
 70
    70
  9
$TILEMODE
 70
     1
  9
$MAXACTVP
 70
    64
  9
$PINSBASE
 10
0.0
 20
0.0
 30
0.0
  9
$PLIMCHECK
 70
     0
  9
$PEXTMIN
 10
1.000000000000000E+20
 20
1.000000000000000E+20
 30
1.000000000000000E+20
  9
$PEXTMAX
 10
-1.000000000000000E+20
 20
-1.000000000000000E+20
 30
-1.000000000000000E+20
  9
$PLIMMIN
 10
0.0
 20
0.0
  9
$PLIMMAX
 10
12.0
 20
9.0
  9
$UNITMODE
 70
     0
  9
$VISRETAIN
 70
     1
  9
$PLINEGEN
 70
     0
  9
$PSLTSCALE
 70
     1
  9
$TREEDEPTH
 70
  3020
  9
$CMLSTYLE
  2
Standard
  9
$CMLJUST
 70
     0
  9
$CMLSCALE
 40
1.0
  9
$PROXYGRAPHICS
 70
     1
  9
$MEASUREMENT
 70
     0
  9
$CELWEIGHT
370
    -1
  9
$ENDCAPS
280
     0
  9
$JOINSTYLE
280
     0
  9
$LWDISPLAY
290
     1
  9
$INSUNITS
 70
     1
  9
$HYPERLINKBASE
  1

  9
$STYLESHEET
  1

  9
$XEDIT
290
     1
  9
$CEPSNTYPE
380
     0
  9
$PSTYLEMODE
290
     1
  9
$FINGERPRINTGUID
  2
{8AFBE492-73C9-F058-46D7-98E5DCE9DB49}
  9
$VERSIONGUID
  2
{FAEB1C32-E019-11D5-929B-00C0DF256EC4}
  9
$EXTNAMES
290
     1
  9
$PSVPSCALE
 40
0.0
  9
$OLESTARTUP
290
     0
  9
$SORTENTS
280
   127
  9
$INDEXCTL
280
     0
  9
$HIDETEXT
280
     1
  9
$XCLIPFRAME
280
     2
  9
$HALOGAP
280
     0
  9
$OBSCOLOR
 70
   257
  9
$OBSLTYPE
280
     0
  9
$INTERSECTIONDISPLAY
280
     0
  9
$INTERSECTIONCOLOR
 70
   257
  9
$DIMASSOC
280
     2
  9
$PROJECTNAME
  1

  9
$CAMERADISPLAY
290
     0
  9
$LENSLENGTH
 40
50.0
  9
$CAMERAHEIGHT
 40
0.0
  9
$STEPSPERSEC
 40
2.0
  9
$STEPSIZE
 40
6.0
  9
$3DDWFPREC
 40
2.0
  9
$PSOLWIDTH
 40
0.25
  9
$PSOLHEIGHT
 40
4.0
  9
$LOFTANG1
 40
1.570796326794897
  9
$LOFTANG2
 40
1.570796326794897
  9
$LOFTMAG1
 40
0.0
  9
$LOFTMAG2
 40
0.0
  9
$LOFTPARAM
 70
     7
  9
$LOFTNORMALS
280
     1
  9
$LATITUDE
 40
37.795
  9
$LONGITUDE
 40
-122.394
  9
$NORTHDIRECTION
 40
0.0
  9
$TIMEZONE
 70
 -8000
  9
$LIGHTGLYPHDISPLAY
280
     1
  9
$TILEMODELIGHTSYNCH
280
     1
  9
$CMATERIAL
347
3C
  9
$SOLIDHIST
280
     1
  9
$SHOWHIST
280
     1
  9
$DWFFRAME
280
     2
  9
$DGNFRAME
280
     2
  9
$REALWORLDSCALE
290
     1
  9
$INTERFERECOLOR
 62
   256
  9
$CSHADOW
280
     0
  9
$SHADOWPLANELOCATION
 40
0.0
  0
ENDSEC
  0
SECTION
  2
CLASSES
  0
CLASS
  1
ACDBDICTIONARYWDFLT
  2
AcDbDictionaryWithDefault
  3
ObjectDBX Classes
 90
        0
 91
        4
280
     0
281
     0
  0
CLASS
  1
VISUALSTYLE
  2
AcDbVisualStyle
  3
ObjectDBX Classes
 90
     4095
 91
        4
280
     0
281
     0
  0
CLASS
  1
MATERIAL
  2
AcDbMaterial
  3
ObjectDBX Classes
 90
     1153
 91
        4
280
     0
281
     0
  0
CLASS
  1
SUN
  2
AcDbSun
  3
SCENEOE
 90
     1024
 91
        4
280
     0
281
     0
  0
ENDSEC
  0
SECTION
  2
TABLES
  0
TABLE
  2
VPORT
  5
8
330
0
100
AcDbSymbolTable
 70
     1
  0
VPORT
  5
29
330
8
100
AcDbSymbolTableRecord
100
AcDbViewportTableRecord
  2
*Active
 70
     0
 10
0.0
 20
0.0
 11
1.0
 21
1.0
 12
0.0
 22
0.0
 13
0.0
 23
0.0
 14
0.5
 24
0.5
 15
0.5
 25
0.5
 16
0.0
 26
0.0
 36
1.0
 17
91.00082462281999
 27
-128.4993055234307
 37
0.0
 40
256.9986110468615
 41
0.7081814508812795
 42
50.0
 43
0.0
 44
0.0
 50
0.0
 51
0.0
 71
     0
 72
   100
 73
     1
 74
     3
 75
     0
 76
     0
 77
     0
 78
     0
281
     0
 65
     1
110
0.0
120
0.0
130
0.0
111
1.0
121
0.0
131
0.0
112
0.0
122
1.0
132
0.0
 79
     0
146
0.0
 60
     3
 61
     5
292
     1
282
     1
141
0.0
142
0.0
 63
   250
361
3F
  0
ENDTAB
  0
TABLE
  2
LTYPE
  5
5
330
0
100
AcDbSymbolTable
 70
     2
  0
LTYPE
  5
14
330
5
100
AcDbSymbolTableRecord
100
AcDbLinetypeTableRecord
  2
ByBlock
 70
     0
  3

 72
    65
 73
     0
 40
0.0
  0
LTYPE
  5
15
330
5
100
AcDbSymbolTableRecord
100
AcDbLinetypeTableRecord
  2
ByLayer
 70
     0
  3

 72
    65
 73
     0
 40
0.0
  0
LTYPE
  5
16
330
5
100
AcDbSymbolTableRecord
100
AcDbLinetypeTableRecord
  2
Continuous
 70
     0
  3
Solid line
 72
    65
 73
     0
 40
0.0
  0
LTYPE
  5
A8
330
5
100
AcDbSymbolTableRecord
100
AcDbLinetypeTableRecord
  2
AI-Linetype-1
 70
     0
  3
Adobe Illustrator Linetype No. 1
 72
    65
 73
     2
 40
1.411111110758333
 49
0.7055555553791667
 74
     0
 49
-0.7055555553791667
 74
     0
  0
ENDTAB
  0
TABLE
  2
LAYER
  5
2
330
0
100
AcDbSymbolTable
 70
     2
  0
LAYER
  5
10
330
2
100
AcDbSymbolTableRecord
100
AcDbLayerTableRecord
  2
0
 70
     0
 62
     7
  6
Continuous
370
    -3
390
F
347
3E
  0
LAYER
  5
40
330
2
100
AcDbSymbolTableRecord
100
AcDbLayerTableRecord
  2
_U+30EC_U+30A4_U+30E4_U+30FC 1
 70
     0
 62
     7
  6
Continuous
370
    -3
390
F
347
3E
  0
ENDTAB
  0
TABLE
  2
STYLE
  5
3
330
0
100
AcDbSymbolTable
 70
     1
  0
STYLE
  5
11
330
3
100
AcDbSymbolTableRecord
100
AcDbTextStyleTableRecord
  2
Standard
 70
     0
 40
0.0
 41
1.0
 50
0.0
 71
     0
 42
0.2
  3
txt
  4

  0
ENDTAB
  0
TABLE
  2
VIEW
  5
6
330
0
100
AcDbSymbolTable
 70
     0
  0
ENDTAB
  0
TABLE
  2
UCS
  5
7
330
0
100
AcDbSymbolTable
 70
     0
  0
ENDTAB
  0
TABLE
  2
APPID
  5
9
330
0
100
AcDbSymbolTable
 70
     1
  0
APPID
  5
12
330
9
100
AcDbSymbolTableRecord
100
AcDbRegAppTableRecord
  2
ACAD
 70
     0
  0
ENDTAB
  0
TABLE
  2
DIMSTYLE
  5
A
330
0
100
AcDbSymbolTable
 70
     1
100
AcDbDimStyleTable
  0
DIMSTYLE
105
27
330
A
100
AcDbSymbolTableRecord
100
AcDbDimStyleTableRecord
  2
Standard
 70
     0
178
     0
340
11
  0
ENDTAB
  0
TABLE
  2
BLOCK_RECORD
  5
1
330
0
100
AcDbSymbolTable
 70
     6
  0
BLOCK_RECORD
  5
1F
330
1
100
AcDbSymbolTableRecord
100
AcDbBlockTableRecord
  2
*Model_Space
340
22
 70
     0
280
     1
281
     0
  0
BLOCK_RECORD
  5
1B
330
1
100
AcDbSymbolTableRecord
100
AcDbBlockTableRecord
  2
*Paper_Space
340
1E
 70
     0
280
     1
281
     0
  0
BLOCK_RECORD
  5
23
330
1
100
AcDbSymbolTableRecord
100
AcDbBlockTableRecord
  2
*Paper_Space0
340
26
 70
     0
280
     1
281
     0
  0
BLOCK_RECORD
  5
56
330
1
100
AcDbSymbolTableRecord
100
AcDbBlockTableRecord
  2
block 2
340
0
102
{BLKREFS
331
57
102
}
 70
     0
280
     1
281
     0
  0
BLOCK_RECORD
  5
6C
330
1
100
AcDbSymbolTableRecord
100
AcDbBlockTableRecord
  2
block 3
340
0
102
{BLKREFS
331
6D
102
}
 70
     0
280
     1
281
     0
  0
BLOCK_RECORD
  5
80
330
1
100
AcDbSymbolTableRecord
100
AcDbBlockTableRecord
  2
block 4
340
0
102
{BLKREFS
331
81
102
}
 70
     0
280
     1
281
     0
  0
BLOCK_RECORD
  5
8A
330
1
100
AcDbSymbolTableRecord
100
AcDbBlockTableRecord
  2
block 5
340
0
102
{BLKREFS
331
8B
102
}
 70
     0
280
     1
281
     0
  0
BLOCK_RECORD
  5
9D
330
1
100
AcDbSymbolTableRecord
100
AcDbBlockTableRecord
  2
block 6
340
0
102
{BLKREFS
331
9E
102
}
 70
     0
280
     1
281
     0
  0
ENDTAB
  0
ENDSEC
  0
SECTION
  2
BLOCKS
  0
BLOCK
  5
20
330
1F
100
AcDbEntity
  8
0
100
AcDbBlockBegin
  2
*Model_Space
 70
     0
 10
0.0
 20
0.0
 30
0.0
  3
*Model_Space
  1

  0
ENDBLK
  5
21
330
1F
100
AcDbEntity
  8
0
100
AcDbBlockEnd
  0
BLOCK
  5
1C
330
1B
100
AcDbEntity
 67
     1
  8
0
100
AcDbBlockBegin
  2
*Paper_Space
 70
     0
 10
0.0
 20
0.0
 30
0.0
  3
*Paper_Space
  1

  0
ENDBLK
  5
1D
330
1B
100
AcDbEntity
 67
     1
  8
0
100
AcDbBlockEnd
  0
BLOCK
  5
24
330
23
100
AcDbEntity
  8
0
100
AcDbBlockBegin
  2
*Paper_Space0
 70
     0
 10
0.0
 20
0.0
 30
0.0
  3
*Paper_Space0
  1

  0
ENDBLK
  5
25
330
23
100
AcDbEntity
  8
0
100
AcDbBlockEnd
  0
BLOCK
  5
58
330
56
100
AcDbEntity
  8
0
100
AcDbBlockBegin
  2
block 2
 70
     0
 10
0.0
 20
0.0
 30
0.0
  3
block 2
  1

  0
SPLINE
  5
5A
330
56
100
AcDbEntity
  8
_U+30EC_U+30A4_U+30E4_U+30FC 1
370
     0
100
AcDbSpline
210
0.0
220
0.0
230
1.0
 70
    11
 71
     3
 72
    26
 73
    22
 74
     0
 42
0.0000000001
 43
0.0000000001
 12
1.0
 22
0.0
 32
0.0
 13
1.0
 23
0.0
 33
0.0
 40
0.0
 40
0.0
 40
0.0
 40
0.0
 40
1.0
 40
1.0
 40
1.0
 40
2.0
 40
2.0
 40
2.0
 40
3.0
 40
3.0
 40
3.0
 40
4.0
 40
4.0
 40
4.0
 40
5.0
 40
5.0
 40
5.0
 40
6.0
 40
6.0
 40
6.0
 40
7.0
 40
7.0
 40
7.0
 40
7.0
 10
88.1959947153642
 20
-140.1709445179087
 30
0.0
 10
88.1959947153642
 20
-140.1709445179087
 30
0.0
 10
88.1959947153642
 20
-139.0667914148861
 30
0.0
 10
88.1959947153642
 20
-139.0667914148861
 30
0.0
 10
88.1959947153642
 20
-139.0667914148861
 30
0.0
 10
87.84356144722314
 20
-139.0667914148861
 30
0.0
 10
87.84356144722314
 20
-139.0667914148861
 30
0.0
 10
87.84356144722314
 20
-139.0667914148861
 30
0.0
 10
87.84356144722314
 20
-138.9186523090203
 30
0.0
 10
87.84356144722314
 20
-138.9186523090203
 30
0.0
 10
88.19840628220388
 20
-138.9038383984338
 30
0.0
 10
88.24801565719147
 20
-138.7408853819815
 30
0.0
 10
88.27971053565577
 20
-138.6265082118712
 30
0.0
 10
88.27971053565577
 20
-138.6265082118712
 30
0.0
 10
88.43577336113759
 20
-138.6265082118712
 30
0.0
 10
88.43577336113759
 20
-138.6265082118712
 30
0.0
 10
88.43577336113759
 20
-138.6265082118712
 30
0.0
 10
88.43577336113759
 20
-140.1709445179087
 30
0.0
 10
88.43577336113759
 20
-140.1709445179087
 30
0.0
 10
88.43577336113759
 20
-140.1709445179087
 30
0.0
 10
88.1959947153642
 20
-140.1709445179087
 30
0.0
 10
88.1959947153642
 20
-140.1709445179087
 30
0.0
  0
HATCH
  5
5B
330
56
100
AcDbEntity
  8
_U+30EC_U+30A4_U+30E4_U+30FC 1
 62
     7
420
 16777215
100
AcDbHatch
 10
0.0
 20
0.0
 30
0.0
210
0.0
220
0.0
230
1.0
  2
SOLID
 70
     1
 71
     0
 91
        1
 92
        1
 93
        1
 72
     4
 94
        3
 73
     0
 74
     1
 95
       26
 96
       22
 40
0.0
 40
0.0
 40
0.0
 40
0.0
 40
1.0
 40
1.0
 40
1.0
 40
2.0
 40
2.0
 40
2.0
 40
3.0
 40
3.0
 40
3.0
 40
4.0
 40
4.0
 40
4.0
 40
5.0
 40
5.0
 40
5.0
 40
6.0
 40
6.0
 40
6.0
 40
7.0
 40
7.0
 40
7.0
 40
7.0
 10
88.1959947153642
 20
-140.1709445179087
 10
88.1959947153642
 20
-140.1709445179087
 10
88.1959947153642
 20
-139.0667914148861
 10
88.1959947153642
 20
-139.0667914148861
 10
88.1959947153642
 20
-139.0667914148861
 10
87.84356144722314
 20
-139.0667914148861
 10
87.84356144722314
 20
-139.0667914148861
 10
87.84356144722314
 20
-139.0667914148861
 10
87.84356144722314
 20
-138.9186523090203
 10
87.84356144722314
 20
-138.9186523090203
 10
88.19840628220388
 20
-138.9038383984338
 10
88.24801565719147
 20
-138.7408853819815
 10
88.27971053565577
 20
-138.6265082118712
 10
88.27971053565577
 20
-138.6265082118712
 10
88.43577336113759
 20
-138.6265082118712
 10
88.43577336113759
 20
-138.6265082118712
 10
88.43577336113759
 20
-138.6265082118712
 10
88.43577336113759
 20
-140.1709445179087
 10
88.43577336113759
 20
-140.1709445179087
 10
88.43577336113759
 20
-140.1709445179087
 10
88.1959947153642
 20
-140.1709445179087
 10
88.1959947153642
 20
-140.1709445179087
 97
        0
 97
        0
 75
     2
 76
     1
 98
        0
  0
SPLINE
  5
5C
330
56
100
AcDbEntity
  8
_U+30EC_U+30A4_U+30E4_U+30FC 1
370
     0
100
AcDbSpline
210
0.0
220
0.0
230
1.0
 70
    11
 71
     3
 72
    29
 73
    25
 74
     0
 42
0.0000000001
 43
0.0000000001
 12
1.0
 22
0.0
 32
0.0
 13
1.0
 23
0.0
 33
0.0
 40
0.0
 40
0.0
 40
0.0
 40
0.0
 40
1.0
 40
1.0
 40
1.0
 40
2.0
 40
2.0
 40
2.0
 40
3.0
 40
3.0
 40
3.0
 40
4.0
 40
4.0
 40
4.0
 40
5.0
 40
5.0
 40
5.0
 40
6.0
 40
6.0
 40
6.0
 40
7.0
 40
7.0
 40
7.0
 40
8.0
 40
8.0
 40
8.0
 40
8.0
 10
89.50582001885618
 20
-140.2215874215418
 30
0.0
 10
89.22091062222603
 20
-140.2215874215418
 30
0.0
 10
88.94978160753686
 20
-140.0841281116804
 30
0.0
 10
88.94978160753686
 20
-139.7351399390245
 30
0.0
 10
88.94978160753686
 20
-139.4791693444705
 30
0.0
 10
89.10136580888786
 20
-139.3840847090776
 30
0.0
 10
89.21436494080405
 20
-139.3227620094401
 30
0.0
 10
89.08103974552488
 20
-139.2635063670938
 30
0.0
 10
88.99939098252446
 20
-139.1491291969836
 30
0.0
 10
88.99939098252446
 20
-138.9882432378224
 30
0.0
 10
88.99939098252446
 20
-138.7133246180994
 30
0.0
 10
89.21195337396438
 20
-138.5779323655291
 30
0.0
 10
89.50582001885618
 20
-138.5779323655291
 30
0.0
 10
89.80898842155817
 20
-138.5779323655291
 30
0.0
 10
90.01224905518791
 20
-138.7219373568126
 30
0.0
 10
90.01224905518791
 20
-138.9882432378224
 30
0.0
 10
90.01224905518791
 20
-139.1491291969836
 30
0.0
 10
89.92887774444486
 20
-139.2635063670938
 30
0.0
 10
89.79520803961718
 20
-139.3227620094401
 30
0.0
 10
89.89029267501007
 20
-139.3734049130733
 30
0.0
 10
90.05979137288436
 20
-139.4684895484662
 30
0.0
 10
90.05979137288436
 20
-139.7310058244423
 30
0.0
 10
90.05979137288436
 20
-140.1054877036889
 30
0.0
 10
89.76144610386173
 20
-140.2215874215418
 30
0.0
 10
89.50582001885618
 20
-140.2215874215418
 30
0.0
  0
SPLINE
  5
5D
330
56
100
AcDbEntity
  8
_U+30EC_U+30A4_U+30E4_U+30FC 1
370
     0
100
AcDbSpline
210
0.0
220
0.0
230
1.0
 70
    11
 71
     3
 72
    17
 73
    13
 74
     0
 42
0.0000000001
 43
0.0000000001
 12
1.0
 22
0.0
 32
0.0
 13
1.0
 23
0.0
 33
0.0
 40
0.0
 40
0.0
 40
0.0
 40
0.0
 40
1.0
 40
1.0
 40
1.0
 40
2.0
 40
2.0
 40
2.0
 40
3.0
 40
3.0
 40
3.0
 40
4.0
 40
4.0
 40
4.0
 40
4.0
 10
89.50582001885618
 20
-139.4305934981285
 30
0.0
 10
89.35216876021404
 20
-139.4305934981285
 30
0.0
 10
89.18956025331025
 20
-139.5174099043568
 30
0.0
 10
89.18956025331025
 20
-139.720326028438
 30
0.0
 10
89.18956025331025
 20
-139.9256537193589
 30
0.0
 10
89.32495250588057
 20
-140.0269395266252
 30
0.0
 10
89.50582001885618
 20
-140.0269395266252
 30
0.0
 10
89.70494653790362
 20
-140.0269395266252
 30
0.0
 10
89.82242429395065
 20
-139.9042941273503
 30
0.0
 10
89.82242429395065
 20
-139.7265272003114
 30
0.0
 10
89.82242429395065
 20
-139.5046630510613
 30
0.0
 10
89.64844697194553
 20
-139.4305934981285
 30
0.0
 10
89.50582001885618
 20
-139.4305934981285
 30
0.0
  0
SPLINE
  5
5E
330
56
100
AcDbEntity
  8
_U+30EC_U+30A4_U+30E4_U+30FC 1
370
     0
100
AcDbSpline
210
0.0
220
0.0
230
1.0
 70
    11
 71
     3
 72
    17
 73
    13
 74
     0
 42
0.0000000001
 43
0.0000000001
 12
1.0
 22
0.0
 32
0.0
 13
1.0
 23
0.0
 33
0.0
 40
0.0
 40
0.0
 40
0.0
 40
0.0
 40
1.0
 40
1.0
 40
1.0
 40
2.0
 40
2.0
 40
2.0
 40
3.0
 40
3.0
 40
3.0
 40
4.0
 40
4.0
 40
4.0
 40
4.0
 10
89.50582001885618
 20
-138.7705132031546
 30
0.0
 10
89.32977563955993
 20
-138.7705132031546
 30
0.0
 10
89.23916962829784
 20
-138.8655978385475
 30
0.0
 10
89.23916962829784
 20
-139.0009900911178
 30
0.0
 10
89.23916962829784
 20
-139.1236354903927
 30
0.0
 10
89.31599525761892
 20
-139.2421467750853
 30
0.0
 10
89.50582001885618
 20
-139.2421467750853
 30
0.0
 10
89.69598928964199
 20
-139.2421467750853
 30
0.0
 10
89.77281491896305
 20
-139.1236354903927
 30
0.0
 10
89.77281491896305
 20
-139.0009900911178
 30
0.0
 10
89.77281491896305
 20
-138.8655978385475
 30
0.0
 10
89.68014185040983
 20
-138.7705132031546
 30
0.0
 10
89.50582001885618
 20
-138.7705132031546
 30
0.0
  0
HATCH
  5
5F
330
56
100
AcDbEntity
  8
_U+30EC_U+30A4_U+30E4_U+30FC 1
 62
     7
420
 16777215
100
AcDbHatch
 10
0.0
 20
0.0
 30
0.0
210
0.0
220
0.0
230
1.0
  2
SOLID
 70
     1
 71
     0
 91
        3
 92
        1
 93
        1
 72
     4
 94
        3
 73
     0
 74
     1
 95
       29
 96
       25
 40
0.0
 40
0.0
 40
0.0
 40
0.0
 40
1.0
 40
1.0
 40
1.0
 40
2.0
 40
2.0
 40
2.0
 40
3.0
 40
3.0
 40
3.0
 40
4.0
 40
4.0
 40
4.0
 40
5.0
 40
5.0
 40
5.0
 40
6.0
 40
6.0
 40
6.0
 40
7.0
 40
7.0
 40
7.0
 40
8.0
 40
8.0
 40
8.0
 40
8.0
 10
89.50582001885618
 20
-140.2215874215418
 10
89.22091062222603
 20
-140.2215874215418
 10
88.94978160753686
 20
-140.0841281116804
 10
88.94978160753686
 20
-139.7351399390245
 10
88.94978160753686
 20
-139.4791693444705
 10
89.10136580888786
 20
-139.3840847090776
 10
89.21436494080405
 20
-139.3227620094401
 10
89.08103974552488
 20
-139.2635063670938
 10
88.99939098252446
 20
-139.1491291969836
 10
88.99939098252446
 20
-138.9882432378224
 10
88.99939098252446
 20
-138.7133246180994
 10
89.21195337396438
 20
-138.5779323655291
 10
89.50582001885618
 20
-138.5779323655291
 10
89.80898842155817
 20
-138.5779323655291
 10
90.01224905518791
 20
-138.7219373568126
 10
90.01224905518791
 20
-138.9882432378224
 10
90.01224905518791
 20
-139.1491291969836
 10
89.92887774444486
 20
-139.2635063670938
 10
89.79520803961718
 20
-139.3227620094401
 10
89.89029267501007
 20
-139.3734049130733
 10
90.05979137288436
 20
-139.4684895484662
 10
90.05979137288436
 20
-139.7310058244423
 10
90.05979137288436
 20
-140.1054877036889
 10
89.76144610386173
 20
-140.2215874215418
 10
89.50582001885618
 20
-140.2215874215418
 97
        0
 97
        0
 92
        1
 93
        1
 72
     4
 94
        3
 73
     0
 74
     1
 95
       17
 96
       13
 40
0.0
 40
0.0
 40
0.0
 40
0.0
 40
1.0
 40
1.0
 40
1.0
 40
2.0
 40
2.0
 40
2.0
 40
3.0
 40
3.0
 40
3.0
 40
4.0
 40
4.0
 40
4.0
 40
4.0
 10
89.50582001885618
 20
-139.4305934981285
 10
89.35216876021404
 20
-139.4305934981285
 10
89.18956025331025
 20
-139.5174099043568
 10
89.18956025331025
 20
-139.720326028438
 10
89.18956025331025
 20
-139.9256537193589
 10
89.32495250588057
 20
-140.0269395266252
 10
89.50582001885618
 20
-140.0269395266252
 10
89.70494653790362
 20
-140.0269395266252
 10
89.82242429395065
 20
-139.9042941273503
 10
89.82242429395065
 20
-139.7265272003114
 10
89.82242429395065
 20
-139.5046630510613
 10
89.64844697194553
 20
-139.4305934981285
 10
89.50582001885618
 20
-139.4305934981285
 97
        0
 97
        0
 92
        1
 93
        1
 72
     4
 94
        3
 73
     0
 74
     1
 95
       17
 96
       13
 40
0.0
 40
0.0
 40
0.0
 40
0.0
 40
1.0
 40
1.0
 40
1.0
 40
2.0
 40
2.0
 40
2.0
 40
3.0
 40
3.0
 40
3.0
 40
4.0
 40
4.0
 40
4.0
 40
4.0
 10
89.50582001885618
 20
-138.7705132031546
 10
89.32977563955993
 20
-138.7705132031546
 10
89.23916962829784
 20
-138.8655978385475
 10
89.23916962829784
 20
-139.0009900911178
 10
89.23916962829784
 20
-139.1236354903927
 10
89.31599525761892
 20
-139.2421467750853
 10
89.50582001885618
 20
-139.2421467750853
 10
89.69598928964199
 20
-139.2421467750853
 10
89.77281491896305
 20
-139.1236354903927
 10
89.77281491896305
 20
-139.0009900911178
 10
89.77281491896305
 20
-138.8655978385475
 10
89.68014185040983
 20
-138.7705132031546
 10
89.50582001885618
 20
-138.7705132031546
 97
        0
 97
        0
 75
     2
 76
     1
 98
        0
  0
ENDBLK
  5
59
330
56
100
AcDbEntity
  8
0
100
AcDbBlockEnd
  0
BLOCK
  5
6E
330
6C
100
AcDbEntity
  8
0
100
AcDbBlockBegin
  2
block 3
 70
     0
 10
0.0
 20
0.0
 30
0.0
  3
block 3
  1

  0
SPLINE
  5
70
330
6C
100
AcDbEntity
  8
_U+30EC_U+30A4_U+30E4_U+30FC 1
370
     0
100
AcDbSpline
210
0.0
220
0.0
230
1.0
 70
    11
 71
     3
 72
    29
 73
    25
 74
     0
 42
0.0000000001
 43
0.0000000001
 12
1.0
 22
0.0
 32
0.0
 13
1.0
 23
0.0
 33
0.0
 40
0.0
 40
0.0
 40
0.0
 40
0.0
 40
1.0
 40
1.0
 40
1.0
 40
2.0
 40
2.0
 40
2.0
 40
3.0
 40
3.0
 40
3.0
 40
4.0
 40
4.0
 40
4.0
 40
5.0
 40
5.0
 40
5.0
 40
6.0
 40
6.0
 40
6.0
 40
7.0
 40
7.0
 40
7.0
 40
8.0
 40
8.0
 40
8.0
 40
8.0
 10
83.91494681061849
 20
-117.0724405631798
 30
0.0
 10
83.63003741398833
 20
-117.0724405631798
 30
0.0
 10
83.3587361445249
 20
-116.9348089985441
 30
0.0
 10
83.3587361445249
 20
-116.5858208258883
 30
0.0
 10
83.3587361445249
 20
-116.3298502313342
 30
0.0
 10
83.51014809110163
 20
-116.2345933411671
 30
0.0
 10
83.6233194777921
 20
-116.1732706415296
 30
0.0
 10
83.48982202773865
 20
-116.1140149991833
 30
0.0
 10
83.40851777428676
 20
-115.9998100838473
 30
0.0
 10
83.40851777428676
 20
-115.8390963794604
 30
0.0
 10
83.40851777428676
 20
-115.5640055049632
 30
0.0
 10
83.62108016572668
 20
-115.4286132523929
 30
0.0
 10
83.91494681061849
 20
-115.4286132523929
 30
0.0
 10
84.21777070377195
 20
-115.4286132523929
 30
0.0
 10
84.42137584695021
 20
-115.572445988902
 30
0.0
 10
84.42137584695021
 20
-115.8390963794604
 30
0.0
 10
84.42137584695021
 20
-115.9998100838473
 30
0.0
 10
84.33766002665864
 20
-116.1140149991833
 30
0.0
 10
84.20433483137947
 20
-116.1732706415296
 30
0.0
 10
84.29924721199811
 20
-116.224085799937
 30
0.0
 10
84.4687459098724
 20
-116.3193426901042
 30
0.0
 10
84.4687459098724
 20
-116.581686711306
 30
0.0
 10
84.4687459098724
 20
-116.9559963357784
 30
0.0
 10
84.17040064084976
 20
-117.0724405631798
 30
0.0
 10
83.91494681061849
 20
-117.0724405631798
 30
0.0
  0
SPLINE
  5
71
330
6C
100
AcDbEntity
  8
_U+30EC_U+30A4_U+30E4_U+30FC 1
370
     0
100
AcDbSpline
210
0.0
220
0.0
230
1.0
 70
    11
 71
     3
 72
    17
 73
    13
 74
     0
 42
0.0000000001
 43
0.0000000001
 12
1.0
 22
0.0
 32
0.0
 13
1.0
 23
0.0
 33
0.0
 40
0.0
 40
0.0
 40
0.0
 40
0.0
 40
1.0
 40
1.0
 40
1.0
 40
2.0
 40
2.0
 40
2.0
 40
3.0
 40
3.0
 40
3.0
 40
4.0
 40
4.0
 40
4.0
 40
4.0
 10
83.91494681061849
 20
-116.2812743849922
 30
0.0
 10
83.76112329720209
 20
-116.2812743849922
 30
0.0
 10
83.59834253552403
 20
-116.3679185364462
 30
0.0
 10
83.59834253552403
 20
-116.5710069153017
 30
0.0
 10
83.59834253552403
 20
-116.7761623514483
 30
0.0
 10
83.73407929764288
 20
-116.8777926682632
 30
0.0
 10
83.91494681061849
 20
-116.8777926682632
 30
0.0
 10
84.11390107489167
 20
-116.8777926682632
 30
0.0
 10
84.23137883093868
 20
-116.7551472689883
 30
0.0
 10
84.23137883093868
 20
-116.5773803419494
 30
0.0
 10
84.23137883093868
 20
-116.3551716831508
 30
0.0
 10
84.05740150893357
 20
-116.2812743849922
 30
0.0
 10
83.91494681061849
 20
-116.2812743849922
 30
0.0
  0
SPLINE
  5
72
330
6C
100
AcDbEntity
  8
_U+30EC_U+30A4_U+30E4_U+30FC 1
370
     0
100
AcDbSpline
210
0.0
220
0.0
230
1.0
 70
    11
 71
     3
 72
    17
 73
    13
 74
     0
 42
0.0000000001
 43
0.0000000001
 12
1.0
 22
0.0
 32
0.0
 13
1.0
 23
0.0
 33
0.0
 40
0.0
 40
0.0
 40
0.0
 40
0.0
 40
1.0
 40
1.0
 40
1.0
 40
2.0
 40
2.0
 40
2.0
 40
3.0
 40
3.0
 40
3.0
 40
4.0
 40
4.0
 40
4.0
 40
4.0
 10
83.91494681061849
 20
-115.6211940900183
 30
0.0
 10
83.7385579217737
 20
-115.6211940900183
 30
0.0
 10
83.64812416528589
 20
-115.7162787254112
 30
0.0
 10
83.64812416528589
 20
-115.8516709779815
 30
0.0
 10
83.64812416528589
 20
-115.9744886320307
 30
0.0
 10
83.72494979460696
 20
-116.0929999167233
 30
0.0
 10
83.91494681061849
 20
-116.0929999167233
 30
0.0
 10
84.10477157185575
 20
-116.0929999167233
 30
0.0
 10
84.18159720117683
 20
-115.9744886320307
 30
0.0
 10
84.18159720117683
 20
-115.8516709779815
 30
0.0
 10
84.18159720117683
 20
-115.7162787254112
 30
0.0
 10
84.0889241326236
 20
-115.6211940900183
 30
0.0
 10
83.91494681061849
 20
-115.6211940900183
 30
0.0
  0
HATCH
  5
73
330
6C
100
AcDbEntity
  8
_U+30EC_U+30A4_U+30E4_U+30FC 1
 62
     7
420
 16777215
100
AcDbHatch
 10
0.0
 20
0.0
 30
0.0
210
0.0
220
0.0
230
1.0
  2
SOLID
 70
     1
 71
     0
 91
        3
 92
        1
 93
        1
 72
     4
 94
        3
 73
     0
 74
     1
 95
       29
 96
       25
 40
0.0
 40
0.0
 40
0.0
 40
0.0
 40
1.0
 40
1.0
 40
1.0
 40
2.0
 40
2.0
 40
2.0
 40
3.0
 40
3.0
 40
3.0
 40
4.0
 40
4.0
 40
4.0
 40
5.0
 40
5.0
 40
5.0
 40
6.0
 40
6.0
 40
6.0
 40
7.0
 40
7.0
 40
7.0
 40
8.0
 40
8.0
 40
8.0
 40
8.0
 10
83.91494681061849
 20
-117.0724405631798
 10
83.63003741398833
 20
-117.0724405631798
 10
83.3587361445249
 20
-116.9348089985441
 10
83.3587361445249
 20
-116.5858208258883
 10
83.3587361445249
 20
-116.3298502313342
 10
83.51014809110163
 20
-116.2345933411671
 10
83.6233194777921
 20
-116.1732706415296
 10
83.48982202773865
 20
-116.1140149991833
 10
83.40851777428676
 20
-115.9998100838473
 10
83.40851777428676
 20
-115.8390963794604
 10
83.40851777428676
 20
-115.5640055049632
 10
83.62108016572668
 20
-115.4286132523929
 10
83.91494681061849
 20
-115.4286132523929
 10
84.21777070377195
 20
-115.4286132523929
 10
84.42137584695021
 20
-115.572445988902
 10
84.42137584695021
 20
-115.8390963794604
 10
84.42137584695021
 20
-115.9998100838473
 10
84.33766002665864
 20
-116.1140149991833
 10
84.20433483137947
 20
-116.1732706415296
 10
84.29924721199811
 20
-116.224085799937
 10
84.4687459098724
 20
-116.3193426901042
 10
84.4687459098724
 20
-116.581686711306
 10
84.4687459098724
 20
-116.9559963357784
 10
84.17040064084976
 20
-117.0724405631798
 10
83.91494681061849
 20
-117.0724405631798
 97
        0
 97
        0
 92
        1
 93
        1
 72
     4
 94
        3
 73
     0
 74
     1
 95
       17
 96
       13
 40
0.0
 40
0.0
 40
0.0
 40
0.0
 40
1.0
 40
1.0
 40
1.0
 40
2.0
 40
2.0
 40
2.0
 40
3.0
 40
3.0
 40
3.0
 40
4.0
 40
4.0
 40
4.0
 40
4.0
 10
83.91494681061849
 20
-116.2812743849922
 10
83.76112329720209
 20
-116.2812743849922
 10
83.59834253552403
 20
-116.3679185364462
 10
83.59834253552403
 20
-116.5710069153017
 10
83.59834253552403
 20
-116.7761623514483
 10
83.73407929764288
 20
-116.8777926682632
 10
83.91494681061849
 20
-116.8777926682632
 10
84.11390107489167
 20
-116.8777926682632
 10
84.23137883093868
 20
-116.7551472689883
 10
84.23137883093868
 20
-116.5773803419494
 10
84.23137883093868
 20
-116.3551716831508
 10
84.05740150893357
 20
-116.2812743849922
 10
83.91494681061849
 20
-116.2812743849922
 97
        0
 97
        0
 92
        1
 93
        1
 72
     4
 94
        3
 73
     0
 74
     1
 95
       17
 96
       13
 40
0.0
 40
0.0
 40
0.0
 40
0.0
 40
1.0
 40
1.0
 40
1.0
 40
2.0
 40
2.0
 40
2.0
 40
3.0
 40
3.0
 40
3.0
 40
4.0
 40
4.0
 40
4.0
 40
4.0
 10
83.91494681061849
 20
-115.6211940900183
 10
83.7385579217737
 20
-115.6211940900183
 10
83.64812416528589
 20
-115.7162787254112
 10
83.64812416528589
 20
-115.8516709779815
 10
83.64812416528589
 20
-115.9744886320307
 10
83.72494979460696
 20
-116.0929999167233
 10
83.91494681061849
 20
-116.0929999167233
 10
84.10477157185575
 20
-116.0929999167233
 10
84.18159720117683
 20
-115.9744886320307
 10
84.18159720117683
 20
-115.8516709779815
 10
84.18159720117683
 20
-115.7162787254112
 10
84.0889241326236
 20
-115.6211940900183
 10
83.91494681061849
 20
-115.6211940900183
 97
        0
 97
        0
 75
     2
 76
     1
 98
        0
  0
ENDBLK
  5
6F
330
6C
100
AcDbEntity
  8
0
100
AcDbBlockEnd
  0
BLOCK
  5
82
330
80
100
AcDbEntity
  8
0
100
AcDbBlockBegin
  2
block 4
 70
     0
 10
0.0
 20
0.0
 30
0.0
  3
block 4
  1

  0
SPLINE
  5
84
330
80
100
AcDbEntity
  8
_U+30EC_U+30A4_U+30E4_U+30FC 1
370
     0
100
AcDbSpline
210
0.0
220
0.0
230
1.0
 70
    11
 71
     3
 72
    26
 73
    22
 74
     0
 42
0.0000000001
 43
0.0000000001
 12
1.0
 22
0.0
 32
0.0
 13
1.0
 23
0.0
 33
0.0
 40
0.0
 40
0.0
 40
0.0
 40
0.0
 40
1.0
 40
1.0
 40
1.0
 40
2.0
 40
2.0
 40
2.0
 40
3.0
 40
3.0
 40
3.0
 40
4.0
 40
4.0
 40
4.0
 40
5.0
 40
5.0
 40
5.0
 40
6.0
 40
6.0
 40
6.0
 40
7.0
 40
7.0
 40
7.0
 40
7.0
 10
100.7018635815954
 20
-129.9434895508475
 30
0.0
 10
100.7018635815954
 20
-129.9434895508475
 30
0.0
 10
99.5977104785728
 20
-129.9434895508475
 30
0.0
 10
99.5977104785728
 20
-129.9434895508475
 30
0.0
 10
99.5977104785728
 20
-129.9434895508475
 30
0.0
 10
99.5977104785728
 20
-130.2959228189885
 30
0.0
 10
99.5977104785728
 20
-130.2959228189885
 30
0.0
 10
99.5977104785728
 20
-130.2959228189885
 30
0.0
 10
99.44957137270706
 20
-130.2959228189885
 30
0.0
 10
99.44957137270706
 20
-130.2959228189885
 30
0.0
 10
99.43475746212049
 20
-129.9410779840078
 30
0.0
 10
99.27180444566817
 20
-129.8914686090202
 30
0.0
 10
99.15742727555786
 20
-129.8597737305559
 30
0.0
 10
99.15742727555786
 20
-129.8597737305559
 30
0.0
 10
99.15742727555786
 20
-129.7037109050741
 30
0.0
 10
99.15742727555786
 20
-129.7037109050741
 30
0.0
 10
99.15742727555786
 20
-129.7037109050741
 30
0.0
 10
100.7018635815954
 20
-129.7037109050741
 30
0.0
 10
100.7018635815954
 20
-129.7037109050741
 30
0.0
 10
100.7018635815954
 20
-129.7037109050741
 30
0.0
 10
100.7018635815954
 20
-129.9434895508475
 30
0.0
 10
100.7018635815954
 20
-129.9434895508475
 30
0.0
  0
HATCH
  5
85
330
80
100
AcDbEntity
  8
_U+30EC_U+30A4_U+30E4_U+30FC 1
 62
     7
420
 16777215
100
AcDbHatch
 10
0.0
 20
0.0
 30
0.0
210
0.0
220
0.0
230
1.0
  2
SOLID
 70
     1
 71
     0
 91
        1
 92
        1
 93
        1
 72
     4
 94
        3
 73
     0
 74
     1
 95
       26
 96
       22
 40
0.0
 40
0.0
 40
0.0
 40
0.0
 40
1.0
 40
1.0
 40
1.0
 40
2.0
 40
2.0
 40
2.0
 40
3.0
 40
3.0
 40
3.0
 40
4.0
 40
4.0
 40
4.0
 40
5.0
 40
5.0
 40
5.0
 40
6.0
 40
6.0
 40
6.0
 40
7.0
 40
7.0
 40
7.0
 40
7.0
 10
100.7018635815954
 20
-129.9434895508475
 10
100.7018635815954
 20
-129.9434895508475
 10
99.5977104785728
 20
-129.9434895508475
 10
99.5977104785728
 20
-129.9434895508475
 10
99.5977104785728
 20
-129.9434895508475
 10
99.5977104785728
 20
-130.2959228189885
 10
99.5977104785728
 20
-130.2959228189885
 10
99.5977104785728
 20
-130.2959228189885
 10
99.44957137270706
 20
-130.2959228189885
 10
99.44957137270706
 20
-130.2959228189885
 10
99.43475746212049
 20
-129.9410779840078
 10
99.27180444566817
 20
-129.8914686090202
 10
99.15742727555786
 20
-129.8597737305559
 10
99.15742727555786
 20
-129.8597737305559
 10
99.15742727555786
 20
-129.7037109050741
 10
99.15742727555786
 20
-129.7037109050741
 10
99.15742727555786
 20
-129.7037109050741
 10
100.7018635815954
 20
-129.7037109050741
 10
100.7018635815954
 20
-129.7037109050741
 10
100.7018635815954
 20
-129.7037109050741
 10
100.7018635815954
 20
-129.9434895508475
 10
100.7018635815954
 20
-129.9434895508475
 97
        0
 97
        0
 75
     2
 76
     1
 98
        0
  0
SPLINE
  5
86
330
80
100
AcDbEntity
  8
_U+30EC_U+30A4_U+30E4_U+30FC 1
370
     0
100
AcDbSpline
210
0.0
220
0.0
230
1.0
 70
    11
 71
     3
 72
    62
 73
    58
 74
     0
 42
0.0000000001
 43
0.0000000001
 12
1.0
 22
0.0
 32
0.0
 13
1.0
 23
0.0
 33
0.0
 40
0.0
 40
0.0
 40
0.0
 40
0.0
 40
1.0
 40
1.0
 40
1.0
 40
2.0
 40
2.0
 40
2.0
 40
3.0
 40
3.0
 40
3.0
 40
4.0
 40
4.0
 40
4.0
 40
5.0
 40
5.0
 40
5.0
 40
6.0
 40
6.0
 40
6.0
 40
7.0
 40
7.0
 40
7.0
 40
8.0
 40
8.0
 40
8.0
 40
9.0
 40
9.0
 40
9.0
 40
10.0
 40
10.0
 40
10.0
 40
11.0
 40
11.0
 40
11.0
 40
12.0
 40
12.0
 40
12.0
 40
13.0
 40
13.0
 40
13.0
 40
14.0
 40
14.0
 40
14.0
 40
15.0
 40
15.0
 40
15.0
 40
16.0
 40
16.0
 40
16.0
 40
17.0
 40
17.0
 40
17.0
 40
18.0
 40
18.0
 40
18.0
 40
19.0
 40
19.0
 40
19.0
 40
19.0
 10
100.7525064852286
 20
-128.6426214956171
 30
0.0
 10
100.7525064852286
 20
-128.744251812432
 30
0.0
 10
100.7314914027685
 20
-128.9771402672349
 30
0.0
 10
100.545456246565
 20
-129.110465462514
 30
0.0
 10
100.4331461337459
 20
-129.1897026586748
 30
0.0
 10
100.3339273837707
 20
-129.1941812828056
 30
0.0
 10
100.2491780348335
 20
-129.1986599069365
 30
0.0
 10
100.2491780348335
 20
-129.1986599069365
 30
0.0
 10
100.2491780348335
 20
-128.9637043948424
 30
0.0
 10
100.2491780348335
 20
-128.9637043948424
 30
0.0
 10
100.3232475877664
 20
-128.9612928280027
 30
0.0
 10
100.5578585903119
 20
-128.9499240129014
 30
0.0
 10
100.5578585903119
 20
-128.647100119748
 30
0.0
 10
100.5578585903119
 20
-128.4999945425278
 30
0.0
 10
100.4882676615099
 20
-128.337386035624
 30
0.0
 10
100.2598578308378
 20
-128.337386035624
 30
0.0
 10
100.1434136034364
 20
-128.337386035624
 30
0.0
 10
100.0948377570944
 20
-128.37803816235
 30
0.0
 10
100.06314287863
 20
-128.4121446076539
 30
0.0
 10
99.98907332569718
 20
-128.4910372942661
 30
0.0
 10
99.97632647240175
 20
-128.6154052412837
 30
0.0
 10
99.97632647240175
 20
-128.6743163740814
 30
0.0
 10
99.97632647240175
 20
-128.6946424374444
 30
0.0
 10
99.97839352969291
 20
-128.7328829973307
 30
0.0
 10
99.98252764427521
 20
-128.7625108185038
 30
0.0
 10
99.98252764427521
 20
-128.7625108185038
 30
0.0
 10
99.7878797493586
 20
-128.7625108185038
 30
0.0
 10
99.7878797493586
 20
-128.7625108185038
 30
0.0
 10
99.79442543078056
 20
-128.7218586917779
 30
0.0
 10
99.79649248807172
 20
-128.6763834313726
 30
0.0
 10
99.79649248807172
 20
-128.6698377499506
 30
0.0
 10
99.79649248807172
 20
-128.5995578020515
 30
0.0
 10
99.77513289606317
 20
-128.3869954106116
 30
0.0
 10
99.5384548362265
 20
-128.3869954106116
 30
0.0
 10
99.3606879091876
 20
-128.3869954106116
 30
0.0
 10
99.30556638142362
 20
-128.5272107968613
 30
0.0
 10
99.30556638142362
 20
-128.6446885529083
 30
0.0
 10
99.30556638142362
 20
-128.9275308922473
 30
0.0
 10
99.5384548362265
 20
-128.9364881405089
 30
0.0
 10
99.61011282231969
 20
-128.9409667646398
 30
0.0
 10
99.61011282231969
 20
-128.9409667646398
 30
0.0
 10
99.61011282231969
 20
-129.1580077802105
 30
0.0
 10
99.61011282231969
 20
-129.1580077802105
 30
0.0
 10
99.48540036575365
 20
-129.1490505319489
 30
0.0
 10
99.10885142921585
 20
-129.1197672203242
 30
0.0
 10
99.10885142921585
 20
-128.6312526805158
 30
0.0
 10
99.10885142921585
 20
-128.3914740347424
 30
0.0
 10
99.23597545262156
 20
-128.1337808924457
 30
0.0
 10
99.53190915480452
 20
-128.1337808924457
 30
0.0
 10
99.71828882055654
 20
-128.1337808924457
 30
0.0
 10
99.80062660265402
 20
-128.2357557188091
 30
0.0
 10
99.86194930229146
 20
-128.3418646597548
 30
0.0
 10
99.88951006617346
 20
-128.2764078455351
 30
0.0
 10
99.96978079097978
 20
-128.0817599506184
 30
0.0
 10
100.2471109775424
 20
-128.0817599506184
 30
0.0
 10
100.5854193541939
 20
-128.0817599506184
 30
0.0
 10
100.7525064852286
 20
-128.3463432838856
 30
0.0
 10
100.7525064852286
 20
-128.6426214956171
 30
0.0
  0
HATCH
  5
87
330
80
100
AcDbEntity
  8
_U+30EC_U+30A4_U+30E4_U+30FC 1
 62
     7
420
 16777215
100
AcDbHatch
 10
0.0
 20
0.0
 30
0.0
210
0.0
220
0.0
230
1.0
  2
SOLID
 70
     1
 71
     0
 91
        1
 92
        1
 93
        1
 72
     4
 94
        3
 73
     0
 74
     1
 95
       62
 96
       58
 40
0.0
 40
0.0
 40
0.0
 40
0.0
 40
1.0
 40
1.0
 40
1.0
 40
2.0
 40
2.0
 40
2.0
 40
3.0
 40
3.0
 40
3.0
 40
4.0
 40
4.0
 40
4.0
 40
5.0
 40
5.0
 40
5.0
 40
6.0
 40
6.0
 40
6.0
 40
7.0
 40
7.0
 40
7.0
 40
8.0
 40
8.0
 40
8.0
 40
9.0
 40
9.0
 40
9.0
 40
10.0
 40
10.0
 40
10.0
 40
11.0
 40
11.0
 40
11.0
 40
12.0
 40
12.0
 40
12.0
 40
13.0
 40
13.0
 40
13.0
 40
14.0
 40
14.0
 40
14.0
 40
15.0
 40
15.0
 40
15.0
 40
16.0
 40
16.0
 40
16.0
 40
17.0
 40
17.0
 40
17.0
 40
18.0
 40
18.0
 40
18.0
 40
19.0
 40
19.0
 40
19.0
 40
19.0
 10
100.7525064852286
 20
-128.6426214956171
 10
100.7525064852286
 20
-128.744251812432
 10
100.7314914027685
 20
-128.9771402672349
 10
100.545456246565
 20
-129.110465462514
 10
100.4331461337459
 20
-129.1897026586748
 10
100.3339273837707
 20
-129.1941812828056
 10
100.2491780348335
 20
-129.1986599069365
 10
100.2491780348335
 20
-129.1986599069365
 10
100.2491780348335
 20
-128.9637043948424
 10
100.2491780348335
 20
-128.9637043948424
 10
100.3232475877664
 20
-128.9612928280027
 10
100.5578585903119
 20
-128.9499240129014
 10
100.5578585903119
 20
-128.647100119748
 10
100.5578585903119
 20
-128.4999945425278
 10
100.4882676615099
 20
-128.337386035624
 10
100.2598578308378
 20
-128.337386035624
 10
100.1434136034364
 20
-128.337386035624
 10
100.0948377570944
 20
-128.37803816235
 10
100.06314287863
 20
-128.4121446076539
 10
99.98907332569718
 20
-128.4910372942661
 10
99.97632647240175
 20
-128.6154052412837
 10
99.97632647240175
 20
-128.6743163740814
 10
99.97632647240175
 20
-128.6946424374444
 10
99.97839352969291
 20
-128.7328829973307
 10
99.98252764427521
 20
-128.7625108185038
 10
99.98252764427521
 20
-128.7625108185038
 10
99.7878797493586
 20
-128.7625108185038
 10
99.7878797493586
 20
-128.7625108185038
 10
99.79442543078056
 20
-128.7218586917779
 10
99.79649248807172
 20
-128.6763834313726
 10
99.79649248807172
 20
-128.6698377499506
 10
99.79649248807172
 20
-128.5995578020515
 10
99.77513289606317
 20
-128.3869954106116
 10
99.5384548362265
 20
-128.3869954106116
 10
99.3606879091876
 20
-128.3869954106116
 10
99.30556638142362
 20
-128.5272107968613
 10
99.30556638142362
 20
-128.6446885529083
 10
99.30556638142362
 20
-128.9275308922473
 10
99.5384548362265
 20
-128.9364881405089
 10
99.61011282231969
 20
-128.9409667646398
 10
99.61011282231969
 20
-128.9409667646398
 10
99.61011282231969
 20
-129.1580077802105
 10
99.61011282231969
 20
-129.1580077802105
 10
99.48540036575365
 20
-129.1490505319489
 10
99.10885142921585
 20
-129.1197672203242
 10
99.10885142921585
 20
-128.6312526805158
 10
99.10885142921585
 20
-128.3914740347424
 10
99.23597545262156
 20
-128.1337808924457
 10
99.53190915480452
 20
-128.1337808924457
 10
99.71828882055654
 20
-128.1337808924457
 10
99.80062660265402
 20
-128.2357557188091
 10
99.86194930229146
 20
-128.3418646597548
 10
99.88951006617346
 20
-128.2764078455351
 10
99.96978079097978
 20
-128.0817599506184
 10
100.2471109775424
 20
-128.0817599506184
 10
100.5854193541939
 20
-128.0817599506184
 10
100.7525064852286
 20
-128.3463432838856
 10
100.7525064852286
 20
-128.6426214956171
 97
        0
 97
        0
 75
     2
 76
     1
 98
        0
  0
ENDBLK
  5
83
330
80
100
AcDbEntity
  8
0
100
AcDbBlockEnd
  0
BLOCK
  5
8C
330
8A
100
AcDbEntity
  8
0
100
AcDbBlockBegin
  2
block 5
 70
     0
 10
0.0
 20
0.0
 30
0.0
  3
block 5
  1

  0
SPLINE
  5
8E
330
8A
100
AcDbEntity
  8
_U+30EC_U+30A4_U+30E4_U+30FC 1
370
     0
100
AcDbSpline
210
0.0
220
0.0
230
1.0
 70
    11
 71
     3
 72
    26
 73
    22
 74
     0
 42
0.0000000001
 43
0.0000000001
 12
1.0
 22
0.0
 32
0.0
 13
1.0
 23
0.0
 33
0.0
 40
0.0
 40
0.0
 40
0.0
 40
0.0
 40
1.0
 40
1.0
 40
1.0
 40
2.0
 40
2.0
 40
2.0
 40
3.0
 40
3.0
 40
3.0
 40
4.0
 40
4.0
 40
4.0
 40
5.0
 40
5.0
 40
5.0
 40
6.0
 40
6.0
 40
6.0
 40
7.0
 40
7.0
 40
7.0
 40
7.0
 10
82.18361407450618
 20
-129.0208929798976
 30
0.0
 10
82.18361407450618
 20
-129.0208929798976
 30
0.0
 10
82.18361407450618
 20
-127.9163953673265
 30
0.0
 10
82.18361407450618
 20
-127.9163953673265
 30
0.0
 10
82.18361407450618
 20
-127.9163953673265
 30
0.0
 10
81.85357392701926
 20
-127.9163953673265
 30
0.0
 10
81.85357392701926
 20
-127.9163953673265
 30
0.0
 10
81.85357392701926
 20
-127.9163953673265
 30
0.0
 10
81.85357392701926
 20
-127.7682562614607
 30
0.0
 10
81.85357392701926
 20
-127.7682562614607
 30
0.0
 10
82.18568113179734
 20
-127.7536146056484
 30
0.0
 10
82.2321899208482
 20
-127.5906615891961
 30
0.0
 10
82.26181774202135
 20
-127.4764566738601
 30
0.0
 10
82.26181774202135
 20
-127.4764566738601
 30
0.0
 10
82.40788979059595
 20
-127.4764566738601
 30
0.0
 10
82.40788979059595
 20
-127.4764566738601
 30
0.0
 10
82.40788979059595
 20
-127.4764566738601
 30
0.0
 10
82.40788979059595
 20
-129.0208929798976
 30
0.0
 10
82.40788979059595
 20
-129.0208929798976
 30
0.0
 10
82.40788979059595
 20
-129.0208929798976
 30
0.0
 10
82.18361407450618
 20
-129.0208929798976
 30
0.0
 10
82.18361407450618
 20
-129.0208929798976
 30
0.0
  0
HATCH
  5
8F
330
8A
100
AcDbEntity
  8
_U+30EC_U+30A4_U+30E4_U+30FC 1
 62
     7
420
 16777215
100
AcDbHatch
 10
0.0
 20
0.0
 30
0.0
210
0.0
220
0.0
230
1.0
  2
SOLID
 70
     1
 71
     0
 91
        1
 92
        1
 93
        1
 72
     4
 94
        3
 73
     0
 74
     1
 95
       26
 96
       22
 40
0.0
 40
0.0
 40
0.0
 40
0.0
 40
1.0
 40
1.0
 40
1.0
 40
2.0
 40
2.0
 40
2.0
 40
3.0
 40
3.0
 40
3.0
 40
4.0
 40
4.0
 40
4.0
 40
5.0
 40
5.0
 40
5.0
 40
6.0
 40
6.0
 40
6.0
 40
7.0
 40
7.0
 40
7.0
 40
7.0
 10
82.18361407450618
 20
-129.0208929798976
 10
82.18361407450618
 20
-129.0208929798976
 10
82.18361407450618
 20
-127.9163953673265
 10
82.18361407450618
 20
-127.9163953673265
 10
82.18361407450618
 20
-127.9163953673265
 10
81.85357392701926
 20
-127.9163953673265
 10
81.85357392701926
 20
-127.9163953673265
 10
81.85357392701926
 20
-127.9163953673265
 10
81.85357392701926
 20
-127.7682562614607
 10
81.85357392701926
 20
-127.7682562614607
 10
82.18568113179734
 20
-127.7536146056484
 10
82.2321899208482
 20
-127.5906615891961
 10
82.26181774202135
 20
-127.4764566738601
 10
82.26181774202135
 20
-127.4764566738601
 10
82.40788979059595
 20
-127.4764566738601
 10
82.40788979059595
 20
-127.4764566738601
 10
82.40788979059595
 20
-127.4764566738601
 10
82.40788979059595
 20
-129.0208929798976
 10
82.40788979059595
 20
-129.0208929798976
 10
82.40788979059595
 20
-129.0208929798976
 10
82.18361407450618
 20
-129.0208929798976
 10
82.18361407450618
 20
-129.0208929798976
 97
        0
 97
        0
 75
     2
 76
     1
 98
        0
  0
ENDBLK
  5
8D
330
8A
100
AcDbEntity
  8
0
100
AcDbBlockEnd
  0
BLOCK
  5
9F
330
9D
100
AcDbEntity
  8
0
100
AcDbBlockBegin
  2
block 6
 70
     0
 10
0.0
 20
0.0
 30
0.0
  3
block 6
  1

  0
SPLINE
  5
A1
330
9D
100
AcDbEntity
  8
_U+30EC_U+30A4_U+30E4_U+30FC 1
370
     0
100
AcDbSpline
210
0.0
220
0.0
230
1.0
 70
    11
 71
     3
 72
    26
 73
    22
 74
     0
 42
0.0000000001
 43
0.0000000001
 12
1.0
 22
0.0
 32
0.0
 13
1.0
 23
0.0
 33
0.0
 40
0.0
 40
0.0
 40
0.0
 40
0.0
 40
1.0
 40
1.0
 40
1.0
 40
2.0
 40
2.0
 40
2.0
 40
3.0
 40
3.0
 40
3.0
 40
4.0
 40
4.0
 40
4.0
 40
5.0
 40
5.0
 40
5.0
 40
6.0
 40
6.0
 40
6.0
 40
7.0
 40
7.0
 40
7.0
 40
7.0
 10
100.7018635815954
 20
-136.2838432819013
 30
0.0
 10
100.7018635815954
 20
-136.2838432819013
 30
0.0
 10
99.5977104785728
 20
-136.2838432819013
 30
0.0
 10
99.5977104785728
 20
-136.2838432819013
 30
0.0
 10
99.5977104785728
 20
-136.2838432819013
 30
0.0
 10
99.5977104785728
 20
-136.6362765500423
 30
0.0
 10
99.5977104785728
 20
-136.6362765500423
 30
0.0
 10
99.5977104785728
 20
-136.6362765500423
 30
0.0
 10
99.44957137270706
 20
-136.6362765500423
 30
0.0
 10
99.44957137270706
 20
-136.6362765500423
 30
0.0
 10
99.43475746212049
 20
-136.2814317150616
 30
0.0
 10
99.27180444566817
 20
-136.231822340074
 30
0.0
 10
99.15742727555786
 20
-136.2001274616097
 30
0.0
 10
99.15742727555786
 20
-136.2001274616097
 30
0.0
 10
99.15742727555786
 20
-136.0440646361279
 30
0.0
 10
99.15742727555786
 20
-136.0440646361279
 30
0.0
 10
99.15742727555786
 20
-136.0440646361279
 30
0.0
 10
100.7018635815954
 20
-136.0440646361279
 30
0.0
 10
100.7018635815954
 20
-136.0440646361279
 30
0.0
 10
100.7018635815954
 20
-136.0440646361279
 30
0.0
 10
100.7018635815954
 20
-136.2838432819013
 30
0.0
 10
100.7018635815954
 20
-136.2838432819013
 30
0.0
  0
HATCH
  5
A2
330
9D
100
AcDbEntity
  8
_U+30EC_U+30A4_U+30E4_U+30FC 1
 62
     7
420
 16777215
100
AcDbHatch
 10
0.0
 20
0.0
 30
0.0
210
0.0
220
0.0
230
1.0
  2
SOLID
 70
     1
 71
     0
 91
        1
 92
        1
 93
        1
 72
     4
 94
        3
 73
     0
 74
     1
 95
       26
 96
       22
 40
0.0
 40
0.0
 40
0.0
 40
0.0
 40
1.0
 40
1.0
 40
1.0
 40
2.0
 40
2.0
 40
2.0
 40
3.0
 40
3.0
 40
3.0
 40
4.0
 40
4.0
 40
4.0
 40
5.0
 40
5.0
 40
5.0
 40
6.0
 40
6.0
 40
6.0
 40
7.0
 40
7.0
 40
7.0
 40
7.0
 10
100.7018635815954
 20
-136.2838432819013
 10
100.7018635815954
 20
-136.2838432819013
 10
99.5977104785728
 20
-136.2838432819013
 10
99.5977104785728
 20
-136.2838432819013
 10
99.5977104785728
 20
-136.2838432819013
 10
99.5977104785728
 20
-136.6362765500423
 10
99.5977104785728
 20
-136.6362765500423
 10
99.5977104785728
 20
-136.6362765500423
 10
99.44957137270706
 20
-136.6362765500423
 10
99.44957137270706
 20
-136.6362765500423
 10
99.43475746212049
 20
-136.2814317150616
 10
99.27180444566817
 20
-136.231822340074
 10
99.15742727555786
 20
-136.2001274616097
 10
99.15742727555786
 20
-136.2001274616097
 10
99.15742727555786
 20
-136.0440646361279
 10
99.15742727555786
 20
-136.0440646361279
 10
99.15742727555786
 20
-136.0440646361279
 10
100.7018635815954
 20
-136.0440646361279
 10
100.7018635815954
 20
-136.0440646361279
 10
100.7018635815954
 20
-136.0440646361279
 10
100.7018635815954
 20
-136.2838432819013
 10
100.7018635815954
 20
-136.2838432819013
 97
        0
 97
        0
 75
     2
 76
     1
 98
        0
  0
ENDBLK
  5
A0
330
9D
100
AcDbEntity
  8
0
100
AcDbBlockEnd
  0
ENDSEC
  0
SECTION
  2
ENTITIES
  0
SPLINE
  5
41
330
1F
100
AcDbEntity
  8
_U+30EC_U+30A4_U+30E4_U+30FC 1
370
     0
100
AcDbSpline
210
0.0
220
0.0
230
1.0
 70
    11
 71
     3
 72
    53
 73
    49
 74
     0
 42
0.0000000001
 43
0.0000000001
 12
1.0
 22
0.0
 32
0.0
 13
1.0
 23
0.0
 33
0.0
 40
0.0
 40
0.0
 40
0.0
 40
0.0
 40
1.0
 40
1.0
 40
1.0
 40
2.0
 40
2.0
 40
2.0
 40
3.0
 40
3.0
 40
3.0
 40
4.0
 40
4.0
 40
4.0
 40
5.0
 40
5.0
 40
5.0
 40
6.0
 40
6.0
 40
6.0
 40
7.0
 40
7.0
 40
7.0
 40
8.0
 40
8.0
 40
8.0
 40
9.0
 40
9.0
 40
9.0
 40
10.0
 40
10.0
 40
10.0
 40
11.0
 40
11.0
 40
11.0
 40
12.0
 40
12.0
 40
12.0
 40
13.0
 40
13.0
 40
13.0
 40
14.0
 40
14.0
 40
14.0
 40
15.0
 40
15.0
 40
15.0
 40
16.0
 40
16.0
 40
16.0
 40
16.0
 10
97.37216751582905
 20
-136.2676485770444
 30
0.0
 10
97.37216751582905
 20
-136.2676485770444
 30
0.0
 10
87.73812415050286
 20
-136.2676485770444
 30
0.0
 10
87.73812415050286
 20
-136.2676485770444
 30
0.0
 10
87.55968915505511
 20
-135.958297743788
 30
0.0
 10
87.22963027458673
 20
-135.7681152438356
 30
0.0
 10
86.8723722281456
 20
-135.7681152438356
 30
0.0
 10
86.8723722281456
 20
-135.7681152438356
 30
0.0
 10
84.37227145859514
 20
-135.7681152438356
 30
0.0
 10
84.37227145859514
 20
-135.7681152438356
 30
0.0
 10
84.37227145859514
 20
-135.7681152438356
 30
0.0
 10
84.37227145859514
 20
-122.7676896915304
 30
0.0
 10
84.37227145859514
 20
-122.7676896915304
 30
0.0
 10
84.37227145859514
 20
-122.7676896915304
 30
0.0
 10
87.37225832650354
 20
-122.7676896915304
 30
0.0
 10
87.37225832650354
 20
-122.7676896915304
 30
0.0
 10
87.64855387501021
 20
-122.7676896915304
 30
0.0
 10
87.8721444248615
 20
-122.5437816360307
 30
0.0
 10
87.8721444248615
 20
-122.2678035805442
 30
0.0
 10
87.8721444248615
 20
-122.0084060806089
 30
0.0
 10
87.67370692992405
 20
-121.7920474695519
 30
0.0
 10
87.41497971430252
 20
-121.7696460806689
 30
0.0
 10
85.05750699666888
 20
-121.567433858497
 30
0.0
 10
82.68694622381359
 20
-121.567433858497
 30
0.0
 10
80.32947350617995
 20
-121.7696460806689
 30
0.0
 10
80.05420101320274
 20
-121.7934233028851
 30
0.0
 10
79.85026018507237
 20
-122.0356052472689
 30
0.0
 10
79.87403740668799
 20
-122.3108777471999
 30
0.0
 10
79.89640553558148
 20
-122.5692521915801
 30
0.0
 10
80.11276212281983
 20
-122.7676896915304
 30
0.0
 10
80.37251239397082
 20
-122.7676896915304
 30
0.0
 10
80.37251239397082
 20
-122.7676896915304
 30
0.0
 10
83.37249926187923
 20
-122.7676896915304
 30
0.0
 10
83.37249926187923
 20
-122.7676896915304
 30
0.0
 10
83.37249926187923
 20
-122.7676896915304
 30
0.0
 10
83.37249926187923
 20
-135.7681152438356
 30
0.0
 10
83.37249926187923
 20
-135.7681152438356
 30
0.0
 10
83.37249926187923
 20
-135.7681152438356
 30
0.0
 10
80.87208099233688
 20
-135.7681152438356
 30
0.0
 10
80.87208099233688
 20
-135.7681152438356
 30
0.0
 10
80.32016017308422
 20
-135.7681152438356
 30
0.0
 10
79.87230879562097
 20
-136.2159666326126
 30
0.0
 10
79.87230879562097
 20
-136.7678874658081
 30
0.0
 10
79.87230879562097
 20
-136.7678874658081
 30
0.0
 10
97.87240639195578
 20
-136.7678874658081
 30
0.0
 10
97.87240639195578
 20
-136.7678874658081
 30
0.0
 10
97.87240639195578
 20
-136.4915919103217
 30
0.0
 10
97.64846306433571
 20
-136.2676485770444
 30
0.0
 10
97.37216751582905
 20
-136.2676485770444
 30
0.0
  0
HATCH
  5
42
330
1F
100
AcDbEntity
  8
_U+30EC_U+30A4_U+30E4_U+30FC 1
 62
   253
420
 11711154
100
AcDbHatch
 10
0.0
 20
0.0
 30
0.0
210
0.0
220
0.0
230
1.0
  2
SOLID
 70
     1
 71
     0
 91
        1
 92
        1
 93
        1
 72
     4
 94
        3
 73
     0
 74
     1
 95
       53
 96
       49
 40
0.0
 40
0.0
 40
0.0
 40
0.0
 40
1.0
 40
1.0
 40
1.0
 40
2.0
 40
2.0
 40
2.0
 40
3.0
 40
3.0
 40
3.0
 40
4.0
 40
4.0
 40
4.0
 40
5.0
 40
5.0
 40
5.0
 40
6.0
 40
6.0
 40
6.0
 40
7.0
 40
7.0
 40
7.0
 40
8.0
 40
8.0
 40
8.0
 40
9.0
 40
9.0
 40
9.0
 40
10.0
 40
10.0
 40
10.0
 40
11.0
 40
11.0
 40
11.0
 40
12.0
 40
12.0
 40
12.0
 40
13.0
 40
13.0
 40
13.0
 40
14.0
 40
14.0
 40
14.0
 40
15.0
 40
15.0
 40
15.0
 40
16.0
 40
16.0
 40
16.0
 40
16.0
 10
97.37216751582905
 20
-136.2676485770444
 10
97.37216751582905
 20
-136.2676485770444
 10
87.73812415050286
 20
-136.2676485770444
 10
87.73812415050286
 20
-136.2676485770444
 10
87.55968915505511
 20
-135.958297743788
 10
87.22963027458673
 20
-135.7681152438356
 10
86.8723722281456
 20
-135.7681152438356
 10
86.8723722281456
 20
-135.7681152438356
 10
84.37227145859514
 20
-135.7681152438356
 10
84.37227145859514
 20
-135.7681152438356
 10
84.37227145859514
 20
-135.7681152438356
 10
84.37227145859514
 20
-122.7676896915304
 10
84.37227145859514
 20
-122.7676896915304
 10
84.37227145859514
 20
-122.7676896915304
 10
87.37225832650354
 20
-122.7676896915304
 10
87.37225832650354
 20
-122.7676896915304
 10
87.64855387501021
 20
-122.7676896915304
 10
87.8721444248615
 20
-122.5437816360307
 10
87.8721444248615
 20
-122.2678035805442
 10
87.8721444248615
 20
-122.0084060806089
 10
87.67370692992405
 20
-121.7920474695519
 10
87.41497971430252
 20
-121.7696460806689
 10
85.05750699666888
 20
-121.567433858497
 10
82.68694622381359
 20
-121.567433858497
 10
80.32947350617995
 20
-121.7696460806689
 10
80.05420101320274
 20
-121.7934233028851
 10
79.85026018507237
 20
-122.0356052472689
 10
79.87403740668799
 20
-122.3108777471999
 10
79.89640553558148
 20
-122.5692521915801
 10
80.11276212281983
 20
-122.7676896915304
 10
80.37251239397082
 20
-122.7676896915304
 10
80.37251239397082
 20
-122.7676896915304
 10
83.37249926187923
 20
-122.7676896915304
 10
83.37249926187923
 20
-122.7676896915304
 10
83.37249926187923
 20
-122.7676896915304
 10
83.37249926187923
 20
-135.7681152438356
 10
83.37249926187923
 20
-135.7681152438356
 10
83.37249926187923
 20
-135.7681152438356
 10
80.87208099233688
 20
-135.7681152438356
 10
80.87208099233688
 20
-135.7681152438356
 10
80.32016017308422
 20
-135.7681152438356
 10
79.87230879562097
 20
-136.2159666326126
 10
79.87230879562097
 20
-136.7678874658081
 10
79.87230879562097
 20
-136.7678874658081
 10
97.87240639195578
 20
-136.7678874658081
 10
97.87240639195578
 20
-136.7678874658081
 10
97.87240639195578
 20
-136.4915919103217
 10
97.64846306433571
 20
-136.2676485770444
 10
97.37216751582905
 20
-136.2676485770444
 97
        0
 97
        0
 75
     2
 76
     1
 98
        0
  0
SPLINE
  5
43
330
1F
100
AcDbEntity
  8
_U+30EC_U+30A4_U+30E4_U+30FC 1
 62
     7
420
 16777215
370
     9
100
AcDbSpline
210
0.0
220
0.0
230
1.0
 70
    11
 71
     3
 72
    17
 73
    13
 74
     0
 42
0.0000000001
 43
0.0000000001
 12
1.0
 22
0.0
 32
0.0
 13
1.0
 23
0.0
 33
0.0
 40
0.0
 40
0.0
 40
0.0
 40
0.0
 40
1.0
 40
1.0
 40
1.0
 40
2.0
 40
2.0
 40
2.0
 40
3.0
 40
3.0
 40
3.0
 40
4.0
 40
4.0
 40
4.0
 40
4.0
 10
101.8501194189822
 20
-122.7676896915304
 30
0.0
 10
101.8501194189822
 20
-122.7125858026552
 30
0.0
 10
101.8053166412155
 20
-122.6677830248885
 30
0.0
 10
101.7502101819137
 20
-122.6677830248885
 30
0.0
 10
101.6950710166537
 20
-122.6677830248885
 30
0.0
 10
101.6503035177958
 20
-122.7125858026552
 30
0.0
 10
101.6503035177958
 20
-122.7676896915304
 30
0.0
 10
101.6503035177958
 20
-122.8234991359609
 30
0.0
 10
101.6950710166537
 20
-122.8683019137273
 30
0.0
 10
101.7502101819137
 20
-122.8683019137273
 30
0.0
 10
101.8053166412155
 20
-122.8683019137273
 30
0.0
 10
101.8501194189822
 20
-122.8234991359609
 30
0.0
 10
101.8501194189822
 20
-122.7676896915304
 30
0.0
  0
SPLINE
  5
44
330
1F
100
AcDbEntity
  8
_U+30EC_U+30A4_U+30E4_U+30FC 1
 62
     7
420
 16777215
370
     9
100
AcDbSpline
210
0.0
220
0.0
230
1.0
 70
    11
 71
     3
 72
    17
 73
    13
 74
     0
 42
0.0000000001
 43
0.0000000001
 12
1.0
 22
0.0
 32
0.0
 13
1.0
 23
0.0
 33
0.0
 40
0.0
 40
0.0
 40
0.0
 40
0.0
 40
1.0
 40
1.0
 40
1.0
 40
2.0
 40
2.0
 40
2.0
 40
3.0
 40
3.0
 40
3.0
 40
4.0
 40
4.0
 40
4.0
 40
4.0
 10
101.8501194189822
 20
-135.7681152438356
 30
0.0
 10
101.8501194189822
 20
-135.7129760771831
 30
0.0
 10
101.8053166412155
 20
-135.6682085771939
 30
0.0
 10
101.7502101819137
 20
-135.6682085771939
 30
0.0
 10
101.6950710166537
 20
-135.6682085771939
 30
0.0
 10
101.6503035177958
 20
-135.7129760771831
 30
0.0
 10
101.6503035177958
 20
-135.7681152438356
 30
0.0
 10
101.6503035177958
 20
-135.8232191327111
 30
0.0
 10
101.6950710166537
 20
-135.8680219104772
 30
0.0
 10
101.7502101819137
 20
-135.8680219104772
 30
0.0
 10
101.8053166412155
 20
-135.8680219104772
 30
0.0
 10
101.8501194189822
 20
-135.8232191327111
 30
0.0
 10
101.8501194189822
 20
-135.7681152438356
 30
0.0
  0
SPLINE
  5
45
330
1F
100
AcDbEntity
  8
_U+30EC_U+30A4_U+30E4_U+30FC 1
 62
     7
420
 16777215
370
     9
100
AcDbSpline
210
0.0
220
0.0
230
1.0
 70
    11
 71
     3
 72
    17
 73
    13
 74
     0
 42
0.0000000001
 43
0.0000000001
 12
1.0
 22
0.0
 32
0.0
 13
1.0
 23
0.0
 33
0.0
 40
0.0
 40
0.0
 40
0.0
 40
0.0
 40
1.0
 40
1.0
 40
1.0
 40
2.0
 40
2.0
 40
2.0
 40
3.0
 40
3.0
 40
3.0
 40
4.0
 40
4.0
 40
4.0
 40
4.0
 10
79.9722154597388
 20
-140.7683169092523
 30
0.0
 10
79.9722154597388
 20
-140.7125074648219
 30
0.0
 10
79.92741268310404
 20
-140.6677399648333
 30
0.0
 10
79.87230879562097
 20
-140.6677399648333
 30
0.0
 10
79.81716963036102
 20
-140.6677399648333
 30
0.0
 10
79.77240213150314
 20
-140.7125074648219
 30
0.0
 10
79.77240213150314
 20
-140.7683169092523
 30
0.0
 10
79.77240213150314
 20
-140.8234560759054
 30
0.0
 10
79.81716963036102
 20
-140.868223575894
 30
0.0
 10
79.87230879562097
 20
-140.868223575894
 30
0.0
 10
79.92741268310404
 20
-140.868223575894
 30
0.0
 10
79.9722154597388
 20
-140.8234560759054
 30
0.0
 10
79.9722154597388
 20
-140.7683169092523
 30
0.0
  0
SPLINE
  5
46
330
1F
100
AcDbEntity
  8
_U+30EC_U+30A4_U+30E4_U+30FC 1
 62
     7
420
 16777215
370
     9
100
AcDbSpline
210
0.0
220
0.0
230
1.0
 70
    11
 71
     3
 72
    17
 73
    13
 74
     0
 42
0.0000000001
 43
0.0000000001
 12
1.0
 22
0.0
 32
0.0
 13
1.0
 23
0.0
 33
0.0
 40
0.0
 40
0.0
 40
0.0
 40
0.0
 40
1.0
 40
1.0
 40
1.0
 40
2.0
 40
2.0
 40
2.0
 40
3.0
 40
3.0
 40
3.0
 40
4.0
 40
4.0
 40
4.0
 40
4.0
 10
97.97231305607362
 20
-140.7683169092523
 30
0.0
 10
97.97231305607362
 20
-140.7125074648219
 30
0.0
 10
97.92751027943885
 20
-140.6677399648333
 30
0.0
 10
97.87240639195578
 20
-140.6677399648333
 30
0.0
 10
97.81726722669583
 20
-140.6677399648333
 30
0.0
 10
97.77249972783794
 20
-140.7125074648219
 30
0.0
 10
97.77249972783794
 20
-140.7683169092523
 30
0.0
 10
97.77249972783794
 20
-140.8234560759054
 30
0.0
 10
97.81726722669583
 20
-140.868223575894
 30
0.0
 10
97.87240639195578
 20
-140.868223575894
 30
0.0
 10
97.92751027943885
 20
-140.868223575894
 30
0.0
 10
97.97231305607362
 20
-140.8234560759054
 30
0.0
 10
97.97231305607362
 20
-140.7683169092523
 30
0.0
  0
SPLINE
  5
47
330
1F
100
AcDbEntity
  8
_U+30EC_U+30A4_U+30E4_U+30FC 1
 62
     7
420
 16777215
370
     9
100
AcDbSpline
210
0.0
220
0.0
230
1.0
 70
    11
 71
     3
 72
    17
 73
    13
 74
     0
 42
0.0000000001
 43
0.0000000001
 12
1.0
 22
0.0
 32
0.0
 13
1.0
 23
0.0
 33
0.0
 40
0.0
 40
0.0
 40
0.0
 40
0.0
 40
1.0
 40
1.0
 40
1.0
 40
2.0
 40
2.0
 40
2.0
 40
3.0
 40
3.0
 40
3.0
 40
4.0
 40
4.0
 40
4.0
 40
4.0
 10
87.97240386674811
 20
-117.617980803929
 30
0.0
 10
87.97240386674811
 20
-117.5628416372759
 30
0.0
 10
87.92763636789023
 20
-117.518074137287
 30
0.0
 10
87.8721444248615
 20
-117.518074137287
 30
0.0
 10
87.81704053737842
 20
-117.518074137287
 30
0.0
 10
87.77223776074366
 20
-117.5628416372759
 30
0.0
 10
87.77223776074366
 20
-117.617980803929
 30
0.0
 10
87.77223776074366
 20
-117.6730846928039
 30
0.0
 10
87.81704053737842
 20
-117.7178874705706
 30
0.0
 10
87.8721444248615
 20
-117.7178874705706
 30
0.0
 10
87.92763636789023
 20
-117.7178874705706
 30
0.0
 10
87.97240386674811
 20
-117.6730846928039
 30
0.0
 10
87.97240386674811
 20
-117.617980803929
 30
0.0
  0
SPLINE
  5
48
330
1F
100
AcDbEntity
  8
_U+30EC_U+30A4_U+30E4_U+30FC 1
 62
     7
420
 16777215
370
     9
100
AcDbSpline
210
0.0
220
0.0
230
1.0
 70
    11
 71
     3
 72
    17
 73
    13
 74
     0
 42
0.0000000001
 43
0.0000000001
 12
1.0
 22
0.0
 32
0.0
 13
1.0
 23
0.0
 33
0.0
 40
0.0
 40
0.0
 40
0.0
 40
0.0
 40
1.0
 40
1.0
 40
1.0
 40
2.0
 40
2.0
 40
2.0
 40
3.0
 40
3.0
 40
3.0
 40
4.0
 40
4.0
 40
4.0
 40
4.0
 10
79.9722154597388
 20
-117.617980803929
 30
0.0
 10
79.9722154597388
 20
-117.5628416372759
 30
0.0
 10
79.92741268310404
 20
-117.518074137287
 30
0.0
 10
79.87230879562097
 20
-117.518074137287
 30
0.0
 10
79.81716963036102
 20
-117.518074137287
 30
0.0
 10
79.77240213150314
 20
-117.5628416372759
 30
0.0
 10
79.77240213150314
 20
-117.617980803929
 30
0.0
 10
79.77240213150314
 20
-117.6730846928039
 30
0.0
 10
79.81716963036102
 20
-117.7178874705706
 30
0.0
 10
79.87230879562097
 20
-117.7178874705706
 30
0.0
 10
79.92741268310404
 20
-117.7178874705706
 30
0.0
 10
79.9722154597388
 20
-117.6730846928039
 30
0.0
 10
79.9722154597388
 20
-117.617980803929
 30
0.0
  0
SPLINE
  5
49
330
1F
100
AcDbEntity
  8
_U+30EC_U+30A4_U+30E4_U+30FC 1
 62
     7
420
 16777215
370
    25
100
AcDbSpline
210
0.0
220
0.0
230
1.0
 70
    11
 71
     3
 72
    53
 73
    49
 74
     0
 42
0.0000000001
 43
0.0000000001
 12
1.0
 22
0.0
 32
0.0
 13
1.0
 23
0.0
 33
0.0
 40
0.0
 40
0.0
 40
0.0
 40
0.0
 40
1.0
 40
1.0
 40
1.0
 40
2.0
 40
2.0
 40
2.0
 40
3.0
 40
3.0
 40
3.0
 40
4.0
 40
4.0
 40
4.0
 40
5.0
 40
5.0
 40
5.0
 40
6.0
 40
6.0
 40
6.0
 40
7.0
 40
7.0
 40
7.0
 40
8.0
 40
8.0
 40
8.0
 40
9.0
 40
9.0
 40
9.0
 40
10.0
 40
10.0
 40
10.0
 40
11.0
 40
11.0
 40
11.0
 40
12.0
 40
12.0
 40
12.0
 40
13.0
 40
13.0
 40
13.0
 40
14.0
 40
14.0
 40
14.0
 40
15.0
 40
15.0
 40
15.0
 40
16.0
 40
16.0
 40
16.0
 40
16.0
 10
80.32947350617995
 20
-121.7696460806689
 30
0.0
 10
82.68694622381359
 20
-121.567433858497
 30
0.0
 10
85.05750699666888
 20
-121.567433858497
 30
0.0
 10
87.41497971430252
 20
-121.7696460806689
 30
0.0
 10
87.67370692992405
 20
-121.7920474695519
 30
0.0
 10
87.8721444248615
 20
-122.0084060806089
 30
0.0
 10
87.8721444248615
 20
-122.2678035805442
 30
0.0
 10
87.8721444248615
 20
-122.5437816360307
 30
0.0
 10
87.64855387501021
 20
-122.7676896915304
 30
0.0
 10
87.37225832650354
 20
-122.7676896915304
 30
0.0
 10
87.37225832650354
 20
-122.7676896915304
 30
0.0
 10
84.37227145859514
 20
-122.7676896915304
 30
0.0
 10
84.37227145859514
 20
-122.7676896915304
 30
0.0
 10
84.37227145859514
 20
-122.7676896915304
 30
0.0
 10
84.37227145859514
 20
-135.7681152438356
 30
0.0
 10
84.37227145859514
 20
-135.7681152438356
 30
0.0
 10
84.37227145859514
 20
-135.7681152438356
 30
0.0
 10
86.8723722281456
 20
-135.7681152438356
 30
0.0
 10
86.8723722281456
 20
-135.7681152438356
 30
0.0
 10
87.22963027458673
 20
-135.7681152438356
 30
0.0
 10
87.55968915505511
 20
-135.958297743788
 30
0.0
 10
87.73812415050286
 20
-136.2676485770444
 30
0.0
 10
87.73812415050286
 20
-136.2676485770444
 30
0.0
 10
97.37216751582905
 20
-136.2676485770444
 30
0.0
 10
97.37216751582905
 20
-136.2676485770444
 30
0.0
 10
97.64846306433571
 20
-136.2676485770444
 30
0.0
 10
97.87240639195578
 20
-136.4915919103217
 30
0.0
 10
97.87240639195578
 20
-136.7678874658081
 30
0.0
 10
97.87240639195578
 20
-136.7678874658081
 30
0.0
 10
79.87230879562097
 20
-136.7678874658081
 30
0.0
 10
79.87230879562097
 20
-136.7678874658081
 30
0.0
 10
79.87230879562097
 20
-136.2159666326126
 30
0.0
 10
80.32016017308422
 20
-135.7681152438356
 30
0.0
 10
80.87208099233688
 20
-135.7681152438356
 30
0.0
 10
80.87208099233688
 20
-135.7681152438356
 30
0.0
 10
83.37249926187923
 20
-135.7681152438356
 30
0.0
 10
83.37249926187923
 20
-135.7681152438356
 30
0.0
 10
83.37249926187923
 20
-135.7681152438356
 30
0.0
 10
83.37249926187923
 20
-122.7676896915304
 30
0.0
 10
83.37249926187923
 20
-122.7676896915304
 30
0.0
 10
83.37249926187923
 20
-122.7676896915304
 30
0.0
 10
80.37251239397082
 20
-122.7676896915304
 30
0.0
 10
80.37251239397082
 20
-122.7676896915304
 30
0.0
 10
80.11276212281983
 20
-122.7676896915304
 30
0.0
 10
79.89640553558148
 20
-122.5692521915801
 30
0.0
 10
79.87403740668799
 20
-122.3108777471999
 30
0.0
 10
79.85026018507237
 20
-122.0356052472689
 30
0.0
 10
80.05420101320274
 20
-121.7934233028851
 30
0.0
 10
80.32947350617995
 20
-121.7696460806689
 30
0.0
  0
POLYLINE
  5
4A
330
1F
100
AcDbEntity
  8
_U+30EC_U+30A4_U+30E4_U+30FC 1
 62
     7
420
 16777215
370
     9
100
AcDb2dPolyline
 66
     1
 10
0.0
 20
0.0
 30
0.0
  0
VERTEX
  5
4B
330
4A
100
AcDbEntity
  8
_U+30EC_U+30A4_U+30E4_U+30FC 1
 62
     7
420
 16777215
370
     9
100
AcDbVertex
100
AcDb2dVertex
 10
79.87230879562097
 20
-140.7683169092523
 30
0.0
  0
VERTEX
  5
4C
330
4A
100
AcDbEntity
  8
_U+30EC_U+30A4_U+30E4_U+30FC 1
 62
     7
420
 16777215
370
     9
100
AcDbVertex
100
AcDb2dVertex
 10
97.87240639195578
 20
-140.7683169092523
 30
0.0
  0
SEQEND
  5
4D
330
4A
100
AcDbEntity
  8
_U+30EC_U+30A4_U+30E4_U+30FC 1
 62
     7
420
 16777215
370
     9
  0
POLYLINE
  5
4E
330
1F
100
AcDbEntity
  8
_U+30EC_U+30A4_U+30E4_U+30FC 1
 62
     7
420
 16777215
370
     9
100
AcDb2dPolyline
 66
     1
 10
0.0
 20
0.0
 30
0.0
  0
VERTEX
  5
4F
330
4E
100
AcDbEntity
  8
_U+30EC_U+30A4_U+30E4_U+30FC 1
 62
     7
420
 16777215
370
     9
100
AcDbVertex
100
AcDb2dVertex
 10
79.87230879562097
 20
-138.507646354262
 30
0.0
  0
VERTEX
  5
50
330
4E
100
AcDbEntity
  8
_U+30EC_U+30A4_U+30E4_U+30FC 1
 62
     7
420
 16777215
370
     9
100
AcDbVertex
100
AcDb2dVertex
 10
79.87230879562097
 20
-141.7680891312249
 30
0.0
  0
SEQEND
  5
51
330
4E
100
AcDbEntity
  8
_U+30EC_U+30A4_U+30E4_U+30FC 1
 62
     7
420
 16777215
370
     9
  0
POLYLINE
  5
52
330
1F
100
AcDbEntity
  8
_U+30EC_U+30A4_U+30E4_U+30FC 1
 62
     7
420
 16777215
370
     9
100
AcDb2dPolyline
 66
     1
 10
0.0
 20
0.0
 30
0.0
  0
VERTEX
  5
53
330
52
100
AcDbEntity
  8
_U+30EC_U+30A4_U+30E4_U+30FC 1
 62
     7
420
 16777215
370
     9
100
AcDbVertex
100
AcDb2dVertex
 10
97.87240639195578
 20
-139.3082755207286
 30
0.0
  0
VERTEX
  5
54
330
52
100
AcDbEntity
  8
_U+30EC_U+30A4_U+30E4_U+30FC 1
 62
     7
420
 16777215
370
     9
100
AcDbVertex
100
AcDb2dVertex
 10
97.87240639195578
 20
-141.7680891312249
 30
0.0
  0
SEQEND
  5
55
330
52
100
AcDbEntity
  8
_U+30EC_U+30A4_U+30E4_U+30FC 1
 62
     7
420
 16777215
370
     9
  0
INSERT
  5
57
330
1F
100
AcDbEntity
  8
_U+30EC_U+30A4_U+30E4_U+30FC 1
100
AcDbBlockReference
  2
block 2
 10
0.0
 20
0.0
 30
0.0
  0
POLYLINE
  5
60
330
1F
100
AcDbEntity
  8
_U+30EC_U+30A4_U+30E4_U+30FC 1
 62
     7
420
 16777215
370
     9
100
AcDb2dPolyline
 66
     1
 10
0.0
 20
0.0
 30
0.0
  0
VERTEX
  5
61
330
60
100
AcDbEntity
  8
_U+30EC_U+30A4_U+30E4_U+30FC 1
 62
     7
420
 16777215
370
     9
100
AcDbVertex
100
AcDb2dVertex
 10
79.87230879562097
 20
-117.617980803929
 30
0.0
  0
VERTEX
  5
62
330
60
100
AcDbEntity
  8
_U+30EC_U+30A4_U+30E4_U+30FC 1
 62
     7
420
 16777215
370
     9
100
AcDbVertex
100
AcDb2dVertex
 10
87.8721444248615
 20
-117.617980803929
 30
0.0
  0
SEQEND
  5
63
330
60
100
AcDbEntity
  8
_U+30EC_U+30A4_U+30E4_U+30FC 1
 62
     7
420
 16777215
370
     9
  0
POLYLINE
  5
64
330
1F
100
AcDbEntity
  8
_U+30EC_U+30A4_U+30E4_U+30FC 1
 62
     7
420
 16777215
370
     9
100
AcDb2dPolyline
 66
     1
 10
0.0
 20
0.0
 30
0.0
  0
VERTEX
  5
65
330
64
100
AcDbEntity
  8
_U+30EC_U+30A4_U+30E4_U+30FC 1
 62
     7
420
 16777215
370
     9
100
AcDbVertex
100
AcDb2dVertex
 10
79.87230879562097
 20
-119.7780391367221
 30
0.0
  0
VERTEX
  5
66
330
64
100
AcDbEntity
  8
_U+30EC_U+30A4_U+30E4_U+30FC 1
 62
     7
420
 16777215
370
     9
100
AcDbVertex
100
AcDb2dVertex
 10
79.87230879562097
 20
-116.617855804179
 30
0.0
  0
SEQEND
  5
67
330
64
100
AcDbEntity
  8
_U+30EC_U+30A4_U+30E4_U+30FC 1
 62
     7
420
 16777215
370
     9
  0
POLYLINE
  5
68
330
1F
100
AcDbEntity
  8
_U+30EC_U+30A4_U+30E4_U+30FC 1
 62
     7
420
 16777215
370
     9
100
AcDb2dPolyline
 66
     1
 10
0.0
 20
0.0
 30
0.0
  0
VERTEX
  5
69
330
68
100
AcDbEntity
  8
_U+30EC_U+30A4_U+30E4_U+30FC 1
 62
     7
420
 16777215
370
     9
100
AcDbVertex
100
AcDb2dVertex
 10
87.8721444248615
 20
-119.7780391367221
 30
0.0
  0
VERTEX
  5
6A
330
68
100
AcDbEntity
  8
_U+30EC_U+30A4_U+30E4_U+30FC 1
 62
     7
420
 16777215
370
     9
100
AcDbVertex
100
AcDb2dVertex
 10
87.8721444248615
 20
-116.617855804179
 30
0.0
  0
SEQEND
  5
6B
330
68
100
AcDbEntity
  8
_U+30EC_U+30A4_U+30E4_U+30FC 1
 62
     7
420
 16777215
370
     9
  0
INSERT
  5
6D
330
1F
100
AcDbEntity
  8
_U+30EC_U+30A4_U+30E4_U+30FC 1
100
AcDbBlockReference
  2
block 3
 10
0.0
 20
0.0
 30
0.0
  0
POLYLINE
  5
74
330
1F
100
AcDbEntity
  8
_U+30EC_U+30A4_U+30E4_U+30FC 1
 62
     7
420
 16777215
370
     9
100
AcDb2dPolyline
 66
     1
 10
0.0
 20
0.0
 30
0.0
  0
VERTEX
  5
75
330
74
100
AcDbEntity
  8
_U+30EC_U+30A4_U+30E4_U+30FC 1
 62
     7
420
 16777215
370
     9
100
AcDbVertex
100
AcDb2dVertex
 10
101.7502101819137
 20
-135.7681152438356
 30
0.0
  0
VERTEX
  5
76
330
74
100
AcDbEntity
  8
_U+30EC_U+30A4_U+30E4_U+30FC 1
 62
     7
420
 16777215
370
     9
100
AcDbVertex
100
AcDb2dVertex
 10
101.7502101819137
 20
-122.7676896915304
 30
0.0
  0
SEQEND
  5
77
330
74
100
AcDbEntity
  8
_U+30EC_U+30A4_U+30E4_U+30FC 1
 62
     7
420
 16777215
370
     9
  0
POLYLINE
  5
78
330
1F
100
AcDbEntity
  8
_U+30EC_U+30A4_U+30E4_U+30FC 1
 62
     7
420
 16777215
370
     9
100
AcDb2dPolyline
 66
     1
 10
0.0
 20
0.0
 30
0.0
  0
VERTEX
  5
79
330
78
100
AcDbEntity
  8
_U+30EC_U+30A4_U+30E4_U+30FC 1
 62
     7
420
 16777215
370
     9
100
AcDbVertex
100
AcDb2dVertex
 10
100.7559413183907
 20
-135.7681152438356
 30
0.0
  0
VERTEX
  5
7A
330
78
100
AcDbEntity
  8
_U+30EC_U+30A4_U+30E4_U+30FC 1
 62
     7
420
 16777215
370
     9
100
AcDbVertex
100
AcDb2dVertex
 10
102.7499823786296
 20
-135.7681152438356
 30
0.0
  0
SEQEND
  5
7B
330
78
100
AcDbEntity
  8
_U+30EC_U+30A4_U+30E4_U+30FC 1
 62
     7
420
 16777215
370
     9
  0
POLYLINE
  5
7C
330
1F
100
AcDbEntity
  8
_U+30EC_U+30A4_U+30E4_U+30FC 1
 62
     7
420
 16777215
370
     9
100
AcDb2dPolyline
 66
     1
 10
0.0
 20
0.0
 30
0.0
  0
VERTEX
  5
7D
330
7C
100
AcDbEntity
  8
_U+30EC_U+30A4_U+30E4_U+30FC 1
 62
     7
420
 16777215
370
     9
100
AcDbVertex
100
AcDb2dVertex
 10
100.8372565940939
 20
-122.7680424693079
 30
0.0
  0
VERTEX
  5
7E
330
7C
100
AcDbEntity
  8
_U+30EC_U+30A4_U+30E4_U+30FC 1
 62
     7
420
 16777215
370
     9
100
AcDbVertex
100
AcDb2dVertex
 10
102.7499823786296
 20
-122.7676896915304
 30
0.0
  0
SEQEND
  5
7F
330
7C
100
AcDbEntity
  8
_U+30EC_U+30A4_U+30E4_U+30FC 1
 62
     7
420
 16777215
370
     9
  0
INSERT
  5
81
330
1F
100
AcDbEntity
  8
_U+30EC_U+30A4_U+30E4_U+30FC 1
100
AcDbBlockReference
  2
block 4
 10
0.0
 20
0.0
 30
0.0
  0
SPLINE
  5
88
330
1F
100
AcDbEntity
  8
_U+30EC_U+30A4_U+30E4_U+30FC 1
 62
     7
420
 16777215
370
     9
100
AcDbSpline
210
0.0
220
0.0
230
1.0
 70
    11
 71
     3
 72
    17
 73
    13
 74
     0
 42
0.0000000001
 43
0.0000000001
 12
1.0
 22
0.0
 32
0.0
 13
1.0
 23
0.0
 33
0.0
 40
0.0
 40
0.0
 40
0.0
 40
0.0
 40
1.0
 40
1.0
 40
1.0
 40
2.0
 40
2.0
 40
2.0
 40
3.0
 40
3.0
 40
3.0
 40
4.0
 40
4.0
 40
4.0
 40
4.0
 10
83.45967064854419
 20
-129.257213301019
 30
0.0
 10
83.45967064854419
 20
-129.2021094121441
 30
0.0
 10
83.41490314968631
 20
-129.1573066343774
 30
0.0
 10
83.35958759554197
 20
-129.1573066343774
 30
0.0
 10
83.3044837080589
 20
-129.1573066343774
 30
0.0
 10
83.25968093142413
 20
-129.2021094121441
 30
0.0
 10
83.25968093142413
 20
-129.257213301019
 30
0.0
 10
83.25968093142413
 20
-129.3123524676721
 30
0.0
 10
83.3044837080589
 20
-129.3571199676607
 30
0.0
 10
83.35958759554197
 20
-129.3571199676607
 30
0.0
 10
83.41490314968631
 20
-129.3571199676607
 30
0.0
 10
83.45967064854419
 20
-129.3123524676721
 30
0.0
 10
83.45967064854419
 20
-129.257213301019
 30
0.0
  0
SPLINE
  5
89
330
1F
100
AcDbEntity
  8
_U+30EC_U+30A4_U+30E4_U+30FC 1
 62
     7
420
 16777215
370
     9
100
AcDbSpline
210
0.0
220
0.0
230
1.0
 70
    11
 71
     3
 72
    17
 73
    13
 74
     0
 42
0.0000000001
 43
0.0000000001
 12
1.0
 22
0.0
 32
0.0
 13
1.0
 23
0.0
 33
0.0
 40
0.0
 40
0.0
 40
0.0
 40
0.0
 40
1.0
 40
1.0
 40
1.0
 40
2.0
 40
2.0
 40
2.0
 40
3.0
 40
3.0
 40
3.0
 40
4.0
 40
4.0
 40
4.0
 40
4.0
 10
84.4594428452601
 20
-129.257213301019
 30
0.0
 10
84.4594428452601
 20
-129.2021094121441
 30
0.0
 10
84.41464006862533
 20
-129.1573066343774
 30
0.0
 10
84.35935979225788
 20
-129.1573066343774
 30
0.0
 10
84.3042559047748
 20
-129.1573066343774
 30
0.0
 10
84.25945312814004
 20
-129.2021094121441
 30
0.0
 10
84.25945312814004
 20
-129.257213301019
 30
0.0
 10
84.25945312814004
 20
-129.3123524676721
 30
0.0
 10
84.3042559047748
 20
-129.3571199676607
 30
0.0
 10
84.35935979225788
 20
-129.3571199676607
 30
0.0
 10
84.41464006862533
 20
-129.3571199676607
 30
0.0
 10
84.4594428452601
 20
-129.3123524676721
 30
0.0
 10
84.4594428452601
 20
-129.257213301019
 30
0.0
  0
INSERT
  5
8B
330
1F
100
AcDbEntity
  8
_U+30EC_U+30A4_U+30E4_U+30FC 1
100
AcDbBlockReference
  2
block 5
 10
0.0
 20
0.0
 30
0.0
  0
POLYLINE
  5
90
330
1F
100
AcDbEntity
  8
_U+30EC_U+30A4_U+30E4_U+30FC 1
 62
     7
420
 16777215
370
     9
100
AcDb2dPolyline
 66
     1
 10
0.0
 20
0.0
 30
0.0
  0
VERTEX
  5
91
330
90
100
AcDbEntity
  8
_U+30EC_U+30A4_U+30E4_U+30FC 1
 62
     7
420
 16777215
370
     9
100
AcDbVertex
100
AcDb2dVertex
 10
85.22080782583606
 20
-129.257213301019
 30
0.0
  0
VERTEX
  5
92
330
90
100
AcDbEntity
  8
_U+30EC_U+30A4_U+30E4_U+30FC 1
 62
     7
420
 16777215
370
     9
100
AcDbVertex
100
AcDb2dVertex
 10
81.38177431266685
 20
-129.257213301019
 30
0.0
  0
SEQEND
  5
93
330
90
100
AcDbEntity
  8
_U+30EC_U+30A4_U+30E4_U+30FC 1
 62
     7
420
 16777215
370
     9
  0
SPLINE
  5
94
330
1F
100
AcDbEntity
  8
_U+30EC_U+30A4_U+30E4_U+30FC 1
 62
     7
420
 16777215
370
     9
100
AcDbSpline
210
0.0
220
0.0
230
1.0
 70
    11
 71
     3
 72
    17
 73
    13
 74
     0
 42
0.0000000001
 43
0.0000000001
 12
1.0
 22
0.0
 32
0.0
 13
1.0
 23
0.0
 33
0.0
 40
0.0
 40
0.0
 40
0.0
 40
0.0
 40
1.0
 40
1.0
 40
1.0
 40
2.0
 40
2.0
 40
2.0
 40
3.0
 40
3.0
 40
3.0
 40
4.0
 40
4.0
 40
4.0
 40
4.0
 10
101.8514926793297
 20
-136.7613257991433
 30
0.0
 10
101.8514926793297
 20
-136.70586913249
 30
0.0
 10
101.806689902695
 20
-136.6610663547239
 30
0.0
 10
101.7515860152119
 20
-136.6610663547239
 30
0.0
 10
101.6964468499519
 20
-136.6610663547239
 30
0.0
 10
101.651679351094
 20
-136.70586913249
 30
0.0
 10
101.651679351094
 20
-136.7613257991433
 30
0.0
 10
101.651679351094
 20
-136.8164649657957
 30
0.0
 10
101.6964468499519
 20
-136.8612324657849
 30
0.0
 10
101.7515860152119
 20
-136.8612324657849
 30
0.0
 10
101.806689902695
 20
-136.8612324657849
 30
0.0
 10
101.8514926793297
 20
-136.8164649657957
 30
0.0
 10
101.8514926793297
 20
-136.7613257991433
 30
0.0
  0
POLYLINE
  5
95
330
1F
100
AcDbEntity
  8
_U+30EC_U+30A4_U+30E4_U+30FC 1
 62
     7
420
 16777215
370
     9
100
AcDb2dPolyline
 66
     1
 10
0.0
 20
0.0
 30
0.0
  0
VERTEX
  5
96
330
95
100
AcDbEntity
  8
_U+30EC_U+30A4_U+30E4_U+30FC 1
 62
     7
420
 16777215
370
     9
100
AcDbVertex
100
AcDb2dVertex
 10
101.7515860152119
 20
-135.1138888551104
 30
0.0
  0
VERTEX
  5
97
330
95
100
AcDbEntity
  8
_U+30EC_U+30A4_U+30E4_U+30FC 1
 62
     7
420
 16777215
370
     9
100
AcDbVertex
100
AcDb2dVertex
 10
101.7515860152119
 20
-136.7609730213655
 30
0.0
  0
SEQEND
  5
98
330
95
100
AcDbEntity
  8
_U+30EC_U+30A4_U+30E4_U+30FC 1
 62
     7
420
 16777215
370
     9
  0
POLYLINE
  5
99
330
1F
100
AcDbEntity
  8
_U+30EC_U+30A4_U+30E4_U+30FC 1
 62
     7
420
 16777215
370
     9
100
AcDb2dPolyline
 66
     1
 10
0.0
 20
0.0
 30
0.0
  0
VERTEX
  5
9A
330
99
100
AcDbEntity
  8
_U+30EC_U+30A4_U+30E4_U+30FC 1
 62
     7
420
 16777215
370
     9
100
AcDbVertex
100
AcDb2dVertex
 10
100.7559413183907
 20
-136.7609730213655
 30
0.0
  0
VERTEX
  5
9B
330
99
100
AcDbEntity
  8
_U+30EC_U+30A4_U+30E4_U+30FC 1
 62
     7
420
 16777215
370
     9
100
AcDbVertex
100
AcDb2dVertex
 10
102.7513582119278
 20
-136.7609730213655
 30
0.0
  0
SEQEND
  5
9C
330
99
100
AcDbEntity
  8
_U+30EC_U+30A4_U+30E4_U+30FC 1
 62
     7
420
 16777215
370
     9
  0
INSERT
  5
9E
330
1F
100
AcDbEntity
  8
_U+30EC_U+30A4_U+30E4_U+30FC 1
100
AcDbBlockReference
  2
block 6
 10
0.0
 20
0.0
 30
0.0
  0
POLYLINE
  5
A3
330
1F
100
AcDbEntity
  8
_U+30EC_U+30A4_U+30E4_U+30FC 1
  6
AI-Linetype-1
 62
   251
420
  5855577
370
    25
100
AcDb2dPolyline
 66
     1
 10
0.0
 20
0.0
 30
0.0
  0
VERTEX
  5
A4
330
A3
100
AcDbEntity
  8
_U+30EC_U+30A4_U+30E4_U+30FC 1
  6
AI-Linetype-1
 62
   251
420
  5855577
370
    25
100
AcDbVertex
100
AcDb2dVertex
 10
79.33347603158997
 20
-122.9785449692553
 30
0.0
  0
VERTEX
  5
A5
330
A3
100
AcDbEntity
  8
_U+30EC_U+30A4_U+30E4_U+30FC 1
  6
AI-Linetype-1
 62
   251
420
  5855577
370
    25
100
AcDbVertex
100
AcDb2dVertex
 10
79.33347603158997
 20
-121.0437705252948
 30
0.0
  0
VERTEX
  5
A6
330
A3
100
AcDbEntity
  8
_U+30EC_U+30A4_U+30E4_U+30FC 1
  6
AI-Linetype-1
 62
   251
420
  5855577
370
    25
100
AcDbVertex
100
AcDb2dVertex
 10
88.4616007987121
 20
-121.0437705252948
 30
0.0
  0
VERTEX
  5
A7
330
A3
100
AcDbEntity
  8
_U+30EC_U+30A4_U+30E4_U+30FC 1
  6
AI-Linetype-1
 62
   251
420
  5855577
370
    25
100
AcDbVertex
100
AcDb2dVertex
 10
88.4616007987121
 20
-123.0281455247987
 30
0.0
  0
SEQEND
  5
A9
330
A3
100
AcDbEntity
  8
_U+30EC_U+30A4_U+30E4_U+30FC 1
  6
AI-Linetype-1
 62
   251
420
  5855577
370
    25
  0
ENDSEC
  0
SECTION
  2
OBJECTS
  0
DICTIONARY
  5
C
330
0
100
AcDbDictionary
281
     1
  3
ACAD_GROUP
350
D
  3
ACAD_LAYOUT
350
1A
  3
ACAD_MATERIAL
350
3B
  3
ACAD_MLEADERSTYLE
350
AB
  3
ACAD_MLINESTYLE
350
17
  3
ACAD_PLOTSETTINGS
350
19
  3
ACAD_PLOTSTYLENAME
350
E
  3
ACAD_TABLESTYLE
350
AA
  3
ACAD_VISUALSTYLE
350
2A
  0
SUN
  5
3F
330
29
100
AcDbSun
 90
        1
290
     0
 63
     7
421
 16777215
 40
1.0
291
     1
 91
  2455826
 92
 54000000
292
     0
 70
     2
 71
   256
280
     1
  0
DICTIONARY
  5
D
102
{ACAD_REACTORS
330
C
102
}
330
C
100
AcDbDictionary
281
     1
  0
DICTIONARY
  5
1A
102
{ACAD_REACTORS
330
C
102
}
330
C
100
AcDbDictionary
281
     1
  3
Layout1
350
1E
  3
Layout2
350
26
  3
Model
350
22
  0
DICTIONARY
  5
3B
102
{ACAD_REACTORS
330
C
102
}
330
C
100
AcDbDictionary
281
     1
  3
ByBlock
350
3D
  3
ByLayer
350
3C
  3
Global
350
3E
  0
DICTIONARY
  5
AB
102
{ACAD_REACTORS
330
C
102
}
330
C
100
AcDbDictionary
281
     1
  0
DICTIONARY
  5
17
102
{ACAD_REACTORS
330
C
102
}
330
C
100
AcDbDictionary
281
     1
  3
Standard
350
18
  0
DICTIONARY
  5
19
102
{ACAD_REACTORS
330
C
102
}
330
C
100
AcDbDictionary
281
     1
  0
ACDBDICTIONARYWDFLT
  5
E
102
{ACAD_REACTORS
330
C
102
}
330
C
100
AcDbDictionary
281
     1
  3
Normal
350
F
100
AcDbDictionaryWithDefault
340
F
  0
DICTIONARY
  5
AA
102
{ACAD_REACTORS
330
C
102
}
330
C
100
AcDbDictionary
281
     1
  0
DICTIONARY
  5
2A
102
{ACAD_REACTORS
330
C
102
}
330
C
100
AcDbDictionary
281
     1
  3
2dWireframe
350
2F
  3
3D Hidden
350
31
  3
3dWireframe
350
30
  3
Basic
350
32
  3
Brighten
350
36
  3
ColorChange
350
3A
  3
Conceptual
350
34
  3
Dim
350
35
  3
Facepattern
350
39
  3
Flat
350
2B
  3
FlatWithEdges
350
2C
  3
Gouraud
350
2D
  3
GouraudWithEdges
350
2E
  3
Linepattern
350
38
  3
Realistic
350
33
  3
Thicken
350
37
  0
LAYOUT
  5
1E
102
{ACAD_REACTORS
330
1A
102
}
330
1A
100
AcDbPlotSettings
  1

  2
none_device
  4

  6

 40
0.0
 41
0.0
 42
0.0
 43
0.0
 44
0.0
 45
0.0
 46
0.0
 47
0.0
 48
0.0
 49
0.0
140
0.0
141
0.0
142
1.0
143
1.0
 70
   688
 72
     0
 73
     0
 74
     5
  7

 75
    16
 76
     0
 77
     2
 78
   300
147
1.0
148
0.0
149
0.0
100
AcDbLayout
  1
Layout1
 70
     1
 71
     1
 10
0.0
 20
0.0
 11
12.0
 21
9.0
 12
0.0
 22
0.0
 32
0.0
 14
1.000000000000000E+20
 24
1.000000000000000E+20
 34
1.000000000000000E+20
 15
-1.000000000000000E+20
 25
-1.000000000000000E+20
 35
-1.000000000000000E+20
146
0.0
 13
0.0
 23
0.0
 33
0.0
 16
1.0
 26
0.0
 36
0.0
 17
0.0
 27
1.0
 37
0.0
 76
     0
330
1B
  0
LAYOUT
  5
26
102
{ACAD_REACTORS
330
1A
102
}
330
1A
100
AcDbPlotSettings
  1

  2
none_device
  4

  6

 40
0.0
 41
0.0
 42
0.0
 43
0.0
 44
0.0
 45
0.0
 46
0.0
 47
0.0
 48
0.0
 49
0.0
140
0.0
141
0.0
142
1.0
143
1.0
 70
   688
 72
     0
 73
     0
 74
     5
  7

 75
    16
 76
     0
 77
     2
 78
   300
147
1.0
148
0.0
149
0.0
100
AcDbLayout
  1
Layout2
 70
     1
 71
     2
 10
0.0
 20
0.0
 11
0.0
 21
0.0
 12
0.0
 22
0.0
 32
0.0
 14
0.0
 24
0.0
 34
0.0
 15
0.0
 25
0.0
 35
0.0
146
0.0
 13
0.0
 23
0.0
 33
0.0
 16
1.0
 26
0.0
 36
0.0
 17
0.0
 27
1.0
 37
0.0
 76
     0
330
23
  0
LAYOUT
  5
22
102
{ACAD_REACTORS
330
1A
102
}
330
1A
100
AcDbPlotSettings
  1

  2
none_device
  4

  6

 40
0.0
 41
0.0
 42
0.0
 43
0.0
 44
0.0
 45
0.0
 46
0.0
 47
0.0
 48
0.0
 49
0.0
140
0.0
141
0.0
142
1.0
143
1.0
 70
  1712
 72
     0
 73
     0
 74
     0
  7

 75
     0
 76
     0
 77
     2
 78
   300
147
1.0
148
0.0
149
0.0
100
AcDbLayout
  1
Model
 70
     1
 71
     0
 10
0.0
 20
0.0
 11
12.0
 21
9.0
 12
0.0
 22
0.0
 32
0.0
 14
1.000000000000000E+20
 24
1.000000000000000E+20
 34
1.000000000000000E+20
 15
-1.000000000000000E+20
 25
-1.000000000000000E+20
 35
-1.000000000000000E+20
146
0.0
 13
0.0
 23
0.0
 33
0.0
 16
1.0
 26
0.0
 36
0.0
 17
0.0
 27
1.0
 37
0.0
 76
     0
330
1F
331
29
  0
MATERIAL
  5
3D
102
{ACAD_REACTORS
330
3B
102
}
330
3B
100
AcDbMaterial
  1
ByBlock
 72
     1
 94
      127
  0
MATERIAL
  5
3C
102
{ACAD_REACTORS
330
3B
102
}
330
3B
100
AcDbMaterial
  1
ByLayer
 72
     1
 94
      127
  0
MATERIAL
  5
3E
102
{ACAD_REACTORS
330
3B
102
}
330
3B
100
AcDbMaterial
  1
Global
 72
     1
 94
      127
  0
MLINESTYLE
  5
18
102
{ACAD_REACTORS
330
17
102
}
330
17
100
AcDbMlineStyle
  2
Standard
 70
     0
  3

 62
   256
 51
90.0
 52
90.0
 71
     2
 49
0.5
 62
   256
  6
BYLAYER
 49
-0.5
 62
   256
  6
BYLAYER
  0
ACDBPLACEHOLDER
  5
F
102
{ACAD_REACTORS
330
E
102
}
330
E
  0
VISUALSTYLE
  5
2F
102
{ACAD_REACTORS
330
2A
102
}
330
2A
100
AcDbVisualStyle
  2
2dWireframe
 70
     4
177
     2
291
     0
 71
     0
176
     1
 72
     2
176
     1
 73
     0
176
     1
 90
        0
176
     1
 40
-0.6
176
     1
 41
-30.0
176
     1
 62
     5
 63
     7
421
 16777215
176
     1
 74
     1
176
     1
 91
        4
176
     1
 64
     7
176
     1
 65
   257
176
     1
 75
     1
176
     1
175
     1
176
     1
 42
1.0
176
     1
 92
        0
176
     1
 66
   257
176
     1
 43
1.0
176
     1
 76
     1
176
     1
 77
     6
176
     1
 78
     2
176
     1
 67
     7
176
     1
 79
     5
176
     1
170
     0
176
     1
171
     0
176
     1
290
     0
176
     1
 93
        1
176
     1
 44
0.0
176
     1
173
     0
176
     1
  0
VISUALSTYLE
  5
31
102
{ACAD_REACTORS
330
2A
102
}
330
2A
100
AcDbVisualStyle
  2
3D Hidden
 70
     6
177
     2
291
     0
 71
     1
176
     1
 72
     2
176
     1
 73
     2
176
     1
 90
        0
176
     1
 40
-0.6
176
     1
 41
-30.0
176
     1
 62
     5
 63
     7
421
 16777215
176
     1
 74
     2
176
     1
 91
        2
176
     1
 64
     7
176
     1
 65
   257
176
     1
 75
     2
176
     1
175
     1
176
     1
 42
40.0
176
     1
 92
        0
176
     1
 66
   257
176
     1
 43
1.0
176
     1
 76
     1
176
     1
 77
     6
176
     1
 78
     2
176
     1
 67
     7
176
     1
 79
     3
176
     1
170
     0
176
     1
171
     0
176
     1
290
     0
176
     1
 93
        1
176
     1
 44
0.0
176
     1
173
     0
176
     1
  0
VISUALSTYLE
  5
30
102
{ACAD_REACTORS
330
2A
102
}
330
2A
100
AcDbVisualStyle
  2
3dWireframe
 70
     5
177
     2
291
     0
 71
     0
176
     1
 72
     2
176
     1
 73
     0
176
     1
 90
        0
176
     1
 40
-0.6
176
     1
 41
-30.0
176
     1
 62
     5
 63
     7
421
 16777215
176
     1
 74
     1
176
     1
 91
        4
176
     1
 64
     7
176
     1
 65
   257
176
     1
 75
     1
176
     1
175
     1
176
     1
 42
1.0
176
     1
 92
        0
176
     1
 66
   257
176
     1
 43
1.0
176
     1
 76
     1
176
     1
 77
     6
176
     1
 78
     2
176
     1
 67
     7
176
     1
 79
     5
176
     1
170
     0
176
     1
171
     0
176
     1
290
     0
176
     1
 93
        1
176
     1
 44
0.0
176
     1
173
     0
176
     1
  0
VISUALSTYLE
  5
32
102
{ACAD_REACTORS
330
2A
102
}
330
2A
100
AcDbVisualStyle
  2
Basic
 70
     7
177
     2
291
     1
 71
     1
176
     1
 72
     0
176
     1
 73
     1
176
     1
 90
        0
176
     1
 40
-0.6
176
     1
 41
-30.0
176
     1
 62
     5
 63
     7
421
 16777215
176
     1
 74
     0
176
     1
 91
        4
176
     1
 64
     7
176
     1
 65
   257
176
     1
 75
     1
176
     1
175
     1
176
     1
 42
1.0
176
     1
 92
        8
176
     1
 66
     7
176
     1
 43
1.0
176
     1
 76
     1
176
     1
 77
     6
176
     1
 78
     2
176
     1
 67
     7
176
     1
 79
     5
176
     1
170
     0
176
     1
171
     0
176
     1
290
     0
176
     1
 93
        1
176
     1
 44
0.0
176
     1
173
     0
176
     1
  0
VISUALSTYLE
  5
36
102
{ACAD_REACTORS
330
2A
102
}
330
2A
100
AcDbVisualStyle
  2
Brighten
 70
    12
177
     2
291
     1
 71
     2
176
     1
 72
     2
176
     1
 73
     0
176
     1
 90
        0
176
     1
 40
-0.6
176
     1
 41
-30.0
176
     1
 62
     5
 63
     7
421
 16777215
176
     1
 74
     1
176
     1
 91
        4
176
     1
 64
     7
176
     1
 65
   257
176
     1
 75
     1
176
     1
175
     1
176
     1
 42
1.0
176
     1
 92
        8
176
     1
 66
     7
176
     1
 43
1.0
176
     1
 76
     1
176
     1
 77
     6
176
     1
 78
     2
176
     1
 67
     7
176
     1
 79
     5
176
     1
170
     0
176
     1
171
     0
176
     1
290
     0
176
     1
 93
        1
176
     1
 44
50.0
176
     1
173
     0
176
     1
  0
VISUALSTYLE
  5
3A
102
{ACAD_REACTORS
330
2A
102
}
330
2A
100
AcDbVisualStyle
  2
ColorChange
 70
    16
177
     2
291
     1
 71
     2
176
     1
 72
     2
176
     1
 73
     3
176
     1
 90
        0
176
     1
 40
-0.6
176
     1
 41
-30.0
176
     1
 62
     5
 63
     8
421
  8421504
176
     1
 74
     1
176
     1
 91
        4
176
     1
 64
     7
176
     1
 65
   257
176
     1
 75
     1
176
     1
175
     1
176
     1
 42
1.0
176
     1
 92
        8
176
     1
 66
     8
424
  8421504
176
     1
 43
1.0
176
     1
 76
     1
176
     1
 77
     6
176
     1
 78
     2
176
     1
 67
     7
176
     1
 79
     5
176
     1
170
     0
176
     1
171
     0
176
     1
290
     0
176
     1
 93
        1
176
     1
 44
0.0
176
     1
173
     0
176
     1
  0
VISUALSTYLE
  5
34
102
{ACAD_REACTORS
330
2A
102
}
330
2A
100
AcDbVisualStyle
  2
Conceptual
 70
     9
177
     2
291
     0
 71
     3
176
     1
 72
     2
176
     1
 73
     0
176
     1
 90
        0
176
     1
 40
-0.6
176
     1
 41
-30.0
176
     1
 62
     5
 63
     7
421
 16777215
176
     1
 74
     2
176
     1
 91
        2
176
     1
 64
     7
176
     1
 65
   257
176
     1
 75
     1
176
     1
175
     1
176
     1
 42
40.0
176
     1
 92
        8
176
     1
 66
     7
176
     1
 43
1.0
176
     1
 76
     1
176
     1
 77
     6
176
     1
 78
     2
176
     1
 67
     7
176
     1
 79
     3
176
     1
170
     0
176
     1
171
     0
176
     1
290
     0
176
     1
 93
        1
176
     1
 44
0.0
176
     1
173
     0
176
     1
  0
VISUALSTYLE
  5
35
102
{ACAD_REACTORS
330
2A
102
}
330
2A
100
AcDbVisualStyle
  2
Dim
 70
    11
177
     2
291
     1
 71
     2
176
     1
 72
     2
176
     1
 73
     0
176
     1
 90
        0
176
     1
 40
-0.6
176
     1
 41
-30.0
176
     1
 62
     5
 63
     7
421
 16777215
176
     1
 74
     1
176
     1
 91
        4
176
     1
 64
     7
176
     1
 65
   257
176
     1
 75
     1
176
     1
175
     1
176
     1
 42
1.0
176
     1
 92
        8
176
     1
 66
     7
176
     1
 43
1.0
176
     1
 76
     1
176
     1
 77
     6
176
     1
 78
     2
176
     1
 67
     7
176
     1
 79
     5
176
     1
170
     0
176
     1
171
     0
176
     1
290
     0
176
     1
 93
        1
176
     1
 44
-50.0
176
     1
173
     0
176
     1
  0
VISUALSTYLE
  5
39
102
{ACAD_REACTORS
330
2A
102
}
330
2A
100
AcDbVisualStyle
  2
Facepattern
 70
    15
177
     2
291
     1
 71
     2
176
     1
 72
     2
176
     1
 73
     0
176
     1
 90
        0
176
     1
 40
-0.6
176
     1
 41
-30.0
176
     1
 62
     5
 63
     7
421
 16777215
176
     1
 74
     1
176
     1
 91
        4
176
     1
 64
     7
176
     1
 65
   257
176
     1
 75
     1
176
     1
175
     1
176
     1
 42
1.0
176
     1
 92
        8
176
     1
 66
     7
176
     1
 43
1.0
176
     1
 76
     1
176
     1
 77
     6
176
     1
 78
     2
176
     1
 67
     7
176
     1
 79
     5
176
     1
170
     0
176
     1
171
     0
176
     1
290
     0
176
     1
 93
        1
176
     1
 44
0.0
176
     1
173
     0
176
     1
  0
VISUALSTYLE
  5
2B
102
{ACAD_REACTORS
330
2A
102
}
330
2A
100
AcDbVisualStyle
  2
Flat
 70
     0
177
     2
291
     1
 71
     2
176
     1
 72
     1
176
     1
 73
     1
176
     1
 90
        2
176
     1
 40
-0.6
176
     1
 41
30.0
176
     1
 62
     5
 63
     7
421
 16777215
176
     1
 74
     0
176
     1
 91
        4
176
     1
 64
     7
176
     1
 65
   257
176
     1
 75
     1
176
     1
175
     1
176
     1
 42
1.0
176
     1
 92
        8
176
     1
 66
     7
176
     1
 43
1.0
176
     1
 76
     1
176
     1
 77
     6
176
     1
 78
     2
176
     1
 67
     7
176
     1
 79
     5
176
     1
170
     0
176
     1
171
     0
176
     1
290
     0
176
     1
 93
       13
176
     1
 44
0.0
176
     1
173
     0
176
     1
  0
VISUALSTYLE
  5
2C
102
{ACAD_REACTORS
330
2A
102
}
330
2A
100
AcDbVisualStyle
  2
FlatWithEdges
 70
     1
177
     2
291
     1
 71
     2
176
     1
 72
     1
176
     1
 73
     1
176
     1
 90
        2
176
     1
 40
-0.6
176
     1
 41
30.0
176
     1
 62
     5
 63
     7
421
 16777215
176
     1
 74
     1
176
     1
 91
        4
176
     1
 64
     7
176
     1
 65
   257
176
     1
 75
     1
176
     1
175
     1
176
     1
 42
1.0
176
     1
 92
        0
176
     1
 66
   257
176
     1
 43
1.0
176
     1
 76
     1
176
     1
 77
     6
176
     1
 78
     2
176
     1
 67
     7
176
     1
 79
     5
176
     1
170
     0
176
     1
171
     0
176
     1
290
     0
176
     1
 93
       13
176
     1
 44
0.0
176
     1
173
     0
176
     1
  0
VISUALSTYLE
  5
2D
102
{ACAD_REACTORS
330
2A
102
}
330
2A
100
AcDbVisualStyle
  2
Gouraud
 70
     2
177
     2
291
     1
 71
     2
176
     1
 72
     2
176
     1
 73
     1
176
     1
 90
        2
176
     1
 40
-0.6
176
     1
 41
30.0
176
     1
 62
     5
 63
     7
421
 16777215
176
     1
 74
     0
176
     1
 91
        4
176
     1
 64
     7
176
     1
 65
   257
176
     1
 75
     1
176
     1
175
     1
176
     1
 42
1.0
176
     1
 92
        0
176
     1
 66
     7
176
     1
 43
1.0
176
     1
 76
     1
176
     1
 77
     6
176
     1
 78
     2
176
     1
 67
     7
176
     1
 79
     5
176
     1
170
     0
176
     1
171
     0
176
     1
290
     0
176
     1
 93
       13
176
     1
 44
0.0
176
     1
173
     0
176
     1
  0
VISUALSTYLE
  5
2E
102
{ACAD_REACTORS
330
2A
102
}
330
2A
100
AcDbVisualStyle
  2
GouraudWithEdges
 70
     3
177
     2
291
     1
 71
     2
176
     1
 72
     2
176
     1
 73
     1
176
     1
 90
        2
176
     1
 40
-0.6
176
     1
 41
30.0
176
     1
 62
     5
 63
     7
421
 16777215
176
     1
 74
     1
176
     1
 91
        4
176
     1
 64
     7
176
     1
 65
   257
176
     1
 75
     1
176
     1
175
     1
176
     1
 42
1.0
176
     1
 92
        0
176
     1
 66
   257
176
     1
 43
1.0
176
     1
 76
     1
176
     1
 77
     6
176
     1
 78
     2
176
     1
 67
     7
176
     1
 79
     5
176
     1
170
     0
176
     1
171
     0
176
     1
290
     0
176
     1
 93
       13
176
     1
 44
0.0
176
     1
173
     0
176
     1
  0
VISUALSTYLE
  5
38
102
{ACAD_REACTORS
330
2A
102
}
330
2A
100
AcDbVisualStyle
  2
Linepattern
 70
    14
177
     2
291
     1
 71
     2
176
     1
 72
     2
176
     1
 73
     0
176
     1
 90
        0
176
     1
 40
-0.6
176
     1
 41
-30.0
176
     1
 62
     5
 63
     7
421
 16777215
176
     1
 74
     1
176
     1
 91
        4
176
     1
 64
     7
176
     1
 65
   257
176
     1
 75
     7
176
     1
175
     7
176
     1
 42
1.0
176
     1
 92
        8
176
     1
 66
     7
176
     1
 43
1.0
176
     1
 76
     1
176
     1
 77
     6
176
     1
 78
     2
176
     1
 67
     7
176
     1
 79
     5
176
     1
170
     0
176
     1
171
     0
176
     1
290
     0
176
     1
 93
        1
176
     1
 44
0.0
176
     1
173
     0
176
     1
  0
VISUALSTYLE
  5
33
102
{ACAD_REACTORS
330
2A
102
}
330
2A
100
AcDbVisualStyle
  2
Realistic
 70
     8
177
     2
291
     0
 71
     2
176
     1
 72
     2
176
     1
 73
     0
176
     1
 90
        0
176
     1
 40
-0.6
176
     1
 41
-30.0
176
     1
 62
     5
 63
     7
421
 16777215
176
     1
 74
     1
176
     1
 91
        0
176
     1
 64
     7
176
     1
 65
   257
176
     1
 75
     1
176
     1
175
     1
176
     1
 42
1.0
176
     1
 92
        8
176
     1
 66
     8
424
  7895160
176
     1
 43
1.0
176
     1
 76
     1
176
     1
 77
     6
176
     1
 78
     2
176
     1
 67
     7
176
     1
 79
     5
176
     1
170
     0
176
     1
171
     0
176
     1
290
     0
176
     1
 93
       13
176
     1
 44
0.0
176
     1
173
     0
176
     1
  0
VISUALSTYLE
  5
37
102
{ACAD_REACTORS
330
2A
102
}
330
2A
100
AcDbVisualStyle
  2
Thicken
 70
    13
177
     2
291
     1
 71
     2
176
     1
 72
     2
176
     1
 73
     0
176
     1
 90
        0
176
     1
 40
-0.6
176
     1
 41
-30.0
176
     1
 62
     5
 63
     7
421
 16777215
176
     1
 74
     1
176
     1
 91
        4
176
     1
 64
     7
176
     1
 65
   257
176
     1
 75
     1
176
     1
175
     1
176
     1
 42
1.0
176
     1
 92
       12
176
     1
 66
     7
176
     1
 43
1.0
176
     1
 76
     1
176
     1
 77
     6
176
     1
 78
     2
176
     1
 67
     7
176
     1
 79
     5
176
     1
170
     0
176
     1
171
     0
176
     1
290
     0
176
     1
 93
        1
176
     1
 44
0.0
176
     1
173
     0
176
     1
  0
ENDSEC
  0
EOF
