  0
SECTION
  2
HEADER
  9
$ACADVER
  1
AC1024
  9
$ACADMAINTVER
 70
     6
  9
$DWGCODEPAGE
  3
UNDEFINED
  9
$INSBASE
 10
0.0
 20
0.0
 30
0.0
  9
$EXTMIN
 10
1.000000000000000E+20
 20
1.000000000000000E+20
 30
1.000000000000000E+20
  9
$EXTMAX
 10
-1.000000000000000E+20
 20
-1.000000000000000E+20
 30
-1.000000000000000E+20
  9
$LIMMIN
 10
0.0
 20
0.0
  9
$LIMMAX
 10
12.0
 20
9.0
  9
$ORTHOMODE
 70
     0
  9
$REGENMODE
 70
     1
  9
$FILLMODE
 70
     1
  9
$QTEXTMODE
 70
     0
  9
$MIRRTEXT
 70
     1
  9
$LTSCALE
 40
1.0
  9
$ATTMODE
 70
     1
  9
$TEXTSIZE
 40
0.2
  9
$TRACEWID
 40
0.05
  9
$TEXTSTYLE
  7
Standard
  9
$CLAYER
  8
0
  9
$CELTYPE
  6
ByLayer
  9
$CECOLOR
 62
   256
  9
$CELTSCALE
 40
1.0
  9
$DISPSILH
 70
     0
  9
$DIMSCALE
 40
1.0
  9
$DIMASZ
 40
0.18
  9
$DIMEXO
 40
0.0625
  9
$DIMDLI
 40
0.38
  9
$DIMRND
 40
0.0
  9
$DIMDLE
 40
0.0
  9
$DIMEXE
 40
0.18
  9
$DIMTP
 40
0.0
  9
$DIMTM
 40
0.0
  9
$DIMTXT
 40
0.18
  9
$DIMCEN
 40
0.09
  9
$DIMTSZ
 40
0.0
  9
$DIMTOL
 70
     0
  9
$DIMLIM
 70
     0
  9
$DIMTIH
 70
     1
  9
$DIMTOH
 70
     1
  9
$DIMSE1
 70
     0
  9
$DIMSE2
 70
     0
  9
$DIMTAD
 70
     0
  9
$DIMZIN
 70
     0
  9
$DIMBLK
  1

  9
$DIMASO
 70
     1
  9
$DIMSHO
 70
     1
  9
$DIMPOST
  1

  9
$DIMAPOST
  1

  9
$DIMALT
 70
     0
  9
$DIMALTD
 70
     2
  9
$DIMALTF
 40
25.4
  9
$DIMLFAC
 40
1.0
  9
$DIMTOFL
 70
     0
  9
$DIMTVP
 40
0.0
  9
$DIMTIX
 70
     0
  9
$DIMSOXD
 70
     0
  9
$DIMSAH
 70
     0
  9
$DIMBLK1
  1

  9
$DIMBLK2
  1

  9
$DIMSTYLE
  2
Standard
  9
$DIMCLRD
 70
     0
  9
$DIMCLRE
 70
     0
  9
$DIMCLRT
 70
     0
  9
$DIMTFAC
 40
1.0
  9
$DIMGAP
 40
0.09
  9
$DIMJUST
 70
     0
  9
$DIMSD1
 70
     0
  9
$DIMSD2
 70
     0
  9
$DIMTOLJ
 70
     1
  9
$DIMTZIN
 70
     0
  9
$DIMALTZ
 70
     0
  9
$DIMALTTZ
 70
     0
  9
$DIMUPT
 70
     0
  9
$DIMDEC
 70
     4
  9
$DIMTDEC
 70
     4
  9
$DIMALTU
 70
     2
  9
$DIMALTTD
 70
     2
  9
$DIMTXSTY
  7
Standard
  9
$DIMAUNIT
 70
     0
  9
$DIMADEC
 70
     0
  9
$DIMALTRND
 40
0.0
  9
$DIMAZIN
 70
     0
  9
$DIMDSEP
 70
    46
  9
$DIMATFIT
 70
     3
  9
$DIMFRAC
 70
     0
  9
$DIMLDRBLK
  1

  9
$DIMLUNIT
 70
     2
  9
$DIMLWD
 70
    -2
  9
$DIMLWE
 70
    -2
  9
$DIMTMOVE
 70
     0
  9
$DIMFXL
 40
1.0
  9
$DIMFXLON
 70
     0
  9
$DIMJOGANG
 40
0.7853981633974483
  9
$DIMTFILL
 70
     0
  9
$DIMTFILLCLR
 70
     0
  9
$DIMARCSYM
 70
     0
  9
$DIMLTYPE
  6

  9
$DIMLTEX1
  6

  9
$DIMLTEX2
  6

  9
$DIMTXTDIRECTION
 70
     0
  9
$LUNITS
 70
     2
  9
$LUPREC
 70
     4
  9
$SKETCHINC
 40
0.1
  9
$FILLETRAD
 40
0.5
  9
$AUNITS
 70
     0
  9
$AUPREC
 70
     0
  9
$MENU
  1
.
  9
$ELEVATION
 40
0.0
  9
$PELEVATION
 40
0.0
  9
$THICKNESS
 40
0.0
  9
$LIMCHECK
 70
     0
  9
$CHAMFERA
 40
0.5
  9
$CHAMFERB
 40
0.5
  9
$CHAMFERC
 40
1.0
  9
$CHAMFERD
 40
0.0
  9
$SKPOLY
 70
     0
  9
$TDCREATE
 40
2458263.582372674
  9
$TDUCREATE
 40
2458263.207372685
  9
$TDUPDATE
 40
2458263.582372674
  9
$TDUUPDATE
 40
2458263.207372685
  9
$TDINDWG
 40
0.0000000116
  9
$TDUSRTIMER
 40
0.0000000116
  9
$USRTIMER
 70
     1
  9
$ANGBASE
 50
0.0
  9
$ANGDIR
 70
     0
  9
$PDMODE
 70
     0
  9
$PDSIZE
 40
0.0
  9
$PLINEWID
 40
0.0
  9
$SPLFRAME
 70
     0
  9
$SPLINETYPE
 70
     6
  9
$SPLINESEGS
 70
     8
  9
$HANDSEED
  5
AC
  9
$SURFTAB1
 70
     6
  9
$SURFTAB2
 70
     6
  9
$SURFTYPE
 70
     6
  9
$SURFU
 70
     6
  9
$SURFV
 70
     6
  9
$UCSBASE
  2

  9
$UCSNAME
  2

  9
$UCSORG
 10
0.0
 20
0.0
 30
0.0
  9
$UCSXDIR
 10
1.0
 20
0.0
 30
0.0
  9
$UCSYDIR
 10
0.0
 20
1.0
 30
0.0
  9
$UCSORTHOREF
  2

  9
$UCSORTHOVIEW
 70
     0
  9
$UCSORGTOP
 10
0.0
 20
0.0
 30
0.0
  9
$UCSORGBOTTOM
 10
0.0
 20
0.0
 30
0.0
  9
$UCSORGLEFT
 10
0.0
 20
0.0
 30
0.0
  9
$UCSORGRIGHT
 10
0.0
 20
0.0
 30
0.0
  9
$UCSORGFRONT
 10
0.0
 20
0.0
 30
0.0
  9
$UCSORGBACK
 10
0.0
 20
0.0
 30
0.0
  9
$PUCSBASE
  2

  9
$PUCSNAME
  2

  9
$PUCSORG
 10
0.0
 20
0.0
 30
0.0
  9
$PUCSXDIR
 10
1.0
 20
0.0
 30
0.0
  9
$PUCSYDIR
 10
0.0
 20
1.0
 30
0.0
  9
$PUCSORTHOREF
  2

  9
$PUCSORTHOVIEW
 70
     0
  9
$PUCSORGTOP
 10
0.0
 20
0.0
 30
0.0
  9
$PUCSORGBOTTOM
 10
0.0
 20
0.0
 30
0.0
  9
$PUCSORGLEFT
 10
0.0
 20
0.0
 30
0.0
  9
$PUCSORGRIGHT
 10
0.0
 20
0.0
 30
0.0
  9
$PUCSORGFRONT
 10
0.0
 20
0.0
 30
0.0
  9
$PUCSORGBACK
 10
0.0
 20
0.0
 30
0.0
  9
$USERI1
 70
     0
  9
$USERI2
 70
     0
  9
$USERI3
 70
     0
  9
$USERI4
 70
     0
  9
$USERI5
 70
     0
  9
$USERR1
 40
0.0
  9
$USERR2
 40
0.0
  9
$USERR3
 40
0.0
  9
$USERR4
 40
0.0
  9
$USERR5
 40
0.0
  9
$WORLDVIEW
 70
     1
  9
$SHADEDGE
 70
     3
  9
$SHADEDIF
 70
    70
  9
$TILEMODE
 70
     1
  9
$MAXACTVP
 70
    64
  9
$PINSBASE
 10
0.0
 20
0.0
 30
0.0
  9
$PLIMCHECK
 70
     0
  9
$PEXTMIN
 10
1.000000000000000E+20
 20
1.000000000000000E+20
 30
1.000000000000000E+20
  9
$PEXTMAX
 10
-1.000000000000000E+20
 20
-1.000000000000000E+20
 30
-1.000000000000000E+20
  9
$PLIMMIN
 10
0.0
 20
0.0
  9
$PLIMMAX
 10
12.0
 20
9.0
  9
$UNITMODE
 70
     0
  9
$VISRETAIN
 70
     1
  9
$PLINEGEN
 70
     0
  9
$PSLTSCALE
 70
     1
  9
$TREEDEPTH
 70
  3020
  9
$CMLSTYLE
  2
Standard
  9
$CMLJUST
 70
     0
  9
$CMLSCALE
 40
1.0
  9
$PROXYGRAPHICS
 70
     1
  9
$MEASUREMENT
 70
     0
  9
$CELWEIGHT
370
    -1
  9
$ENDCAPS
280
     0
  9
$JOINSTYLE
280
     0
  9
$LWDISPLAY
290
     1
  9
$INSUNITS
 70
     1
  9
$HYPERLINKBASE
  1

  9
$STYLESHEET
  1

  9
$XEDIT
290
     1
  9
$CEPSNTYPE
380
     0
  9
$PSTYLEMODE
290
     1
  9
$FINGERPRINTGUID
  2
{5CE08156-A8AA-9CFC-ECC4-382827F44588}
  9
$VERSIONGUID
  2
{FAEB1C32-E019-11D5-929B-00C0DF256EC4}
  9
$EXTNAMES
290
     1
  9
$PSVPSCALE
 40
0.0
  9
$OLESTARTUP
290
     0
  9
$SORTENTS
280
   127
  9
$INDEXCTL
280
     0
  9
$HIDETEXT
280
     1
  9
$XCLIPFRAME
280
     2
  9
$HALOGAP
280
     0
  9
$OBSCOLOR
 70
   257
  9
$OBSLTYPE
280
     0
  9
$INTERSECTIONDISPLAY
280
     0
  9
$INTERSECTIONCOLOR
 70
   257
  9
$DIMASSOC
280
     2
  9
$PROJECTNAME
  1

  9
$CAMERADISPLAY
290
     0
  9
$LENSLENGTH
 40
50.0
  9
$CAMERAHEIGHT
 40
0.0
  9
$STEPSPERSEC
 40
2.0
  9
$STEPSIZE
 40
6.0
  9
$3DDWFPREC
 40
2.0
  9
$PSOLWIDTH
 40
0.25
  9
$PSOLHEIGHT
 40
4.0
  9
$LOFTANG1
 40
1.570796326794897
  9
$LOFTANG2
 40
1.570796326794897
  9
$LOFTMAG1
 40
0.0
  9
$LOFTMAG2
 40
0.0
  9
$LOFTPARAM
 70
     7
  9
$LOFTNORMALS
280
     1
  9
$LATITUDE
 40
37.795
  9
$LONGITUDE
 40
-122.394
  9
$NORTHDIRECTION
 40
0.0
  9
$TIMEZONE
 70
 -8000
  9
$LIGHTGLYPHDISPLAY
280
     1
  9
$TILEMODELIGHTSYNCH
280
     1
  9
$CMATERIAL
347
3C
  9
$SOLIDHIST
280
     1
  9
$SHOWHIST
280
     1
  9
$DWFFRAME
280
     2
  9
$DGNFRAME
280
     2
  9
$REALWORLDSCALE
290
     1
  9
$INTERFERECOLOR
 62
   256
  9
$CSHADOW
280
     0
  9
$SHADOWPLANELOCATION
 40
0.0
  0
ENDSEC
  0
SECTION
  2
CLASSES
  0
CLASS
  1
ACDBDICTIONARYWDFLT
  2
AcDbDictionaryWithDefault
  3
ObjectDBX Classes
 90
        0
 91
        4
280
     0
281
     0
  0
CLASS
  1
VISUALSTYLE
  2
AcDbVisualStyle
  3
ObjectDBX Classes
 90
     4095
 91
        4
280
     0
281
     0
  0
CLASS
  1
MATERIAL
  2
AcDbMaterial
  3
ObjectDBX Classes
 90
     1153
 91
        4
280
     0
281
     0
  0
CLASS
  1
SUN
  2
AcDbSun
  3
SCENEOE
 90
     1024
 91
        4
280
     0
281
     0
  0
ENDSEC
  0
SECTION
  2
TABLES
  0
TABLE
  2
VPORT
  5
8
330
0
100
AcDbSymbolTable
 70
     1
  0
VPORT
  5
29
330
8
100
AcDbSymbolTableRecord
100
AcDbViewportTableRecord
  2
*Active
 70
     0
 10
0.0
 20
0.0
 11
1.0
 21
1.0
 12
0.0
 22
0.0
 13
0.0
 23
0.0
 14
0.5
 24
0.5
 15
0.5
 25
0.5
 16
0.0
 26
0.0
 36
1.0
 17
105.0007777515277
 27
-148.5000416295416
 37
0.0
 40
297.0000832590831
 41
0.7070757462376333
 42
50.0
 43
0.0
 44
0.0
 50
0.0
 51
0.0
 71
     0
 72
   100
 73
     1
 74
     3
 75
     0
 76
     0
 77
     0
 78
     0
281
     0
 65
     1
110
0.0
120
0.0
130
0.0
111
1.0
121
0.0
131
0.0
112
0.0
122
1.0
132
0.0
 79
     0
146
0.0
 60
     3
 61
     5
292
     1
282
     1
141
0.0
142
0.0
 63
   250
361
3F
  0
ENDTAB
  0
TABLE
  2
LTYPE
  5
5
330
0
100
AcDbSymbolTable
 70
     2
  0
LTYPE
  5
14
330
5
100
AcDbSymbolTableRecord
100
AcDbLinetypeTableRecord
  2
ByBlock
 70
     0
  3

 72
    65
 73
     0
 40
0.0
  0
LTYPE
  5
15
330
5
100
AcDbSymbolTableRecord
100
AcDbLinetypeTableRecord
  2
ByLayer
 70
     0
  3

 72
    65
 73
     0
 40
0.0
  0
LTYPE
  5
16
330
5
100
AcDbSymbolTableRecord
100
AcDbLinetypeTableRecord
  2
Continuous
 70
     0
  3
Solid line
 72
    65
 73
     0
 40
0.0
  0
LTYPE
  5
A8
330
5
100
AcDbSymbolTableRecord
100
AcDbLinetypeTableRecord
  2
AI-Linetype-1
 70
     0
  3
Adobe Illustrator Linetype No. 1
 72
    65
 73
     2
 40
1.411111110758333
 49
0.7055555553791667
 74
     0
 49
-0.7055555553791667
 74
     0
  0
ENDTAB
  0
TABLE
  2
LAYER
  5
2
330
0
100
AcDbSymbolTable
 70
     2
  0
LAYER
  5
10
330
2
100
AcDbSymbolTableRecord
100
AcDbLayerTableRecord
  2
0
 70
     0
 62
     7
  6
Continuous
370
    -3
390
F
347
3E
  0
LAYER
  5
40
330
2
100
AcDbSymbolTableRecord
100
AcDbLayerTableRecord
  2
_U+30EC_U+30A4_U+30E4_U+30FC 1
 70
     0
 62
     7
  6
Continuous
370
    -3
390
F
347
3E
  0
ENDTAB
  0
TABLE
  2
STYLE
  5
3
330
0
100
AcDbSymbolTable
 70
     1
  0
STYLE
  5
11
330
3
100
AcDbSymbolTableRecord
100
AcDbTextStyleTableRecord
  2
Standard
 70
     0
 40
0.0
 41
1.0
 50
0.0
 71
     0
 42
0.2
  3
txt
  4

  0
ENDTAB
  0
TABLE
  2
VIEW
  5
6
330
0
100
AcDbSymbolTable
 70
     0
  0
ENDTAB
  0
TABLE
  2
UCS
  5
7
330
0
100
AcDbSymbolTable
 70
     0
  0
ENDTAB
  0
TABLE
  2
APPID
  5
9
330
0
100
AcDbSymbolTable
 70
     1
  0
APPID
  5
12
330
9
100
AcDbSymbolTableRecord
100
AcDbRegAppTableRecord
  2
ACAD
 70
     0
  0
ENDTAB
  0
TABLE
  2
DIMSTYLE
  5
A
330
0
100
AcDbSymbolTable
 70
     1
100
AcDbDimStyleTable
  0
DIMSTYLE
105
27
330
A
100
AcDbSymbolTableRecord
100
AcDbDimStyleTableRecord
  2
Standard
 70
     0
178
     0
340
11
  0
ENDTAB
  0
TABLE
  2
BLOCK_RECORD
  5
1
330
0
100
AcDbSymbolTable
 70
     6
  0
BLOCK_RECORD
  5
1F
330
1
100
AcDbSymbolTableRecord
100
AcDbBlockTableRecord
  2
*Model_Space
340
22
 70
     0
280
     1
281
     0
  0
BLOCK_RECORD
  5
1B
330
1
100
AcDbSymbolTableRecord
100
AcDbBlockTableRecord
  2
*Paper_Space
340
1E
 70
     0
280
     1
281
     0
  0
BLOCK_RECORD
  5
23
330
1
100
AcDbSymbolTableRecord
100
AcDbBlockTableRecord
  2
*Paper_Space0
340
26
 70
     0
280
     1
281
     0
  0
BLOCK_RECORD
  5
56
330
1
100
AcDbSymbolTableRecord
100
AcDbBlockTableRecord
  2
block 2
340
0
102
{BLKREFS
331
57
102
}
 70
     0
280
     1
281
     0
  0
BLOCK_RECORD
  5
6C
330
1
100
AcDbSymbolTableRecord
100
AcDbBlockTableRecord
  2
block 3
340
0
102
{BLKREFS
331
6D
102
}
 70
     0
280
     1
281
     0
  0
BLOCK_RECORD
  5
80
330
1
100
AcDbSymbolTableRecord
100
AcDbBlockTableRecord
  2
block 4
340
0
102
{BLKREFS
331
81
102
}
 70
     0
280
     1
281
     0
  0
BLOCK_RECORD
  5
8A
330
1
100
AcDbSymbolTableRecord
100
AcDbBlockTableRecord
  2
block 5
340
0
102
{BLKREFS
331
8B
102
}
 70
     0
280
     1
281
     0
  0
BLOCK_RECORD
  5
9D
330
1
100
AcDbSymbolTableRecord
100
AcDbBlockTableRecord
  2
block 6
340
0
102
{BLKREFS
331
9E
102
}
 70
     0
280
     1
281
     0
  0
ENDTAB
  0
ENDSEC
  0
SECTION
  2
BLOCKS
  0
BLOCK
  5
20
330
1F
100
AcDbEntity
  8
0
100
AcDbBlockBegin
  2
*Model_Space
 70
     0
 10
0.0
 20
0.0
 30
0.0
  3
*Model_Space
  1

  0
ENDBLK
  5
21
330
1F
100
AcDbEntity
  8
0
100
AcDbBlockEnd
  0
BLOCK
  5
1C
330
1B
100
AcDbEntity
 67
     1
  8
0
100
AcDbBlockBegin
  2
*Paper_Space
 70
     0
 10
0.0
 20
0.0
 30
0.0
  3
*Paper_Space
  1

  0
ENDBLK
  5
1D
330
1B
100
AcDbEntity
 67
     1
  8
0
100
AcDbBlockEnd
  0
BLOCK
  5
24
330
23
100
AcDbEntity
  8
0
100
AcDbBlockBegin
  2
*Paper_Space0
 70
     0
 10
0.0
 20
0.0
 30
0.0
  3
*Paper_Space0
  1

  0
ENDBLK
  5
25
330
23
100
AcDbEntity
  8
0
100
AcDbBlockEnd
  0
BLOCK
  5
58
330
56
100
AcDbEntity
  8
0
100
AcDbBlockBegin
  2
block 2
 70
     0
 10
0.0
 20
0.0
 30
0.0
  3
block 2
  1

  0
SPLINE
  5
5A
330
56
100
AcDbEntity
  8
_U+30EC_U+30A4_U+30E4_U+30FC 1
370
     0
100
AcDbSpline
210
0.0
220
0.0
230
1.0
 70
    11
 71
     3
 72
    26
 73
    22
 74
     0
 42
0.0000000001
 43
0.0000000001
 12
1.0
 22
0.0
 32
0.0
 13
1.0
 23
0.0
 33
0.0
 40
0.0
 40
0.0
 40
0.0
 40
0.0
 40
1.0
 40
1.0
 40
1.0
 40
2.0
 40
2.0
 40
2.0
 40
3.0
 40
3.0
 40
3.0
 40
4.0
 40
4.0
 40
4.0
 40
5.0
 40
5.0
 40
5.0
 40
6.0
 40
6.0
 40
6.0
 40
7.0
 40
7.0
 40
7.0
 40
7.0
 10
102.1295111506829
 20
-160.825325480627
 30
0.0
 10
102.1295111506829
 20
-160.825325480627
 30
0.0
 10
102.1295111506829
 20
-159.7211723776044
 30
0.0
 10
102.1295111506829
 20
-159.7211723776044
 30
0.0
 10
102.1295111506829
 20
-159.7211723776044
 30
0.0
 10
101.7767333729933
 20
-159.7211723776044
 30
0.0
 10
101.7767333729933
 20
-159.7211723776044
 30
0.0
 10
101.7767333729933
 20
-159.7211723776044
 30
0.0
 10
101.7767333729933
 20
-159.5730332717387
 30
0.0
 10
101.7767333729933
 20
-159.5730332717387
 30
0.0
 10
102.1317504627483
 20
-159.5582193611521
 30
0.0
 10
102.1815320925102
 20
-159.3952663446998
 30
0.0
 10
102.2132269709745
 20
-159.2808891745895
 30
0.0
 10
102.2132269709745
 20
-159.2808891745895
 30
0.0
 10
102.369117541682
 20
-159.2808891745895
 30
0.0
 10
102.369117541682
 20
-159.2808891745895
 30
0.0
 10
102.369117541682
 20
-159.2808891745895
 30
0.0
 10
102.369117541682
 20
-160.825325480627
 30
0.0
 10
102.369117541682
 20
-160.825325480627
 30
0.0
 10
102.369117541682
 20
-160.825325480627
 30
0.0
 10
102.1295111506829
 20
-160.825325480627
 30
0.0
 10
102.1295111506829
 20
-160.825325480627
 30
0.0
  0
HATCH
  5
5B
330
56
100
AcDbEntity
  8
_U+30EC_U+30A4_U+30E4_U+30FC 1
 62
   179
420
  2234388
100
AcDbHatch
 10
0.0
 20
0.0
 30
0.0
210
0.0
220
0.0
230
1.0
  2
SOLID
 70
     1
 71
     0
 91
        1
 92
        1
 93
        1
 72
     4
 94
        3
 73
     0
 74
     1
 95
       26
 96
       22
 40
0.0
 40
0.0
 40
0.0
 40
0.0
 40
1.0
 40
1.0
 40
1.0
 40
2.0
 40
2.0
 40
2.0
 40
3.0
 40
3.0
 40
3.0
 40
4.0
 40
4.0
 40
4.0
 40
5.0
 40
5.0
 40
5.0
 40
6.0
 40
6.0
 40
6.0
 40
7.0
 40
7.0
 40
7.0
 40
7.0
 10
102.1295111506829
 20
-160.825325480627
 10
102.1295111506829
 20
-160.825325480627
 10
102.1295111506829
 20
-159.7211723776044
 10
102.1295111506829
 20
-159.7211723776044
 10
102.1295111506829
 20
-159.7211723776044
 10
101.7767333729933
 20
-159.7211723776044
 10
101.7767333729933
 20
-159.7211723776044
 10
101.7767333729933
 20
-159.7211723776044
 10
101.7767333729933
 20
-159.5730332717387
 10
101.7767333729933
 20
-159.5730332717387
 10
102.1317504627483
 20
-159.5582193611521
 10
102.1815320925102
 20
-159.3952663446998
 10
102.2132269709745
 20
-159.2808891745895
 10
102.2132269709745
 20
-159.2808891745895
 10
102.369117541682
 20
-159.2808891745895
 10
102.369117541682
 20
-159.2808891745895
 10
102.369117541682
 20
-159.2808891745895
 10
102.369117541682
 20
-160.825325480627
 10
102.369117541682
 20
-160.825325480627
 10
102.369117541682
 20
-160.825325480627
 10
102.1295111506829
 20
-160.825325480627
 10
102.1295111506829
 20
-160.825325480627
 97
        0
 97
        0
 75
     2
 76
     1
 98
        0
  0
SPLINE
  5
5C
330
56
100
AcDbEntity
  8
_U+30EC_U+30A4_U+30E4_U+30FC 1
370
     0
100
AcDbSpline
210
0.0
220
0.0
230
1.0
 70
    11
 71
     3
 72
    29
 73
    25
 74
     0
 42
0.0000000001
 43
0.0000000001
 12
1.0
 22
0.0
 32
0.0
 13
1.0
 23
0.0
 33
0.0
 40
0.0
 40
0.0
 40
0.0
 40
0.0
 40
1.0
 40
1.0
 40
1.0
 40
2.0
 40
2.0
 40
2.0
 40
3.0
 40
3.0
 40
3.0
 40
4.0
 40
4.0
 40
4.0
 40
5.0
 40
5.0
 40
5.0
 40
6.0
 40
6.0
 40
6.0
 40
7.0
 40
7.0
 40
7.0
 40
8.0
 40
8.0
 40
8.0
 40
8.0
 10
103.4393364541749
 20
-160.8759683842602
 30
0.0
 10
103.1544270575447
 20
-160.8759683842602
 30
0.0
 10
102.8831257880813
 20
-160.7385090743987
 30
0.0
 10
102.8831257880813
 20
-160.3895209017429
 30
0.0
 10
102.8831257880813
 20
-160.1335503071888
 30
0.0
 10
103.034537734658
 20
-160.0384656717959
 30
0.0
 10
103.1477091213485
 20
-159.9771429721585
 30
0.0
 10
103.0142116712951
 20
-159.9178873298122
 30
0.0
 10
102.9329074178432
 20
-159.8035101597019
 30
0.0
 10
102.9329074178432
 20
-159.6426242005408
 30
0.0
 10
102.9329074178432
 20
-159.3677055808178
 30
0.0
 10
103.1454698092831
 20
-159.2323133282475
 30
0.0
 10
103.4393364541749
 20
-159.2323133282475
 30
0.0
 10
103.7421603473284
 20
-159.2323133282475
 30
0.0
 10
103.9457654905066
 20
-159.3763183195309
 30
0.0
 10
103.9457654905066
 20
-159.6426242005408
 30
0.0
 10
103.9457654905066
 20
-159.8035101597019
 30
0.0
 10
103.862049670215
 20
-159.9178873298122
 30
0.0
 10
103.7287244749359
 20
-159.9771429721585
 30
0.0
 10
103.8236368555545
 20
-160.0277858757917
 30
0.0
 10
103.9931355534288
 20
-160.1228705111846
 30
0.0
 10
103.9931355534288
 20
-160.3853867871606
 30
0.0
 10
103.9931355534288
 20
-160.7598686664073
 30
0.0
 10
103.6947902844062
 20
-160.8759683842602
 30
0.0
 10
103.4393364541749
 20
-160.8759683842602
 30
0.0
  0
SPLINE
  5
5D
330
56
100
AcDbEntity
  8
_U+30EC_U+30A4_U+30E4_U+30FC 1
370
     0
100
AcDbSpline
210
0.0
220
0.0
230
1.0
 70
    11
 71
     3
 72
    17
 73
    13
 74
     0
 42
0.0000000001
 43
0.0000000001
 12
1.0
 22
0.0
 32
0.0
 13
1.0
 23
0.0
 33
0.0
 40
0.0
 40
0.0
 40
0.0
 40
0.0
 40
1.0
 40
1.0
 40
1.0
 40
2.0
 40
2.0
 40
2.0
 40
3.0
 40
3.0
 40
3.0
 40
4.0
 40
4.0
 40
4.0
 40
4.0
 10
103.4393364541749
 20
-160.0849744608468
 30
0.0
 10
103.2855129407585
 20
-160.0849744608468
 30
0.0
 10
103.1227321790804
 20
-160.1717908670751
 30
0.0
 10
103.1227321790804
 20
-160.3747069911563
 30
0.0
 10
103.1227321790804
 20
-160.5800346820772
 30
0.0
 10
103.2584689411993
 20
-160.6813204893436
 30
0.0
 10
103.4393364541749
 20
-160.6813204893436
 30
0.0
 10
103.6382907184481
 20
-160.6813204893436
 30
0.0
 10
103.7557684744951
 20
-160.5586750900687
 30
0.0
 10
103.7557684744951
 20
-160.3809081630298
 30
0.0
 10
103.7557684744951
 20
-160.1590440137797
 30
0.0
 10
103.58179115249
 20
-160.0849744608468
 30
0.0
 10
103.4393364541749
 20
-160.0849744608468
 30
0.0
  0
SPLINE
  5
5E
330
56
100
AcDbEntity
  8
_U+30EC_U+30A4_U+30E4_U+30FC 1
370
     0
100
AcDbSpline
210
0.0
220
0.0
230
1.0
 70
    11
 71
     3
 72
    17
 73
    13
 74
     0
 42
0.0000000001
 43
0.0000000001
 12
1.0
 22
0.0
 32
0.0
 13
1.0
 23
0.0
 33
0.0
 40
0.0
 40
0.0
 40
0.0
 40
0.0
 40
1.0
 40
1.0
 40
1.0
 40
2.0
 40
2.0
 40
2.0
 40
3.0
 40
3.0
 40
3.0
 40
4.0
 40
4.0
 40
4.0
 40
4.0
 10
103.4393364541749
 20
-159.424894165873
 30
0.0
 10
103.2629475653301
 20
-159.424894165873
 30
0.0
 10
103.1725138088423
 20
-159.5199788012658
 30
0.0
 10
103.1725138088423
 20
-159.6553710538362
 30
0.0
 10
103.1725138088423
 20
-159.7780164531111
 30
0.0
 10
103.2493394381634
 20
-159.8965277378037
 30
0.0
 10
103.4393364541749
 20
-159.8965277378037
 30
0.0
 10
103.6291612154122
 20
-159.8965277378037
 30
0.0
 10
103.7059868447332
 20
-159.7780164531111
 30
0.0
 10
103.7059868447332
 20
-159.6553710538362
 30
0.0
 10
103.7059868447332
 20
-159.5199788012658
 30
0.0
 10
103.61331377618
 20
-159.424894165873
 30
0.0
 10
103.4393364541749
 20
-159.424894165873
 30
0.0
  0
HATCH
  5
5F
330
56
100
AcDbEntity
  8
_U+30EC_U+30A4_U+30E4_U+30FC 1
 62
   179
420
  2234388
100
AcDbHatch
 10
0.0
 20
0.0
 30
0.0
210
0.0
220
0.0
230
1.0
  2
SOLID
 70
     1
 71
     0
 91
        3
 92
        1
 93
        1
 72
     4
 94
        3
 73
     0
 74
     1
 95
       29
 96
       25
 40
0.0
 40
0.0
 40
0.0
 40
0.0
 40
1.0
 40
1.0
 40
1.0
 40
2.0
 40
2.0
 40
2.0
 40
3.0
 40
3.0
 40
3.0
 40
4.0
 40
4.0
 40
4.0
 40
5.0
 40
5.0
 40
5.0
 40
6.0
 40
6.0
 40
6.0
 40
7.0
 40
7.0
 40
7.0
 40
8.0
 40
8.0
 40
8.0
 40
8.0
 10
103.4393364541749
 20
-160.8759683842602
 10
103.1544270575447
 20
-160.8759683842602
 10
102.8831257880813
 20
-160.7385090743987
 10
102.8831257880813
 20
-160.3895209017429
 10
102.8831257880813
 20
-160.1335503071888
 10
103.034537734658
 20
-160.0384656717959
 10
103.1477091213485
 20
-159.9771429721585
 10
103.0142116712951
 20
-159.9178873298122
 10
102.9329074178432
 20
-159.8035101597019
 10
102.9329074178432
 20
-159.6426242005408
 10
102.9329074178432
 20
-159.3677055808178
 10
103.1454698092831
 20
-159.2323133282475
 10
103.4393364541749
 20
-159.2323133282475
 10
103.7421603473284
 20
-159.2323133282475
 10
103.9457654905066
 20
-159.3763183195309
 10
103.9457654905066
 20
-159.6426242005408
 10
103.9457654905066
 20
-159.8035101597019
 10
103.862049670215
 20
-159.9178873298122
 10
103.7287244749359
 20
-159.9771429721585
 10
103.8236368555545
 20
-160.0277858757917
 10
103.9931355534288
 20
-160.1228705111846
 10
103.9931355534288
 20
-160.3853867871606
 10
103.9931355534288
 20
-160.7598686664073
 10
103.6947902844062
 20
-160.8759683842602
 10
103.4393364541749
 20
-160.8759683842602
 97
        0
 97
        0
 92
        1
 93
        1
 72
     4
 94
        3
 73
     0
 74
     1
 95
       17
 96
       13
 40
0.0
 40
0.0
 40
0.0
 40
0.0
 40
1.0
 40
1.0
 40
1.0
 40
2.0
 40
2.0
 40
2.0
 40
3.0
 40
3.0
 40
3.0
 40
4.0
 40
4.0
 40
4.0
 40
4.0
 10
103.4393364541749
 20
-160.0849744608468
 10
103.2855129407585
 20
-160.0849744608468
 10
103.1227321790804
 20
-160.1717908670751
 10
103.1227321790804
 20
-160.3747069911563
 10
103.1227321790804
 20
-160.5800346820772
 10
103.2584689411993
 20
-160.6813204893436
 10
103.4393364541749
 20
-160.6813204893436
 10
103.6382907184481
 20
-160.6813204893436
 10
103.7557684744951
 20
-160.5586750900687
 10
103.7557684744951
 20
-160.3809081630298
 10
103.7557684744951
 20
-160.1590440137797
 10
103.58179115249
 20
-160.0849744608468
 10
103.4393364541749
 20
-160.0849744608468
 97
        0
 97
        0
 92
        1
 93
        1
 72
     4
 94
        3
 73
     0
 74
     1
 95
       17
 96
       13
 40
0.0
 40
0.0
 40
0.0
 40
0.0
 40
1.0
 40
1.0
 40
1.0
 40
2.0
 40
2.0
 40
2.0
 40
3.0
 40
3.0
 40
3.0
 40
4.0
 40
4.0
 40
4.0
 40
4.0
 10
103.4393364541749
 20
-159.424894165873
 10
103.2629475653301
 20
-159.424894165873
 10
103.1725138088423
 20
-159.5199788012658
 10
103.1725138088423
 20
-159.6553710538362
 10
103.1725138088423
 20
-159.7780164531111
 10
103.2493394381634
 20
-159.8965277378037
 10
103.4393364541749
 20
-159.8965277378037
 10
103.6291612154122
 20
-159.8965277378037
 10
103.7059868447332
 20
-159.7780164531111
 10
103.7059868447332
 20
-159.6553710538362
 10
103.7059868447332
 20
-159.5199788012658
 10
103.61331377618
 20
-159.424894165873
 10
103.4393364541749
 20
-159.424894165873
 97
        0
 97
        0
 75
     2
 76
     1
 98
        0
  0
ENDBLK
  5
59
330
56
100
AcDbEntity
  8
0
100
AcDbBlockEnd
  0
BLOCK
  5
6E
330
6C
100
AcDbEntity
  8
0
100
AcDbBlockBegin
  2
block 3
 70
     0
 10
0.0
 20
0.0
 30
0.0
  3
block 3
  1

  0
SPLINE
  5
70
330
6C
100
AcDbEntity
  8
_U+30EC_U+30A4_U+30E4_U+30FC 1
370
     0
100
AcDbSpline
210
0.0
220
0.0
230
1.0
 70
    11
 71
     3
 72
    29
 73
    25
 74
     0
 42
0.0000000001
 43
0.0000000001
 12
1.0
 22
0.0
 32
0.0
 13
1.0
 23
0.0
 33
0.0
 40
0.0
 40
0.0
 40
0.0
 40
0.0
 40
1.0
 40
1.0
 40
1.0
 40
2.0
 40
2.0
 40
2.0
 40
3.0
 40
3.0
 40
3.0
 40
4.0
 40
4.0
 40
4.0
 40
5.0
 40
5.0
 40
5.0
 40
6.0
 40
6.0
 40
6.0
 40
7.0
 40
7.0
 40
7.0
 40
8.0
 40
8.0
 40
8.0
 40
8.0
 10
97.84829099116293
 20
-137.7271660354467
 30
0.0
 10
97.56338159453277
 20
-137.7271660354467
 30
0.0
 10
97.29208032506935
 20
-137.5897067255852
 30
0.0
 10
97.29208032506935
 20
-137.2407185529294
 30
0.0
 10
97.29208032506935
 20
-136.9847479583754
 30
0.0
 10
97.44349227164608
 20
-136.8896633229824
 30
0.0
 10
97.55666365833653
 20
-136.828340623345
 30
0.0
 10
97.4231662082831
 20
-136.7690849809987
 30
0.0
 10
97.3418619548312
 20
-136.6547078108884
 30
0.0
 10
97.3418619548312
 20
-136.4938218517272
 30
0.0
 10
97.3418619548312
 20
-136.2189032320043
 30
0.0
 10
97.55442434627112
 20
-136.083510979434
 30
0.0
 10
97.84829099116293
 20
-136.083510979434
 30
0.0
 10
98.1511148843164
 20
-136.083510979434
 30
0.0
 10
98.35472002749466
 20
-136.2275159707174
 30
0.0
 10
98.35472002749466
 20
-136.4938218517272
 30
0.0
 10
98.35472002749466
 20
-136.6547078108884
 30
0.0
 10
98.27100420720309
 20
-136.7690849809987
 30
0.0
 10
98.13767901192392
 20
-136.828340623345
 30
0.0
 10
98.23259139254255
 20
-136.8789835269782
 30
0.0
 10
98.40209009041685
 20
-136.9740681623711
 30
0.0
 10
98.40209009041685
 20
-137.2365844383471
 30
0.0
 10
98.40209009041685
 20
-137.6110663175938
 30
0.0
 10
98.1037448213942
 20
-137.7271660354467
 30
0.0
 10
97.84829099116293
 20
-137.7271660354467
 30
0.0
  0
SPLINE
  5
71
330
6C
100
AcDbEntity
  8
_U+30EC_U+30A4_U+30E4_U+30FC 1
370
     0
100
AcDbSpline
210
0.0
220
0.0
230
1.0
 70
    11
 71
     3
 72
    17
 73
    13
 74
     0
 42
0.0000000001
 43
0.0000000001
 12
1.0
 22
0.0
 32
0.0
 13
1.0
 23
0.0
 33
0.0
 40
0.0
 40
0.0
 40
0.0
 40
0.0
 40
1.0
 40
1.0
 40
1.0
 40
2.0
 40
2.0
 40
2.0
 40
3.0
 40
3.0
 40
3.0
 40
4.0
 40
4.0
 40
4.0
 40
4.0
 10
97.84829099116293
 20
-136.9361721120333
 30
0.0
 10
97.69446747774653
 20
-136.9361721120333
 30
0.0
 10
97.53168671606848
 20
-137.0229885182616
 30
0.0
 10
97.53168671606848
 20
-137.2259046423428
 30
0.0
 10
97.53168671606848
 20
-137.4312323332637
 30
0.0
 10
97.66742347818732
 20
-137.5325181405301
 30
0.0
 10
97.84829099116293
 20
-137.5325181405301
 30
0.0
 10
98.04724525543611
 20
-137.5325181405301
 30
0.0
 10
98.16472301148313
 20
-137.4098727412552
 30
0.0
 10
98.16472301148313
 20
-137.2321058142163
 30
0.0
 10
98.16472301148313
 20
-137.0102416649662
 30
0.0
 10
97.99074568947802
 20
-136.9361721120333
 30
0.0
 10
97.84829099116293
 20
-136.9361721120333
 30
0.0
  0
SPLINE
  5
72
330
6C
100
AcDbEntity
  8
_U+30EC_U+30A4_U+30E4_U+30FC 1
370
     0
100
AcDbSpline
210
0.0
220
0.0
230
1.0
 70
    11
 71
     3
 72
    17
 73
    13
 74
     0
 42
0.0000000001
 43
0.0000000001
 12
1.0
 22
0.0
 32
0.0
 13
1.0
 23
0.0
 33
0.0
 40
0.0
 40
0.0
 40
0.0
 40
0.0
 40
1.0
 40
1.0
 40
1.0
 40
2.0
 40
2.0
 40
2.0
 40
3.0
 40
3.0
 40
3.0
 40
4.0
 40
4.0
 40
4.0
 40
4.0
 10
97.84829099116293
 20
-136.2760918170595
 30
0.0
 10
97.67190210231814
 20
-136.2760918170595
 30
0.0
 10
97.58146834583033
 20
-136.3711764524523
 30
0.0
 10
97.58146834583033
 20
-136.5065687050227
 30
0.0
 10
97.58146834583033
 20
-136.6292141042976
 30
0.0
 10
97.65829397515141
 20
-136.7477253889901
 30
0.0
 10
97.84829099116293
 20
-136.7477253889901
 30
0.0
 10
98.0381157524002
 20
-136.7477253889901
 30
0.0
 10
98.11494138172127
 20
-136.6292141042976
 30
0.0
 10
98.11494138172127
 20
-136.5065687050227
 30
0.0
 10
98.11494138172127
 20
-136.3711764524523
 30
0.0
 10
98.02226831316806
 20
-136.2760918170595
 30
0.0
 10
97.84829099116293
 20
-136.2760918170595
 30
0.0
  0
HATCH
  5
73
330
6C
100
AcDbEntity
  8
_U+30EC_U+30A4_U+30E4_U+30FC 1
 62
   179
420
  2234388
100
AcDbHatch
 10
0.0
 20
0.0
 30
0.0
210
0.0
220
0.0
230
1.0
  2
SOLID
 70
     1
 71
     0
 91
        3
 92
        1
 93
        1
 72
     4
 94
        3
 73
     0
 74
     1
 95
       29
 96
       25
 40
0.0
 40
0.0
 40
0.0
 40
0.0
 40
1.0
 40
1.0
 40
1.0
 40
2.0
 40
2.0
 40
2.0
 40
3.0
 40
3.0
 40
3.0
 40
4.0
 40
4.0
 40
4.0
 40
5.0
 40
5.0
 40
5.0
 40
6.0
 40
6.0
 40
6.0
 40
7.0
 40
7.0
 40
7.0
 40
8.0
 40
8.0
 40
8.0
 40
8.0
 10
97.84829099116293
 20
-137.7271660354467
 10
97.56338159453277
 20
-137.7271660354467
 10
97.29208032506935
 20
-137.5897067255852
 10
97.29208032506935
 20
-137.2407185529294
 10
97.29208032506935
 20
-136.9847479583754
 10
97.44349227164608
 20
-136.8896633229824
 10
97.55666365833653
 20
-136.828340623345
 10
97.4231662082831
 20
-136.7690849809987
 10
97.3418619548312
 20
-136.6547078108884
 10
97.3418619548312
 20
-136.4938218517272
 10
97.3418619548312
 20
-136.2189032320043
 10
97.55442434627112
 20
-136.083510979434
 10
97.84829099116293
 20
-136.083510979434
 10
98.1511148843164
 20
-136.083510979434
 10
98.35472002749466
 20
-136.2275159707174
 10
98.35472002749466
 20
-136.4938218517272
 10
98.35472002749466
 20
-136.6547078108884
 10
98.27100420720309
 20
-136.7690849809987
 10
98.13767901192392
 20
-136.828340623345
 10
98.23259139254255
 20
-136.8789835269782
 10
98.40209009041685
 20
-136.9740681623711
 10
98.40209009041685
 20
-137.2365844383471
 10
98.40209009041685
 20
-137.6110663175938
 10
98.1037448213942
 20
-137.7271660354467
 10
97.84829099116293
 20
-137.7271660354467
 97
        0
 97
        0
 92
        1
 93
        1
 72
     4
 94
        3
 73
     0
 74
     1
 95
       17
 96
       13
 40
0.0
 40
0.0
 40
0.0
 40
0.0
 40
1.0
 40
1.0
 40
1.0
 40
2.0
 40
2.0
 40
2.0
 40
3.0
 40
3.0
 40
3.0
 40
4.0
 40
4.0
 40
4.0
 40
4.0
 10
97.84829099116293
 20
-136.9361721120333
 10
97.69446747774653
 20
-136.9361721120333
 10
97.53168671606848
 20
-137.0229885182616
 10
97.53168671606848
 20
-137.2259046423428
 10
97.53168671606848
 20
-137.4312323332637
 10
97.66742347818732
 20
-137.5325181405301
 10
97.84829099116293
 20
-137.5325181405301
 10
98.04724525543611
 20
-137.5325181405301
 10
98.16472301148313
 20
-137.4098727412552
 10
98.16472301148313
 20
-137.2321058142163
 10
98.16472301148313
 20
-137.0102416649662
 10
97.99074568947802
 20
-136.9361721120333
 10
97.84829099116293
 20
-136.9361721120333
 97
        0
 97
        0
 92
        1
 93
        1
 72
     4
 94
        3
 73
     0
 74
     1
 95
       17
 96
       13
 40
0.0
 40
0.0
 40
0.0
 40
0.0
 40
1.0
 40
1.0
 40
1.0
 40
2.0
 40
2.0
 40
2.0
 40
3.0
 40
3.0
 40
3.0
 40
4.0
 40
4.0
 40
4.0
 40
4.0
 10
97.84829099116293
 20
-136.2760918170595
 10
97.67190210231814
 20
-136.2760918170595
 10
97.58146834583033
 20
-136.3711764524523
 10
97.58146834583033
 20
-136.5065687050227
 10
97.58146834583033
 20
-136.6292141042976
 10
97.65829397515141
 20
-136.7477253889901
 10
97.84829099116293
 20
-136.7477253889901
 10
98.0381157524002
 20
-136.7477253889901
 10
98.11494138172127
 20
-136.6292141042976
 10
98.11494138172127
 20
-136.5065687050227
 10
98.11494138172127
 20
-136.3711764524523
 10
98.02226831316806
 20
-136.2760918170595
 10
97.84829099116293
 20
-136.2760918170595
 97
        0
 97
        0
 75
     2
 76
     1
 98
        0
  0
ENDBLK
  5
6F
330
6C
100
AcDbEntity
  8
0
100
AcDbBlockEnd
  0
BLOCK
  5
82
330
80
100
AcDbEntity
  8
0
100
AcDbBlockBegin
  2
block 4
 70
     0
 10
0.0
 20
0.0
 30
0.0
  3
block 4
  1

  0
SPLINE
  5
84
330
80
100
AcDbEntity
  8
_U+30EC_U+30A4_U+30E4_U+30FC 1
370
     0
100
AcDbSpline
210
0.0
220
0.0
230
1.0
 70
    11
 71
     3
 72
    26
 73
    22
 74
     0
 42
0.0000000001
 43
0.0000000001
 12
1.0
 22
0.0
 32
0.0
 13
1.0
 23
0.0
 33
0.0
 40
0.0
 40
0.0
 40
0.0
 40
0.0
 40
1.0
 40
1.0
 40
1.0
 40
2.0
 40
2.0
 40
2.0
 40
3.0
 40
3.0
 40
3.0
 40
4.0
 40
4.0
 40
4.0
 40
5.0
 40
5.0
 40
5.0
 40
6.0
 40
6.0
 40
6.0
 40
7.0
 40
7.0
 40
7.0
 40
7.0
 10
114.6352077621398
 20
-150.5978705135658
 30
0.0
 10
114.6352077621398
 20
-150.5978705135658
 30
0.0
 10
113.5310546591172
 20
-150.5978705135658
 30
0.0
 10
113.5310546591172
 20
-150.5978705135658
 30
0.0
 10
113.5310546591172
 20
-150.5978705135658
 30
0.0
 10
113.5310546591172
 20
-150.9506482912554
 30
0.0
 10
113.5310546591172
 20
-150.9506482912554
 30
0.0
 10
113.5310546591172
 20
-150.9506482912554
 30
0.0
 10
113.3829155532515
 20
-150.9506482912554
 30
0.0
 10
113.3829155532515
 20
-150.9506482912554
 30
0.0
 10
113.3681016426649
 20
-150.5954589467262
 30
0.0
 10
113.2051486262126
 20
-150.5458495717386
 30
0.0
 10
113.0907714561023
 20
-150.5141546932742
 30
0.0
 10
113.0907714561023
 20
-150.5141546932742
 30
0.0
 10
113.0907714561023
 20
-150.358436377341
 30
0.0
 10
113.0907714561023
 20
-150.358436377341
 30
0.0
 10
113.0907714561023
 20
-150.358436377341
 30
0.0
 10
114.6352077621398
 20
-150.358436377341
 30
0.0
 10
114.6352077621398
 20
-150.358436377341
 30
0.0
 10
114.6352077621398
 20
-150.358436377341
 30
0.0
 10
114.6352077621398
 20
-150.5978705135658
 30
0.0
 10
114.6352077621398
 20
-150.5978705135658
 30
0.0
  0
HATCH
  5
85
330
80
100
AcDbEntity
  8
_U+30EC_U+30A4_U+30E4_U+30FC 1
 62
   179
420
  2234388
100
AcDbHatch
 10
0.0
 20
0.0
 30
0.0
210
0.0
220
0.0
230
1.0
  2
SOLID
 70
     1
 71
     0
 91
        1
 92
        1
 93
        1
 72
     4
 94
        3
 73
     0
 74
     1
 95
       26
 96
       22
 40
0.0
 40
0.0
 40
0.0
 40
0.0
 40
1.0
 40
1.0
 40
1.0
 40
2.0
 40
2.0
 40
2.0
 40
3.0
 40
3.0
 40
3.0
 40
4.0
 40
4.0
 40
4.0
 40
5.0
 40
5.0
 40
5.0
 40
6.0
 40
6.0
 40
6.0
 40
7.0
 40
7.0
 40
7.0
 40
7.0
 10
114.6352077621398
 20
-150.5978705135658
 10
114.6352077621398
 20
-150.5978705135658
 10
113.5310546591172
 20
-150.5978705135658
 10
113.5310546591172
 20
-150.5978705135658
 10
113.5310546591172
 20
-150.5978705135658
 10
113.5310546591172
 20
-150.9506482912554
 10
113.5310546591172
 20
-150.9506482912554
 10
113.5310546591172
 20
-150.9506482912554
 10
113.3829155532515
 20
-150.9506482912554
 10
113.3829155532515
 20
-150.9506482912554
 10
113.3681016426649
 20
-150.5954589467262
 10
113.2051486262126
 20
-150.5458495717386
 10
113.0907714561023
 20
-150.5141546932742
 10
113.0907714561023
 20
-150.5141546932742
 10
113.0907714561023
 20
-150.358436377341
 10
113.0907714561023
 20
-150.358436377341
 10
113.0907714561023
 20
-150.358436377341
 10
114.6352077621398
 20
-150.358436377341
 10
114.6352077621398
 20
-150.358436377341
 10
114.6352077621398
 20
-150.358436377341
 10
114.6352077621398
 20
-150.5978705135658
 10
114.6352077621398
 20
-150.5978705135658
 97
        0
 97
        0
 75
     2
 76
     1
 98
        0
  0
SPLINE
  5
86
330
80
100
AcDbEntity
  8
_U+30EC_U+30A4_U+30E4_U+30FC 1
370
     0
100
AcDbSpline
210
0.0
220
0.0
230
1.0
 70
    11
 71
     3
 72
    62
 73
    58
 74
     0
 42
0.0000000001
 43
0.0000000001
 12
1.0
 22
0.0
 32
0.0
 13
1.0
 23
0.0
 33
0.0
 40
0.0
 40
0.0
 40
0.0
 40
0.0
 40
1.0
 40
1.0
 40
1.0
 40
2.0
 40
2.0
 40
2.0
 40
3.0
 40
3.0
 40
3.0
 40
4.0
 40
4.0
 40
4.0
 40
5.0
 40
5.0
 40
5.0
 40
6.0
 40
6.0
 40
6.0
 40
7.0
 40
7.0
 40
7.0
 40
8.0
 40
8.0
 40
8.0
 40
9.0
 40
9.0
 40
9.0
 40
10.0
 40
10.0
 40
10.0
 40
11.0
 40
11.0
 40
11.0
 40
12.0
 40
12.0
 40
12.0
 40
13.0
 40
13.0
 40
13.0
 40
14.0
 40
14.0
 40
14.0
 40
15.0
 40
15.0
 40
15.0
 40
16.0
 40
16.0
 40
16.0
 40
17.0
 40
17.0
 40
17.0
 40
18.0
 40
18.0
 40
18.0
 40
19.0
 40
19.0
 40
19.0
 40
19.0
 10
114.685850665773
 20
-149.297346967884
 30
0.0
 10
114.685850665773
 20
-149.3986327751504
 30
0.0
 10
114.664835583313
 20
-149.6315212299533
 30
0.0
 10
114.4788004271095
 20
-149.7651909347809
 30
0.0
 10
114.3664903142903
 20
-149.8444281309417
 30
0.0
 10
114.2672715643151
 20
-149.848562245524
 30
0.0
 10
114.182522215378
 20
-149.8533853792033
 30
0.0
 10
114.182522215378
 20
-149.8533853792033
 30
0.0
 10
114.182522215378
 20
-149.6180853575608
 30
0.0
 10
114.182522215378
 20
-149.6180853575608
 30
0.0
 10
114.2565917683109
 20
-149.6156737907211
 30
0.0
 10
114.4912027708564
 20
-149.6046494851683
 30
0.0
 10
114.4912027708564
 20
-149.3014810824663
 30
0.0
 10
114.4912027708564
 20
-149.1547200147947
 30
0.0
 10
114.4216118420543
 20
-148.9921115078909
 30
0.0
 10
114.1932020113823
 20
-148.9921115078909
 30
0.0
 10
114.0767577839808
 20
-148.9921115078909
 30
0.0
 10
114.0281819376388
 20
-149.0327636346168
 30
0.0
 10
113.9964870591745
 20
-149.0665255703723
 30
0.0
 10
113.9224175062416
 20
-149.145762766533
 30
0.0
 10
113.9096706529462
 20
-149.269786204002
 30
0.0
 10
113.9096706529462
 20
-149.3286973367998
 30
0.0
 10
113.9096706529462
 20
-149.3490234001628
 30
0.0
 10
113.9117377102373
 20
-149.3876084695976
 30
0.0
 10
113.9158718248196
 20
-149.4168917812222
 30
0.0
 10
113.9158718248196
 20
-149.4168917812222
 30
0.0
 10
113.721223929903
 20
-149.4168917812222
 30
0.0
 10
113.721223929903
 20
-149.4168917812222
 30
0.0
 10
113.727769611325
 20
-149.3762396544962
 30
0.0
 10
113.7298366686162
 20
-149.3311089036395
 30
0.0
 10
113.7298366686162
 20
-149.324218712669
 30
0.0
 10
113.7298366686162
 20
-149.2539387647699
 30
0.0
 10
113.7084770766076
 20
-149.0417208828785
 30
0.0
 10
113.4717990167709
 20
-149.0417208828785
 30
0.0
 10
113.2940320897321
 20
-149.0417208828785
 30
0.0
 10
113.2389105619681
 20
-149.1815917595796
 30
0.0
 10
113.2389105619681
 20
-149.2994140251752
 30
0.0
 10
113.2389105619681
 20
-149.5819118549657
 30
0.0
 10
113.4717990167709
 20
-149.5908691032273
 30
0.0
 10
113.5434570028641
 20
-149.5956922369066
 30
0.0
 10
113.5434570028641
 20
-149.5956922369066
 30
0.0
 10
113.5434570028641
 20
-149.8127332524774
 30
0.0
 10
113.5434570028641
 20
-149.8127332524774
 30
0.0
 10
113.4187445462981
 20
-149.8037760042157
 30
0.0
 10
113.0421956097603
 20
-149.7741481830426
 30
0.0
 10
113.0421956097603
 20
-149.2856336432341
 30
0.0
 10
113.0421956097603
 20
-149.0461995070093
 30
0.0
 10
113.169319633166
 20
-148.7885063647126
 30
0.0
 10
113.465253335349
 20
-148.7885063647126
 30
0.0
 10
113.651633001101
 20
-148.7885063647126
 30
0.0
 10
113.7339707831985
 20
-148.8901366815275
 30
0.0
 10
113.7952934828359
 20
-148.9962456224732
 30
0.0
 10
113.8228542467179
 20
-148.9307888082534
 30
0.0
 10
113.9031249715242
 20
-148.7364854228853
 30
0.0
 10
114.1804551580868
 20
-148.7364854228853
 30
0.0
 10
114.5187635347384
 20
-148.7364854228853
 30
0.0
 10
114.685850665773
 20
-149.0010687561525
 30
0.0
 10
114.685850665773
 20
-149.297346967884
 30
0.0
  0
HATCH
  5
87
330
80
100
AcDbEntity
  8
_U+30EC_U+30A4_U+30E4_U+30FC 1
 62
   179
420
  2234388
100
AcDbHatch
 10
0.0
 20
0.0
 30
0.0
210
0.0
220
0.0
230
1.0
  2
SOLID
 70
     1
 71
     0
 91
        1
 92
        1
 93
        1
 72
     4
 94
        3
 73
     0
 74
     1
 95
       62
 96
       58
 40
0.0
 40
0.0
 40
0.0
 40
0.0
 40
1.0
 40
1.0
 40
1.0
 40
2.0
 40
2.0
 40
2.0
 40
3.0
 40
3.0
 40
3.0
 40
4.0
 40
4.0
 40
4.0
 40
5.0
 40
5.0
 40
5.0
 40
6.0
 40
6.0
 40
6.0
 40
7.0
 40
7.0
 40
7.0
 40
8.0
 40
8.0
 40
8.0
 40
9.0
 40
9.0
 40
9.0
 40
10.0
 40
10.0
 40
10.0
 40
11.0
 40
11.0
 40
11.0
 40
12.0
 40
12.0
 40
12.0
 40
13.0
 40
13.0
 40
13.0
 40
14.0
 40
14.0
 40
14.0
 40
15.0
 40
15.0
 40
15.0
 40
16.0
 40
16.0
 40
16.0
 40
17.0
 40
17.0
 40
17.0
 40
18.0
 40
18.0
 40
18.0
 40
19.0
 40
19.0
 40
19.0
 40
19.0
 10
114.685850665773
 20
-149.297346967884
 10
114.685850665773
 20
-149.3986327751504
 10
114.664835583313
 20
-149.6315212299533
 10
114.4788004271095
 20
-149.7651909347809
 10
114.3664903142903
 20
-149.8444281309417
 10
114.2672715643151
 20
-149.848562245524
 10
114.182522215378
 20
-149.8533853792033
 10
114.182522215378
 20
-149.8533853792033
 10
114.182522215378
 20
-149.6180853575608
 10
114.182522215378
 20
-149.6180853575608
 10
114.2565917683109
 20
-149.6156737907211
 10
114.4912027708564
 20
-149.6046494851683
 10
114.4912027708564
 20
-149.3014810824663
 10
114.4912027708564
 20
-149.1547200147947
 10
114.4216118420543
 20
-148.9921115078909
 10
114.1932020113823
 20
-148.9921115078909
 10
114.0767577839808
 20
-148.9921115078909
 10
114.0281819376388
 20
-149.0327636346168
 10
113.9964870591745
 20
-149.0665255703723
 10
113.9224175062416
 20
-149.145762766533
 10
113.9096706529462
 20
-149.269786204002
 10
113.9096706529462
 20
-149.3286973367998
 10
113.9096706529462
 20
-149.3490234001628
 10
113.9117377102373
 20
-149.3876084695976
 10
113.9158718248196
 20
-149.4168917812222
 10
113.9158718248196
 20
-149.4168917812222
 10
113.721223929903
 20
-149.4168917812222
 10
113.721223929903
 20
-149.4168917812222
 10
113.727769611325
 20
-149.3762396544962
 10
113.7298366686162
 20
-149.3311089036395
 10
113.7298366686162
 20
-149.324218712669
 10
113.7298366686162
 20
-149.2539387647699
 10
113.7084770766076
 20
-149.0417208828785
 10
113.4717990167709
 20
-149.0417208828785
 10
113.2940320897321
 20
-149.0417208828785
 10
113.2389105619681
 20
-149.1815917595796
 10
113.2389105619681
 20
-149.2994140251752
 10
113.2389105619681
 20
-149.5819118549657
 10
113.4717990167709
 20
-149.5908691032273
 10
113.5434570028641
 20
-149.5956922369066
 10
113.5434570028641
 20
-149.5956922369066
 10
113.5434570028641
 20
-149.8127332524774
 10
113.5434570028641
 20
-149.8127332524774
 10
113.4187445462981
 20
-149.8037760042157
 10
113.0421956097603
 20
-149.7741481830426
 10
113.0421956097603
 20
-149.2856336432341
 10
113.0421956097603
 20
-149.0461995070093
 10
113.169319633166
 20
-148.7885063647126
 10
113.465253335349
 20
-148.7885063647126
 10
113.651633001101
 20
-148.7885063647126
 10
113.7339707831985
 20
-148.8901366815275
 10
113.7952934828359
 20
-148.9962456224732
 10
113.8228542467179
 20
-148.9307888082534
 10
113.9031249715242
 20
-148.7364854228853
 10
114.1804551580868
 20
-148.7364854228853
 10
114.5187635347384
 20
-148.7364854228853
 10
114.685850665773
 20
-149.0010687561525
 10
114.685850665773
 20
-149.297346967884
 97
        0
 97
        0
 75
     2
 76
     1
 98
        0
  0
ENDBLK
  5
83
330
80
100
AcDbEntity
  8
0
100
AcDbBlockEnd
  0
BLOCK
  5
8C
330
8A
100
AcDbEntity
  8
0
100
AcDbBlockBegin
  2
block 5
 70
     0
 10
0.0
 20
0.0
 30
0.0
  3
block 5
  1

  0
SPLINE
  5
8E
330
8A
100
AcDbEntity
  8
_U+30EC_U+30A4_U+30E4_U+30FC 1
370
     0
100
AcDbSpline
210
0.0
220
0.0
230
1.0
 70
    11
 71
     3
 72
    26
 73
    22
 74
     0
 42
0.0000000001
 43
0.0000000001
 12
1.0
 22
0.0
 32
0.0
 13
1.0
 23
0.0
 33
0.0
 40
0.0
 40
0.0
 40
0.0
 40
0.0
 40
1.0
 40
1.0
 40
1.0
 40
2.0
 40
2.0
 40
2.0
 40
3.0
 40
3.0
 40
3.0
 40
4.0
 40
4.0
 40
4.0
 40
5.0
 40
5.0
 40
5.0
 40
6.0
 40
6.0
 40
6.0
 40
7.0
 40
7.0
 40
7.0
 40
7.0
 10
96.11678600027636
 20
-149.6749294330674
 30
0.0
 10
96.11678600027636
 20
-149.6749294330674
 30
0.0
 10
96.11678600027636
 20
-148.5709485848191
 30
0.0
 10
96.11678600027636
 20
-148.5709485848191
 30
0.0
 10
96.11678600027636
 20
-148.5709485848191
 30
0.0
 10
95.78674585278942
 20
-148.5709485848191
 30
0.0
 10
95.78674585278942
 20
-148.5709485848191
 30
0.0
 10
95.78674585278942
 20
-148.5709485848191
 30
0.0
 10
95.78674585278942
 20
-148.4228094789533
 30
0.0
 10
95.78674585278942
 20
-148.4228094789533
 30
0.0
 10
96.11885305756752
 20
-148.4079955683668
 30
0.0
 10
96.16536184661838
 20
-148.2450425519145
 30
0.0
 10
96.19498966779153
 20
-148.1306653818041
 30
0.0
 10
96.19498966779153
 20
-148.1306653818041
 30
0.0
 10
96.34106171636613
 20
-148.1306653818041
 30
0.0
 10
96.34106171636613
 20
-148.1306653818041
 30
0.0
 10
96.34106171636613
 20
-148.1306653818041
 30
0.0
 10
96.34106171636613
 20
-149.6749294330674
 30
0.0
 10
96.34106171636613
 20
-149.6749294330674
 30
0.0
 10
96.34106171636613
 20
-149.6749294330674
 30
0.0
 10
96.11678600027636
 20
-149.6749294330674
 30
0.0
 10
96.11678600027636
 20
-149.6749294330674
 30
0.0
  0
HATCH
  5
8F
330
8A
100
AcDbEntity
  8
_U+30EC_U+30A4_U+30E4_U+30FC 1
 62
   179
420
  2234388
100
AcDbHatch
 10
0.0
 20
0.0
 30
0.0
210
0.0
220
0.0
230
1.0
  2
SOLID
 70
     1
 71
     0
 91
        1
 92
        1
 93
        1
 72
     4
 94
        3
 73
     0
 74
     1
 95
       26
 96
       22
 40
0.0
 40
0.0
 40
0.0
 40
0.0
 40
1.0
 40
1.0
 40
1.0
 40
2.0
 40
2.0
 40
2.0
 40
3.0
 40
3.0
 40
3.0
 40
4.0
 40
4.0
 40
4.0
 40
5.0
 40
5.0
 40
5.0
 40
6.0
 40
6.0
 40
6.0
 40
7.0
 40
7.0
 40
7.0
 40
7.0
 10
96.11678600027636
 20
-149.6749294330674
 10
96.11678600027636
 20
-149.6749294330674
 10
96.11678600027636
 20
-148.5709485848191
 10
96.11678600027636
 20
-148.5709485848191
 10
96.11678600027636
 20
-148.5709485848191
 10
95.78674585278942
 20
-148.5709485848191
 10
95.78674585278942
 20
-148.5709485848191
 10
95.78674585278942
 20
-148.5709485848191
 10
95.78674585278942
 20
-148.4228094789533
 10
95.78674585278942
 20
-148.4228094789533
 10
96.11885305756752
 20
-148.4079955683668
 10
96.16536184661838
 20
-148.2450425519145
 10
96.19498966779153
 20
-148.1306653818041
 10
96.19498966779153
 20
-148.1306653818041
 10
96.34106171636613
 20
-148.1306653818041
 10
96.34106171636613
 20
-148.1306653818041
 10
96.34106171636613
 20
-148.1306653818041
 10
96.34106171636613
 20
-149.6749294330674
 10
96.34106171636613
 20
-149.6749294330674
 10
96.34106171636613
 20
-149.6749294330674
 10
96.11678600027636
 20
-149.6749294330674
 10
96.11678600027636
 20
-149.6749294330674
 97
        0
 97
        0
 75
     2
 76
     1
 98
        0
  0
ENDBLK
  5
8D
330
8A
100
AcDbEntity
  8
0
100
AcDbBlockEnd
  0
BLOCK
  5
9F
330
9D
100
AcDbEntity
  8
0
100
AcDbBlockBegin
  2
block 6
 70
     0
 10
0.0
 20
0.0
 30
0.0
  3
block 6
  1

  0
SPLINE
  5
A1
330
9D
100
AcDbEntity
  8
_U+30EC_U+30A4_U+30E4_U+30FC 1
370
     0
100
AcDbSpline
210
0.0
220
0.0
230
1.0
 70
    11
 71
     3
 72
    26
 73
    22
 74
     0
 42
0.0000000001
 43
0.0000000001
 12
1.0
 22
0.0
 32
0.0
 13
1.0
 23
0.0
 33
0.0
 40
0.0
 40
0.0
 40
0.0
 40
0.0
 40
1.0
 40
1.0
 40
1.0
 40
2.0
 40
2.0
 40
2.0
 40
3.0
 40
3.0
 40
3.0
 40
4.0
 40
4.0
 40
4.0
 40
5.0
 40
5.0
 40
5.0
 40
6.0
 40
6.0
 40
6.0
 40
7.0
 40
7.0
 40
7.0
 40
7.0
 10
114.6355522716883
 20
-156.9382242446196
 30
0.0
 10
114.6355522716883
 20
-156.9382242446196
 30
0.0
 10
113.5310546591172
 20
-156.9382242446196
 30
0.0
 10
113.5310546591172
 20
-156.9382242446196
 30
0.0
 10
113.5310546591172
 20
-156.9382242446196
 30
0.0
 10
113.5310546591172
 20
-157.2910020223092
 30
0.0
 10
113.5310546591172
 20
-157.2910020223092
 30
0.0
 10
113.5310546591172
 20
-157.2910020223092
 30
0.0
 10
113.3829155532515
 20
-157.2910020223092
 30
0.0
 10
113.3829155532515
 20
-157.2910020223092
 30
0.0
 10
113.3684461522135
 20
-156.9358126777799
 30
0.0
 10
113.2051486262126
 20
-156.8862033027924
 30
0.0
 10
113.0907714561023
 20
-156.8545084243281
 30
0.0
 10
113.0907714561023
 20
-156.8545084243281
 30
0.0
 10
113.0907714561023
 20
-156.6987901083947
 30
0.0
 10
113.0907714561023
 20
-156.6987901083947
 30
0.0
 10
113.0907714561023
 20
-156.6987901083947
 30
0.0
 10
114.6355522716883
 20
-156.6987901083947
 30
0.0
 10
114.6355522716883
 20
-156.6987901083947
 30
0.0
 10
114.6355522716883
 20
-156.6987901083947
 30
0.0
 10
114.6355522716883
 20
-156.9382242446196
 30
0.0
 10
114.6355522716883
 20
-156.9382242446196
 30
0.0
  0
HATCH
  5
A2
330
9D
100
AcDbEntity
  8
_U+30EC_U+30A4_U+30E4_U+30FC 1
 62
   179
420
  2234388
100
AcDbHatch
 10
0.0
 20
0.0
 30
0.0
210
0.0
220
0.0
230
1.0
  2
SOLID
 70
     1
 71
     0
 91
        1
 92
        1
 93
        1
 72
     4
 94
        3
 73
     0
 74
     1
 95
       26
 96
       22
 40
0.0
 40
0.0
 40
0.0
 40
0.0
 40
1.0
 40
1.0
 40
1.0
 40
2.0
 40
2.0
 40
2.0
 40
3.0
 40
3.0
 40
3.0
 40
4.0
 40
4.0
 40
4.0
 40
5.0
 40
5.0
 40
5.0
 40
6.0
 40
6.0
 40
6.0
 40
7.0
 40
7.0
 40
7.0
 40
7.0
 10
114.6355522716883
 20
-156.9382242446196
 10
114.6355522716883
 20
-156.9382242446196
 10
113.5310546591172
 20
-156.9382242446196
 10
113.5310546591172
 20
-156.9382242446196
 10
113.5310546591172
 20
-156.9382242446196
 10
113.5310546591172
 20
-157.2910020223092
 10
113.5310546591172
 20
-157.2910020223092
 10
113.5310546591172
 20
-157.2910020223092
 10
113.3829155532515
 20
-157.2910020223092
 10
113.3829155532515
 20
-157.2910020223092
 10
113.3684461522135
 20
-156.9358126777799
 10
113.2051486262126
 20
-156.8862033027924
 10
113.0907714561023
 20
-156.8545084243281
 10
113.0907714561023
 20
-156.8545084243281
 10
113.0907714561023
 20
-156.6987901083947
 10
113.0907714561023
 20
-156.6987901083947
 10
113.0907714561023
 20
-156.6987901083947
 10
114.6355522716883
 20
-156.6987901083947
 10
114.6355522716883
 20
-156.6987901083947
 10
114.6355522716883
 20
-156.6987901083947
 10
114.6355522716883
 20
-156.9382242446196
 10
114.6355522716883
 20
-156.9382242446196
 97
        0
 97
        0
 75
     2
 76
     1
 98
        0
  0
ENDBLK
  5
A0
330
9D
100
AcDbEntity
  8
0
100
AcDbBlockEnd
  0
ENDSEC
  0
SECTION
  2
ENTITIES
  0
SPLINE
  5
41
330
1F
100
AcDbEntity
  8
_U+30EC_U+30A4_U+30E4_U+30FC 1
370
     0
100
AcDbSpline
210
0.0
220
0.0
230
1.0
 70
    11
 71
     3
 72
    53
 73
    49
 74
     0
 42
0.0000000001
 43
0.0000000001
 12
1.0
 22
0.0
 32
0.0
 13
1.0
 23
0.0
 33
0.0
 40
0.0
 40
0.0
 40
0.0
 40
0.0
 40
1.0
 40
1.0
 40
1.0
 40
2.0
 40
2.0
 40
2.0
 40
3.0
 40
3.0
 40
3.0
 40
4.0
 40
4.0
 40
4.0
 40
5.0
 40
5.0
 40
5.0
 40
6.0
 40
6.0
 40
6.0
 40
7.0
 40
7.0
 40
7.0
 40
8.0
 40
8.0
 40
8.0
 40
9.0
 40
9.0
 40
9.0
 40
10.0
 40
10.0
 40
10.0
 40
11.0
 40
11.0
 40
11.0
 40
12.0
 40
12.0
 40
12.0
 40
13.0
 40
13.0
 40
13.0
 40
14.0
 40
14.0
 40
14.0
 40
15.0
 40
15.0
 40
15.0
 40
16.0
 40
16.0
 40
16.0
 40
16.0
 10
111.3056575496882
 20
-156.9228289741699
 30
0.0
 10
111.3056575496882
 20
-156.9228289741699
 30
0.0
 10
101.6712946107787
 20
-156.9228289741699
 30
0.0
 10
101.6712946107787
 20
-156.9228289741699
 30
0.0
 10
101.4931428019786
 20
-156.6134432507094
 30
0.0
 10
101.1629438571216
 20
-156.4233008947321
 30
0.0
 10
100.8055797960673
 20
-156.4233008947321
 30
0.0
 10
100.8055797960673
 20
-156.4233008947321
 30
0.0
 10
98.30544170465134
 20
-156.4233008947321
 30
0.0
 10
98.30544170465134
 20
-156.4233008947321
 30
0.0
 10
98.30544170465134
 20
-156.4233008947321
 30
0.0
 10
98.30544170465134
 20
-143.4227324657041
 30
0.0
 10
98.30544170465134
 20
-143.4227324657041
 30
0.0
 10
98.30544170465134
 20
-143.4227324657041
 30
0.0
 10
101.3054658424579
 20
-143.4227324657041
 30
0.0
 10
101.3054658424579
 20
-143.4227324657041
 30
0.0
 10
101.5820424143835
 20
-143.4227324657041
 30
0.0
 10
101.8053518888485
 20
-143.1990704072477
 30
0.0
 10
101.8053518888485
 20
-142.9224938353225
 30
0.0
 10
101.8053518888485
 20
-142.6635518459124
 30
0.0
 10
101.6070893351532
 20
-142.4473021257109
 30
0.0
 10
101.348150037224
 20
-142.4243707088872
 30
0.0
 10
98.99088920661622
 20
-142.2225796238004
 30
0.0
 10
96.62022480138613
 20
-142.2225796238004
 30
0.0
 10
94.26260869530643
 20
-142.4243707088872
 30
0.0
 10
93.98744245934549
 20
-142.4487124616755
 30
0.0
 10
93.78353856179311
 20
-142.6903643781187
 30
0.0
 10
93.80717245511809
 20
-142.9658858895515
 30
0.0
 10
93.82975128795071
 20
-143.224467220528
 30
0.0
 10
94.04600369963303
 20
-143.4227324657041
 30
0.0
 10
94.3060007495358
 20
-143.4227324657041
 30
0.0
 10
94.3060007495358
 20
-143.4227324657041
 30
0.0
 10
97.30566961187014
 20
-143.4227324657041
 30
0.0
 10
97.30566961187014
 20
-143.4227324657041
 30
0.0
 10
97.30566961187014
 20
-143.4227324657041
 30
0.0
 10
97.30566961187014
 20
-156.4233008947321
 30
0.0
 10
97.30566961187014
 20
-156.4233008947321
 30
0.0
 10
97.30566961187014
 20
-156.4233008947321
 30
0.0
 10
94.80553421193501
 20
-156.4233008947321
 30
0.0
 10
94.80553421193501
 20
-156.4233008947321
 30
0.0
 10
94.25343612857695
 20
-156.4233008947321
 30
0.0
 10
93.80576211915381
 20
-156.8713247966654
 30
0.0
 10
93.80576211915381
 20
-157.4230729875133
 30
0.0
 10
93.80576211915381
 20
-157.4230729875133
 30
0.0
 10
111.805540904598
 20
-157.4230729875133
 30
0.0
 10
111.805540904598
 20
-157.4230729875133
 30
0.0
 10
111.805540904598
 20
-157.1468463080983
 30
0.0
 10
111.5815289536313
 20
-156.9228289741699
 30
0.0
 10
111.3056575496882
 20
-156.9228289741699
 30
0.0
  0
HATCH
  5
42
330
1F
100
AcDbEntity
  8
_U+30EC_U+30A4_U+30E4_U+30FC 1
 62
     9
420
 13224394
100
AcDbHatch
 10
0.0
 20
0.0
 30
0.0
210
0.0
220
0.0
230
1.0
  2
SOLID
 70
     1
 71
     0
 91
        1
 92
        1
 93
        2
 72
     4
 94
        3
 73
     0
 74
     0
 95
       53
 96
       49
 40
0.0
 40
0.0
 40
0.0
 40
0.0
 40
0.3527777776895833
 40
0.3527777776895833
 40
0.3527777776895833
 40
0.7055555553791667
 40
0.7055555553791667
 40
0.7055555553791667
 40
1.05833333306875
 40
1.05833333306875
 40
1.05833333306875
 40
1.411111110758333
 40
1.411111110758333
 40
1.411111110758333
 40
1.763888888447917
 40
1.763888888447917
 40
1.763888888447917
 40
2.1166666661375
 40
2.1166666661375
 40
2.1166666661375
 40
2.469444443827083
 40
2.469444443827083
 40
2.469444443827083
 40
2.822222221516667
 40
2.822222221516667
 40
2.822222221516667
 40
3.17499999920625
 40
3.17499999920625
 40
3.17499999920625
 40
3.527777776895833
 40
3.527777776895833
 40
3.527777776895833
 40
3.880555554585417
 40
3.880555554585417
 40
3.880555554585417
 40
4.233333332275
 40
4.233333332275
 40
4.233333332275
 40
4.586111109964584
 40
4.586111109964584
 40
4.586111109964584
 40
4.938888887654167
 40
4.938888887654167
 40
4.938888887654167
 40
5.29166666534375
 40
5.29166666534375
 40
5.29166666534375
 40
5.644444443033334
 40
5.644444443033334
 40
5.644444443033334
 40
5.644444443033334
 10
111.3056575496882
 20
-156.9228289741699
 10
111.3056575496882
 20
-156.9228289741699
 10
101.6712946107787
 20
-156.9228289741699
 10
101.6712946107787
 20
-156.9228289741699
 10
101.4931428019786
 20
-156.6134432507094
 10
101.1629438571216
 20
-156.4233008947321
 10
100.8055797960673
 20
-156.4233008947321
 10
100.8055797960673
 20
-156.4233008947321
 10
98.30544170465134
 20
-156.4233008947321
 10
98.30544170465134
 20
-156.4233008947321
 10
98.30544170465134
 20
-156.4233008947321
 10
98.30544170465134
 20
-143.4227324657041
 10
98.30544170465134
 20
-143.4227324657041
 10
98.30544170465134
 20
-143.4227324657041
 10
101.3054658424579
 20
-143.4227324657041
 10
101.3054658424579
 20
-143.4227324657041
 10
101.5820424143835
 20
-143.4227324657041
 10
101.8053518888485
 20
-143.1990704072477
 10
101.8053518888485
 20
-142.9224938353225
 10
101.8053518888485
 20
-142.6635518459124
 10
101.6070893351532
 20
-142.4473021257109
 10
101.348150037224
 20
-142.4243707088872
 10
98.99088920661622
 20
-142.2225796238004
 10
96.62022480138613
 20
-142.2225796238004
 10
94.26260869530643
 20
-142.4243707088872
 10
93.98744245934549
 20
-142.4487124616755
 10
93.78353856179311
 20
-142.6903643781187
 10
93.80717245511809
 20
-142.9658858895515
 10
93.82975128795071
 20
-143.224467220528
 10
94.04600369963303
 20
-143.4227324657041
 10
94.3060007495358
 20
-143.4227324657041
 10
94.3060007495358
 20
-143.4227324657041
 10
97.30566961187014
 20
-143.4227324657041
 10
97.30566961187014
 20
-143.4227324657041
 10
97.30566961187014
 20
-143.4227324657041
 10
97.30566961187014
 20
-156.4233008947321
 10
97.30566961187014
 20
-156.4233008947321
 10
97.30566961187014
 20
-156.4233008947321
 10
94.80553421193501
 20
-156.4233008947321
 10
94.80553421193501
 20
-156.4233008947321
 10
94.25343612857695
 20
-156.4233008947321
 10
93.80576211915381
 20
-156.8713247966654
 10
93.80576211915381
 20
-157.4230729875133
 10
93.80576211915381
 20
-157.4230729875133
 10
111.805540904598
 20
-157.4230729875133
 10
111.805540904598
 20
-157.4230729875133
 10
111.805540904598
 20
-157.1468463080983
 10
111.5815289536313
 20
-156.9228289741699
 10
111.3056575496882
 20
-156.9228289741699
 97
        0
 72
     1
 10
111.3056575496882
 20
-156.9228289741699
 11
111.3056575496882
 21
-156.9228289741699
 97
        0
 75
     2
 76
     1
 98
        0
  0
SPLINE
  5
43
330
1F
100
AcDbEntity
  8
_U+30EC_U+30A4_U+30E4_U+30FC 1
 62
   179
420
  2234388
370
     9
100
AcDbSpline
210
0.0
220
0.0
230
1.0
 70
    11
 71
     3
 72
    17
 73
    13
 74
     0
 42
0.0000000001
 43
0.0000000001
 12
1.0
 22
0.0
 32
0.0
 13
1.0
 23
0.0
 33
0.0
 40
0.0
 40
0.0
 40
0.0
 40
0.0
 40
1.0
 40
1.0
 40
1.0
 40
2.0
 40
2.0
 40
2.0
 40
3.0
 40
3.0
 40
3.0
 40
4.0
 40
4.0
 40
4.0
 40
4.0
 10
115.7832535348291
 20
-143.4228724227082
 30
0.0
 10
115.7832535348291
 20
-143.367842405293
 30
0.0
 10
115.7384457616741
 20
-143.3230400150997
 30
0.0
 10
115.683415744259
 20
-143.3230400150997
 30
0.0
 10
115.6283803438821
 20
-143.3230400150997
 30
0.0
 10
115.5835779536887
 20
-143.367842405293
 30
0.0
 10
115.5835779536887
 20
-143.4228724227082
 30
0.0
 10
115.5835779536887
 20
-143.4786129910672
 30
0.0
 10
115.6283803438821
 20
-143.5234153812605
 30
0.0
 10
115.683415744259
 20
-143.5234153812605
 30
0.0
 10
115.7384457616741
 20
-143.5234153812605
 30
0.0
 10
115.7832535348291
 20
-143.4786129910672
 30
0.0
 10
115.7832535348291
 20
-143.4228724227082
 30
0.0
  0
SPLINE
  5
44
330
1F
100
AcDbEntity
  8
_U+30EC_U+30A4_U+30E4_U+30FC 1
 62
   179
420
  2234388
370
     9
100
AcDbSpline
210
0.0
220
0.0
230
1.0
 70
    11
 71
     3
 72
    17
 73
    13
 74
     0
 42
0.0000000001
 43
0.0000000001
 12
1.0
 22
0.0
 32
0.0
 13
1.0
 23
0.0
 33
0.0
 40
0.0
 40
0.0
 40
0.0
 40
0.0
 40
1.0
 40
1.0
 40
1.0
 40
2.0
 40
2.0
 40
2.0
 40
3.0
 40
3.0
 40
3.0
 40
4.0
 40
4.0
 40
4.0
 40
4.0
 10
115.7832535348291
 20
-156.4232955117704
 30
0.0
 10
115.7832535348291
 20
-156.3682654943552
 30
0.0
 10
115.7384457616741
 20
-156.3234631041619
 30
0.0
 10
115.683415744259
 20
-156.3234631041619
 30
0.0
 10
115.6283803438821
 20
-156.3234631041619
 30
0.0
 10
115.5835779536887
 20
-156.3682654943552
 30
0.0
 10
115.5835779536887
 20
-156.4232955117704
 30
0.0
 10
115.5835779536887
 20
-156.4783309121472
 30
0.0
 10
115.6283803438821
 20
-156.5231333023406
 30
0.0
 10
115.683415744259
 20
-156.5231333023406
 30
0.0
 10
115.7384457616741
 20
-156.5231333023406
 30
0.0
 10
115.7832535348291
 20
-156.4783309121472
 30
0.0
 10
115.7832535348291
 20
-156.4232955117704
 30
0.0
  0
SPLINE
  5
45
330
1F
100
AcDbEntity
  8
_U+30EC_U+30A4_U+30E4_U+30FC 1
 62
   179
420
  2234388
370
     9
100
AcDbSpline
210
0.0
220
0.0
230
1.0
 70
    11
 71
     3
 72
    17
 73
    13
 74
     0
 42
0.0000000001
 43
0.0000000001
 12
1.0
 22
0.0
 32
0.0
 13
1.0
 23
0.0
 33
0.0
 40
0.0
 40
0.0
 40
0.0
 40
0.0
 40
1.0
 40
1.0
 40
1.0
 40
2.0
 40
2.0
 40
2.0
 40
3.0
 40
3.0
 40
3.0
 40
4.0
 40
4.0
 40
4.0
 40
4.0
 10
93.90552993122198
 20
-161.4231464406284
 30
0.0
 10
93.90552993122198
 20
-161.3674112552311
 30
0.0
 10
93.8607248495478
 20
-161.3226088650377
 30
0.0
 10
93.80569214065177
 20
-161.3226088650377
 30
0.0
 10
93.75065943175575
 20
-161.3226088650377
 30
0.0
 10
93.70585704156242
 20
-161.3674112552311
 30
0.0
 10
93.70585704156242
 20
-161.4231464406284
 30
0.0
 10
93.70585704156242
 20
-161.4781818410052
 30
0.0
 10
93.75065943175575
 20
-161.5229842311986
 30
0.0
 10
93.80569214065177
 20
-161.5229842311986
 30
0.0
 10
93.8607248495478
 20
-161.5229842311986
 30
0.0
 10
93.90552993122198
 20
-161.4781818410052
 30
0.0
 10
93.90552993122198
 20
-161.4231464406284
 30
0.0
  0
SPLINE
  5
46
330
1F
100
AcDbEntity
  8
_U+30EC_U+30A4_U+30E4_U+30FC 1
 62
   179
420
  2234388
370
     9
100
AcDbSpline
210
0.0
220
0.0
230
1.0
 70
    11
 71
     3
 72
    17
 73
    13
 74
     0
 42
0.0000000001
 43
0.0000000001
 12
1.0
 22
0.0
 32
0.0
 13
1.0
 23
0.0
 33
0.0
 40
0.0
 40
0.0
 40
0.0
 40
0.0
 40
1.0
 40
1.0
 40
1.0
 40
2.0
 40
2.0
 40
2.0
 40
3.0
 40
3.0
 40
3.0
 40
4.0
 40
4.0
 40
4.0
 40
4.0
 10
111.9054486736702
 20
-161.4231464406284
 30
0.0
 10
111.9054486736702
 20
-161.3674112552311
 30
0.0
 10
111.8606409005152
 20
-161.3226088650377
 30
0.0
 10
111.8056108831
 20
-161.3226088650377
 30
0.0
 10
111.7505754827232
 20
-161.3226088650377
 30
0.0
 10
111.7057730925298
 20
-161.3674112552311
 30
0.0
 10
111.7057730925298
 20
-161.4231464406284
 30
0.0
 10
111.7057730925298
 20
-161.4781818410052
 30
0.0
 10
111.7505754827232
 20
-161.5229842311986
 30
0.0
 10
111.8056108831
 20
-161.5229842311986
 30
0.0
 10
111.8606409005152
 20
-161.5229842311986
 30
0.0
 10
111.9054486736702
 20
-161.4781818410052
 30
0.0
 10
111.9054486736702
 20
-161.4231464406284
 30
0.0
  0
SPLINE
  5
47
330
1F
100
AcDbEntity
  8
_U+30EC_U+30A4_U+30E4_U+30FC 1
 62
   179
420
  2234388
370
     9
100
AcDbSpline
210
0.0
220
0.0
230
1.0
 70
    11
 71
     3
 72
    17
 73
    13
 74
     0
 42
0.0000000001
 43
0.0000000001
 12
1.0
 22
0.0
 32
0.0
 13
1.0
 23
0.0
 33
0.0
 40
0.0
 40
0.0
 40
0.0
 40
0.0
 40
1.0
 40
1.0
 40
1.0
 40
2.0
 40
2.0
 40
2.0
 40
3.0
 40
3.0
 40
3.0
 40
4.0
 40
4.0
 40
4.0
 40
4.0
 10
101.9057172096649
 20
-138.2731275424717
 30
0.0
 10
101.9057172096649
 20
-138.2180975250565
 30
0.0
 10
101.8609121279907
 20
-138.1732951348631
 30
0.0
 10
101.8055268351036
 20
-138.1732951348631
 30
0.0
 10
101.7504941262076
 20
-138.1732951348631
 30
0.0
 10
101.7056917360143
 20
-138.2180975250565
 30
0.0
 10
101.7056917360143
 20
-138.2731275424717
 30
0.0
 10
101.7056917360143
 20
-138.3281629428485
 30
0.0
 10
101.7504941262076
 20
-138.3729653330419
 30
0.0
 10
101.8055268351036
 20
-138.3729653330419
 30
0.0
 10
101.8609121279907
 20
-138.3729653330419
 30
0.0
 10
101.9057172096649
 20
-138.3281629428485
 30
0.0
 10
101.9057172096649
 20
-138.2731275424717
 30
0.0
  0
SPLINE
  5
48
330
1F
100
AcDbEntity
  8
_U+30EC_U+30A4_U+30E4_U+30FC 1
 62
   179
420
  2234388
370
     9
100
AcDbSpline
210
0.0
220
0.0
230
1.0
 70
    11
 71
     3
 72
    17
 73
    13
 74
     0
 42
0.0000000001
 43
0.0000000001
 12
1.0
 22
0.0
 32
0.0
 13
1.0
 23
0.0
 33
0.0
 40
0.0
 40
0.0
 40
0.0
 40
0.0
 40
1.0
 40
1.0
 40
1.0
 40
2.0
 40
2.0
 40
2.0
 40
3.0
 40
3.0
 40
3.0
 40
4.0
 40
4.0
 40
4.0
 40
4.0
 10
93.90552993122198
 20
-138.2731275424717
 30
0.0
 10
93.90552993122198
 20
-138.2180975250565
 30
0.0
 10
93.8607248495478
 20
-138.1732951348631
 30
0.0
 10
93.80569214065177
 20
-138.1732951348631
 30
0.0
 10
93.75065943175575
 20
-138.1732951348631
 30
0.0
 10
93.70585704156242
 20
-138.2180975250565
 30
0.0
 10
93.70585704156242
 20
-138.2731275424717
 30
0.0
 10
93.70585704156242
 20
-138.3281629428485
 30
0.0
 10
93.75065943175575
 20
-138.3729653330419
 30
0.0
 10
93.80569214065177
 20
-138.3729653330419
 30
0.0
 10
93.8607248495478
 20
-138.3729653330419
 30
0.0
 10
93.90552993122198
 20
-138.3281629428485
 30
0.0
 10
93.90552993122198
 20
-138.2731275424717
 30
0.0
  0
SPLINE
  5
49
330
1F
100
AcDbEntity
  8
_U+30EC_U+30A4_U+30E4_U+30FC 1
 62
   179
420
  2234388
370
    25
100
AcDbSpline
210
0.0
220
0.0
230
1.0
 70
    11
 71
     3
 72
    53
 73
    49
 74
     0
 42
0.0000000001
 43
0.0000000001
 12
1.0
 22
0.0
 32
0.0
 13
1.0
 23
0.0
 33
0.0
 40
0.0
 40
0.0
 40
0.0
 40
0.0
 40
1.0
 40
1.0
 40
1.0
 40
2.0
 40
2.0
 40
2.0
 40
3.0
 40
3.0
 40
3.0
 40
4.0
 40
4.0
 40
4.0
 40
5.0
 40
5.0
 40
5.0
 40
6.0
 40
6.0
 40
6.0
 40
7.0
 40
7.0
 40
7.0
 40
8.0
 40
8.0
 40
8.0
 40
9.0
 40
9.0
 40
9.0
 40
10.0
 40
10.0
 40
10.0
 40
11.0
 40
11.0
 40
11.0
 40
12.0
 40
12.0
 40
12.0
 40
13.0
 40
13.0
 40
13.0
 40
14.0
 40
14.0
 40
14.0
 40
15.0
 40
15.0
 40
15.0
 40
16.0
 40
16.0
 40
16.0
 40
16.0
 10
94.26278633304238
 20
-142.4244729851594
 30
0.0
 10
96.62039974764124
 20
-142.2226872830343
 30
0.0
 10
98.9907142603611
 20
-142.2226872830343
 30
0.0
 10
101.34832767496
 20
-142.4244729851594
 30
0.0
 10
101.6069143888981
 20
-142.4470545094729
 30
0.0
 10
101.8055268351036
 20
-142.6636595051463
 30
0.0
 10
101.8055268351036
 20
-142.9225961115947
 30
0.0
 10
101.8055268351036
 20
-143.1988227910097
 30
0.0
 10
101.5818647766472
 20
-143.4228347419763
 30
0.0
 10
101.305640788713
 20
-143.4228347419763
 30
0.0
 10
101.305640788713
 20
-143.4228347419763
 30
0.0
 10
98.3056193423873
 20
-143.4228347419763
 30
0.0
 10
98.3056193423873
 20
-143.4228347419763
 30
0.0
 10
98.3056193423873
 20
-143.4228347419763
 30
0.0
 10
98.3056193423873
 20
-156.4234031710043
 30
0.0
 10
98.3056193423873
 20
-156.4234031710043
 30
0.0
 10
98.3056193423873
 20
-156.4234031710043
 30
0.0
 10
100.8057547423224
 20
-156.4234031710043
 30
0.0
 10
100.8057547423224
 20
-156.4234031710043
 30
0.0
 10
101.1631188033771
 20
-156.4234031710043
 30
0.0
 10
101.4929651642426
 20
-156.6135509099433
 30
0.0
 10
101.6714722485147
 20
-156.9229366334038
 30
0.0
 10
101.6714722485147
 20
-156.9229366334038
 30
0.0
 10
111.3058298044625
 20
-156.9229366334038
 30
0.0
 10
111.3058298044625
 20
-156.9229366334038
 30
0.0
 10
111.5817012084056
 20
-156.9229366334038
 30
0.0
 10
111.8057185423339
 20
-157.1465986918603
 30
0.0
 10
111.8057185423339
 20
-157.4231752637855
 30
0.0
 10
111.8057185423339
 20
-157.4231752637855
 30
0.0
 10
93.80558448141785
 20
-157.4231752637855
 30
0.0
 10
93.80558448141785
 20
-157.4231752637855
 30
0.0
 10
93.80558448141785
 20
-156.8710771804274
 30
0.0
 10
94.25361376631291
 20
-156.4234031710043
 30
0.0
 10
94.80535657419905
 20
-156.4234031710043
 30
0.0
 10
94.80535657419905
 20
-156.4234031710043
 30
0.0
 10
97.3058472496061
 20
-156.4234031710043
 30
0.0
 10
97.3058472496061
 20
-156.4234031710043
 30
0.0
 10
97.3058472496061
 20
-156.4234031710043
 30
0.0
 10
97.3058472496061
 20
-143.4228347419763
 30
0.0
 10
97.3058472496061
 20
-143.4228347419763
 30
0.0
 10
97.3058472496061
 20
-143.4228347419763
 30
0.0
 10
94.30582311179953
 20
-143.4228347419763
 30
0.0
 10
94.30582311179953
 20
-143.4228347419763
 30
0.0
 10
94.04617864588815
 20
-143.4228347419763
 30
0.0
 10
93.82957365021475
 20
-143.2245748797619
 30
0.0
 10
93.80735009285405
 20
-142.9659881658237
 30
0.0
 10
93.78371350804822
 20
-142.6904720373529
 30
0.0
 10
93.98761740560059
 20
-142.4484648454371
 30
0.0
 10
94.26278633304238
 20
-142.4244729851594
 30
0.0
  0
POLYLINE
  5
4A
330
1F
100
AcDbEntity
  8
_U+30EC_U+30A4_U+30E4_U+30FC 1
 62
   179
420
  2234388
370
     9
100
AcDb2dPolyline
 66
     1
 10
0.0
 20
0.0
 30
0.0
  0
VERTEX
  5
4B
330
4A
100
AcDbEntity
  8
_U+30EC_U+30A4_U+30E4_U+30FC 1
 62
   179
420
  2234388
370
     9
100
AcDbVertex
100
AcDb2dVertex
 10
93.80562216214973
 20
-161.4231464406284
 30
0.0
  0
VERTEX
  5
4C
330
4A
100
AcDbEntity
  8
_U+30EC_U+30A4_U+30E4_U+30FC 1
 62
   179
420
  2234388
370
     9
100
AcDbVertex
100
AcDb2dVertex
 10
111.8054009475939
 20
-161.4231464406284
 30
0.0
  0
SEQEND
  5
4D
330
4A
100
AcDbEntity
  8
_U+30EC_U+30A4_U+30E4_U+30FC 1
 62
   179
420
  2234388
370
     9
  0
POLYLINE
  5
4E
330
1F
100
AcDbEntity
  8
_U+30EC_U+30A4_U+30E4_U+30FC 1
 62
   179
420
  2234388
370
     9
100
AcDb2dPolyline
 66
     1
 10
0.0
 20
0.0
 30
0.0
  0
VERTEX
  5
4F
330
4E
100
AcDbEntity
  8
_U+30EC_U+30A4_U+30E4_U+30FC 1
 62
   179
420
  2234388
370
     9
100
AcDbVertex
100
AcDb2dVertex
 10
93.80562216214973
 20
-159.1624747832074
 30
0.0
  0
VERTEX
  5
50
330
4E
100
AcDbEntity
  8
_U+30EC_U+30A4_U+30E4_U+30FC 1
 62
   179
420
  2234388
370
     9
100
AcDbVertex
100
AcDb2dVertex
 10
93.80562216214973
 20
-162.4228485549075
 30
0.0
  0
SEQEND
  5
51
330
4E
100
AcDbEntity
  8
_U+30EC_U+30A4_U+30E4_U+30FC 1
 62
   179
420
  2234388
370
     9
  0
POLYLINE
  5
52
330
1F
100
AcDbEntity
  8
_U+30EC_U+30A4_U+30E4_U+30FC 1
 62
   179
420
  2234388
370
     9
100
AcDb2dPolyline
 66
     1
 10
0.0
 20
0.0
 30
0.0
  0
VERTEX
  5
53
330
52
100
AcDbEntity
  8
_U+30EC_U+30A4_U+30E4_U+30FC 1
 62
   179
420
  2234388
370
     9
100
AcDbVertex
100
AcDb2dVertex
 10
111.805540904598
 20
-159.9631042080561
 30
0.0
  0
VERTEX
  5
54
330
52
100
AcDbEntity
  8
_U+30EC_U+30A4_U+30E4_U+30FC 1
 62
   179
420
  2234388
370
     9
100
AcDbVertex
100
AcDb2dVertex
 10
111.805540904598
 20
-162.4230261926435
 30
0.0
  0
SEQEND
  5
55
330
52
100
AcDbEntity
  8
_U+30EC_U+30A4_U+30E4_U+30FC 1
 62
   179
420
  2234388
370
     9
  0
INSERT
  5
57
330
1F
100
AcDbEntity
  8
_U+30EC_U+30A4_U+30E4_U+30FC 1
100
AcDbBlockReference
  2
block 2
 10
0.0
 20
0.0
 30
0.0
  0
POLYLINE
  5
60
330
1F
100
AcDbEntity
  8
_U+30EC_U+30A4_U+30E4_U+30FC 1
 62
   179
420
  2234388
370
     9
100
AcDb2dPolyline
 66
     1
 10
0.0
 20
0.0
 30
0.0
  0
VERTEX
  5
61
330
60
100
AcDbEntity
  8
_U+30EC_U+30A4_U+30E4_U+30FC 1
 62
   179
420
  2234388
370
     9
100
AcDbVertex
100
AcDb2dVertex
 10
93.80562216214973
 20
-138.2731275424717
 30
0.0
  0
VERTEX
  5
62
330
60
100
AcDbEntity
  8
_U+30EC_U+30A4_U+30E4_U+30FC 1
 62
   179
420
  2234388
370
     9
100
AcDbVertex
100
AcDb2dVertex
 10
101.8055618243547
 20
-138.2731275424717
 30
0.0
  0
SEQEND
  5
63
330
60
100
AcDbEntity
  8
_U+30EC_U+30A4_U+30E4_U+30FC 1
 62
   179
420
  2234388
370
     9
  0
POLYLINE
  5
64
330
1F
100
AcDbEntity
  8
_U+30EC_U+30A4_U+30E4_U+30FC 1
 62
   179
420
  2234388
370
     9
100
AcDb2dPolyline
 66
     1
 10
0.0
 20
0.0
 30
0.0
  0
VERTEX
  5
65
330
64
100
AcDbEntity
  8
_U+30EC_U+30A4_U+30E4_U+30FC 1
 62
   179
420
  2234388
370
     9
100
AcDbVertex
100
AcDb2dVertex
 10
93.80562216214973
 20
-140.4332185606084
 30
0.0
  0
VERTEX
  5
66
330
64
100
AcDbEntity
  8
_U+30EC_U+30A4_U+30E4_U+30FC 1
 62
   179
420
  2234388
370
     9
100
AcDbVertex
100
AcDb2dVertex
 10
93.80562216214973
 20
-137.2726825794785
 30
0.0
  0
SEQEND
  5
67
330
64
100
AcDbEntity
  8
_U+30EC_U+30A4_U+30E4_U+30FC 1
 62
   179
420
  2234388
370
     9
  0
POLYLINE
  5
68
330
1F
100
AcDbEntity
  8
_U+30EC_U+30A4_U+30E4_U+30FC 1
 62
   179
420
  2234388
370
     9
100
AcDb2dPolyline
 66
     1
 10
0.0
 20
0.0
 30
0.0
  0
VERTEX
  5
69
330
68
100
AcDbEntity
  8
_U+30EC_U+30A4_U+30E4_U+30FC 1
 62
   179
420
  2234388
370
     9
100
AcDbVertex
100
AcDb2dVertex
 10
101.8054568566019
 20
-140.4332185606084
 30
0.0
  0
VERTEX
  5
6A
330
68
100
AcDbEntity
  8
_U+30EC_U+30A4_U+30E4_U+30FC 1
 62
   179
420
  2234388
370
     9
100
AcDbVertex
100
AcDb2dVertex
 10
101.8054568566019
 20
-137.2726825794785
 30
0.0
  0
SEQEND
  5
6B
330
68
100
AcDbEntity
  8
_U+30EC_U+30A4_U+30E4_U+30FC 1
 62
   179
420
  2234388
370
     9
  0
INSERT
  5
6D
330
1F
100
AcDbEntity
  8
_U+30EC_U+30A4_U+30E4_U+30FC 1
100
AcDbBlockReference
  2
block 3
 10
0.0
 20
0.0
 30
0.0
  0
POLYLINE
  5
74
330
1F
100
AcDbEntity
  8
_U+30EC_U+30A4_U+30E4_U+30FC 1
 62
   179
420
  2234388
370
     9
100
AcDb2dPolyline
 66
     1
 10
0.0
 20
0.0
 30
0.0
  0
VERTEX
  5
75
330
74
100
AcDbEntity
  8
_U+30EC_U+30A4_U+30E4_U+30FC 1
 62
   179
420
  2234388
370
     9
100
AcDbVertex
100
AcDb2dVertex
 10
115.6833457657569
 20
-156.4232955117704
 30
0.0
  0
VERTEX
  5
76
330
74
100
AcDbEntity
  8
_U+30EC_U+30A4_U+30E4_U+30FC 1
 62
   179
420
  2234388
370
     9
100
AcDbVertex
100
AcDb2dVertex
 10
115.6833457657569
 20
-143.4227324657041
 30
0.0
  0
SEQEND
  5
77
330
74
100
AcDbEntity
  8
_U+30EC_U+30A4_U+30E4_U+30FC 1
 62
   179
420
  2234388
370
     9
  0
POLYLINE
  5
78
330
1F
100
AcDbEntity
  8
_U+30EC_U+30A4_U+30E4_U+30FC 1
 62
   179
420
  2234388
370
     9
100
AcDb2dPolyline
 66
     1
 10
0.0
 20
0.0
 30
0.0
  0
VERTEX
  5
79
330
78
100
AcDbEntity
  8
_U+30EC_U+30A4_U+30E4_U+30FC 1
 62
   179
420
  2234388
370
     9
100
AcDbVertex
100
AcDb2dVertex
 10
114.6890804427904
 20
-156.4232955117704
 30
0.0
  0
VERTEX
  5
7A
330
78
100
AcDbEntity
  8
_U+30EC_U+30A4_U+30E4_U+30FC 1
 62
   179
420
  2234388
370
     9
100
AcDbVertex
100
AcDb2dVertex
 10
116.6833331770059
 20
-156.4232955117704
 30
0.0
  0
SEQEND
  5
7B
330
78
100
AcDbEntity
  8
_U+30EC_U+30A4_U+30E4_U+30FC 1
 62
   179
420
  2234388
370
     9
  0
POLYLINE
  5
7C
330
1F
100
AcDbEntity
  8
_U+30EC_U+30A4_U+30E4_U+30FC 1
 62
   179
420
  2234388
370
     9
100
AcDb2dPolyline
 66
     1
 10
0.0
 20
0.0
 30
0.0
  0
VERTEX
  5
7D
330
7C
100
AcDbEntity
  8
_U+30EC_U+30A4_U+30E4_U+30FC 1
 62
   179
420
  2234388
370
     9
100
AcDbVertex
100
AcDb2dVertex
 10
114.7707453546759
 20
-143.4228724227082
 30
0.0
  0
VERTEX
  5
7E
330
7C
100
AcDbEntity
  8
_U+30EC_U+30A4_U+30E4_U+30FC 1
 62
   179
420
  2234388
370
     9
100
AcDbVertex
100
AcDb2dVertex
 10
116.6835054317802
 20
-143.4228724227082
 30
0.0
  0
SEQEND
  5
7F
330
7C
100
AcDbEntity
  8
_U+30EC_U+30A4_U+30E4_U+30FC 1
 62
   179
420
  2234388
370
     9
  0
INSERT
  5
81
330
1F
100
AcDbEntity
  8
_U+30EC_U+30A4_U+30E4_U+30FC 1
100
AcDbBlockReference
  2
block 4
 10
0.0
 20
0.0
 30
0.0
  0
SPLINE
  5
88
330
1F
100
AcDbEntity
  8
_U+30EC_U+30A4_U+30E4_U+30FC 1
 62
   179
420
  2234388
370
     9
100
AcDbSpline
210
0.0
220
0.0
230
1.0
 70
    11
 71
     3
 72
    17
 73
    13
 74
     0
 42
0.0000000001
 43
0.0000000001
 12
1.0
 22
0.0
 32
0.0
 13
1.0
 23
0.0
 33
0.0
 40
0.0
 40
0.0
 40
0.0
 40
0.0
 40
1.0
 40
1.0
 40
1.0
 40
2.0
 40
2.0
 40
2.0
 40
3.0
 40
3.0
 40
3.0
 40
4.0
 40
4.0
 40
4.0
 40
4.0
 10
97.3929839420553
 20
-149.9120435128014
 30
0.0
 10
97.3929839420553
 20
-149.8570134953862
 30
0.0
 10
97.34817886038111
 20
-149.8122111051929
 30
0.0
 10
97.29279356749403
 20
-149.8122111051929
 30
0.0
 10
97.23776085859801
 20
-149.8122111051929
 30
0.0
 10
97.19295846840467
 20
-149.8570134953862
 30
0.0
 10
97.19295846840467
 20
-149.9120435128014
 30
0.0
 10
97.19295846840467
 20
-149.9670789131783
 30
0.0
 10
97.23776085859801
 20
-150.0118813033716
 30
0.0
 10
97.29279356749403
 20
-150.0118813033716
 30
0.0
 10
97.34817886038111
 20
-150.0118813033716
 30
0.0
 10
97.3929839420553
 20
-149.9670789131783
 30
0.0
 10
97.3929839420553
 20
-149.9120435128014
 30
0.0
  0
SPLINE
  5
89
330
1F
100
AcDbEntity
  8
_U+30EC_U+30A4_U+30E4_U+30FC 1
 62
   179
420
  2234388
370
     9
100
AcDbSpline
210
0.0
220
0.0
230
1.0
 70
    11
 71
     3
 72
    17
 73
    13
 74
     0
 42
0.0000000001
 43
0.0000000001
 12
1.0
 22
0.0
 32
0.0
 13
1.0
 23
0.0
 33
0.0
 40
0.0
 40
0.0
 40
0.0
 40
0.0
 40
1.0
 40
1.0
 40
1.0
 40
2.0
 40
2.0
 40
2.0
 40
3.0
 40
3.0
 40
3.0
 40
4.0
 40
4.0
 40
4.0
 40
4.0
 10
98.3927560348365
 20
-149.9120435128014
 30
0.0
 10
98.3927560348365
 20
-149.8570134953862
 30
0.0
 10
98.34795095316231
 20
-149.8122111051929
 30
0.0
 10
98.29256566027523
 20
-149.8122111051929
 30
0.0
 10
98.23753295137921
 20
-149.8122111051929
 30
0.0
 10
98.19273056118587
 20
-149.8570134953862
 30
0.0
 10
98.19273056118587
 20
-149.9120435128014
 30
0.0
 10
98.19273056118587
 20
-149.9670789131783
 30
0.0
 10
98.23753295137921
 20
-150.0118813033716
 30
0.0
 10
98.29256566027523
 20
-150.0118813033716
 30
0.0
 10
98.34795095316231
 20
-150.0118813033716
 30
0.0
 10
98.3927560348365
 20
-149.9670789131783
 30
0.0
 10
98.3927560348365
 20
-149.9120435128014
 30
0.0
  0
INSERT
  5
8B
330
1F
100
AcDbEntity
  8
_U+30EC_U+30A4_U+30E4_U+30FC 1
100
AcDbBlockReference
  2
block 5
 10
0.0
 20
0.0
 30
0.0
  0
POLYLINE
  5
90
330
1F
100
AcDbEntity
  8
_U+30EC_U+30A4_U+30E4_U+30FC 1
 62
   179
420
  2234388
370
     9
100
AcDb2dPolyline
 66
     1
 10
0.0
 20
0.0
 30
0.0
  0
VERTEX
  5
91
330
90
100
AcDbEntity
  8
_U+30EC_U+30A4_U+30E4_U+30FC 1
 62
   179
420
  2234388
370
     9
100
AcDbVertex
100
AcDb2dVertex
 10
99.15412213707671
 20
-149.9120435128014
 30
0.0
  0
VERTEX
  5
92
330
90
100
AcDbEntity
  8
_U+30EC_U+30A4_U+30E4_U+30FC 1
 62
   179
420
  2234388
370
     9
100
AcDbVertex
100
AcDb2dVertex
 10
95.31519302528416
 20
-149.9120435128014
 30
0.0
  0
SEQEND
  5
93
330
90
100
AcDbEntity
  8
_U+30EC_U+30A4_U+30E4_U+30FC 1
 62
   179
420
  2234388
370
     9
  0
SPLINE
  5
94
330
1F
100
AcDbEntity
  8
_U+30EC_U+30A4_U+30E4_U+30FC 1
 62
   179
420
  2234388
370
     9
100
AcDbSpline
210
0.0
220
0.0
230
1.0
 70
    11
 71
     3
 72
    17
 73
    13
 74
     0
 42
0.0000000001
 43
0.0000000001
 12
1.0
 22
0.0
 32
0.0
 13
1.0
 23
0.0
 33
0.0
 40
0.0
 40
0.0
 40
0.0
 40
0.0
 40
1.0
 40
1.0
 40
1.0
 40
2.0
 40
2.0
 40
2.0
 40
3.0
 40
3.0
 40
3.0
 40
4.0
 40
4.0
 40
4.0
 40
4.0
 10
115.7846315730232
 20
-157.4161558817343
 30
0.0
 10
115.7846315730232
 20
-157.3611258643191
 30
0.0
 10
115.7398237998682
 20
-157.3163234741258
 30
0.0
 10
115.684793782453
 20
-157.3163234741258
 30
0.0
 10
115.6297583820762
 20
-157.3163234741258
 30
0.0
 10
115.5849559918829
 20
-157.3611258643191
 30
0.0
 10
115.5849559918829
 20
-157.4161558817343
 30
0.0
 10
115.5849559918829
 20
-157.4711912821112
 30
0.0
 10
115.6297583820762
 20
-157.5159936723045
 30
0.0
 10
115.684793782453
 20
-157.5159936723045
 30
0.0
 10
115.7398237998682
 20
-157.5159936723045
 30
0.0
 10
115.7846315730232
 20
-157.4711912821112
 30
0.0
 10
115.7846315730232
 20
-157.4161558817343
 30
0.0
  0
POLYLINE
  5
95
330
1F
100
AcDbEntity
  8
_U+30EC_U+30A4_U+30E4_U+30FC 1
 62
   179
420
  2234388
370
     9
100
AcDb2dPolyline
 66
     1
 10
0.0
 20
0.0
 30
0.0
  0
VERTEX
  5
96
330
95
100
AcDbEntity
  8
_U+30EC_U+30A4_U+30E4_U+30FC 1
 62
   179
420
  2234388
370
     9
100
AcDbVertex
100
AcDb2dVertex
 10
115.684723803951
 20
-155.7687166036495
 30
0.0
  0
VERTEX
  5
97
330
95
100
AcDbEntity
  8
_U+30EC_U+30A4_U+30E4_U+30FC 1
 62
   179
420
  2234388
370
     9
100
AcDbVertex
100
AcDb2dVertex
 10
115.684723803951
 20
-157.4161935624662
 30
0.0
  0
SEQEND
  5
98
330
95
100
AcDbEntity
  8
_U+30EC_U+30A4_U+30E4_U+30FC 1
 62
   179
420
  2234388
370
     9
  0
POLYLINE
  5
99
330
1F
100
AcDbEntity
  8
_U+30EC_U+30A4_U+30E4_U+30FC 1
 62
   179
420
  2234388
370
     9
100
AcDb2dPolyline
 66
     1
 10
0.0
 20
0.0
 30
0.0
  0
VERTEX
  5
9A
330
99
100
AcDbEntity
  8
_U+30EC_U+30A4_U+30E4_U+30FC 1
 62
   179
420
  2234388
370
     9
100
AcDbVertex
100
AcDb2dVertex
 10
114.6890804427904
 20
-157.4161558817343
 30
0.0
  0
VERTEX
  5
9B
330
99
100
AcDbEntity
  8
_U+30EC_U+30A4_U+30E4_U+30FC 1
 62
   179
420
  2234388
370
     9
100
AcDbVertex
100
AcDb2dVertex
 10
116.6847435129702
 20
-157.4161558817343
 30
0.0
  0
SEQEND
  5
9C
330
99
100
AcDbEntity
  8
_U+30EC_U+30A4_U+30E4_U+30FC 1
 62
   179
420
  2234388
370
     9
  0
INSERT
  5
9E
330
1F
100
AcDbEntity
  8
_U+30EC_U+30A4_U+30E4_U+30FC 1
100
AcDbBlockReference
  2
block 6
 10
0.0
 20
0.0
 30
0.0
  0
POLYLINE
  5
A3
330
1F
100
AcDbEntity
  8
_U+30EC_U+30A4_U+30E4_U+30FC 1
  6
AI-Linetype-1
 62
     8
420
  8223869
370
    25
100
AcDb2dPolyline
 66
     1
 10
0.0
 20
0.0
 30
0.0
  0
VERTEX
  5
A4
330
A3
100
AcDbEntity
  8
_U+30EC_U+30A4_U+30E4_U+30FC 1
  6
AI-Linetype-1
 62
     8
420
  8223869
370
    25
100
AcDbVertex
100
AcDb2dVertex
 10
93.26679038789072
 20
-143.6336907345587
 30
0.0
  0
VERTEX
  5
A5
330
A3
100
AcDbEntity
  8
_U+30EC_U+30A4_U+30E4_U+30FC 1
  6
AI-Linetype-1
 62
     8
420
  8223869
370
    25
100
AcDbVertex
100
AcDb2dVertex
 10
93.26679038789072
 20
-141.6990596840851
 30
0.0
  0
VERTEX
  5
A6
330
A3
100
AcDbEntity
  8
_U+30EC_U+30A4_U+30E4_U+30FC 1
  6
AI-Linetype-1
 62
     8
420
  8223869
370
    25
100
AcDbVertex
100
AcDb2dVertex
 10
102.3949153856087
 20
-141.6990596840851
 30
0.0
  0
VERTEX
  5
A7
330
A3
100
AcDbEntity
  8
_U+30EC_U+30A4_U+30E4_U+30FC 1
  6
AI-Linetype-1
 62
     8
420
  8223869
370
    25
100
AcDbVertex
100
AcDb2dVertex
 10
102.3949153856087
 20
-143.683434683589
 30
0.0
  0
SEQEND
  5
A9
330
A3
100
AcDbEntity
  8
_U+30EC_U+30A4_U+30E4_U+30FC 1
  6
AI-Linetype-1
 62
     8
420
  8223869
370
    25
  0
ENDSEC
  0
SECTION
  2
OBJECTS
  0
DICTIONARY
  5
C
330
0
100
AcDbDictionary
281
     1
  3
ACAD_GROUP
350
D
  3
ACAD_LAYOUT
350
1A
  3
ACAD_MATERIAL
350
3B
  3
ACAD_MLEADERSTYLE
350
AB
  3
ACAD_MLINESTYLE
350
17
  3
ACAD_PLOTSETTINGS
350
19
  3
ACAD_PLOTSTYLENAME
350
E
  3
ACAD_TABLESTYLE
350
AA
  3
ACAD_VISUALSTYLE
350
2A
  0
SUN
  5
3F
330
29
100
AcDbSun
 90
        1
290
     0
 63
     7
421
 16777215
 40
1.0
291
     1
 91
  2455826
 92
 54000000
292
     0
 70
     2
 71
   256
280
     1
  0
DICTIONARY
  5
D
102
{ACAD_REACTORS
330
C
102
}
330
C
100
AcDbDictionary
281
     1
  0
DICTIONARY
  5
1A
102
{ACAD_REACTORS
330
C
102
}
330
C
100
AcDbDictionary
281
     1
  3
Layout1
350
1E
  3
Layout2
350
26
  3
Model
350
22
  0
DICTIONARY
  5
3B
102
{ACAD_REACTORS
330
C
102
}
330
C
100
AcDbDictionary
281
     1
  3
ByBlock
350
3D
  3
ByLayer
350
3C
  3
Global
350
3E
  0
DICTIONARY
  5
AB
102
{ACAD_REACTORS
330
C
102
}
330
C
100
AcDbDictionary
281
     1
  0
DICTIONARY
  5
17
102
{ACAD_REACTORS
330
C
102
}
330
C
100
AcDbDictionary
281
     1
  3
Standard
350
18
  0
DICTIONARY
  5
19
102
{ACAD_REACTORS
330
C
102
}
330
C
100
AcDbDictionary
281
     1
  0
ACDBDICTIONARYWDFLT
  5
E
102
{ACAD_REACTORS
330
C
102
}
330
C
100
AcDbDictionary
281
     1
  3
Normal
350
F
100
AcDbDictionaryWithDefault
340
F
  0
DICTIONARY
  5
AA
102
{ACAD_REACTORS
330
C
102
}
330
C
100
AcDbDictionary
281
     1
  0
DICTIONARY
  5
2A
102
{ACAD_REACTORS
330
C
102
}
330
C
100
AcDbDictionary
281
     1
  3
2dWireframe
350
2F
  3
3D Hidden
350
31
  3
3dWireframe
350
30
  3
Basic
350
32
  3
Brighten
350
36
  3
ColorChange
350
3A
  3
Conceptual
350
34
  3
Dim
350
35
  3
Facepattern
350
39
  3
Flat
350
2B
  3
FlatWithEdges
350
2C
  3
Gouraud
350
2D
  3
GouraudWithEdges
350
2E
  3
Linepattern
350
38
  3
Realistic
350
33
  3
Thicken
350
37
  0
LAYOUT
  5
1E
102
{ACAD_REACTORS
330
1A
102
}
330
1A
100
AcDbPlotSettings
  1

  2
none_device
  4

  6

 40
0.0
 41
0.0
 42
0.0
 43
0.0
 44
0.0
 45
0.0
 46
0.0
 47
0.0
 48
0.0
 49
0.0
140
0.0
141
0.0
142
1.0
143
1.0
 70
   688
 72
     0
 73
     0
 74
     5
  7

 75
    16
 76
     0
 77
     2
 78
   300
147
1.0
148
0.0
149
0.0
100
AcDbLayout
  1
Layout1
 70
     1
 71
     1
 10
0.0
 20
0.0
 11
12.0
 21
9.0
 12
0.0
 22
0.0
 32
0.0
 14
1.000000000000000E+20
 24
1.000000000000000E+20
 34
1.000000000000000E+20
 15
-1.000000000000000E+20
 25
-1.000000000000000E+20
 35
-1.000000000000000E+20
146
0.0
 13
0.0
 23
0.0
 33
0.0
 16
1.0
 26
0.0
 36
0.0
 17
0.0
 27
1.0
 37
0.0
 76
     0
330
1B
  0
LAYOUT
  5
26
102
{ACAD_REACTORS
330
1A
102
}
330
1A
100
AcDbPlotSettings
  1

  2
none_device
  4

  6

 40
0.0
 41
0.0
 42
0.0
 43
0.0
 44
0.0
 45
0.0
 46
0.0
 47
0.0
 48
0.0
 49
0.0
140
0.0
141
0.0
142
1.0
143
1.0
 70
   688
 72
     0
 73
     0
 74
     5
  7

 75
    16
 76
     0
 77
     2
 78
   300
147
1.0
148
0.0
149
0.0
100
AcDbLayout
  1
Layout2
 70
     1
 71
     2
 10
0.0
 20
0.0
 11
0.0
 21
0.0
 12
0.0
 22
0.0
 32
0.0
 14
0.0
 24
0.0
 34
0.0
 15
0.0
 25
0.0
 35
0.0
146
0.0
 13
0.0
 23
0.0
 33
0.0
 16
1.0
 26
0.0
 36
0.0
 17
0.0
 27
1.0
 37
0.0
 76
     0
330
23
  0
LAYOUT
  5
22
102
{ACAD_REACTORS
330
1A
102
}
330
1A
100
AcDbPlotSettings
  1

  2
none_device
  4

  6

 40
0.0
 41
0.0
 42
0.0
 43
0.0
 44
0.0
 45
0.0
 46
0.0
 47
0.0
 48
0.0
 49
0.0
140
0.0
141
0.0
142
1.0
143
1.0
 70
  1712
 72
     0
 73
     0
 74
     0
  7

 75
     0
 76
     0
 77
     2
 78
   300
147
1.0
148
0.0
149
0.0
100
AcDbLayout
  1
Model
 70
     1
 71
     0
 10
0.0
 20
0.0
 11
12.0
 21
9.0
 12
0.0
 22
0.0
 32
0.0
 14
1.000000000000000E+20
 24
1.000000000000000E+20
 34
1.000000000000000E+20
 15
-1.000000000000000E+20
 25
-1.000000000000000E+20
 35
-1.000000000000000E+20
146
0.0
 13
0.0
 23
0.0
 33
0.0
 16
1.0
 26
0.0
 36
0.0
 17
0.0
 27
1.0
 37
0.0
 76
     0
330
1F
331
29
  0
MATERIAL
  5
3D
102
{ACAD_REACTORS
330
3B
102
}
330
3B
100
AcDbMaterial
  1
ByBlock
 72
     1
 94
      127
  0
MATERIAL
  5
3C
102
{ACAD_REACTORS
330
3B
102
}
330
3B
100
AcDbMaterial
  1
ByLayer
 72
     1
 94
      127
  0
MATERIAL
  5
3E
102
{ACAD_REACTORS
330
3B
102
}
330
3B
100
AcDbMaterial
  1
Global
 72
     1
 94
      127
  0
MLINESTYLE
  5
18
102
{ACAD_REACTORS
330
17
102
}
330
17
100
AcDbMlineStyle
  2
Standard
 70
     0
  3

 62
   256
 51
90.0
 52
90.0
 71
     2
 49
0.5
 62
   256
  6
BYLAYER
 49
-0.5
 62
   256
  6
BYLAYER
  0
ACDBPLACEHOLDER
  5
F
102
{ACAD_REACTORS
330
E
102
}
330
E
  0
VISUALSTYLE
  5
2F
102
{ACAD_REACTORS
330
2A
102
}
330
2A
100
AcDbVisualStyle
  2
2dWireframe
 70
     4
177
     2
291
     0
 71
     0
176
     1
 72
     2
176
     1
 73
     0
176
     1
 90
        0
176
     1
 40
-0.6
176
     1
 41
-30.0
176
     1
 62
     5
 63
     7
421
 16777215
176
     1
 74
     1
176
     1
 91
        4
176
     1
 64
     7
176
     1
 65
   257
176
     1
 75
     1
176
     1
175
     1
176
     1
 42
1.0
176
     1
 92
        0
176
     1
 66
   257
176
     1
 43
1.0
176
     1
 76
     1
176
     1
 77
     6
176
     1
 78
     2
176
     1
 67
     7
176
     1
 79
     5
176
     1
170
     0
176
     1
171
     0
176
     1
290
     0
176
     1
 93
        1
176
     1
 44
0.0
176
     1
173
     0
176
     1
  0
VISUALSTYLE
  5
31
102
{ACAD_REACTORS
330
2A
102
}
330
2A
100
AcDbVisualStyle
  2
3D Hidden
 70
     6
177
     2
291
     0
 71
     1
176
     1
 72
     2
176
     1
 73
     2
176
     1
 90
        0
176
     1
 40
-0.6
176
     1
 41
-30.0
176
     1
 62
     5
 63
     7
421
 16777215
176
     1
 74
     2
176
     1
 91
        2
176
     1
 64
     7
176
     1
 65
   257
176
     1
 75
     2
176
     1
175
     1
176
     1
 42
40.0
176
     1
 92
        0
176
     1
 66
   257
176
     1
 43
1.0
176
     1
 76
     1
176
     1
 77
     6
176
     1
 78
     2
176
     1
 67
     7
176
     1
 79
     3
176
     1
170
     0
176
     1
171
     0
176
     1
290
     0
176
     1
 93
        1
176
     1
 44
0.0
176
     1
173
     0
176
     1
  0
VISUALSTYLE
  5
30
102
{ACAD_REACTORS
330
2A
102
}
330
2A
100
AcDbVisualStyle
  2
3dWireframe
 70
     5
177
     2
291
     0
 71
     0
176
     1
 72
     2
176
     1
 73
     0
176
     1
 90
        0
176
     1
 40
-0.6
176
     1
 41
-30.0
176
     1
 62
     5
 63
     7
421
 16777215
176
     1
 74
     1
176
     1
 91
        4
176
     1
 64
     7
176
     1
 65
   257
176
     1
 75
     1
176
     1
175
     1
176
     1
 42
1.0
176
     1
 92
        0
176
     1
 66
   257
176
     1
 43
1.0
176
     1
 76
     1
176
     1
 77
     6
176
     1
 78
     2
176
     1
 67
     7
176
     1
 79
     5
176
     1
170
     0
176
     1
171
     0
176
     1
290
     0
176
     1
 93
        1
176
     1
 44
0.0
176
     1
173
     0
176
     1
  0
VISUALSTYLE
  5
32
102
{ACAD_REACTORS
330
2A
102
}
330
2A
100
AcDbVisualStyle
  2
Basic
 70
     7
177
     2
291
     1
 71
     1
176
     1
 72
     0
176
     1
 73
     1
176
     1
 90
        0
176
     1
 40
-0.6
176
     1
 41
-30.0
176
     1
 62
     5
 63
     7
421
 16777215
176
     1
 74
     0
176
     1
 91
        4
176
     1
 64
     7
176
     1
 65
   257
176
     1
 75
     1
176
     1
175
     1
176
     1
 42
1.0
176
     1
 92
        8
176
     1
 66
     7
176
     1
 43
1.0
176
     1
 76
     1
176
     1
 77
     6
176
     1
 78
     2
176
     1
 67
     7
176
     1
 79
     5
176
     1
170
     0
176
     1
171
     0
176
     1
290
     0
176
     1
 93
        1
176
     1
 44
0.0
176
     1
173
     0
176
     1
  0
VISUALSTYLE
  5
36
102
{ACAD_REACTORS
330
2A
102
}
330
2A
100
AcDbVisualStyle
  2
Brighten
 70
    12
177
     2
291
     1
 71
     2
176
     1
 72
     2
176
     1
 73
     0
176
     1
 90
        0
176
     1
 40
-0.6
176
     1
 41
-30.0
176
     1
 62
     5
 63
     7
421
 16777215
176
     1
 74
     1
176
     1
 91
        4
176
     1
 64
     7
176
     1
 65
   257
176
     1
 75
     1
176
     1
175
     1
176
     1
 42
1.0
176
     1
 92
        8
176
     1
 66
     7
176
     1
 43
1.0
176
     1
 76
     1
176
     1
 77
     6
176
     1
 78
     2
176
     1
 67
     7
176
     1
 79
     5
176
     1
170
     0
176
     1
171
     0
176
     1
290
     0
176
     1
 93
        1
176
     1
 44
50.0
176
     1
173
     0
176
     1
  0
VISUALSTYLE
  5
3A
102
{ACAD_REACTORS
330
2A
102
}
330
2A
100
AcDbVisualStyle
  2
ColorChange
 70
    16
177
     2
291
     1
 71
     2
176
     1
 72
     2
176
     1
 73
     3
176
     1
 90
        0
176
     1
 40
-0.6
176
     1
 41
-30.0
176
     1
 62
     5
 63
     8
421
  8421504
176
     1
 74
     1
176
     1
 91
        4
176
     1
 64
     7
176
     1
 65
   257
176
     1
 75
     1
176
     1
175
     1
176
     1
 42
1.0
176
     1
 92
        8
176
     1
 66
     8
424
  8421504
176
     1
 43
1.0
176
     1
 76
     1
176
     1
 77
     6
176
     1
 78
     2
176
     1
 67
     7
176
     1
 79
     5
176
     1
170
     0
176
     1
171
     0
176
     1
290
     0
176
     1
 93
        1
176
     1
 44
0.0
176
     1
173
     0
176
     1
  0
VISUALSTYLE
  5
34
102
{ACAD_REACTORS
330
2A
102
}
330
2A
100
AcDbVisualStyle
  2
Conceptual
 70
     9
177
     2
291
     0
 71
     3
176
     1
 72
     2
176
     1
 73
     0
176
     1
 90
        0
176
     1
 40
-0.6
176
     1
 41
-30.0
176
     1
 62
     5
 63
     7
421
 16777215
176
     1
 74
     2
176
     1
 91
        2
176
     1
 64
     7
176
     1
 65
   257
176
     1
 75
     1
176
     1
175
     1
176
     1
 42
40.0
176
     1
 92
        8
176
     1
 66
     7
176
     1
 43
1.0
176
     1
 76
     1
176
     1
 77
     6
176
     1
 78
     2
176
     1
 67
     7
176
     1
 79
     3
176
     1
170
     0
176
     1
171
     0
176
     1
290
     0
176
     1
 93
        1
176
     1
 44
0.0
176
     1
173
     0
176
     1
  0
VISUALSTYLE
  5
35
102
{ACAD_REACTORS
330
2A
102
}
330
2A
100
AcDbVisualStyle
  2
Dim
 70
    11
177
     2
291
     1
 71
     2
176
     1
 72
     2
176
     1
 73
     0
176
     1
 90
        0
176
     1
 40
-0.6
176
     1
 41
-30.0
176
     1
 62
     5
 63
     7
421
 16777215
176
     1
 74
     1
176
     1
 91
        4
176
     1
 64
     7
176
     1
 65
   257
176
     1
 75
     1
176
     1
175
     1
176
     1
 42
1.0
176
     1
 92
        8
176
     1
 66
     7
176
     1
 43
1.0
176
     1
 76
     1
176
     1
 77
     6
176
     1
 78
     2
176
     1
 67
     7
176
     1
 79
     5
176
     1
170
     0
176
     1
171
     0
176
     1
290
     0
176
     1
 93
        1
176
     1
 44
-50.0
176
     1
173
     0
176
     1
  0
VISUALSTYLE
  5
39
102
{ACAD_REACTORS
330
2A
102
}
330
2A
100
AcDbVisualStyle
  2
Facepattern
 70
    15
177
     2
291
     1
 71
     2
176
     1
 72
     2
176
     1
 73
     0
176
     1
 90
        0
176
     1
 40
-0.6
176
     1
 41
-30.0
176
     1
 62
     5
 63
     7
421
 16777215
176
     1
 74
     1
176
     1
 91
        4
176
     1
 64
     7
176
     1
 65
   257
176
     1
 75
     1
176
     1
175
     1
176
     1
 42
1.0
176
     1
 92
        8
176
     1
 66
     7
176
     1
 43
1.0
176
     1
 76
     1
176
     1
 77
     6
176
     1
 78
     2
176
     1
 67
     7
176
     1
 79
     5
176
     1
170
     0
176
     1
171
     0
176
     1
290
     0
176
     1
 93
        1
176
     1
 44
0.0
176
     1
173
     0
176
     1
  0
VISUALSTYLE
  5
2B
102
{ACAD_REACTORS
330
2A
102
}
330
2A
100
AcDbVisualStyle
  2
Flat
 70
     0
177
     2
291
     1
 71
     2
176
     1
 72
     1
176
     1
 73
     1
176
     1
 90
        2
176
     1
 40
-0.6
176
     1
 41
30.0
176
     1
 62
     5
 63
     7
421
 16777215
176
     1
 74
     0
176
     1
 91
        4
176
     1
 64
     7
176
     1
 65
   257
176
     1
 75
     1
176
     1
175
     1
176
     1
 42
1.0
176
     1
 92
        8
176
     1
 66
     7
176
     1
 43
1.0
176
     1
 76
     1
176
     1
 77
     6
176
     1
 78
     2
176
     1
 67
     7
176
     1
 79
     5
176
     1
170
     0
176
     1
171
     0
176
     1
290
     0
176
     1
 93
       13
176
     1
 44
0.0
176
     1
173
     0
176
     1
  0
VISUALSTYLE
  5
2C
102
{ACAD_REACTORS
330
2A
102
}
330
2A
100
AcDbVisualStyle
  2
FlatWithEdges
 70
     1
177
     2
291
     1
 71
     2
176
     1
 72
     1
176
     1
 73
     1
176
     1
 90
        2
176
     1
 40
-0.6
176
     1
 41
30.0
176
     1
 62
     5
 63
     7
421
 16777215
176
     1
 74
     1
176
     1
 91
        4
176
     1
 64
     7
176
     1
 65
   257
176
     1
 75
     1
176
     1
175
     1
176
     1
 42
1.0
176
     1
 92
        0
176
     1
 66
   257
176
     1
 43
1.0
176
     1
 76
     1
176
     1
 77
     6
176
     1
 78
     2
176
     1
 67
     7
176
     1
 79
     5
176
     1
170
     0
176
     1
171
     0
176
     1
290
     0
176
     1
 93
       13
176
     1
 44
0.0
176
     1
173
     0
176
     1
  0
VISUALSTYLE
  5
2D
102
{ACAD_REACTORS
330
2A
102
}
330
2A
100
AcDbVisualStyle
  2
Gouraud
 70
     2
177
     2
291
     1
 71
     2
176
     1
 72
     2
176
     1
 73
     1
176
     1
 90
        2
176
     1
 40
-0.6
176
     1
 41
30.0
176
     1
 62
     5
 63
     7
421
 16777215
176
     1
 74
     0
176
     1
 91
        4
176
     1
 64
     7
176
     1
 65
   257
176
     1
 75
     1
176
     1
175
     1
176
     1
 42
1.0
176
     1
 92
        0
176
     1
 66
     7
176
     1
 43
1.0
176
     1
 76
     1
176
     1
 77
     6
176
     1
 78
     2
176
     1
 67
     7
176
     1
 79
     5
176
     1
170
     0
176
     1
171
     0
176
     1
290
     0
176
     1
 93
       13
176
     1
 44
0.0
176
     1
173
     0
176
     1
  0
VISUALSTYLE
  5
2E
102
{ACAD_REACTORS
330
2A
102
}
330
2A
100
AcDbVisualStyle
  2
GouraudWithEdges
 70
     3
177
     2
291
     1
 71
     2
176
     1
 72
     2
176
     1
 73
     1
176
     1
 90
        2
176
     1
 40
-0.6
176
     1
 41
30.0
176
     1
 62
     5
 63
     7
421
 16777215
176
     1
 74
     1
176
     1
 91
        4
176
     1
 64
     7
176
     1
 65
   257
176
     1
 75
     1
176
     1
175
     1
176
     1
 42
1.0
176
     1
 92
        0
176
     1
 66
   257
176
     1
 43
1.0
176
     1
 76
     1
176
     1
 77
     6
176
     1
 78
     2
176
     1
 67
     7
176
     1
 79
     5
176
     1
170
     0
176
     1
171
     0
176
     1
290
     0
176
     1
 93
       13
176
     1
 44
0.0
176
     1
173
     0
176
     1
  0
VISUALSTYLE
  5
38
102
{ACAD_REACTORS
330
2A
102
}
330
2A
100
AcDbVisualStyle
  2
Linepattern
 70
    14
177
     2
291
     1
 71
     2
176
     1
 72
     2
176
     1
 73
     0
176
     1
 90
        0
176
     1
 40
-0.6
176
     1
 41
-30.0
176
     1
 62
     5
 63
     7
421
 16777215
176
     1
 74
     1
176
     1
 91
        4
176
     1
 64
     7
176
     1
 65
   257
176
     1
 75
     7
176
     1
175
     7
176
     1
 42
1.0
176
     1
 92
        8
176
     1
 66
     7
176
     1
 43
1.0
176
     1
 76
     1
176
     1
 77
     6
176
     1
 78
     2
176
     1
 67
     7
176
     1
 79
     5
176
     1
170
     0
176
     1
171
     0
176
     1
290
     0
176
     1
 93
        1
176
     1
 44
0.0
176
     1
173
     0
176
     1
  0
VISUALSTYLE
  5
33
102
{ACAD_REACTORS
330
2A
102
}
330
2A
100
AcDbVisualStyle
  2
Realistic
 70
     8
177
     2
291
     0
 71
     2
176
     1
 72
     2
176
     1
 73
     0
176
     1
 90
        0
176
     1
 40
-0.6
176
     1
 41
-30.0
176
     1
 62
     5
 63
     7
421
 16777215
176
     1
 74
     1
176
     1
 91
        0
176
     1
 64
     7
176
     1
 65
   257
176
     1
 75
     1
176
     1
175
     1
176
     1
 42
1.0
176
     1
 92
        8
176
     1
 66
     8
424
  7895160
176
     1
 43
1.0
176
     1
 76
     1
176
     1
 77
     6
176
     1
 78
     2
176
     1
 67
     7
176
     1
 79
     5
176
     1
170
     0
176
     1
171
     0
176
     1
290
     0
176
     1
 93
       13
176
     1
 44
0.0
176
     1
173
     0
176
     1
  0
VISUALSTYLE
  5
37
102
{ACAD_REACTORS
330
2A
102
}
330
2A
100
AcDbVisualStyle
  2
Thicken
 70
    13
177
     2
291
     1
 71
     2
176
     1
 72
     2
176
     1
 73
     0
176
     1
 90
        0
176
     1
 40
-0.6
176
     1
 41
-30.0
176
     1
 62
     5
 63
     7
421
 16777215
176
     1
 74
     1
176
     1
 91
        4
176
     1
 64
     7
176
     1
 65
   257
176
     1
 75
     1
176
     1
175
     1
176
     1
 42
1.0
176
     1
 92
       12
176
     1
 66
     7
176
     1
 43
1.0
176
     1
 76
     1
176
     1
 77
     6
176
     1
 78
     2
176
     1
 67
     7
176
     1
 79
     5
176
     1
170
     0
176
     1
171
     0
176
     1
290
     0
176
     1
 93
        1
176
     1
 44
0.0
176
     1
173
     0
176
     1
  0
ENDSEC
  0
EOF
