  0
SECTION
  2
HEADER
  9
$ACADVER
  1
AC1024
  9
$ACADMAINTVER
 70
     6
  9
$DWGCODEPAGE
  3
UNDEFINED
  9
$INSBASE
 10
0.0
 20
0.0
 30
0.0
  9
$EXTMIN
 10
1.000000000000000E+20
 20
1.000000000000000E+20
 30
1.000000000000000E+20
  9
$EXTMAX
 10
-1.000000000000000E+20
 20
-1.000000000000000E+20
 30
-1.000000000000000E+20
  9
$LIMMIN
 10
0.0
 20
0.0
  9
$LIMMAX
 10
12.0
 20
9.0
  9
$ORTHOMODE
 70
     0
  9
$REGENMODE
 70
     1
  9
$FILLMODE
 70
     1
  9
$QTEXTMODE
 70
     0
  9
$MIRRTEXT
 70
     1
  9
$LTSCALE
 40
1.0
  9
$ATTMODE
 70
     1
  9
$TEXTSIZE
 40
0.2
  9
$TRACEWID
 40
0.05
  9
$TEXTSTYLE
  7
Standard
  9
$CLAYER
  8
0
  9
$CELTYPE
  6
ByLayer
  9
$CECOLOR
 62
   256
  9
$CELTSCALE
 40
1.0
  9
$DISPSILH
 70
     0
  9
$DIMSCALE
 40
1.0
  9
$DIMASZ
 40
0.18
  9
$DIMEXO
 40
0.0625
  9
$DIMDLI
 40
0.38
  9
$DIMRND
 40
0.0
  9
$DIMDLE
 40
0.0
  9
$DIMEXE
 40
0.18
  9
$DIMTP
 40
0.0
  9
$DIMTM
 40
0.0
  9
$DIMTXT
 40
0.18
  9
$DIMCEN
 40
0.09
  9
$DIMTSZ
 40
0.0
  9
$DIMTOL
 70
     0
  9
$DIMLIM
 70
     0
  9
$DIMTIH
 70
     1
  9
$DIMTOH
 70
     1
  9
$DIMSE1
 70
     0
  9
$DIMSE2
 70
     0
  9
$DIMTAD
 70
     0
  9
$DIMZIN
 70
     0
  9
$DIMBLK
  1

  9
$DIMASO
 70
     1
  9
$DIMSHO
 70
     1
  9
$DIMPOST
  1

  9
$DIMAPOST
  1

  9
$DIMALT
 70
     0
  9
$DIMALTD
 70
     2
  9
$DIMALTF
 40
25.4
  9
$DIMLFAC
 40
1.0
  9
$DIMTOFL
 70
     0
  9
$DIMTVP
 40
0.0
  9
$DIMTIX
 70
     0
  9
$DIMSOXD
 70
     0
  9
$DIMSAH
 70
     0
  9
$DIMBLK1
  1

  9
$DIMBLK2
  1

  9
$DIMSTYLE
  2
Standard
  9
$DIMCLRD
 70
     0
  9
$DIMCLRE
 70
     0
  9
$DIMCLRT
 70
     0
  9
$DIMTFAC
 40
1.0
  9
$DIMGAP
 40
0.09
  9
$DIMJUST
 70
     0
  9
$DIMSD1
 70
     0
  9
$DIMSD2
 70
     0
  9
$DIMTOLJ
 70
     1
  9
$DIMTZIN
 70
     0
  9
$DIMALTZ
 70
     0
  9
$DIMALTTZ
 70
     0
  9
$DIMUPT
 70
     0
  9
$DIMDEC
 70
     4
  9
$DIMTDEC
 70
     4
  9
$DIMALTU
 70
     2
  9
$DIMALTTD
 70
     2
  9
$DIMTXSTY
  7
Standard
  9
$DIMAUNIT
 70
     0
  9
$DIMADEC
 70
     0
  9
$DIMALTRND
 40
0.0
  9
$DIMAZIN
 70
     0
  9
$DIMDSEP
 70
    46
  9
$DIMATFIT
 70
     3
  9
$DIMFRAC
 70
     0
  9
$DIMLDRBLK
  1

  9
$DIMLUNIT
 70
     2
  9
$DIMLWD
 70
    -2
  9
$DIMLWE
 70
    -2
  9
$DIMTMOVE
 70
     0
  9
$DIMFXL
 40
1.0
  9
$DIMFXLON
 70
     0
  9
$DIMJOGANG
 40
0.7853981633974483
  9
$DIMTFILL
 70
     0
  9
$DIMTFILLCLR
 70
     0
  9
$DIMARCSYM
 70
     0
  9
$DIMLTYPE
  6

  9
$DIMLTEX1
  6

  9
$DIMLTEX2
  6

  9
$DIMTXTDIRECTION
 70
     0
  9
$LUNITS
 70
     2
  9
$LUPREC
 70
     4
  9
$SKETCHINC
 40
0.1
  9
$FILLETRAD
 40
0.5
  9
$AUNITS
 70
     0
  9
$AUPREC
 70
     0
  9
$MENU
  1
.
  9
$ELEVATION
 40
0.0
  9
$PELEVATION
 40
0.0
  9
$THICKNESS
 40
0.0
  9
$LIMCHECK
 70
     0
  9
$CHAMFERA
 40
0.5
  9
$CHAMFERB
 40
0.5
  9
$CHAMFERC
 40
1.0
  9
$CHAMFERD
 40
0.0
  9
$SKPOLY
 70
     0
  9
$TDCREATE
 40
2457917.618518519
  9
$TDUCREATE
 40
2457917.243518519
  9
$TDUPDATE
 40
2457917.618518519
  9
$TDUUPDATE
 40
2457917.243518519
  9
$TDINDWG
 40
0.0000000116
  9
$TDUSRTIMER
 40
0.0000000116
  9
$USRTIMER
 70
     1
  9
$ANGBASE
 50
0.0
  9
$ANGDIR
 70
     0
  9
$PDMODE
 70
     0
  9
$PDSIZE
 40
0.0
  9
$PLINEWID
 40
0.0
  9
$SPLFRAME
 70
     0
  9
$SPLINETYPE
 70
     6
  9
$SPLINESEGS
 70
     8
  9
$HANDSEED
  5
D9
  9
$SURFTAB1
 70
     6
  9
$SURFTAB2
 70
     6
  9
$SURFTYPE
 70
     6
  9
$SURFU
 70
     6
  9
$SURFV
 70
     6
  9
$UCSBASE
  2

  9
$UCSNAME
  2

  9
$UCSORG
 10
0.0
 20
0.0
 30
0.0
  9
$UCSXDIR
 10
1.0
 20
0.0
 30
0.0
  9
$UCSYDIR
 10
0.0
 20
1.0
 30
0.0
  9
$UCSORTHOREF
  2

  9
$UCSORTHOVIEW
 70
     0
  9
$UCSORGTOP
 10
0.0
 20
0.0
 30
0.0
  9
$UCSORGBOTTOM
 10
0.0
 20
0.0
 30
0.0
  9
$UCSORGLEFT
 10
0.0
 20
0.0
 30
0.0
  9
$UCSORGRIGHT
 10
0.0
 20
0.0
 30
0.0
  9
$UCSORGFRONT
 10
0.0
 20
0.0
 30
0.0
  9
$UCSORGBACK
 10
0.0
 20
0.0
 30
0.0
  9
$PUCSBASE
  2

  9
$PUCSNAME
  2

  9
$PUCSORG
 10
0.0
 20
0.0
 30
0.0
  9
$PUCSXDIR
 10
1.0
 20
0.0
 30
0.0
  9
$PUCSYDIR
 10
0.0
 20
1.0
 30
0.0
  9
$PUCSORTHOREF
  2

  9
$PUCSORTHOVIEW
 70
     0
  9
$PUCSORGTOP
 10
0.0
 20
0.0
 30
0.0
  9
$PUCSORGBOTTOM
 10
0.0
 20
0.0
 30
0.0
  9
$PUCSORGLEFT
 10
0.0
 20
0.0
 30
0.0
  9
$PUCSORGRIGHT
 10
0.0
 20
0.0
 30
0.0
  9
$PUCSORGFRONT
 10
0.0
 20
0.0
 30
0.0
  9
$PUCSORGBACK
 10
0.0
 20
0.0
 30
0.0
  9
$USERI1
 70
     0
  9
$USERI2
 70
     0
  9
$USERI3
 70
     0
  9
$USERI4
 70
     0
  9
$USERI5
 70
     0
  9
$USERR1
 40
0.0
  9
$USERR2
 40
0.0
  9
$USERR3
 40
0.0
  9
$USERR4
 40
0.0
  9
$USERR5
 40
0.0
  9
$WORLDVIEW
 70
     1
  9
$SHADEDGE
 70
     3
  9
$SHADEDIF
 70
    70
  9
$TILEMODE
 70
     1
  9
$MAXACTVP
 70
    64
  9
$PINSBASE
 10
0.0
 20
0.0
 30
0.0
  9
$PLIMCHECK
 70
     0
  9
$PEXTMIN
 10
1.000000000000000E+20
 20
1.000000000000000E+20
 30
1.000000000000000E+20
  9
$PEXTMAX
 10
-1.000000000000000E+20
 20
-1.000000000000000E+20
 30
-1.000000000000000E+20
  9
$PLIMMIN
 10
0.0
 20
0.0
  9
$PLIMMAX
 10
12.0
 20
9.0
  9
$UNITMODE
 70
     0
  9
$VISRETAIN
 70
     1
  9
$PLINEGEN
 70
     0
  9
$PSLTSCALE
 70
     1
  9
$TREEDEPTH
 70
  3020
  9
$CMLSTYLE
  2
Standard
  9
$CMLJUST
 70
     0
  9
$CMLSCALE
 40
1.0
  9
$PROXYGRAPHICS
 70
     1
  9
$MEASUREMENT
 70
     0
  9
$CELWEIGHT
370
    -1
  9
$ENDCAPS
280
     0
  9
$JOINSTYLE
280
     0
  9
$LWDISPLAY
290
     1
  9
$INSUNITS
 70
     1
  9
$HYPERLINKBASE
  1

  9
$STYLESHEET
  1

  9
$XEDIT
290
     1
  9
$CEPSNTYPE
380
     0
  9
$PSTYLEMODE
290
     1
  9
$FINGERPRINTGUID
  2
{D339A861-C7F4-ED03-AD26-8FC7BB7E3B3B}
  9
$VERSIONGUID
  2
{FAEB1C32-E019-11D5-929B-00C0DF256EC4}
  9
$EXTNAMES
290
     1
  9
$PSVPSCALE
 40
0.0
  9
$OLESTARTUP
290
     0
  9
$SORTENTS
280
   127
  9
$INDEXCTL
280
     0
  9
$HIDETEXT
280
     1
  9
$XCLIPFRAME
280
     2
  9
$HALOGAP
280
     0
  9
$OBSCOLOR
 70
   257
  9
$OBSLTYPE
280
     0
  9
$INTERSECTIONDISPLAY
280
     0
  9
$INTERSECTIONCOLOR
 70
   257
  9
$DIMASSOC
280
     2
  9
$PROJECTNAME
  1

  9
$CAMERADISPLAY
290
     0
  9
$LENSLENGTH
 40
50.0
  9
$CAMERAHEIGHT
 40
0.0
  9
$STEPSPERSEC
 40
2.0
  9
$STEPSIZE
 40
6.0
  9
$3DDWFPREC
 40
2.0
  9
$PSOLWIDTH
 40
0.25
  9
$PSOLHEIGHT
 40
4.0
  9
$LOFTANG1
 40
1.570796326794897
  9
$LOFTANG2
 40
1.570796326794897
  9
$LOFTMAG1
 40
0.0
  9
$LOFTMAG2
 40
0.0
  9
$LOFTPARAM
 70
     7
  9
$LOFTNORMALS
280
     1
  9
$LATITUDE
 40
37.795
  9
$LONGITUDE
 40
-122.394
  9
$NORTHDIRECTION
 40
0.0
  9
$TIMEZONE
 70
 -8000
  9
$LIGHTGLYPHDISPLAY
280
     1
  9
$TILEMODELIGHTSYNCH
280
     1
  9
$CMATERIAL
347
3C
  9
$SOLIDHIST
280
     1
  9
$SHOWHIST
280
     1
  9
$DWFFRAME
280
     2
  9
$DGNFRAME
280
     2
  9
$REALWORLDSCALE
290
     1
  9
$INTERFERECOLOR
 62
   256
  9
$CSHADOW
280
     0
  9
$SHADOWPLANELOCATION
 40
0.0
  0
ENDSEC
  0
SECTION
  2
CLASSES
  0
CLASS
  1
ACDBDICTIONARYWDFLT
  2
AcDbDictionaryWithDefault
  3
ObjectDBX Classes
 90
        0
 91
        4
280
     0
281
     0
  0
CLASS
  1
VISUALSTYLE
  2
AcDbVisualStyle
  3
ObjectDBX Classes
 90
     4095
 91
        4
280
     0
281
     0
  0
CLASS
  1
MATERIAL
  2
AcDbMaterial
  3
ObjectDBX Classes
 90
     1153
 91
        4
280
     0
281
     0
  0
CLASS
  1
SUN
  2
AcDbSun
  3
SCENEOE
 90
     1024
 91
        4
280
     0
281
     0
  0
ENDSEC
  0
SECTION
  2
TABLES
  0
TABLE
  2
VPORT
  5
8
330
0
100
AcDbSymbolTable
 70
     1
  0
VPORT
  5
29
330
8
100
AcDbSymbolTableRecord
100
AcDbViewportTableRecord
  2
*Active
 70
     0
 10
0.0
 20
0.0
 11
1.0
 21
1.0
 12
0.0
 22
0.0
 13
0.0
 23
0.0
 14
0.5
 24
0.5
 15
0.5
 25
0.5
 16
0.0
 26
0.0
 36
1.0
 17
91.00082462281999
 27
-128.4993055234307
 37
0.0
 40
256.9986110468615
 41
0.7081814508812795
 42
50.0
 43
0.0
 44
0.0
 50
0.0
 51
0.0
 71
     0
 72
   100
 73
     1
 74
     3
 75
     0
 76
     0
 77
     0
 78
     0
281
     0
 65
     1
110
0.0
120
0.0
130
0.0
111
1.0
121
0.0
131
0.0
112
0.0
122
1.0
132
0.0
 79
     0
146
0.0
 60
     3
 61
     5
292
     1
282
     1
141
0.0
142
0.0
 63
   250
361
3F
  0
ENDTAB
  0
TABLE
  2
LTYPE
  5
5
330
0
100
AcDbSymbolTable
 70
     1
  0
LTYPE
  5
14
330
5
100
AcDbSymbolTableRecord
100
AcDbLinetypeTableRecord
  2
ByBlock
 70
     0
  3

 72
    65
 73
     0
 40
0.0
  0
LTYPE
  5
15
330
5
100
AcDbSymbolTableRecord
100
AcDbLinetypeTableRecord
  2
ByLayer
 70
     0
  3

 72
    65
 73
     0
 40
0.0
  0
LTYPE
  5
16
330
5
100
AcDbSymbolTableRecord
100
AcDbLinetypeTableRecord
  2
Continuous
 70
     0
  3
Solid line
 72
    65
 73
     0
 40
0.0
  0
ENDTAB
  0
TABLE
  2
LAYER
  5
2
330
0
100
AcDbSymbolTable
 70
     2
  0
LAYER
  5
10
330
2
100
AcDbSymbolTableRecord
100
AcDbLayerTableRecord
  2
0
 70
     0
 62
     7
  6
Continuous
370
    -3
390
F
347
3E
  0
LAYER
  5
40
330
2
100
AcDbSymbolTableRecord
100
AcDbLayerTableRecord
  2
_U+30EC_U+30A4_U+30E4_U+30FC 1
 70
     0
 62
     7
  6
Continuous
370
    -3
390
F
347
3E
  0
ENDTAB
  0
TABLE
  2
STYLE
  5
3
330
0
100
AcDbSymbolTable
 70
     1
  0
STYLE
  5
11
330
3
100
AcDbSymbolTableRecord
100
AcDbTextStyleTableRecord
  2
Standard
 70
     0
 40
0.0
 41
1.0
 50
0.0
 71
     0
 42
0.2
  3
txt
  4

  0
ENDTAB
  0
TABLE
  2
VIEW
  5
6
330
0
100
AcDbSymbolTable
 70
     0
  0
ENDTAB
  0
TABLE
  2
UCS
  5
7
330
0
100
AcDbSymbolTable
 70
     0
  0
ENDTAB
  0
TABLE
  2
APPID
  5
9
330
0
100
AcDbSymbolTable
 70
     1
  0
APPID
  5
12
330
9
100
AcDbSymbolTableRecord
100
AcDbRegAppTableRecord
  2
ACAD
 70
     0
  0
ENDTAB
  0
TABLE
  2
DIMSTYLE
  5
A
330
0
100
AcDbSymbolTable
 70
     1
100
AcDbDimStyleTable
  0
DIMSTYLE
105
27
330
A
100
AcDbSymbolTableRecord
100
AcDbDimStyleTableRecord
  2
Standard
 70
     0
178
     0
340
11
  0
ENDTAB
  0
TABLE
  2
BLOCK_RECORD
  5
1
330
0
100
AcDbSymbolTable
 70
     7
  0
BLOCK_RECORD
  5
1F
330
1
100
AcDbSymbolTableRecord
100
AcDbBlockTableRecord
  2
*Model_Space
340
22
 70
     0
280
     1
281
     0
  0
BLOCK_RECORD
  5
1B
330
1
100
AcDbSymbolTableRecord
100
AcDbBlockTableRecord
  2
*Paper_Space
340
1E
 70
     0
280
     1
281
     0
  0
BLOCK_RECORD
  5
23
330
1
100
AcDbSymbolTableRecord
100
AcDbBlockTableRecord
  2
*Paper_Space0
340
26
 70
     0
280
     1
281
     0
  0
BLOCK_RECORD
  5
7B
330
1
100
AcDbSymbolTableRecord
100
AcDbBlockTableRecord
  2
block 2
340
0
102
{BLKREFS
331
7C
102
}
 70
     0
280
     1
281
     0
  0
BLOCK_RECORD
  5
91
330
1
100
AcDbSymbolTableRecord
100
AcDbBlockTableRecord
  2
block 3
340
0
102
{BLKREFS
331
92
102
}
 70
     0
280
     1
281
     0
  0
BLOCK_RECORD
  5
A5
330
1
100
AcDbSymbolTableRecord
100
AcDbBlockTableRecord
  2
block 4
340
0
102
{BLKREFS
331
A6
102
}
 70
     0
280
     1
281
     0
  0
BLOCK_RECORD
  5
B8
330
1
100
AcDbSymbolTableRecord
100
AcDbBlockTableRecord
  2
block 5
340
0
102
{BLKREFS
331
B9
102
}
 70
     0
280
     1
281
     0
  0
BLOCK_RECORD
  5
BE
330
1
100
AcDbSymbolTableRecord
100
AcDbBlockTableRecord
  2
block 6
340
0
102
{BLKREFS
331
BF
102
}
 70
     0
280
     1
281
     0
  0
BLOCK_RECORD
  5
D1
330
1
100
AcDbSymbolTableRecord
100
AcDbBlockTableRecord
  2
block 7
340
0
102
{BLKREFS
331
D2
102
}
 70
     0
280
     1
281
     0
  0
ENDTAB
  0
ENDSEC
  0
SECTION
  2
BLOCKS
  0
BLOCK
  5
20
330
1F
100
AcDbEntity
  8
0
100
AcDbBlockBegin
  2
*Model_Space
 70
     0
 10
0.0
 20
0.0
 30
0.0
  3
*Model_Space
  1

  0
ENDBLK
  5
21
330
1F
100
AcDbEntity
  8
0
100
AcDbBlockEnd
  0
BLOCK
  5
1C
330
1B
100
AcDbEntity
 67
     1
  8
0
100
AcDbBlockBegin
  2
*Paper_Space
 70
     0
 10
0.0
 20
0.0
 30
0.0
  3
*Paper_Space
  1

  0
ENDBLK
  5
1D
330
1B
100
AcDbEntity
 67
     1
  8
0
100
AcDbBlockEnd
  0
BLOCK
  5
24
330
23
100
AcDbEntity
  8
0
100
AcDbBlockBegin
  2
*Paper_Space0
 70
     0
 10
0.0
 20
0.0
 30
0.0
  3
*Paper_Space0
  1

  0
ENDBLK
  5
25
330
23
100
AcDbEntity
  8
0
100
AcDbBlockEnd
  0
BLOCK
  5
7D
330
7B
100
AcDbEntity
  8
0
100
AcDbBlockBegin
  2
block 2
 70
     0
 10
0.0
 20
0.0
 30
0.0
  3
block 2
  1

  0
SPLINE
  5
7F
330
7B
100
AcDbEntity
  8
_U+30EC_U+30A4_U+30E4_U+30FC 1
370
     0
100
AcDbSpline
210
0.0
220
0.0
230
1.0
 70
    11
 71
     3
 72
    26
 73
    22
 74
     0
 42
0.0000000001
 43
0.0000000001
 12
1.0
 22
0.0
 32
0.0
 13
1.0
 23
0.0
 33
0.0
 40
0.0
 40
0.0
 40
0.0
 40
0.0
 40
1.0
 40
1.0
 40
1.0
 40
2.0
 40
2.0
 40
2.0
 40
3.0
 40
3.0
 40
3.0
 40
4.0
 40
4.0
 40
4.0
 40
5.0
 40
5.0
 40
5.0
 40
6.0
 40
6.0
 40
6.0
 40
7.0
 40
7.0
 40
7.0
 40
7.0
 10
87.9043673825378
 20
-139.0040906770545
 30
0.0
 10
87.9043673825378
 20
-139.0040906770545
 30
0.0
 10
87.9043673825378
 20
-137.899937574032
 30
0.0
 10
87.9043673825378
 20
-137.899937574032
 30
0.0
 10
87.9043673825378
 20
-137.899937574032
 30
0.0
 10
87.55193411439674
 20
-137.899937574032
 30
0.0
 10
87.55193411439674
 20
-137.899937574032
 30
0.0
 10
87.55193411439674
 20
-137.899937574032
 30
0.0
 10
87.55193411439674
 20
-137.7517984681662
 30
0.0
 10
87.55193411439674
 20
-137.7517984681662
 30
0.0
 10
87.90677894937748
 20
-137.7369845575797
 30
0.0
 10
87.95638832436508
 20
-137.5740315411273
 30
0.0
 10
87.98808320282937
 20
-137.459654371017
 30
0.0
 10
87.98808320282937
 20
-137.459654371017
 30
0.0
 10
88.14414602831118
 20
-137.459654371017
 30
0.0
 10
88.14414602831118
 20
-137.459654371017
 30
0.0
 10
88.14414602831118
 20
-137.459654371017
 30
0.0
 10
88.14414602831118
 20
-139.0040906770545
 30
0.0
 10
88.14414602831118
 20
-139.0040906770545
 30
0.0
 10
88.14414602831118
 20
-139.0040906770545
 30
0.0
 10
87.9043673825378
 20
-139.0040906770545
 30
0.0
 10
87.9043673825378
 20
-139.0040906770545
 30
0.0
  0
HATCH
  5
80
330
7B
100
AcDbEntity
  8
_U+30EC_U+30A4_U+30E4_U+30FC 1
 62
   179
420
  2234388
100
AcDbHatch
 10
0.0
 20
0.0
 30
0.0
210
0.0
220
0.0
230
1.0
  2
SOLID
 70
     1
 71
     0
 91
        1
 92
        1
 93
        1
 72
     4
 94
        3
 73
     0
 74
     1
 95
       26
 96
       22
 40
0.0
 40
0.0
 40
0.0
 40
0.0
 40
1.0
 40
1.0
 40
1.0
 40
2.0
 40
2.0
 40
2.0
 40
3.0
 40
3.0
 40
3.0
 40
4.0
 40
4.0
 40
4.0
 40
5.0
 40
5.0
 40
5.0
 40
6.0
 40
6.0
 40
6.0
 40
7.0
 40
7.0
 40
7.0
 40
7.0
 10
87.9043673825378
 20
-139.0040906770545
 10
87.9043673825378
 20
-139.0040906770545
 10
87.9043673825378
 20
-137.899937574032
 10
87.9043673825378
 20
-137.899937574032
 10
87.9043673825378
 20
-137.899937574032
 10
87.55193411439674
 20
-137.899937574032
 10
87.55193411439674
 20
-137.899937574032
 10
87.55193411439674
 20
-137.899937574032
 10
87.55193411439674
 20
-137.7517984681662
 10
87.55193411439674
 20
-137.7517984681662
 10
87.90677894937748
 20
-137.7369845575797
 10
87.95638832436508
 20
-137.5740315411273
 10
87.98808320282937
 20
-137.459654371017
 10
87.98808320282937
 20
-137.459654371017
 10
88.14414602831118
 20
-137.459654371017
 10
88.14414602831118
 20
-137.459654371017
 10
88.14414602831118
 20
-137.459654371017
 10
88.14414602831118
 20
-139.0040906770545
 10
88.14414602831118
 20
-139.0040906770545
 10
88.14414602831118
 20
-139.0040906770545
 10
87.9043673825378
 20
-139.0040906770545
 10
87.9043673825378
 20
-139.0040906770545
 97
        0
 97
        0
 75
     2
 76
     1
 98
        0
  0
SPLINE
  5
81
330
7B
100
AcDbEntity
  8
_U+30EC_U+30A4_U+30E4_U+30FC 1
370
     0
100
AcDbSpline
210
0.0
220
0.0
230
1.0
 70
    11
 71
     3
 72
    29
 73
    25
 74
     0
 42
0.0000000001
 43
0.0000000001
 12
1.0
 22
0.0
 32
0.0
 13
1.0
 23
0.0
 33
0.0
 40
0.0
 40
0.0
 40
0.0
 40
0.0
 40
1.0
 40
1.0
 40
1.0
 40
2.0
 40
2.0
 40
2.0
 40
3.0
 40
3.0
 40
3.0
 40
4.0
 40
4.0
 40
4.0
 40
5.0
 40
5.0
 40
5.0
 40
6.0
 40
6.0
 40
6.0
 40
7.0
 40
7.0
 40
7.0
 40
8.0
 40
8.0
 40
8.0
 40
8.0
 10
89.21419268602979
 20
-139.0547335806877
 30
0.0
 10
88.92928328939963
 20
-139.0547335806877
 30
0.0
 10
88.65815427471047
 20
-138.9172742708263
 30
0.0
 10
88.65815427471047
 20
-138.5682860981704
 30
0.0
 10
88.65815427471047
 20
-138.3123155036164
 30
0.0
 10
88.80973847606145
 20
-138.2172308682235
 30
0.0
 10
88.92273760797765
 20
-138.155908168586
 30
0.0
 10
88.78941241269848
 20
-138.0966525262397
 30
0.0
 10
88.70776364969807
 20
-137.9822753561294
 30
0.0
 10
88.70776364969807
 20
-137.8213893969683
 30
0.0
 10
88.70776364969807
 20
-137.5464707772453
 30
0.0
 10
88.92032604113798
 20
-137.411078524675
 30
0.0
 10
89.21419268602979
 20
-137.411078524675
 30
0.0
 10
89.51736108873177
 20
-137.411078524675
 30
0.0
 10
89.72062172236151
 20
-137.5550835159584
 30
0.0
 10
89.72062172236151
 20
-137.8213893969683
 30
0.0
 10
89.72062172236151
 20
-137.9822753561294
 30
0.0
 10
89.63725041161847
 20
-138.0966525262397
 30
0.0
 10
89.50358070679077
 20
-138.155908168586
 30
0.0
 10
89.59866534218366
 20
-138.2065510722192
 30
0.0
 10
89.76816404005797
 20
-138.3016357076121
 30
0.0
 10
89.76816404005797
 20
-138.5641519835881
 30
0.0
 10
89.76816404005797
 20
-138.9386338628348
 30
0.0
 10
89.46981877103532
 20
-139.0547335806877
 30
0.0
 10
89.21419268602979
 20
-139.0547335806877
 30
0.0
  0
SPLINE
  5
82
330
7B
100
AcDbEntity
  8
_U+30EC_U+30A4_U+30E4_U+30FC 1
370
     0
100
AcDbSpline
210
0.0
220
0.0
230
1.0
 70
    11
 71
     3
 72
    17
 73
    13
 74
     0
 42
0.0000000001
 43
0.0000000001
 12
1.0
 22
0.0
 32
0.0
 13
1.0
 23
0.0
 33
0.0
 40
0.0
 40
0.0
 40
0.0
 40
0.0
 40
1.0
 40
1.0
 40
1.0
 40
2.0
 40
2.0
 40
2.0
 40
3.0
 40
3.0
 40
3.0
 40
4.0
 40
4.0
 40
4.0
 40
4.0
 10
89.21419268602979
 20
-138.2637396572744
 30
0.0
 10
89.06054142738765
 20
-138.2637396572744
 30
0.0
 10
88.89793292048385
 20
-138.3505560635026
 30
0.0
 10
88.89793292048385
 20
-138.5534721875838
 30
0.0
 10
88.89793292048385
 20
-138.7587998785048
 30
0.0
 10
89.03332517305417
 20
-138.8600856857711
 30
0.0
 10
89.21419268602979
 20
-138.8600856857711
 30
0.0
 10
89.41331920507723
 20
-138.8600856857711
 30
0.0
 10
89.53079696112425
 20
-138.7374402864962
 30
0.0
 10
89.53079696112425
 20
-138.5596733594573
 30
0.0
 10
89.53079696112425
 20
-138.3378092102072
 30
0.0
 10
89.35681963911914
 20
-138.2637396572744
 30
0.0
 10
89.21419268602979
 20
-138.2637396572744
 30
0.0
  0
SPLINE
  5
83
330
7B
100
AcDbEntity
  8
_U+30EC_U+30A4_U+30E4_U+30FC 1
370
     0
100
AcDbSpline
210
0.0
220
0.0
230
1.0
 70
    11
 71
     3
 72
    17
 73
    13
 74
     0
 42
0.0000000001
 43
0.0000000001
 12
1.0
 22
0.0
 32
0.0
 13
1.0
 23
0.0
 33
0.0
 40
0.0
 40
0.0
 40
0.0
 40
0.0
 40
1.0
 40
1.0
 40
1.0
 40
2.0
 40
2.0
 40
2.0
 40
3.0
 40
3.0
 40
3.0
 40
4.0
 40
4.0
 40
4.0
 40
4.0
 10
89.21419268602979
 20
-137.6036593623005
 30
0.0
 10
89.03814830673352
 20
-137.6036593623005
 30
0.0
 10
88.94754229547145
 20
-137.6987439976934
 30
0.0
 10
88.94754229547145
 20
-137.8341362502637
 30
0.0
 10
88.94754229547145
 20
-137.9567816495386
 30
0.0
 10
89.02436792479253
 20
-138.0752929342312
 30
0.0
 10
89.21419268602979
 20
-138.0752929342312
 30
0.0
 10
89.40436195681558
 20
-138.0752929342312
 30
0.0
 10
89.48118758613666
 20
-137.9567816495386
 30
0.0
 10
89.48118758613666
 20
-137.8341362502637
 30
0.0
 10
89.48118758613666
 20
-137.6987439976934
 30
0.0
 10
89.38851451758343
 20
-137.6036593623005
 30
0.0
 10
89.21419268602979
 20
-137.6036593623005
 30
0.0
  0
HATCH
  5
84
330
7B
100
AcDbEntity
  8
_U+30EC_U+30A4_U+30E4_U+30FC 1
 62
   179
420
  2234388
100
AcDbHatch
 10
0.0
 20
0.0
 30
0.0
210
0.0
220
0.0
230
1.0
  2
SOLID
 70
     1
 71
     0
 91
        3
 92
        1
 93
        1
 72
     4
 94
        3
 73
     0
 74
     1
 95
       29
 96
       25
 40
0.0
 40
0.0
 40
0.0
 40
0.0
 40
1.0
 40
1.0
 40
1.0
 40
2.0
 40
2.0
 40
2.0
 40
3.0
 40
3.0
 40
3.0
 40
4.0
 40
4.0
 40
4.0
 40
5.0
 40
5.0
 40
5.0
 40
6.0
 40
6.0
 40
6.0
 40
7.0
 40
7.0
 40
7.0
 40
8.0
 40
8.0
 40
8.0
 40
8.0
 10
89.21419268602979
 20
-139.0547335806877
 10
88.92928328939963
 20
-139.0547335806877
 10
88.65815427471047
 20
-138.9172742708263
 10
88.65815427471047
 20
-138.5682860981704
 10
88.65815427471047
 20
-138.3123155036164
 10
88.80973847606145
 20
-138.2172308682235
 10
88.92273760797765
 20
-138.155908168586
 10
88.78941241269848
 20
-138.0966525262397
 10
88.70776364969807
 20
-137.9822753561294
 10
88.70776364969807
 20
-137.8213893969683
 10
88.70776364969807
 20
-137.5464707772453
 10
88.92032604113798
 20
-137.411078524675
 10
89.21419268602979
 20
-137.411078524675
 10
89.51736108873177
 20
-137.411078524675
 10
89.72062172236151
 20
-137.5550835159584
 10
89.72062172236151
 20
-137.8213893969683
 10
89.72062172236151
 20
-137.9822753561294
 10
89.63725041161847
 20
-138.0966525262397
 10
89.50358070679077
 20
-138.155908168586
 10
89.59866534218366
 20
-138.2065510722192
 10
89.76816404005797
 20
-138.3016357076121
 10
89.76816404005797
 20
-138.5641519835881
 10
89.76816404005797
 20
-138.9386338628348
 10
89.46981877103532
 20
-139.0547335806877
 10
89.21419268602979
 20
-139.0547335806877
 97
        0
 97
        0
 92
        1
 93
        1
 72
     4
 94
        3
 73
     0
 74
     1
 95
       17
 96
       13
 40
0.0
 40
0.0
 40
0.0
 40
0.0
 40
1.0
 40
1.0
 40
1.0
 40
2.0
 40
2.0
 40
2.0
 40
3.0
 40
3.0
 40
3.0
 40
4.0
 40
4.0
 40
4.0
 40
4.0
 10
89.21419268602979
 20
-138.2637396572744
 10
89.06054142738765
 20
-138.2637396572744
 10
88.89793292048385
 20
-138.3505560635026
 10
88.89793292048385
 20
-138.5534721875838
 10
88.89793292048385
 20
-138.7587998785048
 10
89.03332517305417
 20
-138.8600856857711
 10
89.21419268602979
 20
-138.8600856857711
 10
89.41331920507723
 20
-138.8600856857711
 10
89.53079696112425
 20
-138.7374402864962
 10
89.53079696112425
 20
-138.5596733594573
 10
89.53079696112425
 20
-138.3378092102072
 10
89.35681963911914
 20
-138.2637396572744
 10
89.21419268602979
 20
-138.2637396572744
 97
        0
 97
        0
 92
        1
 93
        1
 72
     4
 94
        3
 73
     0
 74
     1
 95
       17
 96
       13
 40
0.0
 40
0.0
 40
0.0
 40
0.0
 40
1.0
 40
1.0
 40
1.0
 40
2.0
 40
2.0
 40
2.0
 40
3.0
 40
3.0
 40
3.0
 40
4.0
 40
4.0
 40
4.0
 40
4.0
 10
89.21419268602979
 20
-137.6036593623005
 10
89.03814830673352
 20
-137.6036593623005
 10
88.94754229547145
 20
-137.6987439976934
 10
88.94754229547145
 20
-137.8341362502637
 10
88.94754229547145
 20
-137.9567816495386
 10
89.02436792479253
 20
-138.0752929342312
 10
89.21419268602979
 20
-138.0752929342312
 10
89.40436195681558
 20
-138.0752929342312
 10
89.48118758613666
 20
-137.9567816495386
 10
89.48118758613666
 20
-137.8341362502637
 10
89.48118758613666
 20
-137.6987439976934
 10
89.38851451758343
 20
-137.6036593623005
 10
89.21419268602979
 20
-137.6036593623005
 97
        0
 97
        0
 75
     2
 76
     1
 98
        0
  0
ENDBLK
  5
7E
330
7B
100
AcDbEntity
  8
0
100
AcDbBlockEnd
  0
BLOCK
  5
93
330
91
100
AcDbEntity
  8
0
100
AcDbBlockBegin
  2
block 3
 70
     0
 10
0.0
 20
0.0
 30
0.0
  3
block 3
  1

  0
SPLINE
  5
95
330
91
100
AcDbEntity
  8
_U+30EC_U+30A4_U+30E4_U+30FC 1
370
     0
100
AcDbSpline
210
0.0
220
0.0
230
1.0
 70
    11
 71
     3
 72
    29
 73
    25
 74
     0
 42
0.0000000001
 43
0.0000000001
 12
1.0
 22
0.0
 32
0.0
 13
1.0
 23
0.0
 33
0.0
 40
0.0
 40
0.0
 40
0.0
 40
0.0
 40
1.0
 40
1.0
 40
1.0
 40
2.0
 40
2.0
 40
2.0
 40
3.0
 40
3.0
 40
3.0
 40
4.0
 40
4.0
 40
4.0
 40
5.0
 40
5.0
 40
5.0
 40
6.0
 40
6.0
 40
6.0
 40
7.0
 40
7.0
 40
7.0
 40
8.0
 40
8.0
 40
8.0
 40
8.0
 10
83.6233194777921
 20
-118.4046589873259
 30
0.0
 10
83.33841008116192
 20
-118.4046589873259
 30
0.0
 10
83.0671088116985
 20
-118.2670274226902
 30
0.0
 10
83.0671088116985
 20
-117.9180392500344
 30
0.0
 10
83.0671088116985
 20
-117.6620686554803
 30
0.0
 10
83.21852075827523
 20
-117.5668117653132
 30
0.0
 10
83.33169214496569
 20
-117.5054890656757
 30
0.0
 10
83.19819469491226
 20
-117.4462334233294
 30
0.0
 10
83.11689044146037
 20
-117.3320285079934
 30
0.0
 10
83.11689044146037
 20
-117.1713148036065
 30
0.0
 10
83.11689044146037
 20
-116.8962239291093
 30
0.0
 10
83.32928057812602
 20
-116.760831676539
 30
0.0
 10
83.6233194777921
 20
-116.760831676539
 30
0.0
 10
83.92631562571981
 20
-116.760831676539
 30
0.0
 10
84.12974851412382
 20
-116.9046644130481
 30
0.0
 10
84.12974851412382
 20
-117.1713148036065
 30
0.0
 10
84.12974851412382
 20
-117.3320285079934
 30
0.0
 10
84.04603269383225
 20
-117.4462334233294
 30
0.0
 10
83.91270749855308
 20
-117.5054890656757
 30
0.0
 10
84.00761987917171
 20
-117.5563042240831
 30
0.0
 10
84.177118577046
 20
-117.6515611142503
 30
0.0
 10
84.177118577046
 20
-117.9139051354521
 30
0.0
 10
84.177118577046
 20
-118.2882147599245
 30
0.0
 10
83.87877330802337
 20
-118.4046589873259
 30
0.0
 10
83.6233194777921
 20
-118.4046589873259
 30
0.0
  0
SPLINE
  5
96
330
91
100
AcDbEntity
  8
_U+30EC_U+30A4_U+30E4_U+30FC 1
370
     0
100
AcDbSpline
210
0.0
220
0.0
230
1.0
 70
    11
 71
     3
 72
    17
 73
    13
 74
     0
 42
0.0000000001
 43
0.0000000001
 12
1.0
 22
0.0
 32
0.0
 13
1.0
 23
0.0
 33
0.0
 40
0.0
 40
0.0
 40
0.0
 40
0.0
 40
1.0
 40
1.0
 40
1.0
 40
2.0
 40
2.0
 40
2.0
 40
3.0
 40
3.0
 40
3.0
 40
4.0
 40
4.0
 40
4.0
 40
4.0
 10
83.6233194777921
 20
-117.6134928091383
 30
0.0
 10
83.46949596437568
 20
-117.6134928091383
 30
0.0
 10
83.30671520269763
 20
-117.7001369605923
 30
0.0
 10
83.30671520269763
 20
-117.9032253394478
 30
0.0
 10
83.30671520269763
 20
-118.1083807755944
 30
0.0
 10
83.44245196481647
 20
-118.2100110924093
 30
0.0
 10
83.6233194777921
 20
-118.2100110924093
 30
0.0
 10
83.82227374206526
 20
-118.2100110924093
 30
0.0
 10
83.93975149811229
 20
-118.0873656931344
 30
0.0
 10
83.93975149811229
 20
-117.9095987660955
 30
0.0
 10
83.93975149811229
 20
-117.6873901072969
 30
0.0
 10
83.76577417610717
 20
-117.6134928091383
 30
0.0
 10
83.6233194777921
 20
-117.6134928091383
 30
0.0
  0
SPLINE
  5
97
330
91
100
AcDbEntity
  8
_U+30EC_U+30A4_U+30E4_U+30FC 1
370
     0
100
AcDbSpline
210
0.0
220
0.0
230
1.0
 70
    11
 71
     3
 72
    17
 73
    13
 74
     0
 42
0.0000000001
 43
0.0000000001
 12
1.0
 22
0.0
 32
0.0
 13
1.0
 23
0.0
 33
0.0
 40
0.0
 40
0.0
 40
0.0
 40
0.0
 40
1.0
 40
1.0
 40
1.0
 40
2.0
 40
2.0
 40
2.0
 40
3.0
 40
3.0
 40
3.0
 40
4.0
 40
4.0
 40
4.0
 40
4.0
 10
83.6233194777921
 20
-116.9534125141644
 30
0.0
 10
83.4469305889473
 20
-116.9534125141644
 30
0.0
 10
83.35649683245948
 20
-117.0484971495573
 30
0.0
 10
83.35649683245948
 20
-117.1838894021276
 30
0.0
 10
83.35649683245948
 20
-117.3067070561768
 30
0.0
 10
83.43332246178056
 20
-117.4252183408694
 30
0.0
 10
83.6233194777921
 20
-117.4252183408694
 30
0.0
 10
83.81314423902936
 20
-117.4252183408694
 30
0.0
 10
83.89014212312469
 20
-117.3067070561768
 30
0.0
 10
83.89014212312469
 20
-117.1838894021276
 30
0.0
 10
83.89014212312469
 20
-117.0484971495573
 30
0.0
 10
83.79729679979721
 20
-116.9534125141644
 30
0.0
 10
83.6233194777921
 20
-116.9534125141644
 30
0.0
  0
HATCH
  5
98
330
91
100
AcDbEntity
  8
_U+30EC_U+30A4_U+30E4_U+30FC 1
 62
   179
420
  2234388
100
AcDbHatch
 10
0.0
 20
0.0
 30
0.0
210
0.0
220
0.0
230
1.0
  2
SOLID
 70
     1
 71
     0
 91
        3
 92
        1
 93
        1
 72
     4
 94
        3
 73
     0
 74
     1
 95
       29
 96
       25
 40
0.0
 40
0.0
 40
0.0
 40
0.0
 40
1.0
 40
1.0
 40
1.0
 40
2.0
 40
2.0
 40
2.0
 40
3.0
 40
3.0
 40
3.0
 40
4.0
 40
4.0
 40
4.0
 40
5.0
 40
5.0
 40
5.0
 40
6.0
 40
6.0
 40
6.0
 40
7.0
 40
7.0
 40
7.0
 40
8.0
 40
8.0
 40
8.0
 40
8.0
 10
83.6233194777921
 20
-118.4046589873259
 10
83.33841008116192
 20
-118.4046589873259
 10
83.0671088116985
 20
-118.2670274226902
 10
83.0671088116985
 20
-117.9180392500344
 10
83.0671088116985
 20
-117.6620686554803
 10
83.21852075827523
 20
-117.5668117653132
 10
83.33169214496569
 20
-117.5054890656757
 10
83.19819469491226
 20
-117.4462334233294
 10
83.11689044146037
 20
-117.3320285079934
 10
83.11689044146037
 20
-117.1713148036065
 10
83.11689044146037
 20
-116.8962239291093
 10
83.32928057812602
 20
-116.760831676539
 10
83.6233194777921
 20
-116.760831676539
 10
83.92631562571981
 20
-116.760831676539
 10
84.12974851412382
 20
-116.9046644130481
 10
84.12974851412382
 20
-117.1713148036065
 10
84.12974851412382
 20
-117.3320285079934
 10
84.04603269383225
 20
-117.4462334233294
 10
83.91270749855308
 20
-117.5054890656757
 10
84.00761987917171
 20
-117.5563042240831
 10
84.177118577046
 20
-117.6515611142503
 10
84.177118577046
 20
-117.9139051354521
 10
84.177118577046
 20
-118.2882147599245
 10
83.87877330802337
 20
-118.4046589873259
 10
83.6233194777921
 20
-118.4046589873259
 97
        0
 97
        0
 92
        1
 93
        1
 72
     4
 94
        3
 73
     0
 74
     1
 95
       17
 96
       13
 40
0.0
 40
0.0
 40
0.0
 40
0.0
 40
1.0
 40
1.0
 40
1.0
 40
2.0
 40
2.0
 40
2.0
 40
3.0
 40
3.0
 40
3.0
 40
4.0
 40
4.0
 40
4.0
 40
4.0
 10
83.6233194777921
 20
-117.6134928091383
 10
83.46949596437568
 20
-117.6134928091383
 10
83.30671520269763
 20
-117.7001369605923
 10
83.30671520269763
 20
-117.9032253394478
 10
83.30671520269763
 20
-118.1083807755944
 10
83.44245196481647
 20
-118.2100110924093
 10
83.6233194777921
 20
-118.2100110924093
 10
83.82227374206526
 20
-118.2100110924093
 10
83.93975149811229
 20
-118.0873656931344
 10
83.93975149811229
 20
-117.9095987660955
 10
83.93975149811229
 20
-117.6873901072969
 10
83.76577417610717
 20
-117.6134928091383
 10
83.6233194777921
 20
-117.6134928091383
 97
        0
 97
        0
 92
        1
 93
        1
 72
     4
 94
        3
 73
     0
 74
     1
 95
       17
 96
       13
 40
0.0
 40
0.0
 40
0.0
 40
0.0
 40
1.0
 40
1.0
 40
1.0
 40
2.0
 40
2.0
 40
2.0
 40
3.0
 40
3.0
 40
3.0
 40
4.0
 40
4.0
 40
4.0
 40
4.0
 10
83.6233194777921
 20
-116.9534125141644
 10
83.4469305889473
 20
-116.9534125141644
 10
83.35649683245948
 20
-117.0484971495573
 10
83.35649683245948
 20
-117.1838894021276
 10
83.35649683245948
 20
-117.3067070561768
 10
83.43332246178056
 20
-117.4252183408694
 10
83.6233194777921
 20
-117.4252183408694
 10
83.81314423902936
 20
-117.4252183408694
 10
83.89014212312469
 20
-117.3067070561768
 10
83.89014212312469
 20
-117.1838894021276
 10
83.89014212312469
 20
-117.0484971495573
 10
83.79729679979721
 20
-116.9534125141644
 10
83.6233194777921
 20
-116.9534125141644
 97
        0
 97
        0
 75
     2
 76
     1
 98
        0
  0
ENDBLK
  5
94
330
91
100
AcDbEntity
  8
0
100
AcDbBlockEnd
  0
BLOCK
  5
A7
330
A5
100
AcDbEntity
  8
0
100
AcDbBlockBegin
  2
block 4
 70
     0
 10
0.0
 20
0.0
 30
0.0
  3
block 4
  1

  0
SPLINE
  5
A9
330
A5
100
AcDbEntity
  8
_U+30EC_U+30A4_U+30E4_U+30FC 1
370
     0
100
AcDbSpline
210
0.0
220
0.0
230
1.0
 70
    11
 71
     3
 72
    26
 73
    22
 74
     0
 42
0.0000000001
 43
0.0000000001
 12
1.0
 22
0.0
 32
0.0
 13
1.0
 23
0.0
 33
0.0
 40
0.0
 40
0.0
 40
0.0
 40
0.0
 40
1.0
 40
1.0
 40
1.0
 40
2.0
 40
2.0
 40
2.0
 40
3.0
 40
3.0
 40
3.0
 40
4.0
 40
4.0
 40
4.0
 40
5.0
 40
5.0
 40
5.0
 40
6.0
 40
6.0
 40
6.0
 40
7.0
 40
7.0
 40
7.0
 40
7.0
 10
100.5092827439699
 20
-130.6948648761804
 30
0.0
 10
100.5092827439699
 20
-130.6948648761804
 30
0.0
 10
99.40512964094734
 20
-130.6948648761804
 30
0.0
 10
99.40512964094734
 20
-130.6948648761804
 30
0.0
 10
99.40512964094734
 20
-130.6948648761804
 30
0.0
 10
99.40512964094734
 20
-131.0472981443215
 30
0.0
 10
99.40512964094734
 20
-131.0472981443215
 30
0.0
 10
99.40512964094734
 20
-131.0472981443215
 30
0.0
 10
99.25699053508158
 20
-131.0472981443215
 30
0.0
 10
99.25699053508158
 20
-131.0472981443215
 30
0.0
 10
99.24217662449502
 20
-130.6924533093408
 30
0.0
 10
99.0792236080427
 20
-130.6428439343532
 30
0.0
 10
98.96484643793241
 20
-130.6111490558889
 30
0.0
 10
98.96484643793241
 20
-130.6111490558889
 30
0.0
 10
98.96484643793241
 20
-130.4550862304071
 30
0.0
 10
98.96484643793241
 20
-130.4550862304071
 30
0.0
 10
98.96484643793241
 20
-130.4550862304071
 30
0.0
 10
100.5092827439699
 20
-130.4550862304071
 30
0.0
 10
100.5092827439699
 20
-130.4550862304071
 30
0.0
 10
100.5092827439699
 20
-130.4550862304071
 30
0.0
 10
100.5092827439699
 20
-130.6948648761804
 30
0.0
 10
100.5092827439699
 20
-130.6948648761804
 30
0.0
  0
HATCH
  5
AA
330
A5
100
AcDbEntity
  8
_U+30EC_U+30A4_U+30E4_U+30FC 1
 62
   179
420
  2234388
100
AcDbHatch
 10
0.0
 20
0.0
 30
0.0
210
0.0
220
0.0
230
1.0
  2
SOLID
 70
     1
 71
     0
 91
        1
 92
        1
 93
        1
 72
     4
 94
        3
 73
     0
 74
     1
 95
       26
 96
       22
 40
0.0
 40
0.0
 40
0.0
 40
0.0
 40
1.0
 40
1.0
 40
1.0
 40
2.0
 40
2.0
 40
2.0
 40
3.0
 40
3.0
 40
3.0
 40
4.0
 40
4.0
 40
4.0
 40
5.0
 40
5.0
 40
5.0
 40
6.0
 40
6.0
 40
6.0
 40
7.0
 40
7.0
 40
7.0
 40
7.0
 10
100.5092827439699
 20
-130.6948648761804
 10
100.5092827439699
 20
-130.6948648761804
 10
99.40512964094734
 20
-130.6948648761804
 10
99.40512964094734
 20
-130.6948648761804
 10
99.40512964094734
 20
-130.6948648761804
 10
99.40512964094734
 20
-131.0472981443215
 10
99.40512964094734
 20
-131.0472981443215
 10
99.40512964094734
 20
-131.0472981443215
 10
99.25699053508158
 20
-131.0472981443215
 10
99.25699053508158
 20
-131.0472981443215
 10
99.24217662449502
 20
-130.6924533093408
 10
99.0792236080427
 20
-130.6428439343532
 10
98.96484643793241
 20
-130.6111490558889
 10
98.96484643793241
 20
-130.6111490558889
 10
98.96484643793241
 20
-130.4550862304071
 10
98.96484643793241
 20
-130.4550862304071
 10
98.96484643793241
 20
-130.4550862304071
 10
100.5092827439699
 20
-130.4550862304071
 10
100.5092827439699
 20
-130.4550862304071
 10
100.5092827439699
 20
-130.4550862304071
 10
100.5092827439699
 20
-130.6948648761804
 10
100.5092827439699
 20
-130.6948648761804
 97
        0
 97
        0
 75
     2
 76
     1
 98
        0
  0
SPLINE
  5
AB
330
A5
100
AcDbEntity
  8
_U+30EC_U+30A4_U+30E4_U+30FC 1
370
     0
100
AcDbSpline
210
0.0
220
0.0
230
1.0
 70
    11
 71
     3
 72
    29
 73
    25
 74
     0
 42
0.0000000001
 43
0.0000000001
 12
1.0
 22
0.0
 32
0.0
 13
1.0
 23
0.0
 33
0.0
 40
0.0
 40
0.0
 40
0.0
 40
0.0
 40
1.0
 40
1.0
 40
1.0
 40
2.0
 40
2.0
 40
2.0
 40
3.0
 40
3.0
 40
3.0
 40
4.0
 40
4.0
 40
4.0
 40
5.0
 40
5.0
 40
5.0
 40
6.0
 40
6.0
 40
6.0
 40
7.0
 40
7.0
 40
7.0
 40
8.0
 40
8.0
 40
8.0
 40
8.0
 10
100.331515816931
 20
-128.9599147898086
 30
0.0
 10
100.5409776224342
 20
-129.0753254885645
 30
0.0
 10
100.5599256476031
 20
-129.2606716256709
 30
0.0
 10
100.5599256476031
 20
-129.3850395726885
 30
0.0
 10
100.5599256476031
 20
-129.5566053278539
 30
0.0
 10
100.5134168585522
 20
-129.7081895292049
 30
0.0
 10
100.331515816931
 20
-129.8098198460198
 30
0.0
 10
100.1368679220144
 20
-129.9207519206448
 30
0.0
 10
99.89984535262921
 20
-129.9410779840078
 30
0.0
 10
99.73723684572542
 20
-129.9410779840078
 30
0.0
 10
99.59323185444198
 20
-129.9410779840078
 30
0.0
 10
99.34139537447021
 20
-129.922818977936
 30
0.0
 10
99.1426133649713
 20
-129.8098198460198
 30
0.0
 10
98.93969724089008
 20
-129.6947536568124
 30
0.0
 10
98.91627059159038
 20
-129.5228433920985
 30
0.0
 10
98.91627059159038
 20
-129.3850395726885
 30
0.0
 10
98.91627059159038
 20
-129.2151963652657
 30
0.0
 10
98.96071232335011
 20
-129.0615451066235
 30
0.0
 10
99.1426133649713
 20
-128.9599147898086
 30
0.0
 10
99.33519420259677
 20
-128.8534613393144
 30
0.0
 10
99.56360403326883
 20
-128.8286566518206
 30
0.0
 10
99.73723684572542
 20
-128.8286566518206
 30
0.0
 10
99.90845809134234
 20
-128.8286566518206
 30
0.0
 10
100.1389349793055
 20
-128.8513942820233
 30
0.0
 10
100.331515816931
 20
-128.9599147898086
 30
0.0
  0
SPLINE
  5
AC
330
A5
100
AcDbEntity
  8
_U+30EC_U+30A4_U+30E4_U+30FC 1
370
     0
100
AcDbSpline
210
0.0
220
0.0
230
1.0
 70
    11
 71
     3
 72
    17
 73
    13
 74
     0
 42
0.0000000001
 43
0.0000000001
 12
1.0
 22
0.0
 32
0.0
 13
1.0
 23
0.0
 33
0.0
 40
0.0
 40
0.0
 40
0.0
 40
0.0
 40
1.0
 40
1.0
 40
1.0
 40
2.0
 40
2.0
 40
2.0
 40
3.0
 40
3.0
 40
3.0
 40
4.0
 40
4.0
 40
4.0
 40
4.0
 10
99.10885142921585
 20
-129.3850395726885
 30
0.0
 10
99.10885142921585
 20
-129.6516899632468
 30
0.0
 10
99.39238278765191
 20
-129.7012993382344
 30
0.0
 10
99.73723684572542
 20
-129.7012993382344
 30
0.0
 10
100.0565971972081
 20
-129.7012993382344
 30
0.0
 10
100.3652777526865
 20
-129.6630587783481
 30
0.0
 10
100.3652777526865
 20
-129.3850395726885
 30
0.0
 10
100.3652777526865
 20
-129.1204562394213
 30
0.0
 10
100.0841579610901
 20
-129.068435297594
 30
0.0
 10
99.73723684572542
 20
-129.068435297594
 30
0.0
 10
99.41753198469424
 20
-129.068435297594
 30
0.0
 10
99.10885142921585
 20
-129.10908742432
 30
0.0
 10
99.10885142921585
 20
-129.3850395726885
 30
0.0
  0
HATCH
  5
AD
330
A5
100
AcDbEntity
  8
_U+30EC_U+30A4_U+30E4_U+30FC 1
 62
   179
420
  2234388
100
AcDbHatch
 10
0.0
 20
0.0
 30
0.0
210
0.0
220
0.0
230
1.0
  2
SOLID
 70
     1
 71
     0
 91
        2
 92
        1
 93
        1
 72
     4
 94
        3
 73
     0
 74
     1
 95
       29
 96
       25
 40
0.0
 40
0.0
 40
0.0
 40
0.0
 40
1.0
 40
1.0
 40
1.0
 40
2.0
 40
2.0
 40
2.0
 40
3.0
 40
3.0
 40
3.0
 40
4.0
 40
4.0
 40
4.0
 40
5.0
 40
5.0
 40
5.0
 40
6.0
 40
6.0
 40
6.0
 40
7.0
 40
7.0
 40
7.0
 40
8.0
 40
8.0
 40
8.0
 40
8.0
 10
100.331515816931
 20
-128.9599147898086
 10
100.5409776224342
 20
-129.0753254885645
 10
100.5599256476031
 20
-129.2606716256709
 10
100.5599256476031
 20
-129.3850395726885
 10
100.5599256476031
 20
-129.5566053278539
 10
100.5134168585522
 20
-129.7081895292049
 10
100.331515816931
 20
-129.8098198460198
 10
100.1368679220144
 20
-129.9207519206448
 10
99.89984535262921
 20
-129.9410779840078
 10
99.73723684572542
 20
-129.9410779840078
 10
99.59323185444198
 20
-129.9410779840078
 10
99.34139537447021
 20
-129.922818977936
 10
99.1426133649713
 20
-129.8098198460198
 10
98.93969724089008
 20
-129.6947536568124
 10
98.91627059159038
 20
-129.5228433920985
 10
98.91627059159038
 20
-129.3850395726885
 10
98.91627059159038
 20
-129.2151963652657
 10
98.96071232335011
 20
-129.0615451066235
 10
99.1426133649713
 20
-128.9599147898086
 10
99.33519420259677
 20
-128.8534613393144
 10
99.56360403326883
 20
-128.8286566518206
 10
99.73723684572542
 20
-128.8286566518206
 10
99.90845809134234
 20
-128.8286566518206
 10
100.1389349793055
 20
-128.8513942820233
 10
100.331515816931
 20
-128.9599147898086
 97
        0
 97
        0
 92
        1
 93
        1
 72
     4
 94
        3
 73
     0
 74
     1
 95
       17
 96
       13
 40
0.0
 40
0.0
 40
0.0
 40
0.0
 40
1.0
 40
1.0
 40
1.0
 40
2.0
 40
2.0
 40
2.0
 40
3.0
 40
3.0
 40
3.0
 40
4.0
 40
4.0
 40
4.0
 40
4.0
 10
99.10885142921585
 20
-129.3850395726885
 10
99.10885142921585
 20
-129.6516899632468
 10
99.39238278765191
 20
-129.7012993382344
 10
99.73723684572542
 20
-129.7012993382344
 10
100.0565971972081
 20
-129.7012993382344
 10
100.3652777526865
 20
-129.6630587783481
 10
100.3652777526865
 20
-129.3850395726885
 10
100.3652777526865
 20
-129.1204562394213
 10
100.0841579610901
 20
-129.068435297594
 10
99.73723684572542
 20
-129.068435297594
 10
99.41753198469424
 20
-129.068435297594
 10
99.10885142921585
 20
-129.10908742432
 10
99.10885142921585
 20
-129.3850395726885
 97
        0
 97
        0
 75
     2
 76
     1
 98
        0
  0
POLYLINE
  5
AE
330
A5
100
AcDbEntity
  8
_U+30EC_U+30A4_U+30E4_U+30FC 1
370
     0
100
AcDb2dPolyline
 66
     1
 10
0.0
 20
0.0
 30
0.0
  0
VERTEX
  5
AF
330
AE
100
AcDbEntity
  8
_U+30EC_U+30A4_U+30E4_U+30FC 1
370
     0
100
AcDbVertex
100
AcDb2dVertex
 10
100.5092827439699
 20
-128.5974907447604
 30
0.0
  0
VERTEX
  5
B0
330
AE
100
AcDbEntity
  8
_U+30EC_U+30A4_U+30E4_U+30FC 1
370
     0
100
AcDbVertex
100
AcDb2dVertex
 10
100.2574462639981
 20
-128.5974907447604
 30
0.0
  0
VERTEX
  5
B1
330
AE
100
AcDbEntity
  8
_U+30EC_U+30A4_U+30E4_U+30FC 1
370
     0
100
AcDbVertex
100
AcDb2dVertex
 10
100.2574462639981
 20
-128.3284287873624
 30
0.0
  0
VERTEX
  5
B2
330
AE
100
AcDbEntity
  8
_U+30EC_U+30A4_U+30E4_U+30FC 1
370
     0
100
AcDbVertex
100
AcDb2dVertex
 10
100.5092827439699
 20
-128.3284287873624
 30
0.0
  0
VERTEX
  5
B3
330
AE
100
AcDbEntity
  8
_U+30EC_U+30A4_U+30E4_U+30FC 1
370
     0
100
AcDbVertex
100
AcDb2dVertex
 10
100.5092827439699
 20
-128.5974907447604
 30
0.0
  0
SEQEND
  5
B4
330
AE
100
AcDbEntity
  8
_U+30EC_U+30A4_U+30E4_U+30FC 1
370
     0
  0
HATCH
  5
B5
330
A5
100
AcDbEntity
  8
_U+30EC_U+30A4_U+30E4_U+30FC 1
 62
   179
420
  2234388
100
AcDbHatch
 10
0.0
 20
0.0
 30
0.0
210
0.0
220
0.0
230
1.0
  2
SOLID
 70
     1
 71
     0
 91
        1
 92
        1
 93
        4
 72
     1
 10
100.5092827439699
 20
-128.5974907447604
 11
100.2574462639981
 21
-128.5974907447604
 72
     1
 10
100.2574462639981
 20
-128.5974907447604
 11
100.2574462639981
 21
-128.3284287873624
 72
     1
 10
100.2574462639981
 20
-128.3284287873624
 11
100.5092827439699
 21
-128.3284287873624
 72
     1
 10
100.5092827439699
 20
-128.3284287873624
 11
100.5092827439699
 21
-128.5974907447604
 97
        0
 75
     2
 76
     1
 98
        0
  0
SPLINE
  5
B6
330
A5
100
AcDbEntity
  8
_U+30EC_U+30A4_U+30E4_U+30FC 1
370
     0
100
AcDbSpline
210
0.0
220
0.0
230
1.0
 70
    11
 71
     3
 72
    53
 73
    49
 74
     0
 42
0.0000000001
 43
0.0000000001
 12
1.0
 22
0.0
 32
0.0
 13
1.0
 23
0.0
 33
0.0
 40
0.0
 40
0.0
 40
0.0
 40
0.0
 40
1.0
 40
1.0
 40
1.0
 40
2.0
 40
2.0
 40
2.0
 40
3.0
 40
3.0
 40
3.0
 40
4.0
 40
4.0
 40
4.0
 40
5.0
 40
5.0
 40
5.0
 40
6.0
 40
6.0
 40
6.0
 40
7.0
 40
7.0
 40
7.0
 40
8.0
 40
8.0
 40
8.0
 40
9.0
 40
9.0
 40
9.0
 40
10.0
 40
10.0
 40
10.0
 40
11.0
 40
11.0
 40
11.0
 40
12.0
 40
12.0
 40
12.0
 40
13.0
 40
13.0
 40
13.0
 40
14.0
 40
14.0
 40
14.0
 40
15.0
 40
15.0
 40
15.0
 40
16.0
 40
16.0
 40
16.0
 40
16.0
 10
100.5599256476031
 20
-127.5618950418943
 30
0.0
 10
100.5599256476031
 20
-127.6456108621858
 30
0.0
 10
100.5430446797254
 20
-127.7537868604227
 30
0.0
 10
100.4796549227968
 20
-127.8626518777566
 30
0.0
 10
100.3697563768173
 20
-128.047998014863
 30
0.0
 10
100.2384982388293
 20
-128.0703911355171
 30
0.0
 10
100.1306667501409
 20
-128.0907171988801
 30
0.0
 10
100.1306667501409
 20
-128.0907171988801
 30
0.0
 10
100.1306667501409
 20
-127.8533501199464
 30
0.0
 10
100.1306667501409
 20
-127.8533501199464
 30
0.0
 10
100.3294487596399
 20
-127.7947834966971
 30
0.0
 10
100.359076580813
 20
-127.6590467345783
 30
0.0
 10
100.359076580813
 20
-127.5594834750546
 30
0.0
 10
100.359076580813
 20
-127.4103108405433
 30
0.0
 10
100.2595133212893
 20
-127.2473578240909
 30
0.0
 10
100.0269693760349
 20
-127.2473578240909
 30
0.0
 10
99.77099878148087
 20
-127.2473578240909
 30
0.0
 10
99.7010633431303
 20
-127.4395941521679
 30
0.0
 10
99.7010633431303
 20
-127.5684407233162
 30
0.0
 10
99.7010633431303
 20
-127.6025471686202
 30
0.0
 10
99.7010633431303
 20
-127.7537868604227
 30
0.0
 10
99.83025442382716
 20
-127.8488714958156
 30
0.0
 10
99.83025442382716
 20
-127.8488714958156
 30
0.0
 10
99.81130639865829
 20
-128.0366291997617
 30
0.0
 10
99.81130639865829
 20
-128.0366291997617
 30
0.0
 10
99.81130639865829
 20
-128.0366291997617
 30
0.0
 10
98.96484643793241
 20
-127.9077826286133
 30
0.0
 10
98.96484643793241
 20
-127.9077826286133
 30
0.0
 10
98.96484643793241
 20
-127.9077826286133
 30
0.0
 10
98.96484643793241
 20
-127.0757920689255
 30
0.0
 10
98.96484643793241
 20
-127.0757920689255
 30
0.0
 10
98.96484643793241
 20
-127.0757920689255
 30
0.0
 10
99.15949433284902
 20
-127.0757920689255
 30
0.0
 10
99.15949433284902
 20
-127.0757920689255
 30
0.0
 10
99.15949433284902
 20
-127.0757920689255
 30
0.0
 10
99.15949433284902
 20
-127.7334607970597
 30
0.0
 10
99.15949433284902
 20
-127.7334607970597
 30
0.0
 10
99.15949433284902
 20
-127.7334607970597
 30
0.0
 10
99.5825520584377
 20
-127.8037407449588
 30
0.0
 10
99.5825520584377
 20
-127.8037407449588
 30
0.0
 10
99.54879012268225
 20
-127.738283930739
 30
0.0
 10
99.50848250550483
 20
-127.6500894863166
 30
0.0
 10
99.50848250550483
 20
-127.5233099724595
 30
0.0
 10
99.50848250550483
 20
-127.2521809577703
 30
0.0
 10
99.69486217125684
 20
-126.9989664396044
 30
0.0
 10
100.0080213508661
 20
-126.9989664396044
 30
0.0
 10
100.3253146450576
 20
-126.9989664396044
 30
0.0
 10
100.5599256476031
 20
-127.2384005758293
 30
0.0
 10
100.5599256476031
 20
-127.5618950418943
 30
0.0
  0
HATCH
  5
B7
330
A5
100
AcDbEntity
  8
_U+30EC_U+30A4_U+30E4_U+30FC 1
 62
   179
420
  2234388
100
AcDbHatch
 10
0.0
 20
0.0
 30
0.0
210
0.0
220
0.0
230
1.0
  2
SOLID
 70
     1
 71
     0
 91
        1
 92
        1
 93
        1
 72
     4
 94
        3
 73
     0
 74
     1
 95
       53
 96
       49
 40
0.0
 40
0.0
 40
0.0
 40
0.0
 40
1.0
 40
1.0
 40
1.0
 40
2.0
 40
2.0
 40
2.0
 40
3.0
 40
3.0
 40
3.0
 40
4.0
 40
4.0
 40
4.0
 40
5.0
 40
5.0
 40
5.0
 40
6.0
 40
6.0
 40
6.0
 40
7.0
 40
7.0
 40
7.0
 40
8.0
 40
8.0
 40
8.0
 40
9.0
 40
9.0
 40
9.0
 40
10.0
 40
10.0
 40
10.0
 40
11.0
 40
11.0
 40
11.0
 40
12.0
 40
12.0
 40
12.0
 40
13.0
 40
13.0
 40
13.0
 40
14.0
 40
14.0
 40
14.0
 40
15.0
 40
15.0
 40
15.0
 40
16.0
 40
16.0
 40
16.0
 40
16.0
 10
100.5599256476031
 20
-127.5618950418943
 10
100.5599256476031
 20
-127.6456108621858
 10
100.5430446797254
 20
-127.7537868604227
 10
100.4796549227968
 20
-127.8626518777566
 10
100.3697563768173
 20
-128.047998014863
 10
100.2384982388293
 20
-128.0703911355171
 10
100.1306667501409
 20
-128.0907171988801
 10
100.1306667501409
 20
-128.0907171988801
 10
100.1306667501409
 20
-127.8533501199464
 10
100.1306667501409
 20
-127.8533501199464
 10
100.3294487596399
 20
-127.7947834966971
 10
100.359076580813
 20
-127.6590467345783
 10
100.359076580813
 20
-127.5594834750546
 10
100.359076580813
 20
-127.4103108405433
 10
100.2595133212893
 20
-127.2473578240909
 10
100.0269693760349
 20
-127.2473578240909
 10
99.77099878148087
 20
-127.2473578240909
 10
99.7010633431303
 20
-127.4395941521679
 10
99.7010633431303
 20
-127.5684407233162
 10
99.7010633431303
 20
-127.6025471686202
 10
99.7010633431303
 20
-127.7537868604227
 10
99.83025442382716
 20
-127.8488714958156
 10
99.83025442382716
 20
-127.8488714958156
 10
99.81130639865829
 20
-128.0366291997617
 10
99.81130639865829
 20
-128.0366291997617
 10
99.81130639865829
 20
-128.0366291997617
 10
98.96484643793241
 20
-127.9077826286133
 10
98.96484643793241
 20
-127.9077826286133
 10
98.96484643793241
 20
-127.9077826286133
 10
98.96484643793241
 20
-127.0757920689255
 10
98.96484643793241
 20
-127.0757920689255
 10
98.96484643793241
 20
-127.0757920689255
 10
99.15949433284902
 20
-127.0757920689255
 10
99.15949433284902
 20
-127.0757920689255
 10
99.15949433284902
 20
-127.0757920689255
 10
99.15949433284902
 20
-127.7334607970597
 10
99.15949433284902
 20
-127.7334607970597
 10
99.15949433284902
 20
-127.7334607970597
 10
99.5825520584377
 20
-127.8037407449588
 10
99.5825520584377
 20
-127.8037407449588
 10
99.54879012268225
 20
-127.738283930739
 10
99.50848250550483
 20
-127.6500894863166
 10
99.50848250550483
 20
-127.5233099724595
 10
99.50848250550483
 20
-127.2521809577703
 10
99.69486217125684
 20
-126.9989664396044
 10
100.0080213508661
 20
-126.9989664396044
 10
100.3253146450576
 20
-126.9989664396044
 10
100.5599256476031
 20
-127.2384005758293
 10
100.5599256476031
 20
-127.5618950418943
 97
        0
 97
        0
 75
     2
 76
     1
 98
        0
  0
ENDBLK
  5
A8
330
A5
100
AcDbEntity
  8
0
100
AcDbBlockEnd
  0
BLOCK
  5
BA
330
B8
100
AcDbEntity
  8
0
100
AcDbBlockBegin
  2
block 5
 70
     0
 10
0.0
 20
0.0
 30
0.0
  3
block 5
  1

  0
SPLINE
  5
BC
330
B8
100
AcDbEntity
  8
_U+30EC_U+30A4_U+30E4_U+30FC 1
 62
   179
420
  2234388
370
     9
100
AcDbSpline
210
0.0
220
0.0
230
1.0
 70
    11
 71
     3
 72
    17
 73
    13
 74
     0
 42
0.0000000001
 43
0.0000000001
 12
1.0
 22
0.0
 32
0.0
 13
1.0
 23
0.0
 33
0.0
 40
0.0
 40
0.0
 40
0.0
 40
0.0
 40
1.0
 40
1.0
 40
1.0
 40
2.0
 40
2.0
 40
2.0
 40
3.0
 40
3.0
 40
3.0
 40
4.0
 40
4.0
 40
4.0
 40
4.0
 10
83.18044704455667
 20
-129.2875521899001
 30
0.0
 10
83.18044704455667
 20
-129.2324130232477
 30
0.0
 10
83.13567954569878
 20
-129.1876455232585
 30
0.0
 10
83.08018760267005
 20
-129.1876455232585
 30
0.0
 10
83.02508371518698
 20
-129.1876455232585
 30
0.0
 10
82.98028093855223
 20
-129.2324130232477
 30
0.0
 10
82.98028093855223
 20
-129.2875521899001
 30
0.0
 10
82.98028093855223
 20
-129.3426560787757
 30
0.0
 10
83.02508371518698
 20
-129.3874588565417
 30
0.0
 10
83.08018760267005
 20
-129.3874588565417
 30
0.0
 10
83.13567954569878
 20
-129.3874588565417
 30
0.0
 10
83.18044704455667
 20
-129.3426560787757
 30
0.0
 10
83.18044704455667
 20
-129.2875521899001
 30
0.0
  0
SPLINE
  5
BD
330
B8
100
AcDbEntity
  8
_U+30EC_U+30A4_U+30E4_U+30FC 1
 62
   179
420
  2234388
370
     9
100
AcDbSpline
210
0.0
220
0.0
230
1.0
 70
    11
 71
     3
 72
    17
 73
    13
 74
     0
 42
0.0000000001
 43
0.0000000001
 12
1.0
 22
0.0
 32
0.0
 13
1.0
 23
0.0
 33
0.0
 40
0.0
 40
0.0
 40
0.0
 40
0.0
 40
1.0
 40
1.0
 40
1.0
 40
2.0
 40
2.0
 40
2.0
 40
3.0
 40
3.0
 40
3.0
 40
4.0
 40
4.0
 40
4.0
 40
4.0
 10
84.18021924127258
 20
-129.2875521899001
 30
0.0
 10
84.18021924127258
 20
-129.2324130232477
 30
0.0
 10
84.13541646463781
 20
-129.1876455232585
 30
0.0
 10
84.07995979938596
 20
-129.1876455232585
 30
0.0
 10
84.02485591190289
 20
-129.1876455232585
 30
0.0
 10
83.98005313526812
 20
-129.2324130232477
 30
0.0
 10
83.98005313526812
 20
-129.2875521899001
 30
0.0
 10
83.98005313526812
 20
-129.3426560787757
 30
0.0
 10
84.02485591190289
 20
-129.3874588565417
 30
0.0
 10
84.07995979938596
 20
-129.3874588565417
 30
0.0
 10
84.13541646463781
 20
-129.3874588565417
 30
0.0
 10
84.18021924127258
 20
-129.3426560787757
 30
0.0
 10
84.18021924127258
 20
-129.2875521899001
 30
0.0
  0
INSERT
  5
BF
330
B8
100
AcDbEntity
  8
_U+30EC_U+30A4_U+30E4_U+30FC 1
100
AcDbBlockReference
  2
block 6
 10
0.0
 20
0.0
 30
0.0
  0
POLYLINE
  5
C4
330
B8
100
AcDbEntity
  8
_U+30EC_U+30A4_U+30E4_U+30FC 1
 62
   179
420
  2234388
370
     9
100
AcDb2dPolyline
 66
     1
 10
0.0
 20
0.0
 30
0.0
  0
VERTEX
  5
C5
330
C4
100
AcDbEntity
  8
_U+30EC_U+30A4_U+30E4_U+30FC 1
 62
   179
420
  2234388
370
     9
100
AcDbVertex
100
AcDb2dVertex
 10
84.94158422184854
 20
-129.2875521899001
 30
0.0
  0
VERTEX
  5
C6
330
C4
100
AcDbEntity
  8
_U+30EC_U+30A4_U+30E4_U+30FC 1
 62
   179
420
  2234388
370
     9
100
AcDbVertex
100
AcDb2dVertex
 10
81.10237431979495
 20
-129.2875521899001
 30
0.0
  0
SEQEND
  5
C7
330
C4
100
AcDbEntity
  8
_U+30EC_U+30A4_U+30E4_U+30FC 1
 62
   179
420
  2234388
370
     9
  0
ENDBLK
  5
BB
330
B8
100
AcDbEntity
  8
0
100
AcDbBlockEnd
  0
BLOCK
  5
C0
330
BE
100
AcDbEntity
  8
0
100
AcDbBlockBegin
  2
block 6
 70
     0
 10
0.0
 20
0.0
 30
0.0
  3
block 6
  1

  0
SPLINE
  5
C2
330
BE
100
AcDbEntity
  8
_U+30EC_U+30A4_U+30E4_U+30FC 1
370
     0
100
AcDbSpline
210
0.0
220
0.0
230
1.0
 70
    11
 71
     3
 72
    26
 73
    22
 74
     0
 42
0.0000000001
 43
0.0000000001
 12
1.0
 22
0.0
 32
0.0
 13
1.0
 23
0.0
 33
0.0
 40
0.0
 40
0.0
 40
0.0
 40
0.0
 40
1.0
 40
1.0
 40
1.0
 40
2.0
 40
2.0
 40
2.0
 40
3.0
 40
3.0
 40
3.0
 40
4.0
 40
4.0
 40
4.0
 40
5.0
 40
5.0
 40
5.0
 40
6.0
 40
6.0
 40
6.0
 40
7.0
 40
7.0
 40
7.0
 40
7.0
 10
81.90456134020094
 20
-128.698948806801
 30
0.0
 10
81.90456134020094
 20
-128.698948806801
 30
0.0
 10
81.90456134020094
 20
-127.5946234490041
 30
0.0
 10
81.90456134020094
 20
-127.5946234490041
 30
0.0
 10
81.90456134020094
 20
-127.5946234490041
 30
0.0
 10
81.57452119271402
 20
-127.5946234490041
 30
0.0
 10
81.57452119271402
 20
-127.5946234490041
 30
0.0
 10
81.57452119271402
 20
-127.5946234490041
 30
0.0
 10
81.57452119271402
 20
-127.4464843431384
 30
0.0
 10
81.57452119271402
 20
-127.4464843431384
 30
0.0
 10
81.9066283974921
 20
-127.4318426873261
 30
0.0
 10
81.95313718654297
 20
-127.2688896708738
 30
0.0
 10
81.98276500771611
 20
-127.1546847555377
 30
0.0
 10
81.98276500771611
 20
-127.1546847555377
 30
0.0
 10
82.1288370562907
 20
-127.1546847555377
 30
0.0
 10
82.1288370562907
 20
-127.1546847555377
 30
0.0
 10
82.1288370562907
 20
-127.1546847555377
 30
0.0
 10
82.1288370562907
 20
-128.698948806801
 30
0.0
 10
82.1288370562907
 20
-128.698948806801
 30
0.0
 10
82.1288370562907
 20
-128.698948806801
 30
0.0
 10
81.90456134020094
 20
-128.698948806801
 30
0.0
 10
81.90456134020094
 20
-128.698948806801
 30
0.0
  0
HATCH
  5
C3
330
BE
100
AcDbEntity
  8
_U+30EC_U+30A4_U+30E4_U+30FC 1
 62
   179
420
  2234388
100
AcDbHatch
 10
0.0
 20
0.0
 30
0.0
210
0.0
220
0.0
230
1.0
  2
SOLID
 70
     1
 71
     0
 91
        1
 92
        1
 93
        1
 72
     4
 94
        3
 73
     0
 74
     1
 95
       26
 96
       22
 40
0.0
 40
0.0
 40
0.0
 40
0.0
 40
1.0
 40
1.0
 40
1.0
 40
2.0
 40
2.0
 40
2.0
 40
3.0
 40
3.0
 40
3.0
 40
4.0
 40
4.0
 40
4.0
 40
5.0
 40
5.0
 40
5.0
 40
6.0
 40
6.0
 40
6.0
 40
7.0
 40
7.0
 40
7.0
 40
7.0
 10
81.90456134020094
 20
-128.698948806801
 10
81.90456134020094
 20
-128.698948806801
 10
81.90456134020094
 20
-127.5946234490041
 10
81.90456134020094
 20
-127.5946234490041
 10
81.90456134020094
 20
-127.5946234490041
 10
81.57452119271402
 20
-127.5946234490041
 10
81.57452119271402
 20
-127.5946234490041
 10
81.57452119271402
 20
-127.5946234490041
 10
81.57452119271402
 20
-127.4464843431384
 10
81.57452119271402
 20
-127.4464843431384
 10
81.9066283974921
 20
-127.4318426873261
 10
81.95313718654297
 20
-127.2688896708738
 10
81.98276500771611
 20
-127.1546847555377
 10
81.98276500771611
 20
-127.1546847555377
 10
82.1288370562907
 20
-127.1546847555377
 10
82.1288370562907
 20
-127.1546847555377
 10
82.1288370562907
 20
-127.1546847555377
 10
82.1288370562907
 20
-128.698948806801
 10
82.1288370562907
 20
-128.698948806801
 10
82.1288370562907
 20
-128.698948806801
 10
81.90456134020094
 20
-128.698948806801
 10
81.90456134020094
 20
-128.698948806801
 97
        0
 97
        0
 75
     2
 76
     1
 98
        0
  0
ENDBLK
  5
C1
330
BE
100
AcDbEntity
  8
0
100
AcDbBlockEnd
  0
BLOCK
  5
D3
330
D1
100
AcDbEntity
  8
0
100
AcDbBlockBegin
  2
block 7
 70
     0
 10
0.0
 20
0.0
 30
0.0
  3
block 7
  1

  0
SPLINE
  5
D5
330
D1
100
AcDbEntity
  8
_U+30EC_U+30A4_U+30E4_U+30FC 1
370
     0
100
AcDbSpline
210
0.0
220
0.0
230
1.0
 70
    11
 71
     3
 72
    26
 73
    22
 74
     0
 42
0.0000000001
 43
0.0000000001
 12
1.0
 22
0.0
 32
0.0
 13
1.0
 23
0.0
 33
0.0
 40
0.0
 40
0.0
 40
0.0
 40
0.0
 40
1.0
 40
1.0
 40
1.0
 40
2.0
 40
2.0
 40
2.0
 40
3.0
 40
3.0
 40
3.0
 40
4.0
 40
4.0
 40
4.0
 40
5.0
 40
5.0
 40
5.0
 40
6.0
 40
6.0
 40
6.0
 40
7.0
 40
7.0
 40
7.0
 40
7.0
 10
100.5092827439699
 20
-135.1169894410471
 30
0.0
 10
100.5092827439699
 20
-135.1169894410471
 30
0.0
 10
99.40512964094734
 20
-135.1169894410471
 30
0.0
 10
99.40512964094734
 20
-135.1169894410471
 30
0.0
 10
99.40512964094734
 20
-135.1169894410471
 30
0.0
 10
99.40512964094734
 20
-135.4694227091882
 30
0.0
 10
99.40512964094734
 20
-135.4694227091882
 30
0.0
 10
99.40512964094734
 20
-135.4694227091882
 30
0.0
 10
99.25699053508158
 20
-135.4694227091882
 30
0.0
 10
99.25699053508158
 20
-135.4694227091882
 30
0.0
 10
99.24217662449502
 20
-135.1145778742075
 30
0.0
 10
99.0792236080427
 20
-135.0649684992199
 30
0.0
 10
98.96484643793241
 20
-135.0332736207556
 30
0.0
 10
98.96484643793241
 20
-135.0332736207556
 30
0.0
 10
98.96484643793241
 20
-134.8772107952738
 30
0.0
 10
98.96484643793241
 20
-134.8772107952738
 30
0.0
 10
98.96484643793241
 20
-134.8772107952738
 30
0.0
 10
100.5092827439699
 20
-134.8772107952738
 30
0.0
 10
100.5092827439699
 20
-134.8772107952738
 30
0.0
 10
100.5092827439699
 20
-134.8772107952738
 30
0.0
 10
100.5092827439699
 20
-135.1169894410471
 30
0.0
 10
100.5092827439699
 20
-135.1169894410471
 30
0.0
  0
HATCH
  5
D6
330
D1
100
AcDbEntity
  8
_U+30EC_U+30A4_U+30E4_U+30FC 1
 62
   179
420
  2234388
100
AcDbHatch
 10
0.0
 20
0.0
 30
0.0
210
0.0
220
0.0
230
1.0
  2
SOLID
 70
     1
 71
     0
 91
        1
 92
        1
 93
        1
 72
     4
 94
        3
 73
     0
 74
     1
 95
       26
 96
       22
 40
0.0
 40
0.0
 40
0.0
 40
0.0
 40
1.0
 40
1.0
 40
1.0
 40
2.0
 40
2.0
 40
2.0
 40
3.0
 40
3.0
 40
3.0
 40
4.0
 40
4.0
 40
4.0
 40
5.0
 40
5.0
 40
5.0
 40
6.0
 40
6.0
 40
6.0
 40
7.0
 40
7.0
 40
7.0
 40
7.0
 10
100.5092827439699
 20
-135.1169894410471
 10
100.5092827439699
 20
-135.1169894410471
 10
99.40512964094734
 20
-135.1169894410471
 10
99.40512964094734
 20
-135.1169894410471
 10
99.40512964094734
 20
-135.1169894410471
 10
99.40512964094734
 20
-135.4694227091882
 10
99.40512964094734
 20
-135.4694227091882
 10
99.40512964094734
 20
-135.4694227091882
 10
99.25699053508158
 20
-135.4694227091882
 10
99.25699053508158
 20
-135.4694227091882
 10
99.24217662449502
 20
-135.1145778742075
 10
99.0792236080427
 20
-135.0649684992199
 10
98.96484643793241
 20
-135.0332736207556
 10
98.96484643793241
 20
-135.0332736207556
 10
98.96484643793241
 20
-134.8772107952738
 10
98.96484643793241
 20
-134.8772107952738
 10
98.96484643793241
 20
-134.8772107952738
 10
100.5092827439699
 20
-134.8772107952738
 10
100.5092827439699
 20
-134.8772107952738
 10
100.5092827439699
 20
-134.8772107952738
 10
100.5092827439699
 20
-135.1169894410471
 10
100.5092827439699
 20
-135.1169894410471
 97
        0
 97
        0
 75
     2
 76
     1
 98
        0
  0
ENDBLK
  5
D4
330
D1
100
AcDbEntity
  8
0
100
AcDbBlockEnd
  0
ENDSEC
  0
SECTION
  2
ENTITIES
  0
SPLINE
  5
41
330
1F
100
AcDbEntity
  8
_U+30EC_U+30A4_U+30E4_U+30FC 1
370
     0
100
AcDbSpline
210
0.0
220
0.0
230
1.0
 70
    11
 71
     3
 72
    53
 73
    49
 74
     0
 42
0.0000000001
 43
0.0000000001
 12
1.0
 22
0.0
 32
0.0
 13
1.0
 23
0.0
 33
0.0
 40
0.0
 40
0.0
 40
0.0
 40
0.0
 40
1.0
 40
1.0
 40
1.0
 40
2.0
 40
2.0
 40
2.0
 40
3.0
 40
3.0
 40
3.0
 40
4.0
 40
4.0
 40
4.0
 40
5.0
 40
5.0
 40
5.0
 40
6.0
 40
6.0
 40
6.0
 40
7.0
 40
7.0
 40
7.0
 40
8.0
 40
8.0
 40
8.0
 40
9.0
 40
9.0
 40
9.0
 40
10.0
 40
10.0
 40
10.0
 40
11.0
 40
11.0
 40
11.0
 40
12.0
 40
12.0
 40
12.0
 40
13.0
 40
13.0
 40
13.0
 40
14.0
 40
14.0
 40
14.0
 40
15.0
 40
15.0
 40
15.0
 40
16.0
 40
16.0
 40
16.0
 40
16.0
 10
97.08073780104182
 20
-135.0997777440025
 30
0.0
 10
97.08073780104182
 20
-135.0997777440025
 30
0.0
 10
87.44651804683124
 20
-135.0997777440025
 30
0.0
 10
87.44651804683124
 20
-135.0997777440025
 30
0.0
 10
87.26804997818292
 20
-134.7903916329693
 30
0.0
 10
86.93802417091511
 20
-134.6002091330168
 30
0.0
 10
86.58076612447397
 20
-134.6002091330168
 30
0.0
 10
86.58076612447397
 20
-134.6002091330168
 30
0.0
 10
84.08066535492353
 20
-134.6002091330168
 30
0.0
 10
84.08066535492353
 20
-134.6002091330168
 30
0.0
 10
84.08066535492353
 20
-134.6002091330168
 30
0.0
 10
84.08066535492353
 20
-124.0995669134195
 30
0.0
 10
84.08066535492353
 20
-124.0995669134195
 30
0.0
 10
84.08066535492353
 20
-124.0995669134195
 30
0.0
 10
87.08065222283192
 20
-124.0995669134195
 30
0.0
 10
87.08065222283192
 20
-124.0995669134195
 30
0.0
 10
87.35694997816084
 20
-124.0995669134195
 30
0.0
 10
87.58053832118988
 20
-123.8763291356975
 30
0.0
 10
87.58053832118988
 20
-123.600033580211
 30
0.0
 10
87.58053832118988
 20
-123.3402833024983
 30
0.0
 10
87.38210082625244
 20
-123.1239246914413
 30
0.0
 10
87.12337361063089
 20
-123.1018760803357
 30
0.0
 10
84.76590089299727
 20
-122.8993110803864
 30
0.0
 10
82.39530484236509
 20
-122.8993110803864
 30
0.0
 10
80.03783212473145
 20
-123.1018760803357
 30
0.0
 10
79.76255963175424
 20
-123.1253005247742
 30
0.0
 10
79.55861880362387
 20
-123.3678352469358
 30
0.0
 10
79.58239602523949
 20
-123.6427549690893
 30
0.0
 10
79.60479741355687
 20
-123.9011294134691
 30
0.0
 10
79.82112074137133
 20
-124.0995669134195
 30
0.0
 10
80.08090831331319
 20
-124.0995669134195
 30
0.0
 10
80.08090831331319
 20
-124.0995669134195
 30
0.0
 10
83.08089315820762
 20
-124.0995669134195
 30
0.0
 10
83.08089315820762
 20
-124.0995669134195
 30
0.0
 10
83.08089315820762
 20
-124.0995669134195
 30
0.0
 10
83.08089315820762
 20
-134.6002091330168
 30
0.0
 10
83.08089315820762
 20
-134.6002091330168
 30
0.0
 10
83.08089315820762
 20
-134.6002091330168
 30
0.0
 10
80.58044164652169
 20
-134.6002091330168
 30
0.0
 10
80.58044164652169
 20
-134.6002091330168
 30
0.0
 10
80.02851879163572
 20
-134.6002091330168
 30
0.0
 10
79.58066942454914
 20
-135.0473902440159
 30
0.0
 10
79.58066942454914
 20
-135.5999813549887
 30
0.0
 10
79.58066942454914
 20
-135.5999813549887
 30
0.0
 10
97.5805886216229
 20
-135.5999813549887
 30
0.0
 10
97.5805886216229
 20
-135.5999813549887
 30
0.0
 10
97.5805886216229
 20
-135.3236857995023
 30
0.0
 10
97.3566805717797
 20
-135.0997777440025
 30
0.0
 10
97.08073780104182
 20
-135.0997777440025
 30
0.0
  0
HATCH
  5
42
330
1F
100
AcDbEntity
  8
_U+30EC_U+30A4_U+30E4_U+30FC 1
 62
   253
420
 11711154
100
AcDbHatch
 10
0.0
 20
0.0
 30
0.0
210
0.0
220
0.0
230
1.0
  2
SOLID
 70
     1
 71
     0
 91
        1
 92
        1
 93
        1
 72
     4
 94
        3
 73
     0
 74
     1
 95
       53
 96
       49
 40
0.0
 40
0.0
 40
0.0
 40
0.0
 40
1.0
 40
1.0
 40
1.0
 40
2.0
 40
2.0
 40
2.0
 40
3.0
 40
3.0
 40
3.0
 40
4.0
 40
4.0
 40
4.0
 40
5.0
 40
5.0
 40
5.0
 40
6.0
 40
6.0
 40
6.0
 40
7.0
 40
7.0
 40
7.0
 40
8.0
 40
8.0
 40
8.0
 40
9.0
 40
9.0
 40
9.0
 40
10.0
 40
10.0
 40
10.0
 40
11.0
 40
11.0
 40
11.0
 40
12.0
 40
12.0
 40
12.0
 40
13.0
 40
13.0
 40
13.0
 40
14.0
 40
14.0
 40
14.0
 40
15.0
 40
15.0
 40
15.0
 40
16.0
 40
16.0
 40
16.0
 40
16.0
 10
97.08073780104182
 20
-135.0997777440025
 10
97.08073780104182
 20
-135.0997777440025
 10
87.44651804683124
 20
-135.0997777440025
 10
87.44651804683124
 20
-135.0997777440025
 10
87.26804997818292
 20
-134.7903916329693
 10
86.93802417091511
 20
-134.6002091330168
 10
86.58076612447397
 20
-134.6002091330168
 10
86.58076612447397
 20
-134.6002091330168
 10
84.08066535492353
 20
-134.6002091330168
 10
84.08066535492353
 20
-134.6002091330168
 10
84.08066535492353
 20
-134.6002091330168
 10
84.08066535492353
 20
-124.0995669134195
 10
84.08066535492353
 20
-124.0995669134195
 10
84.08066535492353
 20
-124.0995669134195
 10
87.08065222283192
 20
-124.0995669134195
 10
87.08065222283192
 20
-124.0995669134195
 10
87.35694997816084
 20
-124.0995669134195
 10
87.58053832118988
 20
-123.8763291356975
 10
87.58053832118988
 20
-123.600033580211
 10
87.58053832118988
 20
-123.3402833024983
 10
87.38210082625244
 20
-123.1239246914413
 10
87.12337361063089
 20
-123.1018760803357
 10
84.76590089299727
 20
-122.8993110803864
 10
82.39530484236509
 20
-122.8993110803864
 10
80.03783212473145
 20
-123.1018760803357
 10
79.76255963175424
 20
-123.1253005247742
 10
79.55861880362387
 20
-123.3678352469358
 10
79.58239602523949
 20
-123.6427549690893
 10
79.60479741355687
 20
-123.9011294134691
 10
79.82112074137133
 20
-124.0995669134195
 10
80.08090831331319
 20
-124.0995669134195
 10
80.08090831331319
 20
-124.0995669134195
 10
83.08089315820762
 20
-124.0995669134195
 10
83.08089315820762
 20
-124.0995669134195
 10
83.08089315820762
 20
-124.0995669134195
 10
83.08089315820762
 20
-134.6002091330168
 10
83.08089315820762
 20
-134.6002091330168
 10
83.08089315820762
 20
-134.6002091330168
 10
80.58044164652169
 20
-134.6002091330168
 10
80.58044164652169
 20
-134.6002091330168
 10
80.02851879163572
 20
-134.6002091330168
 10
79.58066942454914
 20
-135.0473902440159
 10
79.58066942454914
 20
-135.5999813549887
 10
79.58066942454914
 20
-135.5999813549887
 10
97.5805886216229
 20
-135.5999813549887
 10
97.5805886216229
 20
-135.5999813549887
 10
97.5805886216229
 20
-135.3236857995023
 10
97.3566805717797
 20
-135.0997777440025
 10
97.08073780104182
 20
-135.0997777440025
 97
        0
 97
        0
 75
     2
 76
     1
 98
        0
  0
POLYLINE
  5
43
330
1F
100
AcDbEntity
  8
_U+30EC_U+30A4_U+30E4_U+30FC 1
 62
   179
420
  2234388
370
    25
100
AcDb2dPolyline
 66
     1
 10
0.0
 20
0.0
 30
0.0
  0
VERTEX
  5
44
330
43
100
AcDbEntity
  8
_U+30EC_U+30A4_U+30E4_U+30FC 1
 62
   179
420
  2234388
370
    25
100
AcDbVertex
100
AcDb2dVertex
 10
80.58044164652169
 20
-134.6002091330168
 30
0.0
  0
VERTEX
  5
45
330
43
100
AcDbEntity
  8
_U+30EC_U+30A4_U+30E4_U+30FC 1
 62
   179
420
  2234388
370
    25
100
AcDbVertex
100
AcDb2dVertex
 10
83.08089315820762
 20
-134.6002091330168
 30
0.0
  0
SEQEND
  5
46
330
43
100
AcDbEntity
  8
_U+30EC_U+30A4_U+30E4_U+30FC 1
 62
   179
420
  2234388
370
    25
  0
POLYLINE
  5
47
330
1F
100
AcDbEntity
  8
_U+30EC_U+30A4_U+30E4_U+30FC 1
 62
   179
420
  2234388
370
    25
100
AcDb2dPolyline
 66
     1
 10
0.0
 20
0.0
 30
0.0
  0
VERTEX
  5
48
330
47
100
AcDbEntity
  8
_U+30EC_U+30A4_U+30E4_U+30FC 1
 62
   179
420
  2234388
370
    25
100
AcDbVertex
100
AcDb2dVertex
 10
79.58066942454914
 20
-135.5999813549887
 30
0.0
  0
VERTEX
  5
49
330
47
100
AcDbEntity
  8
_U+30EC_U+30A4_U+30E4_U+30FC 1
 62
   179
420
  2234388
370
    25
100
AcDbVertex
100
AcDb2dVertex
 10
97.5805886216229
 20
-135.5999813549887
 30
0.0
  0
SEQEND
  5
4A
330
47
100
AcDbEntity
  8
_U+30EC_U+30A4_U+30E4_U+30FC 1
 62
   179
420
  2234388
370
    25
  0
POLYLINE
  5
4B
330
1F
100
AcDbEntity
  8
_U+30EC_U+30A4_U+30E4_U+30FC 1
 62
   179
420
  2234388
370
    25
100
AcDb2dPolyline
 66
     1
 10
0.0
 20
0.0
 30
0.0
  0
VERTEX
  5
4C
330
4B
100
AcDbEntity
  8
_U+30EC_U+30A4_U+30E4_U+30FC 1
 62
   179
420
  2234388
370
    25
100
AcDbVertex
100
AcDb2dVertex
 10
87.44651804683124
 20
-135.0997777440025
 30
0.0
  0
VERTEX
  5
4D
330
4B
100
AcDbEntity
  8
_U+30EC_U+30A4_U+30E4_U+30FC 1
 62
   179
420
  2234388
370
    25
100
AcDbVertex
100
AcDb2dVertex
 10
97.08073780104182
 20
-135.0997777440025
 30
0.0
  0
SEQEND
  5
4E
330
4B
100
AcDbEntity
  8
_U+30EC_U+30A4_U+30E4_U+30FC 1
 62
   179
420
  2234388
370
    25
  0
POLYLINE
  5
4F
330
1F
100
AcDbEntity
  8
_U+30EC_U+30A4_U+30E4_U+30FC 1
 62
   179
420
  2234388
370
    25
100
AcDb2dPolyline
 66
     1
 10
0.0
 20
0.0
 30
0.0
  0
VERTEX
  5
50
330
4F
100
AcDbEntity
  8
_U+30EC_U+30A4_U+30E4_U+30FC 1
 62
   179
420
  2234388
370
    25
100
AcDbVertex
100
AcDb2dVertex
 10
80.08090831331319
 20
-124.0995669134195
 30
0.0
  0
VERTEX
  5
51
330
4F
100
AcDbEntity
  8
_U+30EC_U+30A4_U+30E4_U+30FC 1
 62
   179
420
  2234388
370
    25
100
AcDbVertex
100
AcDb2dVertex
 10
83.08089315820762
 20
-124.0995669134195
 30
0.0
  0
SEQEND
  5
52
330
4F
100
AcDbEntity
  8
_U+30EC_U+30A4_U+30E4_U+30FC 1
 62
   179
420
  2234388
370
    25
  0
POLYLINE
  5
53
330
1F
100
AcDbEntity
  8
_U+30EC_U+30A4_U+30E4_U+30FC 1
 62
   179
420
  2234388
370
    25
100
AcDb2dPolyline
 66
     1
 10
0.0
 20
0.0
 30
0.0
  0
VERTEX
  5
54
330
53
100
AcDbEntity
  8
_U+30EC_U+30A4_U+30E4_U+30FC 1
 62
   179
420
  2234388
370
    25
100
AcDbVertex
100
AcDb2dVertex
 10
83.08089315820762
 20
-124.0995669134195
 30
0.0
  0
VERTEX
  5
55
330
53
100
AcDbEntity
  8
_U+30EC_U+30A4_U+30E4_U+30FC 1
 62
   179
420
  2234388
370
    25
100
AcDbVertex
100
AcDb2dVertex
 10
83.08089315820762
 20
-134.6002091330168
 30
0.0
  0
SEQEND
  5
56
330
53
100
AcDbEntity
  8
_U+30EC_U+30A4_U+30E4_U+30FC 1
 62
   179
420
  2234388
370
    25
  0
POLYLINE
  5
57
330
1F
100
AcDbEntity
  8
_U+30EC_U+30A4_U+30E4_U+30FC 1
 62
   179
420
  2234388
370
    25
100
AcDb2dPolyline
 66
     1
 10
0.0
 20
0.0
 30
0.0
  0
VERTEX
  5
58
330
57
100
AcDbEntity
  8
_U+30EC_U+30A4_U+30E4_U+30FC 1
 62
   179
420
  2234388
370
    25
100
AcDbVertex
100
AcDb2dVertex
 10
84.08066535492353
 20
-124.0995669134195
 30
0.0
  0
VERTEX
  5
59
330
57
100
AcDbEntity
  8
_U+30EC_U+30A4_U+30E4_U+30FC 1
 62
   179
420
  2234388
370
    25
100
AcDbVertex
100
AcDb2dVertex
 10
84.08066535492353
 20
-134.6002091330168
 30
0.0
  0
SEQEND
  5
5A
330
57
100
AcDbEntity
  8
_U+30EC_U+30A4_U+30E4_U+30FC 1
 62
   179
420
  2234388
370
    25
  0
POLYLINE
  5
5B
330
1F
100
AcDbEntity
  8
_U+30EC_U+30A4_U+30E4_U+30FC 1
 62
   179
420
  2234388
370
    25
100
AcDb2dPolyline
 66
     1
 10
0.0
 20
0.0
 30
0.0
  0
VERTEX
  5
5C
330
5B
100
AcDbEntity
  8
_U+30EC_U+30A4_U+30E4_U+30FC 1
 62
   179
420
  2234388
370
    25
100
AcDbVertex
100
AcDb2dVertex
 10
84.08066535492353
 20
-124.0995669134195
 30
0.0
  0
VERTEX
  5
5D
330
5B
100
AcDbEntity
  8
_U+30EC_U+30A4_U+30E4_U+30FC 1
 62
   179
420
  2234388
370
    25
100
AcDbVertex
100
AcDb2dVertex
 10
87.08065222283192
 20
-124.0995669134195
 30
0.0
  0
SEQEND
  5
5E
330
5B
100
AcDbEntity
  8
_U+30EC_U+30A4_U+30E4_U+30FC 1
 62
   179
420
  2234388
370
    25
  0
POLYLINE
  5
5F
330
1F
100
AcDbEntity
  8
_U+30EC_U+30A4_U+30E4_U+30FC 1
 62
   179
420
  2234388
370
    25
100
AcDb2dPolyline
 66
     1
 10
0.0
 20
0.0
 30
0.0
  0
VERTEX
  5
60
330
5F
100
AcDbEntity
  8
_U+30EC_U+30A4_U+30E4_U+30FC 1
 62
   179
420
  2234388
370
    25
100
AcDbVertex
100
AcDb2dVertex
 10
84.08066535492353
 20
-134.6002091330168
 30
0.0
  0
VERTEX
  5
61
330
5F
100
AcDbEntity
  8
_U+30EC_U+30A4_U+30E4_U+30FC 1
 62
   179
420
  2234388
370
    25
100
AcDbVertex
100
AcDb2dVertex
 10
86.58076612447397
 20
-134.6002091330168
 30
0.0
  0
SEQEND
  5
62
330
5F
100
AcDbEntity
  8
_U+30EC_U+30A4_U+30E4_U+30FC 1
 62
   179
420
  2234388
370
    25
  0
SPLINE
  5
63
330
1F
100
AcDbEntity
  8
_U+30EC_U+30A4_U+30E4_U+30FC 1
 62
   179
420
  2234388
370
    25
100
AcDbSpline
210
0.0
220
0.0
230
1.0
 70
     8
 71
     3
 72
     8
 73
     4
 74
     0
 42
0.0000000001
 43
0.0000000001
 12
1.0
 22
0.0
 32
0.0
 13
1.0
 23
0.0
 33
0.0
 40
0.0
 40
0.0
 40
0.0
 40
0.0
 40
1.0
 40
1.0
 40
1.0
 40
1.0
 10
97.5805886216229
 20
-135.5999813549887
 30
0.0
 10
97.5805886216229
 20
-135.3236857995023
 30
0.0
 10
97.3566805717797
 20
-135.0997777440025
 30
0.0
 10
97.08073780104182
 20
-135.0997777440025
 30
0.0
  0
SPLINE
  5
64
330
1F
100
AcDbEntity
  8
_U+30EC_U+30A4_U+30E4_U+30FC 1
 62
   179
420
  2234388
370
     9
100
AcDbSpline
210
0.0
220
0.0
230
1.0
 70
    11
 71
     3
 72
    17
 73
    13
 74
     0
 42
0.0000000001
 43
0.0000000001
 12
1.0
 22
0.0
 32
0.0
 13
1.0
 23
0.0
 33
0.0
 40
0.0
 40
0.0
 40
0.0
 40
0.0
 40
1.0
 40
1.0
 40
1.0
 40
2.0
 40
2.0
 40
2.0
 40
3.0
 40
3.0
 40
3.0
 40
4.0
 40
4.0
 40
4.0
 40
4.0
 10
101.5582990756986
 20
-124.0995669134195
 30
0.0
 10
101.5582990756986
 20
-124.0444630245443
 30
0.0
 10
101.5135315768407
 20
-123.9996602467779
 30
0.0
 10
101.4583924115808
 20
-123.9996602467779
 30
0.0
 10
101.4032885240977
 20
-123.9996602467779
 30
0.0
 10
101.3584857474629
 20
-124.0444630245443
 30
0.0
 10
101.3584857474629
 20
-124.0995669134195
 30
0.0
 10
101.3584857474629
 20
-124.15537635785
 30
0.0
 10
101.4032885240977
 20
-124.2001791356167
 30
0.0
 10
101.4583924115808
 20
-124.2001791356167
 30
0.0
 10
101.5135315768407
 20
-124.2001791356167
 30
0.0
 10
101.5582990756986
 20
-124.15537635785
 30
0.0
 10
101.5582990756986
 20
-124.0995669134195
 30
0.0
  0
SPLINE
  5
65
330
1F
100
AcDbEntity
  8
_U+30EC_U+30A4_U+30E4_U+30FC 1
 62
   179
420
  2234388
370
     9
100
AcDbSpline
210
0.0
220
0.0
230
1.0
 70
    11
 71
     3
 72
    17
 73
    13
 74
     0
 42
0.0000000001
 43
0.0000000001
 12
1.0
 22
0.0
 32
0.0
 13
1.0
 23
0.0
 33
0.0
 40
0.0
 40
0.0
 40
0.0
 40
0.0
 40
1.0
 40
1.0
 40
1.0
 40
2.0
 40
2.0
 40
2.0
 40
3.0
 40
3.0
 40
3.0
 40
4.0
 40
4.0
 40
4.0
 40
4.0
 10
101.5582990756986
 20
-134.6002091330168
 30
0.0
 10
101.5582990756986
 20
-134.5443996885864
 30
0.0
 10
101.5135315768407
 20
-134.4996321885972
 30
0.0
 10
101.4583924115808
 20
-134.4996321885972
 30
0.0
 10
101.4032885240977
 20
-134.4996321885972
 30
0.0
 10
101.3584857474629
 20
-134.5443996885864
 30
0.0
 10
101.3584857474629
 20
-134.6002091330168
 30
0.0
 10
101.3584857474629
 20
-134.6553482996693
 30
0.0
 10
101.4032885240977
 20
-134.7001157996584
 30
0.0
 10
101.4583924115808
 20
-134.7001157996584
 30
0.0
 10
101.5135315768407
 20
-134.7001157996584
 30
0.0
 10
101.5582990756986
 20
-134.6553482996693
 30
0.0
 10
101.5582990756986
 20
-134.6002091330168
 30
0.0
  0
SPLINE
  5
66
330
1F
100
AcDbEntity
  8
_U+30EC_U+30A4_U+30E4_U+30FC 1
 62
   179
420
  2234388
370
     9
100
AcDbSpline
210
0.0
220
0.0
230
1.0
 70
    11
 71
     3
 72
    17
 73
    13
 74
     0
 42
0.0000000001
 43
0.0000000001
 12
1.0
 22
0.0
 32
0.0
 13
1.0
 23
0.0
 33
0.0
 40
0.0
 40
0.0
 40
0.0
 40
0.0
 40
1.0
 40
1.0
 40
1.0
 40
2.0
 40
2.0
 40
2.0
 40
3.0
 40
3.0
 40
3.0
 40
4.0
 40
4.0
 40
4.0
 40
4.0
 10
79.6805740782903
 20
-139.5997405206556
 30
0.0
 10
79.6805740782903
 20
-139.5446366317807
 30
0.0
 10
79.63580657943243
 20
-139.499833854014
 30
0.0
 10
79.58066942454914
 20
-139.499833854014
 30
0.0
 10
79.52556352668941
 20
-139.499833854014
 30
0.0
 10
79.48076075005464
 20
-139.5446366317807
 30
0.0
 10
79.48076075005464
 20
-139.5997405206556
 30
0.0
 10
79.48076075005464
 20
-139.6548796873087
 30
0.0
 10
79.52556352668941
 20
-139.6996471872972
 30
0.0
 10
79.58066942454914
 20
-139.6996471872972
 30
0.0
 10
79.63580657943243
 20
-139.6996471872972
 30
0.0
 10
79.6805740782903
 20
-139.6548796873087
 30
0.0
 10
79.6805740782903
 20
-139.5997405206556
 30
0.0
  0
SPLINE
  5
67
330
1F
100
AcDbEntity
  8
_U+30EC_U+30A4_U+30E4_U+30FC 1
 62
   179
420
  2234388
370
     9
100
AcDbSpline
210
0.0
220
0.0
230
1.0
 70
    11
 71
     3
 72
    17
 73
    13
 74
     0
 42
0.0000000001
 43
0.0000000001
 12
1.0
 22
0.0
 32
0.0
 13
1.0
 23
0.0
 33
0.0
 40
0.0
 40
0.0
 40
0.0
 40
0.0
 40
1.0
 40
1.0
 40
1.0
 40
2.0
 40
2.0
 40
2.0
 40
3.0
 40
3.0
 40
3.0
 40
4.0
 40
4.0
 40
4.0
 40
4.0
 10
97.68049528574073
 20
-139.5997405206556
 30
0.0
 10
97.68049528574073
 20
-139.5446366317807
 30
0.0
 10
97.63572778688284
 20
-139.499833854014
 30
0.0
 10
97.5805886216229
 20
-139.499833854014
 30
0.0
 10
97.52548473413982
 20
-139.499833854014
 30
0.0
 10
97.48068195750506
 20
-139.5446366317807
 30
0.0
 10
97.48068195750506
 20
-139.5997405206556
 30
0.0
 10
97.48068195750506
 20
-139.6548796873087
 30
0.0
 10
97.52548473413982
 20
-139.6996471872972
 30
0.0
 10
97.5805886216229
 20
-139.6996471872972
 30
0.0
 10
97.63572778688284
 20
-139.6996471872972
 30
0.0
 10
97.68049528574073
 20
-139.6548796873087
 30
0.0
 10
97.68049528574073
 20
-139.5997405206556
 30
0.0
  0
SPLINE
  5
68
330
1F
100
AcDbEntity
  8
_U+30EC_U+30A4_U+30E4_U+30FC 1
 62
   179
420
  2234388
370
    25
100
AcDbSpline
210
0.0
220
0.0
230
1.0
 70
     8
 71
     3
 72
     8
 73
     4
 74
     0
 42
0.0000000001
 43
0.0000000001
 12
1.0
 22
0.0
 32
0.0
 13
1.0
 23
0.0
 33
0.0
 40
0.0
 40
0.0
 40
0.0
 40
0.0
 40
1.0
 40
1.0
 40
1.0
 40
1.0
 10
87.44651804683124
 20
-135.0997777440025
 30
0.0
 10
87.26804997818292
 20
-134.7903916329693
 30
0.0
 10
86.93802417091511
 20
-134.6002091330168
 30
0.0
 10
86.58076612447397
 20
-134.6002091330168
 30
0.0
  0
SPLINE
  5
69
330
1F
100
AcDbEntity
  8
_U+30EC_U+30A4_U+30E4_U+30FC 1
 62
   179
420
  2234388
370
    25
100
AcDbSpline
210
0.0
220
0.0
230
1.0
 70
     8
 71
     3
 72
    11
 73
     7
 74
     0
 42
0.0000000001
 43
0.0000000001
 12
1.0
 22
0.0
 32
0.0
 13
1.0
 23
0.0
 33
0.0
 40
0.0
 40
0.0
 40
0.0
 40
0.0
 40
1.0
 40
1.0
 40
1.0
 40
2.0
 40
2.0
 40
2.0
 40
2.0
 10
87.08065222283192
 20
-124.0995669134195
 30
0.0
 10
87.35694997816084
 20
-124.0995669134195
 30
0.0
 10
87.58053832118988
 20
-123.8763291356975
 30
0.0
 10
87.58053832118988
 20
-123.600033580211
 30
0.0
 10
87.58053832118988
 20
-123.3402833024983
 30
0.0
 10
87.38210082625244
 20
-123.1239246914413
 30
0.0
 10
87.12337361063089
 20
-123.1018760803357
 30
0.0
  0
SPLINE
  5
6A
330
1F
100
AcDbEntity
  8
_U+30EC_U+30A4_U+30E4_U+30FC 1
 62
   179
420
  2234388
370
    25
100
AcDbSpline
210
0.0
220
0.0
230
1.0
 70
     8
 71
     3
 72
    11
 73
     7
 74
     0
 42
0.0000000001
 43
0.0000000001
 12
1.0
 22
0.0
 32
0.0
 13
1.0
 23
0.0
 33
0.0
 40
0.0
 40
0.0
 40
0.0
 40
0.0
 40
1.0
 40
1.0
 40
1.0
 40
2.0
 40
2.0
 40
2.0
 40
2.0
 10
80.03783212473145
 20
-123.1018760803357
 30
0.0
 10
79.76255963175424
 20
-123.1253005247742
 30
0.0
 10
79.55861880362387
 20
-123.3678352469358
 30
0.0
 10
79.58239602523949
 20
-123.6427549690893
 30
0.0
 10
79.60479741355687
 20
-123.9011294134691
 30
0.0
 10
79.82112074137133
 20
-124.0995669134195
 30
0.0
 10
80.08090831331319
 20
-124.0995669134195
 30
0.0
  0
SPLINE
  5
6B
330
1F
100
AcDbEntity
  8
_U+30EC_U+30A4_U+30E4_U+30FC 1
 62
   179
420
  2234388
370
    25
100
AcDbSpline
210
0.0
220
0.0
230
1.0
 70
     8
 71
     3
 72
     8
 73
     4
 74
     0
 42
0.0000000001
 43
0.0000000001
 12
1.0
 22
0.0
 32
0.0
 13
1.0
 23
0.0
 33
0.0
 40
0.0
 40
0.0
 40
0.0
 40
0.0
 40
1.0
 40
1.0
 40
1.0
 40
1.0
 10
80.58044164652169
 20
-134.6002091330168
 30
0.0
 10
80.02851879163572
 20
-134.6002091330168
 30
0.0
 10
79.58066942454914
 20
-135.0473902440159
 30
0.0
 10
79.58066942454914
 20
-135.5999813549887
 30
0.0
  0
SPLINE
  5
6C
330
1F
100
AcDbEntity
  8
_U+30EC_U+30A4_U+30E4_U+30FC 1
 62
   179
420
  2234388
370
     9
100
AcDbSpline
210
0.0
220
0.0
230
1.0
 70
    11
 71
     3
 72
    17
 73
    13
 74
     0
 42
0.0000000001
 43
0.0000000001
 12
1.0
 22
0.0
 32
0.0
 13
1.0
 23
0.0
 33
0.0
 40
0.0
 40
0.0
 40
0.0
 40
0.0
 40
1.0
 40
1.0
 40
1.0
 40
2.0
 40
2.0
 40
2.0
 40
3.0
 40
3.0
 40
3.0
 40
4.0
 40
4.0
 40
4.0
 40
4.0
 10
87.68076248529961
 20
-118.9498580258181
 30
0.0
 10
87.68076248529961
 20
-118.8947188591653
 30
0.0
 10
87.63599720031335
 20
-118.8499513591764
 30
0.0
 10
87.58053832118988
 20
-118.8499513591764
 30
0.0
 10
87.52539915592993
 20
-118.8499513591764
 30
0.0
 10
87.48063165707204
 20
-118.8947188591653
 30
0.0
 10
87.48063165707204
 20
-118.9498580258181
 30
0.0
 10
87.48063165707204
 20
-119.0049619146933
 30
0.0
 10
87.52539915592993
 20
-119.0497646924597
 30
0.0
 10
87.58053832118988
 20
-119.0497646924597
 30
0.0
 10
87.63599720031335
 20
-119.0497646924597
 30
0.0
 10
87.68076248529961
 20
-119.0049619146933
 30
0.0
 10
87.68076248529961
 20
-118.9498580258181
 30
0.0
  0
SPLINE
  5
6D
330
1F
100
AcDbEntity
  8
_U+30EC_U+30A4_U+30E4_U+30FC 1
 62
   179
420
  2234388
370
     9
100
AcDbSpline
210
0.0
220
0.0
230
1.0
 70
    11
 71
     3
 72
    17
 73
    13
 74
     0
 42
0.0000000001
 43
0.0000000001
 12
1.0
 22
0.0
 32
0.0
 13
1.0
 23
0.0
 33
0.0
 40
0.0
 40
0.0
 40
0.0
 40
0.0
 40
1.0
 40
1.0
 40
1.0
 40
2.0
 40
2.0
 40
2.0
 40
3.0
 40
3.0
 40
3.0
 40
4.0
 40
4.0
 40
4.0
 40
4.0
 10
79.6805740782903
 20
-118.9498580258181
 30
0.0
 10
79.6805740782903
 20
-118.8947188591653
 30
0.0
 10
79.63580657943243
 20
-118.8499513591764
 30
0.0
 10
79.58066942454914
 20
-118.8499513591764
 30
0.0
 10
79.52556352668941
 20
-118.8499513591764
 30
0.0
 10
79.48076075005464
 20
-118.8947188591653
 30
0.0
 10
79.48076075005464
 20
-118.9498580258181
 30
0.0
 10
79.48076075005464
 20
-119.0049619146933
 30
0.0
 10
79.52556352668941
 20
-119.0497646924597
 30
0.0
 10
79.58066942454914
 20
-119.0497646924597
 30
0.0
 10
79.63580657943243
 20
-119.0497646924597
 30
0.0
 10
79.6805740782903
 20
-119.0049619146933
 30
0.0
 10
79.6805740782903
 20
-118.9498580258181
 30
0.0
  0
SPLINE
  5
6E
330
1F
100
AcDbEntity
  8
_U+30EC_U+30A4_U+30E4_U+30FC 1
 62
   179
420
  2234388
370
    25
100
AcDbSpline
210
0.0
220
0.0
230
1.0
 70
     8
 71
     3
 72
     8
 73
     4
 74
     0
 42
0.0000000001
 43
0.0000000001
 12
1.0
 22
0.0
 32
0.0
 13
1.0
 23
0.0
 33
0.0
 40
0.0
 40
0.0
 40
0.0
 40
0.0
 40
1.0
 40
1.0
 40
1.0
 40
1.0
 10
87.12337361063089
 20
-123.1018760803357
 30
0.0
 10
84.76590089299727
 20
-122.8993110803864
 30
0.0
 10
82.39530484236509
 20
-122.8993110803864
 30
0.0
 10
80.03783212473145
 20
-123.1018760803357
 30
0.0
  0
POLYLINE
  5
6F
330
1F
100
AcDbEntity
  8
_U+30EC_U+30A4_U+30E4_U+30FC 1
 62
   179
420
  2234388
370
     9
100
AcDb2dPolyline
 66
     1
 10
0.0
 20
0.0
 30
0.0
  0
VERTEX
  5
70
330
6F
100
AcDbEntity
  8
_U+30EC_U+30A4_U+30E4_U+30FC 1
 62
   179
420
  2234388
370
     9
100
AcDbVertex
100
AcDb2dVertex
 10
79.58066942454914
 20
-139.5997405206556
 30
0.0
  0
VERTEX
  5
71
330
6F
100
AcDbEntity
  8
_U+30EC_U+30A4_U+30E4_U+30FC 1
 62
   179
420
  2234388
370
     9
100
AcDbVertex
100
AcDb2dVertex
 10
97.5805886216229
 20
-139.5997405206556
 30
0.0
  0
SEQEND
  5
72
330
6F
100
AcDbEntity
  8
_U+30EC_U+30A4_U+30E4_U+30FC 1
 62
   179
420
  2234388
370
     9
  0
POLYLINE
  5
73
330
1F
100
AcDbEntity
  8
_U+30EC_U+30A4_U+30E4_U+30FC 1
 62
   179
420
  2234388
370
     9
100
AcDb2dPolyline
 66
     1
 10
0.0
 20
0.0
 30
0.0
  0
VERTEX
  5
74
330
73
100
AcDbEntity
  8
_U+30EC_U+30A4_U+30E4_U+30FC 1
 62
   179
420
  2234388
370
     9
100
AcDbVertex
100
AcDb2dVertex
 10
79.58066942454914
 20
-137.3397755212208
 30
0.0
  0
VERTEX
  5
75
330
73
100
AcDbEntity
  8
_U+30EC_U+30A4_U+30E4_U+30FC 1
 62
   179
420
  2234388
370
     9
100
AcDbVertex
100
AcDb2dVertex
 10
79.58066942454914
 20
-140.5995127426281
 30
0.0
  0
SEQEND
  5
76
330
73
100
AcDbEntity
  8
_U+30EC_U+30A4_U+30E4_U+30FC 1
 62
   179
420
  2234388
370
     9
  0
POLYLINE
  5
77
330
1F
100
AcDbEntity
  8
_U+30EC_U+30A4_U+30E4_U+30FC 1
 62
   179
420
  2234388
370
     9
100
AcDb2dPolyline
 66
     1
 10
0.0
 20
0.0
 30
0.0
  0
VERTEX
  5
78
330
77
100
AcDbEntity
  8
_U+30EC_U+30A4_U+30E4_U+30FC 1
 62
   179
420
  2234388
370
     9
100
AcDbVertex
100
AcDb2dVertex
 10
97.5805886216229
 20
-138.1396991321319
 30
0.0
  0
VERTEX
  5
79
330
77
100
AcDbEntity
  8
_U+30EC_U+30A4_U+30E4_U+30FC 1
 62
   179
420
  2234388
370
     9
100
AcDbVertex
100
AcDb2dVertex
 10
97.5805886216229
 20
-140.5995127426281
 30
0.0
  0
SEQEND
  5
7A
330
77
100
AcDbEntity
  8
_U+30EC_U+30A4_U+30E4_U+30FC 1
 62
   179
420
  2234388
370
     9
  0
INSERT
  5
7C
330
1F
100
AcDbEntity
  8
_U+30EC_U+30A4_U+30E4_U+30FC 1
100
AcDbBlockReference
  2
block 2
 10
0.0
 20
0.0
 30
0.0
  0
POLYLINE
  5
85
330
1F
100
AcDbEntity
  8
_U+30EC_U+30A4_U+30E4_U+30FC 1
 62
   179
420
  2234388
370
     9
100
AcDb2dPolyline
 66
     1
 10
0.0
 20
0.0
 30
0.0
  0
VERTEX
  5
86
330
85
100
AcDbEntity
  8
_U+30EC_U+30A4_U+30E4_U+30FC 1
 62
   179
420
  2234388
370
     9
100
AcDbVertex
100
AcDb2dVertex
 10
79.58066942454914
 20
-118.9498580258181
 30
0.0
  0
VERTEX
  5
87
330
85
100
AcDbEntity
  8
_U+30EC_U+30A4_U+30E4_U+30FC 1
 62
   179
420
  2234388
370
     9
100
AcDbVertex
100
AcDb2dVertex
 10
87.58053832118988
 20
-118.9498580258181
 30
0.0
  0
SEQEND
  5
88
330
85
100
AcDbEntity
  8
_U+30EC_U+30A4_U+30E4_U+30FC 1
 62
   179
420
  2234388
370
     9
  0
POLYLINE
  5
89
330
1F
100
AcDbEntity
  8
_U+30EC_U+30A4_U+30E4_U+30FC 1
 62
   179
420
  2234388
370
     9
100
AcDb2dPolyline
 66
     1
 10
0.0
 20
0.0
 30
0.0
  0
VERTEX
  5
8A
330
89
100
AcDbEntity
  8
_U+30EC_U+30A4_U+30E4_U+30FC 1
 62
   179
420
  2234388
370
     9
100
AcDbVertex
100
AcDb2dVertex
 10
79.58066942454914
 20
-121.1099163586116
 30
0.0
  0
VERTEX
  5
8B
330
89
100
AcDbEntity
  8
_U+30EC_U+30A4_U+30E4_U+30FC 1
 62
   179
420
  2234388
370
     9
100
AcDbVertex
100
AcDb2dVertex
 10
79.58066942454914
 20
-117.9500858038458
 30
0.0
  0
SEQEND
  5
8C
330
89
100
AcDbEntity
  8
_U+30EC_U+30A4_U+30E4_U+30FC 1
 62
   179
420
  2234388
370
     9
  0
POLYLINE
  5
8D
330
1F
100
AcDbEntity
  8
_U+30EC_U+30A4_U+30E4_U+30FC 1
 62
   179
420
  2234388
370
     9
100
AcDb2dPolyline
 66
     1
 10
0.0
 20
0.0
 30
0.0
  0
VERTEX
  5
8E
330
8D
100
AcDbEntity
  8
_U+30EC_U+30A4_U+30E4_U+30FC 1
 62
   179
420
  2234388
370
     9
100
AcDbVertex
100
AcDb2dVertex
 10
87.58053832118988
 20
-121.1099163586116
 30
0.0
  0
VERTEX
  5
8F
330
8D
100
AcDbEntity
  8
_U+30EC_U+30A4_U+30E4_U+30FC 1
 62
   179
420
  2234388
370
     9
100
AcDbVertex
100
AcDb2dVertex
 10
87.58053832118988
 20
-117.9500858038458
 30
0.0
  0
SEQEND
  5
90
330
8D
100
AcDbEntity
  8
_U+30EC_U+30A4_U+30E4_U+30FC 1
 62
   179
420
  2234388
370
     9
  0
INSERT
  5
92
330
1F
100
AcDbEntity
  8
_U+30EC_U+30A4_U+30E4_U+30FC 1
100
AcDbBlockReference
  2
block 3
 10
0.0
 20
0.0
 30
0.0
  0
POLYLINE
  5
99
330
1F
100
AcDbEntity
  8
_U+30EC_U+30A4_U+30E4_U+30FC 1
 62
   179
420
  2234388
370
     9
100
AcDb2dPolyline
 66
     1
 10
0.0
 20
0.0
 30
0.0
  0
VERTEX
  5
9A
330
99
100
AcDbEntity
  8
_U+30EC_U+30A4_U+30E4_U+30FC 1
 62
   179
420
  2234388
370
     9
100
AcDbVertex
100
AcDb2dVertex
 10
101.4583924115808
 20
-134.6002091330168
 30
0.0
  0
VERTEX
  5
9B
330
99
100
AcDbEntity
  8
_U+30EC_U+30A4_U+30E4_U+30FC 1
 62
   179
420
  2234388
370
     9
100
AcDbVertex
100
AcDb2dVertex
 10
101.4583924115808
 20
-124.0995669134195
 30
0.0
  0
SEQEND
  5
9C
330
99
100
AcDbEntity
  8
_U+30EC_U+30A4_U+30E4_U+30FC 1
 62
   179
420
  2234388
370
     9
  0
POLYLINE
  5
9D
330
1F
100
AcDbEntity
  8
_U+30EC_U+30A4_U+30E4_U+30FC 1
 62
   179
420
  2234388
370
     9
100
AcDb2dPolyline
 66
     1
 10
0.0
 20
0.0
 30
0.0
  0
VERTEX
  5
9E
330
9D
100
AcDbEntity
  8
_U+30EC_U+30A4_U+30E4_U+30FC 1
 62
   179
420
  2234388
370
     9
100
AcDbVertex
100
AcDb2dVertex
 10
100.4627829925364
 20
-134.6002091330168
 30
0.0
  0
VERTEX
  5
9F
330
9D
100
AcDbEntity
  8
_U+30EC_U+30A4_U+30E4_U+30FC 1
 62
   179
420
  2234388
370
     9
100
AcDbVertex
100
AcDb2dVertex
 10
102.4585173860655
 20
-134.6002091330168
 30
0.0
  0
SEQEND
  5
A0
330
9D
100
AcDbEntity
  8
_U+30EC_U+30A4_U+30E4_U+30FC 1
 62
   179
420
  2234388
370
     9
  0
POLYLINE
  5
A1
330
1F
100
AcDbEntity
  8
_U+30EC_U+30A4_U+30E4_U+30FC 1
 62
   179
420
  2234388
370
     9
100
AcDb2dPolyline
 66
     1
 10
0.0
 20
0.0
 30
0.0
  0
VERTEX
  5
A2
330
A1
100
AcDbEntity
  8
_U+30EC_U+30A4_U+30E4_U+30FC 1
 62
   179
420
  2234388
370
     9
100
AcDbVertex
100
AcDb2dVertex
 10
100.4627829925364
 20
-124.0995669134195
 30
0.0
  0
VERTEX
  5
A3
330
A1
100
AcDbEntity
  8
_U+30EC_U+30A4_U+30E4_U+30FC 1
 62
   179
420
  2234388
370
     9
100
AcDbVertex
100
AcDb2dVertex
 10
102.4585173860655
 20
-124.0995669134195
 30
0.0
  0
SEQEND
  5
A4
330
A1
100
AcDbEntity
  8
_U+30EC_U+30A4_U+30E4_U+30FC 1
 62
   179
420
  2234388
370
     9
  0
INSERT
  5
A6
330
1F
100
AcDbEntity
  8
_U+30EC_U+30A4_U+30E4_U+30FC 1
100
AcDbBlockReference
  2
block 4
 10
0.0
 20
0.0
 30
0.0
  0
INSERT
  5
B9
330
1F
100
AcDbEntity
  8
_U+30EC_U+30A4_U+30E4_U+30FC 1
100
AcDbBlockReference
  2
block 5
 10
0.0
 20
0.0
 30
0.0
  0
SPLINE
  5
C8
330
1F
100
AcDbEntity
  8
_U+30EC_U+30A4_U+30E4_U+30FC 1
 62
   179
420
  2234388
370
     9
100
AcDbSpline
210
0.0
220
0.0
230
1.0
 70
    11
 71
     3
 72
    17
 73
    13
 74
     0
 42
0.0000000001
 43
0.0000000001
 12
1.0
 22
0.0
 32
0.0
 13
1.0
 23
0.0
 33
0.0
 40
0.0
 40
0.0
 40
0.0
 40
0.0
 40
1.0
 40
1.0
 40
1.0
 40
2.0
 40
2.0
 40
2.0
 40
3.0
 40
3.0
 40
3.0
 40
4.0
 40
4.0
 40
4.0
 40
4.0
 10
101.5582990756986
 20
-135.5934549661014
 30
0.0
 10
101.5582990756986
 20
-135.5379630216712
 30
0.0
 10
101.5135315768407
 20
-135.493195521682
 30
0.0
 10
101.4583924115808
 20
-135.493195521682
 30
0.0
 10
101.4032885240977
 20
-135.493195521682
 30
0.0
 10
101.3584857474629
 20
-135.5379630216712
 30
0.0
 10
101.3584857474629
 20
-135.5934549661014
 30
0.0
 10
101.3584857474629
 20
-135.648558854977
 30
0.0
 10
101.4032885240977
 20
-135.6933616327431
 30
0.0
 10
101.4583924115808
 20
-135.6933616327431
 30
0.0
 10
101.5135315768407
 20
-135.6933616327431
 30
0.0
 10
101.5582990756986
 20
-135.648558854977
 30
0.0
 10
101.5582990756986
 20
-135.5934549661014
 30
0.0
  0
POLYLINE
  5
C9
330
1F
100
AcDbEntity
  8
_U+30EC_U+30A4_U+30E4_U+30FC 1
 62
   179
420
  2234388
370
     9
100
AcDb2dPolyline
 66
     1
 10
0.0
 20
0.0
 30
0.0
  0
VERTEX
  5
CA
330
C9
100
AcDbEntity
  8
_U+30EC_U+30A4_U+30E4_U+30FC 1
 62
   179
420
  2234388
370
     9
100
AcDbVertex
100
AcDb2dVertex
 10
101.4583924115808
 20
-133.9460180220692
 30
0.0
  0
VERTEX
  5
CB
330
C9
100
AcDbEntity
  8
_U+30EC_U+30A4_U+30E4_U+30FC 1
 62
   179
420
  2234388
370
     9
100
AcDbVertex
100
AcDb2dVertex
 10
101.4583924115808
 20
-135.5934549661014
 30
0.0
  0
SEQEND
  5
CC
330
C9
100
AcDbEntity
  8
_U+30EC_U+30A4_U+30E4_U+30FC 1
 62
   179
420
  2234388
370
     9
  0
POLYLINE
  5
CD
330
1F
100
AcDbEntity
  8
_U+30EC_U+30A4_U+30E4_U+30FC 1
 62
   179
420
  2234388
370
     9
100
AcDb2dPolyline
 66
     1
 10
0.0
 20
0.0
 30
0.0
  0
VERTEX
  5
CE
330
CD
100
AcDbEntity
  8
_U+30EC_U+30A4_U+30E4_U+30FC 1
 62
   179
420
  2234388
370
     9
100
AcDbVertex
100
AcDb2dVertex
 10
100.4627829925364
 20
-135.5934549661014
 30
0.0
  0
VERTEX
  5
CF
330
CD
100
AcDbEntity
  8
_U+30EC_U+30A4_U+30E4_U+30FC 1
 62
   179
420
  2234388
370
     9
100
AcDbVertex
100
AcDb2dVertex
 10
102.4585173860655
 20
-135.5934549661014
 30
0.0
  0
SEQEND
  5
D0
330
CD
100
AcDbEntity
  8
_U+30EC_U+30A4_U+30E4_U+30FC 1
 62
   179
420
  2234388
370
     9
  0
INSERT
  5
D2
330
1F
100
AcDbEntity
  8
_U+30EC_U+30A4_U+30E4_U+30FC 1
100
AcDbBlockReference
  2
block 7
 10
0.0
 20
0.0
 30
0.0
  0
ENDSEC
  0
SECTION
  2
OBJECTS
  0
DICTIONARY
  5
C
330
0
100
AcDbDictionary
281
     1
  3
ACAD_GROUP
350
D
  3
ACAD_LAYOUT
350
1A
  3
ACAD_MATERIAL
350
3B
  3
ACAD_MLEADERSTYLE
350
D8
  3
ACAD_MLINESTYLE
350
17
  3
ACAD_PLOTSETTINGS
350
19
  3
ACAD_PLOTSTYLENAME
350
E
  3
ACAD_TABLESTYLE
350
D7
  3
ACAD_VISUALSTYLE
350
2A
  0
SUN
  5
3F
330
29
100
AcDbSun
 90
        1
290
     0
 63
     7
421
 16777215
 40
1.0
291
     1
 91
  2455826
 92
 54000000
292
     0
 70
     2
 71
   256
280
     1
  0
DICTIONARY
  5
D
102
{ACAD_REACTORS
330
C
102
}
330
C
100
AcDbDictionary
281
     1
  0
DICTIONARY
  5
1A
102
{ACAD_REACTORS
330
C
102
}
330
C
100
AcDbDictionary
281
     1
  3
Layout1
350
1E
  3
Layout2
350
26
  3
Model
350
22
  0
DICTIONARY
  5
3B
102
{ACAD_REACTORS
330
C
102
}
330
C
100
AcDbDictionary
281
     1
  3
ByBlock
350
3D
  3
ByLayer
350
3C
  3
Global
350
3E
  0
DICTIONARY
  5
D8
102
{ACAD_REACTORS
330
C
102
}
330
C
100
AcDbDictionary
281
     1
  0
DICTIONARY
  5
17
102
{ACAD_REACTORS
330
C
102
}
330
C
100
AcDbDictionary
281
     1
  3
Standard
350
18
  0
DICTIONARY
  5
19
102
{ACAD_REACTORS
330
C
102
}
330
C
100
AcDbDictionary
281
     1
  0
ACDBDICTIONARYWDFLT
  5
E
102
{ACAD_REACTORS
330
C
102
}
330
C
100
AcDbDictionary
281
     1
  3
Normal
350
F
100
AcDbDictionaryWithDefault
340
F
  0
DICTIONARY
  5
D7
102
{ACAD_REACTORS
330
C
102
}
330
C
100
AcDbDictionary
281
     1
  0
DICTIONARY
  5
2A
102
{ACAD_REACTORS
330
C
102
}
330
C
100
AcDbDictionary
281
     1
  3
2dWireframe
350
2F
  3
3D Hidden
350
31
  3
3dWireframe
350
30
  3
Basic
350
32
  3
Brighten
350
36
  3
ColorChange
350
3A
  3
Conceptual
350
34
  3
Dim
350
35
  3
Facepattern
350
39
  3
Flat
350
2B
  3
FlatWithEdges
350
2C
  3
Gouraud
350
2D
  3
GouraudWithEdges
350
2E
  3
Linepattern
350
38
  3
Realistic
350
33
  3
Thicken
350
37
  0
LAYOUT
  5
1E
102
{ACAD_REACTORS
330
1A
102
}
330
1A
100
AcDbPlotSettings
  1

  2
none_device
  4

  6

 40
0.0
 41
0.0
 42
0.0
 43
0.0
 44
0.0
 45
0.0
 46
0.0
 47
0.0
 48
0.0
 49
0.0
140
0.0
141
0.0
142
1.0
143
1.0
 70
   688
 72
     0
 73
     0
 74
     5
  7

 75
    16
 76
     0
 77
     2
 78
   300
147
1.0
148
0.0
149
0.0
100
AcDbLayout
  1
Layout1
 70
     1
 71
     1
 10
0.0
 20
0.0
 11
12.0
 21
9.0
 12
0.0
 22
0.0
 32
0.0
 14
1.000000000000000E+20
 24
1.000000000000000E+20
 34
1.000000000000000E+20
 15
-1.000000000000000E+20
 25
-1.000000000000000E+20
 35
-1.000000000000000E+20
146
0.0
 13
0.0
 23
0.0
 33
0.0
 16
1.0
 26
0.0
 36
0.0
 17
0.0
 27
1.0
 37
0.0
 76
     0
330
1B
  0
LAYOUT
  5
26
102
{ACAD_REACTORS
330
1A
102
}
330
1A
100
AcDbPlotSettings
  1

  2
none_device
  4

  6

 40
0.0
 41
0.0
 42
0.0
 43
0.0
 44
0.0
 45
0.0
 46
0.0
 47
0.0
 48
0.0
 49
0.0
140
0.0
141
0.0
142
1.0
143
1.0
 70
   688
 72
     0
 73
     0
 74
     5
  7

 75
    16
 76
     0
 77
     2
 78
   300
147
1.0
148
0.0
149
0.0
100
AcDbLayout
  1
Layout2
 70
     1
 71
     2
 10
0.0
 20
0.0
 11
0.0
 21
0.0
 12
0.0
 22
0.0
 32
0.0
 14
0.0
 24
0.0
 34
0.0
 15
0.0
 25
0.0
 35
0.0
146
0.0
 13
0.0
 23
0.0
 33
0.0
 16
1.0
 26
0.0
 36
0.0
 17
0.0
 27
1.0
 37
0.0
 76
     0
330
23
  0
LAYOUT
  5
22
102
{ACAD_REACTORS
330
1A
102
}
330
1A
100
AcDbPlotSettings
  1

  2
none_device
  4

  6

 40
0.0
 41
0.0
 42
0.0
 43
0.0
 44
0.0
 45
0.0
 46
0.0
 47
0.0
 48
0.0
 49
0.0
140
0.0
141
0.0
142
1.0
143
1.0
 70
  1712
 72
     0
 73
     0
 74
     0
  7

 75
     0
 76
     0
 77
     2
 78
   300
147
1.0
148
0.0
149
0.0
100
AcDbLayout
  1
Model
 70
     1
 71
     0
 10
0.0
 20
0.0
 11
12.0
 21
9.0
 12
0.0
 22
0.0
 32
0.0
 14
1.000000000000000E+20
 24
1.000000000000000E+20
 34
1.000000000000000E+20
 15
-1.000000000000000E+20
 25
-1.000000000000000E+20
 35
-1.000000000000000E+20
146
0.0
 13
0.0
 23
0.0
 33
0.0
 16
1.0
 26
0.0
 36
0.0
 17
0.0
 27
1.0
 37
0.0
 76
     0
330
1F
331
29
  0
MATERIAL
  5
3D
102
{ACAD_REACTORS
330
3B
102
}
330
3B
100
AcDbMaterial
  1
ByBlock
 72
     1
 94
      127
  0
MATERIAL
  5
3C
102
{ACAD_REACTORS
330
3B
102
}
330
3B
100
AcDbMaterial
  1
ByLayer
 72
     1
 94
      127
  0
MATERIAL
  5
3E
102
{ACAD_REACTORS
330
3B
102
}
330
3B
100
AcDbMaterial
  1
Global
 72
     1
 94
      127
  0
MLINESTYLE
  5
18
102
{ACAD_REACTORS
330
17
102
}
330
17
100
AcDbMlineStyle
  2
Standard
 70
     0
  3

 62
   256
 51
90.0
 52
90.0
 71
     2
 49
0.5
 62
   256
  6
BYLAYER
 49
-0.5
 62
   256
  6
BYLAYER
  0
ACDBPLACEHOLDER
  5
F
102
{ACAD_REACTORS
330
E
102
}
330
E
  0
VISUALSTYLE
  5
2F
102
{ACAD_REACTORS
330
2A
102
}
330
2A
100
AcDbVisualStyle
  2
2dWireframe
 70
     4
177
     2
291
     0
 71
     0
176
     1
 72
     2
176
     1
 73
     0
176
     1
 90
        0
176
     1
 40
-0.6
176
     1
 41
-30.0
176
     1
 62
     5
 63
     7
421
 16777215
176
     1
 74
     1
176
     1
 91
        4
176
     1
 64
     7
176
     1
 65
   257
176
     1
 75
     1
176
     1
175
     1
176
     1
 42
1.0
176
     1
 92
        0
176
     1
 66
   257
176
     1
 43
1.0
176
     1
 76
     1
176
     1
 77
     6
176
     1
 78
     2
176
     1
 67
     7
176
     1
 79
     5
176
     1
170
     0
176
     1
171
     0
176
     1
290
     0
176
     1
 93
        1
176
     1
 44
0.0
176
     1
173
     0
176
     1
  0
VISUALSTYLE
  5
31
102
{ACAD_REACTORS
330
2A
102
}
330
2A
100
AcDbVisualStyle
  2
3D Hidden
 70
     6
177
     2
291
     0
 71
     1
176
     1
 72
     2
176
     1
 73
     2
176
     1
 90
        0
176
     1
 40
-0.6
176
     1
 41
-30.0
176
     1
 62
     5
 63
     7
421
 16777215
176
     1
 74
     2
176
     1
 91
        2
176
     1
 64
     7
176
     1
 65
   257
176
     1
 75
     2
176
     1
175
     1
176
     1
 42
40.0
176
     1
 92
        0
176
     1
 66
   257
176
     1
 43
1.0
176
     1
 76
     1
176
     1
 77
     6
176
     1
 78
     2
176
     1
 67
     7
176
     1
 79
     3
176
     1
170
     0
176
     1
171
     0
176
     1
290
     0
176
     1
 93
        1
176
     1
 44
0.0
176
     1
173
     0
176
     1
  0
VISUALSTYLE
  5
30
102
{ACAD_REACTORS
330
2A
102
}
330
2A
100
AcDbVisualStyle
  2
3dWireframe
 70
     5
177
     2
291
     0
 71
     0
176
     1
 72
     2
176
     1
 73
     0
176
     1
 90
        0
176
     1
 40
-0.6
176
     1
 41
-30.0
176
     1
 62
     5
 63
     7
421
 16777215
176
     1
 74
     1
176
     1
 91
        4
176
     1
 64
     7
176
     1
 65
   257
176
     1
 75
     1
176
     1
175
     1
176
     1
 42
1.0
176
     1
 92
        0
176
     1
 66
   257
176
     1
 43
1.0
176
     1
 76
     1
176
     1
 77
     6
176
     1
 78
     2
176
     1
 67
     7
176
     1
 79
     5
176
     1
170
     0
176
     1
171
     0
176
     1
290
     0
176
     1
 93
        1
176
     1
 44
0.0
176
     1
173
     0
176
     1
  0
VISUALSTYLE
  5
32
102
{ACAD_REACTORS
330
2A
102
}
330
2A
100
AcDbVisualStyle
  2
Basic
 70
     7
177
     2
291
     1
 71
     1
176
     1
 72
     0
176
     1
 73
     1
176
     1
 90
        0
176
     1
 40
-0.6
176
     1
 41
-30.0
176
     1
 62
     5
 63
     7
421
 16777215
176
     1
 74
     0
176
     1
 91
        4
176
     1
 64
     7
176
     1
 65
   257
176
     1
 75
     1
176
     1
175
     1
176
     1
 42
1.0
176
     1
 92
        8
176
     1
 66
     7
176
     1
 43
1.0
176
     1
 76
     1
176
     1
 77
     6
176
     1
 78
     2
176
     1
 67
     7
176
     1
 79
     5
176
     1
170
     0
176
     1
171
     0
176
     1
290
     0
176
     1
 93
        1
176
     1
 44
0.0
176
     1
173
     0
176
     1
  0
VISUALSTYLE
  5
36
102
{ACAD_REACTORS
330
2A
102
}
330
2A
100
AcDbVisualStyle
  2
Brighten
 70
    12
177
     2
291
     1
 71
     2
176
     1
 72
     2
176
     1
 73
     0
176
     1
 90
        0
176
     1
 40
-0.6
176
     1
 41
-30.0
176
     1
 62
     5
 63
     7
421
 16777215
176
     1
 74
     1
176
     1
 91
        4
176
     1
 64
     7
176
     1
 65
   257
176
     1
 75
     1
176
     1
175
     1
176
     1
 42
1.0
176
     1
 92
        8
176
     1
 66
     7
176
     1
 43
1.0
176
     1
 76
     1
176
     1
 77
     6
176
     1
 78
     2
176
     1
 67
     7
176
     1
 79
     5
176
     1
170
     0
176
     1
171
     0
176
     1
290
     0
176
     1
 93
        1
176
     1
 44
50.0
176
     1
173
     0
176
     1
  0
VISUALSTYLE
  5
3A
102
{ACAD_REACTORS
330
2A
102
}
330
2A
100
AcDbVisualStyle
  2
ColorChange
 70
    16
177
     2
291
     1
 71
     2
176
     1
 72
     2
176
     1
 73
     3
176
     1
 90
        0
176
     1
 40
-0.6
176
     1
 41
-30.0
176
     1
 62
     5
 63
     8
421
  8421504
176
     1
 74
     1
176
     1
 91
        4
176
     1
 64
     7
176
     1
 65
   257
176
     1
 75
     1
176
     1
175
     1
176
     1
 42
1.0
176
     1
 92
        8
176
     1
 66
     8
424
  8421504
176
     1
 43
1.0
176
     1
 76
     1
176
     1
 77
     6
176
     1
 78
     2
176
     1
 67
     7
176
     1
 79
     5
176
     1
170
     0
176
     1
171
     0
176
     1
290
     0
176
     1
 93
        1
176
     1
 44
0.0
176
     1
173
     0
176
     1
  0
VISUALSTYLE
  5
34
102
{ACAD_REACTORS
330
2A
102
}
330
2A
100
AcDbVisualStyle
  2
Conceptual
 70
     9
177
     2
291
     0
 71
     3
176
     1
 72
     2
176
     1
 73
     0
176
     1
 90
        0
176
     1
 40
-0.6
176
     1
 41
-30.0
176
     1
 62
     5
 63
     7
421
 16777215
176
     1
 74
     2
176
     1
 91
        2
176
     1
 64
     7
176
     1
 65
   257
176
     1
 75
     1
176
     1
175
     1
176
     1
 42
40.0
176
     1
 92
        8
176
     1
 66
     7
176
     1
 43
1.0
176
     1
 76
     1
176
     1
 77
     6
176
     1
 78
     2
176
     1
 67
     7
176
     1
 79
     3
176
     1
170
     0
176
     1
171
     0
176
     1
290
     0
176
     1
 93
        1
176
     1
 44
0.0
176
     1
173
     0
176
     1
  0
VISUALSTYLE
  5
35
102
{ACAD_REACTORS
330
2A
102
}
330
2A
100
AcDbVisualStyle
  2
Dim
 70
    11
177
     2
291
     1
 71
     2
176
     1
 72
     2
176
     1
 73
     0
176
     1
 90
        0
176
     1
 40
-0.6
176
     1
 41
-30.0
176
     1
 62
     5
 63
     7
421
 16777215
176
     1
 74
     1
176
     1
 91
        4
176
     1
 64
     7
176
     1
 65
   257
176
     1
 75
     1
176
     1
175
     1
176
     1
 42
1.0
176
     1
 92
        8
176
     1
 66
     7
176
     1
 43
1.0
176
     1
 76
     1
176
     1
 77
     6
176
     1
 78
     2
176
     1
 67
     7
176
     1
 79
     5
176
     1
170
     0
176
     1
171
     0
176
     1
290
     0
176
     1
 93
        1
176
     1
 44
-50.0
176
     1
173
     0
176
     1
  0
VISUALSTYLE
  5
39
102
{ACAD_REACTORS
330
2A
102
}
330
2A
100
AcDbVisualStyle
  2
Facepattern
 70
    15
177
     2
291
     1
 71
     2
176
     1
 72
     2
176
     1
 73
     0
176
     1
 90
        0
176
     1
 40
-0.6
176
     1
 41
-30.0
176
     1
 62
     5
 63
     7
421
 16777215
176
     1
 74
     1
176
     1
 91
        4
176
     1
 64
     7
176
     1
 65
   257
176
     1
 75
     1
176
     1
175
     1
176
     1
 42
1.0
176
     1
 92
        8
176
     1
 66
     7
176
     1
 43
1.0
176
     1
 76
     1
176
     1
 77
     6
176
     1
 78
     2
176
     1
 67
     7
176
     1
 79
     5
176
     1
170
     0
176
     1
171
     0
176
     1
290
     0
176
     1
 93
        1
176
     1
 44
0.0
176
     1
173
     0
176
     1
  0
VISUALSTYLE
  5
2B
102
{ACAD_REACTORS
330
2A
102
}
330
2A
100
AcDbVisualStyle
  2
Flat
 70
     0
177
     2
291
     1
 71
     2
176
     1
 72
     1
176
     1
 73
     1
176
     1
 90
        2
176
     1
 40
-0.6
176
     1
 41
30.0
176
     1
 62
     5
 63
     7
421
 16777215
176
     1
 74
     0
176
     1
 91
        4
176
     1
 64
     7
176
     1
 65
   257
176
     1
 75
     1
176
     1
175
     1
176
     1
 42
1.0
176
     1
 92
        8
176
     1
 66
     7
176
     1
 43
1.0
176
     1
 76
     1
176
     1
 77
     6
176
     1
 78
     2
176
     1
 67
     7
176
     1
 79
     5
176
     1
170
     0
176
     1
171
     0
176
     1
290
     0
176
     1
 93
       13
176
     1
 44
0.0
176
     1
173
     0
176
     1
  0
VISUALSTYLE
  5
2C
102
{ACAD_REACTORS
330
2A
102
}
330
2A
100
AcDbVisualStyle
  2
FlatWithEdges
 70
     1
177
     2
291
     1
 71
     2
176
     1
 72
     1
176
     1
 73
     1
176
     1
 90
        2
176
     1
 40
-0.6
176
     1
 41
30.0
176
     1
 62
     5
 63
     7
421
 16777215
176
     1
 74
     1
176
     1
 91
        4
176
     1
 64
     7
176
     1
 65
   257
176
     1
 75
     1
176
     1
175
     1
176
     1
 42
1.0
176
     1
 92
        0
176
     1
 66
   257
176
     1
 43
1.0
176
     1
 76
     1
176
     1
 77
     6
176
     1
 78
     2
176
     1
 67
     7
176
     1
 79
     5
176
     1
170
     0
176
     1
171
     0
176
     1
290
     0
176
     1
 93
       13
176
     1
 44
0.0
176
     1
173
     0
176
     1
  0
VISUALSTYLE
  5
2D
102
{ACAD_REACTORS
330
2A
102
}
330
2A
100
AcDbVisualStyle
  2
Gouraud
 70
     2
177
     2
291
     1
 71
     2
176
     1
 72
     2
176
     1
 73
     1
176
     1
 90
        2
176
     1
 40
-0.6
176
     1
 41
30.0
176
     1
 62
     5
 63
     7
421
 16777215
176
     1
 74
     0
176
     1
 91
        4
176
     1
 64
     7
176
     1
 65
   257
176
     1
 75
     1
176
     1
175
     1
176
     1
 42
1.0
176
     1
 92
        0
176
     1
 66
     7
176
     1
 43
1.0
176
     1
 76
     1
176
     1
 77
     6
176
     1
 78
     2
176
     1
 67
     7
176
     1
 79
     5
176
     1
170
     0
176
     1
171
     0
176
     1
290
     0
176
     1
 93
       13
176
     1
 44
0.0
176
     1
173
     0
176
     1
  0
VISUALSTYLE
  5
2E
102
{ACAD_REACTORS
330
2A
102
}
330
2A
100
AcDbVisualStyle
  2
GouraudWithEdges
 70
     3
177
     2
291
     1
 71
     2
176
     1
 72
     2
176
     1
 73
     1
176
     1
 90
        2
176
     1
 40
-0.6
176
     1
 41
30.0
176
     1
 62
     5
 63
     7
421
 16777215
176
     1
 74
     1
176
     1
 91
        4
176
     1
 64
     7
176
     1
 65
   257
176
     1
 75
     1
176
     1
175
     1
176
     1
 42
1.0
176
     1
 92
        0
176
     1
 66
   257
176
     1
 43
1.0
176
     1
 76
     1
176
     1
 77
     6
176
     1
 78
     2
176
     1
 67
     7
176
     1
 79
     5
176
     1
170
     0
176
     1
171
     0
176
     1
290
     0
176
     1
 93
       13
176
     1
 44
0.0
176
     1
173
     0
176
     1
  0
VISUALSTYLE
  5
38
102
{ACAD_REACTORS
330
2A
102
}
330
2A
100
AcDbVisualStyle
  2
Linepattern
 70
    14
177
     2
291
     1
 71
     2
176
     1
 72
     2
176
     1
 73
     0
176
     1
 90
        0
176
     1
 40
-0.6
176
     1
 41
-30.0
176
     1
 62
     5
 63
     7
421
 16777215
176
     1
 74
     1
176
     1
 91
        4
176
     1
 64
     7
176
     1
 65
   257
176
     1
 75
     7
176
     1
175
     7
176
     1
 42
1.0
176
     1
 92
        8
176
     1
 66
     7
176
     1
 43
1.0
176
     1
 76
     1
176
     1
 77
     6
176
     1
 78
     2
176
     1
 67
     7
176
     1
 79
     5
176
     1
170
     0
176
     1
171
     0
176
     1
290
     0
176
     1
 93
        1
176
     1
 44
0.0
176
     1
173
     0
176
     1
  0
VISUALSTYLE
  5
33
102
{ACAD_REACTORS
330
2A
102
}
330
2A
100
AcDbVisualStyle
  2
Realistic
 70
     8
177
     2
291
     0
 71
     2
176
     1
 72
     2
176
     1
 73
     0
176
     1
 90
        0
176
     1
 40
-0.6
176
     1
 41
-30.0
176
     1
 62
     5
 63
     7
421
 16777215
176
     1
 74
     1
176
     1
 91
        0
176
     1
 64
     7
176
     1
 65
   257
176
     1
 75
     1
176
     1
175
     1
176
     1
 42
1.0
176
     1
 92
        8
176
     1
 66
     8
424
  7895160
176
     1
 43
1.0
176
     1
 76
     1
176
     1
 77
     6
176
     1
 78
     2
176
     1
 67
     7
176
     1
 79
     5
176
     1
170
     0
176
     1
171
     0
176
     1
290
     0
176
     1
 93
       13
176
     1
 44
0.0
176
     1
173
     0
176
     1
  0
VISUALSTYLE
  5
37
102
{ACAD_REACTORS
330
2A
102
}
330
2A
100
AcDbVisualStyle
  2
Thicken
 70
    13
177
     2
291
     1
 71
     2
176
     1
 72
     2
176
     1
 73
     0
176
     1
 90
        0
176
     1
 40
-0.6
176
     1
 41
-30.0
176
     1
 62
     5
 63
     7
421
 16777215
176
     1
 74
     1
176
     1
 91
        4
176
     1
 64
     7
176
     1
 65
   257
176
     1
 75
     1
176
     1
175
     1
176
     1
 42
1.0
176
     1
 92
       12
176
     1
 66
     7
176
     1
 43
1.0
176
     1
 76
     1
176
     1
 77
     6
176
     1
 78
     2
176
     1
 67
     7
176
     1
 79
     5
176
     1
170
     0
176
     1
171
     0
176
     1
290
     0
176
     1
 93
        1
176
     1
 44
0.0
176
     1
173
     0
176
     1
  0
ENDSEC
  0
EOF
