  0
SECTION
  2
HEADER
  9
$ACADVER
  1
AC1024
  9
$ACADMAINTVER
 70
     6
  9
$DWGCODEPAGE
  3
UNDEFINED
  9
$INSBASE
 10
0.0
 20
0.0
 30
0.0
  9
$EXTMIN
 10
1.000000000000000E+20
 20
1.000000000000000E+20
 30
1.000000000000000E+20
  9
$EXTMAX
 10
-1.000000000000000E+20
 20
-1.000000000000000E+20
 30
-1.000000000000000E+20
  9
$LIMMIN
 10
0.0
 20
0.0
  9
$LIMMAX
 10
12.0
 20
9.0
  9
$ORTHOMODE
 70
     0
  9
$REGENMODE
 70
     1
  9
$FILLMODE
 70
     1
  9
$QTEXTMODE
 70
     0
  9
$MIRRTEXT
 70
     1
  9
$LTSCALE
 40
1.0
  9
$ATTMODE
 70
     1
  9
$TEXTSIZE
 40
0.2
  9
$TRACEWID
 40
0.05
  9
$TEXTSTYLE
  7
Standard
  9
$CLAYER
  8
0
  9
$CELTYPE
  6
ByLayer
  9
$CECOLOR
 62
   256
  9
$CELTSCALE
 40
1.0
  9
$DISPSILH
 70
     0
  9
$DIMSCALE
 40
1.0
  9
$DIMASZ
 40
0.18
  9
$DIMEXO
 40
0.0625
  9
$DIMDLI
 40
0.38
  9
$DIMRND
 40
0.0
  9
$DIMDLE
 40
0.0
  9
$DIMEXE
 40
0.18
  9
$DIMTP
 40
0.0
  9
$DIMTM
 40
0.0
  9
$DIMTXT
 40
0.18
  9
$DIMCEN
 40
0.09
  9
$DIMTSZ
 40
0.0
  9
$DIMTOL
 70
     0
  9
$DIMLIM
 70
     0
  9
$DIMTIH
 70
     1
  9
$DIMTOH
 70
     1
  9
$DIMSE1
 70
     0
  9
$DIMSE2
 70
     0
  9
$DIMTAD
 70
     0
  9
$DIMZIN
 70
     0
  9
$DIMBLK
  1

  9
$DIMASO
 70
     1
  9
$DIMSHO
 70
     1
  9
$DIMPOST
  1

  9
$DIMAPOST
  1

  9
$DIMALT
 70
     0
  9
$DIMALTD
 70
     2
  9
$DIMALTF
 40
25.4
  9
$DIMLFAC
 40
1.0
  9
$DIMTOFL
 70
     0
  9
$DIMTVP
 40
0.0
  9
$DIMTIX
 70
     0
  9
$DIMSOXD
 70
     0
  9
$DIMSAH
 70
     0
  9
$DIMBLK1
  1

  9
$DIMBLK2
  1

  9
$DIMSTYLE
  2
Standard
  9
$DIMCLRD
 70
     0
  9
$DIMCLRE
 70
     0
  9
$DIMCLRT
 70
     0
  9
$DIMTFAC
 40
1.0
  9
$DIMGAP
 40
0.09
  9
$DIMJUST
 70
     0
  9
$DIMSD1
 70
     0
  9
$DIMSD2
 70
     0
  9
$DIMTOLJ
 70
     1
  9
$DIMTZIN
 70
     0
  9
$DIMALTZ
 70
     0
  9
$DIMALTTZ
 70
     0
  9
$DIMUPT
 70
     0
  9
$DIMDEC
 70
     4
  9
$DIMTDEC
 70
     4
  9
$DIMALTU
 70
     2
  9
$DIMALTTD
 70
     2
  9
$DIMTXSTY
  7
Standard
  9
$DIMAUNIT
 70
     0
  9
$DIMADEC
 70
     0
  9
$DIMALTRND
 40
0.0
  9
$DIMAZIN
 70
     0
  9
$DIMDSEP
 70
    46
  9
$DIMATFIT
 70
     3
  9
$DIMFRAC
 70
     0
  9
$DIMLDRBLK
  1

  9
$DIMLUNIT
 70
     2
  9
$DIMLWD
 70
    -2
  9
$DIMLWE
 70
    -2
  9
$DIMTMOVE
 70
     0
  9
$DIMFXL
 40
1.0
  9
$DIMFXLON
 70
     0
  9
$DIMJOGANG
 40
0.7853981633974483
  9
$DIMTFILL
 70
     0
  9
$DIMTFILLCLR
 70
     0
  9
$DIMARCSYM
 70
     0
  9
$DIMLTYPE
  6

  9
$DIMLTEX1
  6

  9
$DIMLTEX2
  6

  9
$DIMTXTDIRECTION
 70
     0
  9
$LUNITS
 70
     2
  9
$LUPREC
 70
     4
  9
$SKETCHINC
 40
0.1
  9
$FILLETRAD
 40
0.5
  9
$AUNITS
 70
     0
  9
$AUPREC
 70
     0
  9
$MENU
  1
.
  9
$ELEVATION
 40
0.0
  9
$PELEVATION
 40
0.0
  9
$THICKNESS
 40
0.0
  9
$LIMCHECK
 70
     0
  9
$CHAMFERA
 40
0.5
  9
$CHAMFERB
 40
0.5
  9
$CHAMFERC
 40
1.0
  9
$CHAMFERD
 40
0.0
  9
$SKPOLY
 70
     0
  9
$TDCREATE
 40
2457917.618472222
  9
$TDUCREATE
 40
2457917.243472222
  9
$TDUPDATE
 40
2457917.618472222
  9
$TDUUPDATE
 40
2457917.243472222
  9
$TDINDWG
 40
0.0000000116
  9
$TDUSRTIMER
 40
0.0000000116
  9
$USRTIMER
 70
     1
  9
$ANGBASE
 50
0.0
  9
$ANGDIR
 70
     0
  9
$PDMODE
 70
     0
  9
$PDSIZE
 40
0.0
  9
$PLINEWID
 40
0.0
  9
$SPLFRAME
 70
     0
  9
$SPLINETYPE
 70
     6
  9
$SPLINESEGS
 70
     8
  9
$HANDSEED
  5
CF
  9
$SURFTAB1
 70
     6
  9
$SURFTAB2
 70
     6
  9
$SURFTYPE
 70
     6
  9
$SURFU
 70
     6
  9
$SURFV
 70
     6
  9
$UCSBASE
  2

  9
$UCSNAME
  2

  9
$UCSORG
 10
0.0
 20
0.0
 30
0.0
  9
$UCSXDIR
 10
1.0
 20
0.0
 30
0.0
  9
$UCSYDIR
 10
0.0
 20
1.0
 30
0.0
  9
$UCSORTHOREF
  2

  9
$UCSORTHOVIEW
 70
     0
  9
$UCSORGTOP
 10
0.0
 20
0.0
 30
0.0
  9
$UCSORGBOTTOM
 10
0.0
 20
0.0
 30
0.0
  9
$UCSORGLEFT
 10
0.0
 20
0.0
 30
0.0
  9
$UCSORGRIGHT
 10
0.0
 20
0.0
 30
0.0
  9
$UCSORGFRONT
 10
0.0
 20
0.0
 30
0.0
  9
$UCSORGBACK
 10
0.0
 20
0.0
 30
0.0
  9
$PUCSBASE
  2

  9
$PUCSNAME
  2

  9
$PUCSORG
 10
0.0
 20
0.0
 30
0.0
  9
$PUCSXDIR
 10
1.0
 20
0.0
 30
0.0
  9
$PUCSYDIR
 10
0.0
 20
1.0
 30
0.0
  9
$PUCSORTHOREF
  2

  9
$PUCSORTHOVIEW
 70
     0
  9
$PUCSORGTOP
 10
0.0
 20
0.0
 30
0.0
  9
$PUCSORGBOTTOM
 10
0.0
 20
0.0
 30
0.0
  9
$PUCSORGLEFT
 10
0.0
 20
0.0
 30
0.0
  9
$PUCSORGRIGHT
 10
0.0
 20
0.0
 30
0.0
  9
$PUCSORGFRONT
 10
0.0
 20
0.0
 30
0.0
  9
$PUCSORGBACK
 10
0.0
 20
0.0
 30
0.0
  9
$USERI1
 70
     0
  9
$USERI2
 70
     0
  9
$USERI3
 70
     0
  9
$USERI4
 70
     0
  9
$USERI5
 70
     0
  9
$USERR1
 40
0.0
  9
$USERR2
 40
0.0
  9
$USERR3
 40
0.0
  9
$USERR4
 40
0.0
  9
$USERR5
 40
0.0
  9
$WORLDVIEW
 70
     1
  9
$SHADEDGE
 70
     3
  9
$SHADEDIF
 70
    70
  9
$TILEMODE
 70
     1
  9
$MAXACTVP
 70
    64
  9
$PINSBASE
 10
0.0
 20
0.0
 30
0.0
  9
$PLIMCHECK
 70
     0
  9
$PEXTMIN
 10
1.000000000000000E+20
 20
1.000000000000000E+20
 30
1.000000000000000E+20
  9
$PEXTMAX
 10
-1.000000000000000E+20
 20
-1.000000000000000E+20
 30
-1.000000000000000E+20
  9
$PLIMMIN
 10
0.0
 20
0.0
  9
$PLIMMAX
 10
12.0
 20
9.0
  9
$UNITMODE
 70
     0
  9
$VISRETAIN
 70
     1
  9
$PLINEGEN
 70
     0
  9
$PSLTSCALE
 70
     1
  9
$TREEDEPTH
 70
  3020
  9
$CMLSTYLE
  2
Standard
  9
$CMLJUST
 70
     0
  9
$CMLSCALE
 40
1.0
  9
$PROXYGRAPHICS
 70
     1
  9
$MEASUREMENT
 70
     0
  9
$CELWEIGHT
370
    -1
  9
$ENDCAPS
280
     0
  9
$JOINSTYLE
280
     0
  9
$LWDISPLAY
290
     1
  9
$INSUNITS
 70
     1
  9
$HYPERLINKBASE
  1

  9
$STYLESHEET
  1

  9
$XEDIT
290
     1
  9
$CEPSNTYPE
380
     0
  9
$PSTYLEMODE
290
     1
  9
$FINGERPRINTGUID
  2
{C0BC1B04-C5E3-06E1-9512-9B7A6181872F}
  9
$VERSIONGUID
  2
{FAEB1C32-E019-11D5-929B-00C0DF256EC4}
  9
$EXTNAMES
290
     1
  9
$PSVPSCALE
 40
0.0
  9
$OLESTARTUP
290
     0
  9
$SORTENTS
280
   127
  9
$INDEXCTL
280
     0
  9
$HIDETEXT
280
     1
  9
$XCLIPFRAME
280
     2
  9
$HALOGAP
280
     0
  9
$OBSCOLOR
 70
   257
  9
$OBSLTYPE
280
     0
  9
$INTERSECTIONDISPLAY
280
     0
  9
$INTERSECTIONCOLOR
 70
   257
  9
$DIMASSOC
280
     2
  9
$PROJECTNAME
  1

  9
$CAMERADISPLAY
290
     0
  9
$LENSLENGTH
 40
50.0
  9
$CAMERAHEIGHT
 40
0.0
  9
$STEPSPERSEC
 40
2.0
  9
$STEPSIZE
 40
6.0
  9
$3DDWFPREC
 40
2.0
  9
$PSOLWIDTH
 40
0.25
  9
$PSOLHEIGHT
 40
4.0
  9
$LOFTANG1
 40
1.570796326794897
  9
$LOFTANG2
 40
1.570796326794897
  9
$LOFTMAG1
 40
0.0
  9
$LOFTMAG2
 40
0.0
  9
$LOFTPARAM
 70
     7
  9
$LOFTNORMALS
280
     1
  9
$LATITUDE
 40
37.795
  9
$LONGITUDE
 40
-122.394
  9
$NORTHDIRECTION
 40
0.0
  9
$TIMEZONE
 70
 -8000
  9
$LIGHTGLYPHDISPLAY
280
     1
  9
$TILEMODELIGHTSYNCH
280
     1
  9
$CMATERIAL
347
3C
  9
$SOLIDHIST
280
     1
  9
$SHOWHIST
280
     1
  9
$DWFFRAME
280
     2
  9
$DGNFRAME
280
     2
  9
$REALWORLDSCALE
290
     1
  9
$INTERFERECOLOR
 62
   256
  9
$CSHADOW
280
     0
  9
$SHADOWPLANELOCATION
 40
0.0
  0
ENDSEC
  0
SECTION
  2
CLASSES
  0
CLASS
  1
ACDBDICTIONARYWDFLT
  2
AcDbDictionaryWithDefault
  3
ObjectDBX Classes
 90
        0
 91
        4
280
     0
281
     0
  0
CLASS
  1
VISUALSTYLE
  2
AcDbVisualStyle
  3
ObjectDBX Classes
 90
     4095
 91
        4
280
     0
281
     0
  0
CLASS
  1
MATERIAL
  2
AcDbMaterial
  3
ObjectDBX Classes
 90
     1153
 91
        4
280
     0
281
     0
  0
CLASS
  1
SUN
  2
AcDbSun
  3
SCENEOE
 90
     1024
 91
        4
280
     0
281
     0
  0
ENDSEC
  0
SECTION
  2
TABLES
  0
TABLE
  2
VPORT
  5
8
330
0
100
AcDbSymbolTable
 70
     1
  0
VPORT
  5
29
330
8
100
AcDbSymbolTableRecord
100
AcDbViewportTableRecord
  2
*Active
 70
     0
 10
0.0
 20
0.0
 11
1.0
 21
1.0
 12
0.0
 22
0.0
 13
0.0
 23
0.0
 14
0.5
 24
0.5
 15
0.5
 25
0.5
 16
0.0
 26
0.0
 36
1.0
 17
91.00082462281999
 27
-128.4993055234307
 37
0.0
 40
256.9986110468615
 41
0.7081814508812795
 42
50.0
 43
0.0
 44
0.0
 50
0.0
 51
0.0
 71
     0
 72
   100
 73
     1
 74
     3
 75
     0
 76
     0
 77
     0
 78
     0
281
     0
 65
     1
110
0.0
120
0.0
130
0.0
111
1.0
121
0.0
131
0.0
112
0.0
122
1.0
132
0.0
 79
     0
146
0.0
 60
     3
 61
     5
292
     1
282
     1
141
0.0
142
0.0
 63
   250
361
3F
  0
ENDTAB
  0
TABLE
  2
LTYPE
  5
5
330
0
100
AcDbSymbolTable
 70
     1
  0
LTYPE
  5
14
330
5
100
AcDbSymbolTableRecord
100
AcDbLinetypeTableRecord
  2
ByBlock
 70
     0
  3

 72
    65
 73
     0
 40
0.0
  0
LTYPE
  5
15
330
5
100
AcDbSymbolTableRecord
100
AcDbLinetypeTableRecord
  2
ByLayer
 70
     0
  3

 72
    65
 73
     0
 40
0.0
  0
LTYPE
  5
16
330
5
100
AcDbSymbolTableRecord
100
AcDbLinetypeTableRecord
  2
Continuous
 70
     0
  3
Solid line
 72
    65
 73
     0
 40
0.0
  0
ENDTAB
  0
TABLE
  2
LAYER
  5
2
330
0
100
AcDbSymbolTable
 70
     2
  0
LAYER
  5
10
330
2
100
AcDbSymbolTableRecord
100
AcDbLayerTableRecord
  2
0
 70
     0
 62
     7
  6
Continuous
370
    -3
390
F
347
3E
  0
LAYER
  5
40
330
2
100
AcDbSymbolTableRecord
100
AcDbLayerTableRecord
  2
_U+30EC_U+30A4_U+30E4_U+30FC 1
 70
     0
 62
     7
  6
Continuous
370
    -3
390
F
347
3E
  0
ENDTAB
  0
TABLE
  2
STYLE
  5
3
330
0
100
AcDbSymbolTable
 70
     1
  0
STYLE
  5
11
330
3
100
AcDbSymbolTableRecord
100
AcDbTextStyleTableRecord
  2
Standard
 70
     0
 40
0.0
 41
1.0
 50
0.0
 71
     0
 42
0.2
  3
txt
  4

  0
ENDTAB
  0
TABLE
  2
VIEW
  5
6
330
0
100
AcDbSymbolTable
 70
     0
  0
ENDTAB
  0
TABLE
  2
UCS
  5
7
330
0
100
AcDbSymbolTable
 70
     0
  0
ENDTAB
  0
TABLE
  2
APPID
  5
9
330
0
100
AcDbSymbolTable
 70
     1
  0
APPID
  5
12
330
9
100
AcDbSymbolTableRecord
100
AcDbRegAppTableRecord
  2
ACAD
 70
     0
  0
ENDTAB
  0
TABLE
  2
DIMSTYLE
  5
A
330
0
100
AcDbSymbolTable
 70
     1
100
AcDbDimStyleTable
  0
DIMSTYLE
105
27
330
A
100
AcDbSymbolTableRecord
100
AcDbDimStyleTableRecord
  2
Standard
 70
     0
178
     0
340
11
  0
ENDTAB
  0
TABLE
  2
BLOCK_RECORD
  5
1
330
0
100
AcDbSymbolTable
 70
     7
  0
BLOCK_RECORD
  5
1F
330
1
100
AcDbSymbolTableRecord
100
AcDbBlockTableRecord
  2
*Model_Space
340
22
 70
     0
280
     1
281
     0
  0
BLOCK_RECORD
  5
1B
330
1
100
AcDbSymbolTableRecord
100
AcDbBlockTableRecord
  2
*Paper_Space
340
1E
 70
     0
280
     1
281
     0
  0
BLOCK_RECORD
  5
23
330
1
100
AcDbSymbolTableRecord
100
AcDbBlockTableRecord
  2
*Paper_Space0
340
26
 70
     0
280
     1
281
     0
  0
BLOCK_RECORD
  5
7B
330
1
100
AcDbSymbolTableRecord
100
AcDbBlockTableRecord
  2
block 2
340
0
102
{BLKREFS
331
7C
102
}
 70
     0
280
     1
281
     0
  0
BLOCK_RECORD
  5
91
330
1
100
AcDbSymbolTableRecord
100
AcDbBlockTableRecord
  2
block 3
340
0
102
{BLKREFS
331
92
102
}
 70
     0
280
     1
281
     0
  0
BLOCK_RECORD
  5
A5
330
1
100
AcDbSymbolTableRecord
100
AcDbBlockTableRecord
  2
block 4
340
0
102
{BLKREFS
331
A6
102
}
 70
     0
280
     1
281
     0
  0
BLOCK_RECORD
  5
AE
330
1
100
AcDbSymbolTableRecord
100
AcDbBlockTableRecord
  2
block 5
340
0
102
{BLKREFS
331
AF
102
}
 70
     0
280
     1
281
     0
  0
BLOCK_RECORD
  5
B4
330
1
100
AcDbSymbolTableRecord
100
AcDbBlockTableRecord
  2
block 6
340
0
102
{BLKREFS
331
B5
102
}
 70
     0
280
     1
281
     0
  0
BLOCK_RECORD
  5
C7
330
1
100
AcDbSymbolTableRecord
100
AcDbBlockTableRecord
  2
block 7
340
0
102
{BLKREFS
331
C8
102
}
 70
     0
280
     1
281
     0
  0
ENDTAB
  0
ENDSEC
  0
SECTION
  2
BLOCKS
  0
BLOCK
  5
20
330
1F
100
AcDbEntity
  8
0
100
AcDbBlockBegin
  2
*Model_Space
 70
     0
 10
0.0
 20
0.0
 30
0.0
  3
*Model_Space
  1

  0
ENDBLK
  5
21
330
1F
100
AcDbEntity
  8
0
100
AcDbBlockEnd
  0
BLOCK
  5
1C
330
1B
100
AcDbEntity
 67
     1
  8
0
100
AcDbBlockBegin
  2
*Paper_Space
 70
     0
 10
0.0
 20
0.0
 30
0.0
  3
*Paper_Space
  1

  0
ENDBLK
  5
1D
330
1B
100
AcDbEntity
 67
     1
  8
0
100
AcDbBlockEnd
  0
BLOCK
  5
24
330
23
100
AcDbEntity
  8
0
100
AcDbBlockBegin
  2
*Paper_Space0
 70
     0
 10
0.0
 20
0.0
 30
0.0
  3
*Paper_Space0
  1

  0
ENDBLK
  5
25
330
23
100
AcDbEntity
  8
0
100
AcDbBlockEnd
  0
BLOCK
  5
7D
330
7B
100
AcDbEntity
  8
0
100
AcDbBlockBegin
  2
block 2
 70
     0
 10
0.0
 20
0.0
 30
0.0
  3
block 2
  1

  0
SPLINE
  5
7F
330
7B
100
AcDbEntity
  8
_U+30EC_U+30A4_U+30E4_U+30FC 1
370
     0
100
AcDbSpline
210
0.0
220
0.0
230
1.0
 70
    11
 71
     3
 72
    26
 73
    22
 74
     0
 42
0.0000000001
 43
0.0000000001
 12
1.0
 22
0.0
 32
0.0
 13
1.0
 23
0.0
 33
0.0
 40
0.0
 40
0.0
 40
0.0
 40
0.0
 40
1.0
 40
1.0
 40
1.0
 40
2.0
 40
2.0
 40
2.0
 40
3.0
 40
3.0
 40
3.0
 40
4.0
 40
4.0
 40
4.0
 40
5.0
 40
5.0
 40
5.0
 40
6.0
 40
6.0
 40
6.0
 40
7.0
 40
7.0
 40
7.0
 40
7.0
 10
87.60274927280418
 20
-138.7860161328382
 30
0.0
 10
87.60274927280418
 20
-138.7860161328382
 30
0.0
 10
87.60274927280418
 20
-137.6818630298156
 30
0.0
 10
87.60274927280418
 20
-137.6818630298156
 30
0.0
 10
87.60274927280418
 20
-137.6818630298156
 30
0.0
 10
87.25031600466312
 20
-137.6818630298156
 30
0.0
 10
87.25031600466312
 20
-137.6818630298156
 30
0.0
 10
87.25031600466312
 20
-137.6818630298156
 30
0.0
 10
87.25031600466312
 20
-137.5337239239499
 30
0.0
 10
87.25031600466312
 20
-137.5337239239499
 30
0.0
 10
87.60516083964386
 20
-137.5189100133633
 30
0.0
 10
87.65477021463145
 20
-137.355956996911
 30
0.0
 10
87.68646509309575
 20
-137.2415798268007
 30
0.0
 10
87.68646509309575
 20
-137.2415798268007
 30
0.0
 10
87.84252791857756
 20
-137.2415798268007
 30
0.0
 10
87.84252791857756
 20
-137.2415798268007
 30
0.0
 10
87.84252791857756
 20
-137.2415798268007
 30
0.0
 10
87.84252791857756
 20
-138.7860161328382
 30
0.0
 10
87.84252791857756
 20
-138.7860161328382
 30
0.0
 10
87.84252791857756
 20
-138.7860161328382
 30
0.0
 10
87.60274927280418
 20
-138.7860161328382
 30
0.0
 10
87.60274927280418
 20
-138.7860161328382
 30
0.0
  0
HATCH
  5
80
330
7B
100
AcDbEntity
  8
_U+30EC_U+30A4_U+30E4_U+30FC 1
 62
   179
420
  2234388
100
AcDbHatch
 10
0.0
 20
0.0
 30
0.0
210
0.0
220
0.0
230
1.0
  2
SOLID
 70
     1
 71
     0
 91
        1
 92
        1
 93
        1
 72
     4
 94
        3
 73
     0
 74
     1
 95
       26
 96
       22
 40
0.0
 40
0.0
 40
0.0
 40
0.0
 40
1.0
 40
1.0
 40
1.0
 40
2.0
 40
2.0
 40
2.0
 40
3.0
 40
3.0
 40
3.0
 40
4.0
 40
4.0
 40
4.0
 40
5.0
 40
5.0
 40
5.0
 40
6.0
 40
6.0
 40
6.0
 40
7.0
 40
7.0
 40
7.0
 40
7.0
 10
87.60274927280418
 20
-138.7860161328382
 10
87.60274927280418
 20
-138.7860161328382
 10
87.60274927280418
 20
-137.6818630298156
 10
87.60274927280418
 20
-137.6818630298156
 10
87.60274927280418
 20
-137.6818630298156
 10
87.25031600466312
 20
-137.6818630298156
 10
87.25031600466312
 20
-137.6818630298156
 10
87.25031600466312
 20
-137.6818630298156
 10
87.25031600466312
 20
-137.5337239239499
 10
87.25031600466312
 20
-137.5337239239499
 10
87.60516083964386
 20
-137.5189100133633
 10
87.65477021463145
 20
-137.355956996911
 10
87.68646509309575
 20
-137.2415798268007
 10
87.68646509309575
 20
-137.2415798268007
 10
87.84252791857756
 20
-137.2415798268007
 10
87.84252791857756
 20
-137.2415798268007
 10
87.84252791857756
 20
-137.2415798268007
 10
87.84252791857756
 20
-138.7860161328382
 10
87.84252791857756
 20
-138.7860161328382
 10
87.84252791857756
 20
-138.7860161328382
 10
87.60274927280418
 20
-138.7860161328382
 10
87.60274927280418
 20
-138.7860161328382
 97
        0
 97
        0
 75
     2
 76
     1
 98
        0
  0
SPLINE
  5
81
330
7B
100
AcDbEntity
  8
_U+30EC_U+30A4_U+30E4_U+30FC 1
370
     0
100
AcDbSpline
210
0.0
220
0.0
230
1.0
 70
    11
 71
     3
 72
    29
 73
    25
 74
     0
 42
0.0000000001
 43
0.0000000001
 12
1.0
 22
0.0
 32
0.0
 13
1.0
 23
0.0
 33
0.0
 40
0.0
 40
0.0
 40
0.0
 40
0.0
 40
1.0
 40
1.0
 40
1.0
 40
2.0
 40
2.0
 40
2.0
 40
3.0
 40
3.0
 40
3.0
 40
4.0
 40
4.0
 40
4.0
 40
5.0
 40
5.0
 40
5.0
 40
6.0
 40
6.0
 40
6.0
 40
7.0
 40
7.0
 40
7.0
 40
8.0
 40
8.0
 40
8.0
 40
8.0
 10
88.91257457629617
 20
-138.8366590364714
 30
0.0
 10
88.62766517966601
 20
-138.8366590364714
 30
0.0
 10
88.35653616497684
 20
-138.6991997266099
 30
0.0
 10
88.35653616497684
 20
-138.3502115539541
 30
0.0
 10
88.35653616497684
 20
-138.0942409594001
 30
0.0
 10
88.50812036632783
 20
-137.9991563240072
 30
0.0
 10
88.62111949824403
 20
-137.9378336243697
 30
0.0
 10
88.48779430296486
 20
-137.8785779820234
 30
0.0
 10
88.40614553996444
 20
-137.7642008119131
 30
0.0
 10
88.40614553996444
 20
-137.603314852752
 30
0.0
 10
88.40614553996444
 20
-137.328396233029
 30
0.0
 10
88.61870793140436
 20
-137.1930039804587
 30
0.0
 10
88.91257457629617
 20
-137.1930039804587
 30
0.0
 10
89.21574297899815
 20
-137.1930039804587
 30
0.0
 10
89.41900361262789
 20
-137.3370089717421
 30
0.0
 10
89.41900361262789
 20
-137.603314852752
 30
0.0
 10
89.41900361262789
 20
-137.7642008119131
 30
0.0
 10
89.33563230188484
 20
-137.8785779820234
 30
0.0
 10
89.20196259705715
 20
-137.9378336243697
 30
0.0
 10
89.29704723245005
 20
-137.9884765280029
 30
0.0
 10
89.46654593032434
 20
-138.0835611633958
 30
0.0
 10
89.46654593032434
 20
-138.3460774393718
 30
0.0
 10
89.46654593032434
 20
-138.7205593186185
 30
0.0
 10
89.16820066130171
 20
-138.8366590364714
 30
0.0
 10
88.91257457629617
 20
-138.8366590364714
 30
0.0
  0
SPLINE
  5
82
330
7B
100
AcDbEntity
  8
_U+30EC_U+30A4_U+30E4_U+30FC 1
370
     0
100
AcDbSpline
210
0.0
220
0.0
230
1.0
 70
    11
 71
     3
 72
    17
 73
    13
 74
     0
 42
0.0000000001
 43
0.0000000001
 12
1.0
 22
0.0
 32
0.0
 13
1.0
 23
0.0
 33
0.0
 40
0.0
 40
0.0
 40
0.0
 40
0.0
 40
1.0
 40
1.0
 40
1.0
 40
2.0
 40
2.0
 40
2.0
 40
3.0
 40
3.0
 40
3.0
 40
4.0
 40
4.0
 40
4.0
 40
4.0
 10
88.91257457629617
 20
-138.045665113058
 30
0.0
 10
88.75892331765402
 20
-138.045665113058
 30
0.0
 10
88.59631481075023
 20
-138.1324815192863
 30
0.0
 10
88.59631481075023
 20
-138.3353976433675
 30
0.0
 10
88.59631481075023
 20
-138.5407253342884
 30
0.0
 10
88.73170706332056
 20
-138.6420111415548
 30
0.0
 10
88.91257457629617
 20
-138.6420111415548
 30
0.0
 10
89.1117010953436
 20
-138.6420111415548
 30
0.0
 10
89.22917885139063
 20
-138.5193657422799
 30
0.0
 10
89.22917885139063
 20
-138.341598815241
 30
0.0
 10
89.22917885139063
 20
-138.1197346659909
 30
0.0
 10
89.05520152938551
 20
-138.045665113058
 30
0.0
 10
88.91257457629617
 20
-138.045665113058
 30
0.0
  0
SPLINE
  5
83
330
7B
100
AcDbEntity
  8
_U+30EC_U+30A4_U+30E4_U+30FC 1
370
     0
100
AcDbSpline
210
0.0
220
0.0
230
1.0
 70
    11
 71
     3
 72
    17
 73
    13
 74
     0
 42
0.0000000001
 43
0.0000000001
 12
1.0
 22
0.0
 32
0.0
 13
1.0
 23
0.0
 33
0.0
 40
0.0
 40
0.0
 40
0.0
 40
0.0
 40
1.0
 40
1.0
 40
1.0
 40
2.0
 40
2.0
 40
2.0
 40
3.0
 40
3.0
 40
3.0
 40
4.0
 40
4.0
 40
4.0
 40
4.0
 10
88.91257457629617
 20
-137.3855848180842
 30
0.0
 10
88.7365301969999
 20
-137.3855848180842
 30
0.0
 10
88.64592418573783
 20
-137.480669453477
 30
0.0
 10
88.64592418573783
 20
-137.6160617060474
 30
0.0
 10
88.64592418573783
 20
-137.7387071053223
 30
0.0
 10
88.7227498150589
 20
-137.8572183900149
 30
0.0
 10
88.91257457629617
 20
-137.8572183900149
 30
0.0
 10
89.10274384708195
 20
-137.8572183900149
 30
0.0
 10
89.17956947640303
 20
-137.7387071053223
 30
0.0
 10
89.17956947640303
 20
-137.6160617060474
 30
0.0
 10
89.17956947640303
 20
-137.480669453477
 30
0.0
 10
89.0868964078498
 20
-137.3855848180842
 30
0.0
 10
88.91257457629617
 20
-137.3855848180842
 30
0.0
  0
HATCH
  5
84
330
7B
100
AcDbEntity
  8
_U+30EC_U+30A4_U+30E4_U+30FC 1
 62
   179
420
  2234388
100
AcDbHatch
 10
0.0
 20
0.0
 30
0.0
210
0.0
220
0.0
230
1.0
  2
SOLID
 70
     1
 71
     0
 91
        3
 92
        1
 93
        1
 72
     4
 94
        3
 73
     0
 74
     1
 95
       29
 96
       25
 40
0.0
 40
0.0
 40
0.0
 40
0.0
 40
1.0
 40
1.0
 40
1.0
 40
2.0
 40
2.0
 40
2.0
 40
3.0
 40
3.0
 40
3.0
 40
4.0
 40
4.0
 40
4.0
 40
5.0
 40
5.0
 40
5.0
 40
6.0
 40
6.0
 40
6.0
 40
7.0
 40
7.0
 40
7.0
 40
8.0
 40
8.0
 40
8.0
 40
8.0
 10
88.91257457629617
 20
-138.8366590364714
 10
88.62766517966601
 20
-138.8366590364714
 10
88.35653616497684
 20
-138.6991997266099
 10
88.35653616497684
 20
-138.3502115539541
 10
88.35653616497684
 20
-138.0942409594001
 10
88.50812036632783
 20
-137.9991563240072
 10
88.62111949824403
 20
-137.9378336243697
 10
88.48779430296486
 20
-137.8785779820234
 10
88.40614553996444
 20
-137.7642008119131
 10
88.40614553996444
 20
-137.603314852752
 10
88.40614553996444
 20
-137.328396233029
 10
88.61870793140436
 20
-137.1930039804587
 10
88.91257457629617
 20
-137.1930039804587
 10
89.21574297899815
 20
-137.1930039804587
 10
89.41900361262789
 20
-137.3370089717421
 10
89.41900361262789
 20
-137.603314852752
 10
89.41900361262789
 20
-137.7642008119131
 10
89.33563230188484
 20
-137.8785779820234
 10
89.20196259705715
 20
-137.9378336243697
 10
89.29704723245005
 20
-137.9884765280029
 10
89.46654593032434
 20
-138.0835611633958
 10
89.46654593032434
 20
-138.3460774393718
 10
89.46654593032434
 20
-138.7205593186185
 10
89.16820066130171
 20
-138.8366590364714
 10
88.91257457629617
 20
-138.8366590364714
 97
        0
 97
        0
 92
        1
 93
        1
 72
     4
 94
        3
 73
     0
 74
     1
 95
       17
 96
       13
 40
0.0
 40
0.0
 40
0.0
 40
0.0
 40
1.0
 40
1.0
 40
1.0
 40
2.0
 40
2.0
 40
2.0
 40
3.0
 40
3.0
 40
3.0
 40
4.0
 40
4.0
 40
4.0
 40
4.0
 10
88.91257457629617
 20
-138.045665113058
 10
88.75892331765402
 20
-138.045665113058
 10
88.59631481075023
 20
-138.1324815192863
 10
88.59631481075023
 20
-138.3353976433675
 10
88.59631481075023
 20
-138.5407253342884
 10
88.73170706332056
 20
-138.6420111415548
 10
88.91257457629617
 20
-138.6420111415548
 10
89.1117010953436
 20
-138.6420111415548
 10
89.22917885139063
 20
-138.5193657422799
 10
89.22917885139063
 20
-138.341598815241
 10
89.22917885139063
 20
-138.1197346659909
 10
89.05520152938551
 20
-138.045665113058
 10
88.91257457629617
 20
-138.045665113058
 97
        0
 97
        0
 92
        1
 93
        1
 72
     4
 94
        3
 73
     0
 74
     1
 95
       17
 96
       13
 40
0.0
 40
0.0
 40
0.0
 40
0.0
 40
1.0
 40
1.0
 40
1.0
 40
2.0
 40
2.0
 40
2.0
 40
3.0
 40
3.0
 40
3.0
 40
4.0
 40
4.0
 40
4.0
 40
4.0
 10
88.91257457629617
 20
-137.3855848180842
 10
88.7365301969999
 20
-137.3855848180842
 10
88.64592418573783
 20
-137.480669453477
 10
88.64592418573783
 20
-137.6160617060474
 10
88.64592418573783
 20
-137.7387071053223
 10
88.7227498150589
 20
-137.8572183900149
 10
88.91257457629617
 20
-137.8572183900149
 10
89.10274384708195
 20
-137.8572183900149
 10
89.17956947640303
 20
-137.7387071053223
 10
89.17956947640303
 20
-137.6160617060474
 10
89.17956947640303
 20
-137.480669453477
 10
89.0868964078498
 20
-137.3855848180842
 10
88.91257457629617
 20
-137.3855848180842
 97
        0
 97
        0
 75
     2
 76
     1
 98
        0
  0
ENDBLK
  5
7E
330
7B
100
AcDbEntity
  8
0
100
AcDbBlockEnd
  0
BLOCK
  5
93
330
91
100
AcDbEntity
  8
0
100
AcDbBlockBegin
  2
block 3
 70
     0
 10
0.0
 20
0.0
 30
0.0
  3
block 3
  1

  0
SPLINE
  5
95
330
91
100
AcDbEntity
  8
_U+30EC_U+30A4_U+30E4_U+30FC 1
370
     0
100
AcDbSpline
210
0.0
220
0.0
230
1.0
 70
    11
 71
     3
 72
    29
 73
    25
 74
     0
 42
0.0000000001
 43
0.0000000001
 12
1.0
 22
0.0
 32
0.0
 13
1.0
 23
0.0
 33
0.0
 40
0.0
 40
0.0
 40
0.0
 40
0.0
 40
1.0
 40
1.0
 40
1.0
 40
2.0
 40
2.0
 40
2.0
 40
3.0
 40
3.0
 40
3.0
 40
4.0
 40
4.0
 40
4.0
 40
5.0
 40
5.0
 40
5.0
 40
6.0
 40
6.0
 40
6.0
 40
7.0
 40
7.0
 40
7.0
 40
8.0
 40
8.0
 40
8.0
 40
8.0
 10
83.3215291132842
 20
-118.6868123075679
 30
0.0
 10
83.03661971665404
 20
-118.6868123075679
 30
0.0
 10
82.76531844719062
 20
-118.5491807429322
 30
0.0
 10
82.76531844719062
 20
-118.2001925702763
 30
0.0
 10
82.76531844719062
 20
-117.9442219757223
 30
0.0
 10
82.91673039376735
 20
-117.8489650855551
 30
0.0
 10
83.0299017804578
 20
-117.7876423859177
 30
0.0
 10
82.89640433040438
 20
-117.7283867435714
 30
0.0
 10
82.81510007695248
 20
-117.6141818282353
 30
0.0
 10
82.81510007695248
 20
-117.4534681238484
 30
0.0
 10
82.81510007695248
 20
-117.1783772493512
 30
0.0
 10
83.02749021361814
 20
-117.0429849967809
 30
0.0
 10
83.3215291132842
 20
-117.0429849967809
 30
0.0
 10
83.62452526121193
 20
-117.0429849967809
 30
0.0
 10
83.82795814961594
 20
-117.1868177332901
 30
0.0
 10
83.82795814961594
 20
-117.4534681238484
 30
0.0
 10
83.82795814961594
 20
-117.6141818282353
 30
0.0
 10
83.74424232932436
 20
-117.7283867435714
 30
0.0
 10
83.6109171340452
 20
-117.7876423859177
 30
0.0
 10
83.70582951466382
 20
-117.8384575443251
 30
0.0
 10
83.87532821253812
 20
-117.9337144344923
 30
0.0
 10
83.87532821253812
 20
-118.196058455694
 30
0.0
 10
83.87532821253812
 20
-118.5703680801664
 30
0.0
 10
83.57698294351547
 20
-118.6868123075679
 30
0.0
 10
83.3215291132842
 20
-118.6868123075679
 30
0.0
  0
SPLINE
  5
96
330
91
100
AcDbEntity
  8
_U+30EC_U+30A4_U+30E4_U+30FC 1
370
     0
100
AcDbSpline
210
0.0
220
0.0
230
1.0
 70
    11
 71
     3
 72
    17
 73
    13
 74
     0
 42
0.0000000001
 43
0.0000000001
 12
1.0
 22
0.0
 32
0.0
 13
1.0
 23
0.0
 33
0.0
 40
0.0
 40
0.0
 40
0.0
 40
0.0
 40
1.0
 40
1.0
 40
1.0
 40
2.0
 40
2.0
 40
2.0
 40
3.0
 40
3.0
 40
3.0
 40
4.0
 40
4.0
 40
4.0
 40
4.0
 10
83.3215291132842
 20
-117.8956461293803
 30
0.0
 10
83.1677055998678
 20
-117.8956461293803
 30
0.0
 10
83.00492483818975
 20
-117.9822902808343
 30
0.0
 10
83.00492483818975
 20
-118.1853786596898
 30
0.0
 10
83.00492483818975
 20
-118.3905340958364
 30
0.0
 10
83.14066160030859
 20
-118.4921644126513
 30
0.0
 10
83.3215291132842
 20
-118.4921644126513
 30
0.0
 10
83.52048337755738
 20
-118.4921644126513
 30
0.0
 10
83.6379611336044
 20
-118.3695190133764
 30
0.0
 10
83.6379611336044
 20
-118.1917520863375
 30
0.0
 10
83.6379611336044
 20
-117.9695434275389
 30
0.0
 10
83.46398381159929
 20
-117.8956461293803
 30
0.0
 10
83.3215291132842
 20
-117.8956461293803
 30
0.0
  0
SPLINE
  5
97
330
91
100
AcDbEntity
  8
_U+30EC_U+30A4_U+30E4_U+30FC 1
370
     0
100
AcDbSpline
210
0.0
220
0.0
230
1.0
 70
    11
 71
     3
 72
    17
 73
    13
 74
     0
 42
0.0000000001
 43
0.0000000001
 12
1.0
 22
0.0
 32
0.0
 13
1.0
 23
0.0
 33
0.0
 40
0.0
 40
0.0
 40
0.0
 40
0.0
 40
1.0
 40
1.0
 40
1.0
 40
2.0
 40
2.0
 40
2.0
 40
3.0
 40
3.0
 40
3.0
 40
4.0
 40
4.0
 40
4.0
 40
4.0
 10
83.3215291132842
 20
-117.2355658344064
 30
0.0
 10
83.14514022443942
 20
-117.2355658344064
 30
0.0
 10
83.0547064679516
 20
-117.3306504697993
 30
0.0
 10
83.0547064679516
 20
-117.4660427223696
 30
0.0
 10
83.0547064679516
 20
-117.5888603764188
 30
0.0
 10
83.13153209727268
 20
-117.7073716611114
 30
0.0
 10
83.3215291132842
 20
-117.7073716611114
 30
0.0
 10
83.51135387452148
 20
-117.7073716611114
 30
0.0
 10
83.58835175861681
 20
-117.5888603764188
 30
0.0
 10
83.58835175861681
 20
-117.4660427223696
 30
0.0
 10
83.58835175861681
 20
-117.3306504697993
 30
0.0
 10
83.49550643528931
 20
-117.2355658344064
 30
0.0
 10
83.3215291132842
 20
-117.2355658344064
 30
0.0
  0
HATCH
  5
98
330
91
100
AcDbEntity
  8
_U+30EC_U+30A4_U+30E4_U+30FC 1
 62
   179
420
  2234388
100
AcDbHatch
 10
0.0
 20
0.0
 30
0.0
210
0.0
220
0.0
230
1.0
  2
SOLID
 70
     1
 71
     0
 91
        3
 92
        1
 93
        1
 72
     4
 94
        3
 73
     0
 74
     1
 95
       29
 96
       25
 40
0.0
 40
0.0
 40
0.0
 40
0.0
 40
1.0
 40
1.0
 40
1.0
 40
2.0
 40
2.0
 40
2.0
 40
3.0
 40
3.0
 40
3.0
 40
4.0
 40
4.0
 40
4.0
 40
5.0
 40
5.0
 40
5.0
 40
6.0
 40
6.0
 40
6.0
 40
7.0
 40
7.0
 40
7.0
 40
8.0
 40
8.0
 40
8.0
 40
8.0
 10
83.3215291132842
 20
-118.6868123075679
 10
83.03661971665404
 20
-118.6868123075679
 10
82.76531844719062
 20
-118.5491807429322
 10
82.76531844719062
 20
-118.2001925702763
 10
82.76531844719062
 20
-117.9442219757223
 10
82.91673039376735
 20
-117.8489650855551
 10
83.0299017804578
 20
-117.7876423859177
 10
82.89640433040438
 20
-117.7283867435714
 10
82.81510007695248
 20
-117.6141818282353
 10
82.81510007695248
 20
-117.4534681238484
 10
82.81510007695248
 20
-117.1783772493512
 10
83.02749021361814
 20
-117.0429849967809
 10
83.3215291132842
 20
-117.0429849967809
 10
83.62452526121193
 20
-117.0429849967809
 10
83.82795814961594
 20
-117.1868177332901
 10
83.82795814961594
 20
-117.4534681238484
 10
83.82795814961594
 20
-117.6141818282353
 10
83.74424232932436
 20
-117.7283867435714
 10
83.6109171340452
 20
-117.7876423859177
 10
83.70582951466382
 20
-117.8384575443251
 10
83.87532821253812
 20
-117.9337144344923
 10
83.87532821253812
 20
-118.196058455694
 10
83.87532821253812
 20
-118.5703680801664
 10
83.57698294351547
 20
-118.6868123075679
 10
83.3215291132842
 20
-118.6868123075679
 97
        0
 97
        0
 92
        1
 93
        1
 72
     4
 94
        3
 73
     0
 74
     1
 95
       17
 96
       13
 40
0.0
 40
0.0
 40
0.0
 40
0.0
 40
1.0
 40
1.0
 40
1.0
 40
2.0
 40
2.0
 40
2.0
 40
3.0
 40
3.0
 40
3.0
 40
4.0
 40
4.0
 40
4.0
 40
4.0
 10
83.3215291132842
 20
-117.8956461293803
 10
83.1677055998678
 20
-117.8956461293803
 10
83.00492483818975
 20
-117.9822902808343
 10
83.00492483818975
 20
-118.1853786596898
 10
83.00492483818975
 20
-118.3905340958364
 10
83.14066160030859
 20
-118.4921644126513
 10
83.3215291132842
 20
-118.4921644126513
 10
83.52048337755738
 20
-118.4921644126513
 10
83.6379611336044
 20
-118.3695190133764
 10
83.6379611336044
 20
-118.1917520863375
 10
83.6379611336044
 20
-117.9695434275389
 10
83.46398381159929
 20
-117.8956461293803
 10
83.3215291132842
 20
-117.8956461293803
 97
        0
 97
        0
 92
        1
 93
        1
 72
     4
 94
        3
 73
     0
 74
     1
 95
       17
 96
       13
 40
0.0
 40
0.0
 40
0.0
 40
0.0
 40
1.0
 40
1.0
 40
1.0
 40
2.0
 40
2.0
 40
2.0
 40
3.0
 40
3.0
 40
3.0
 40
4.0
 40
4.0
 40
4.0
 40
4.0
 10
83.3215291132842
 20
-117.2355658344064
 10
83.14514022443942
 20
-117.2355658344064
 10
83.0547064679516
 20
-117.3306504697993
 10
83.0547064679516
 20
-117.4660427223696
 10
83.0547064679516
 20
-117.5888603764188
 10
83.13153209727268
 20
-117.7073716611114
 10
83.3215291132842
 20
-117.7073716611114
 10
83.51135387452148
 20
-117.7073716611114
 10
83.58835175861681
 20
-117.5888603764188
 10
83.58835175861681
 20
-117.4660427223696
 10
83.58835175861681
 20
-117.3306504697993
 10
83.49550643528931
 20
-117.2355658344064
 10
83.3215291132842
 20
-117.2355658344064
 97
        0
 97
        0
 75
     2
 76
     1
 98
        0
  0
ENDBLK
  5
94
330
91
100
AcDbEntity
  8
0
100
AcDbBlockEnd
  0
BLOCK
  5
A7
330
A5
100
AcDbEntity
  8
0
100
AcDbBlockBegin
  2
block 4
 70
     0
 10
0.0
 20
0.0
 30
0.0
  3
block 4
  1

  0
SPLINE
  5
A9
330
A5
100
AcDbEntity
  8
_U+30EC_U+30A4_U+30E4_U+30FC 1
370
     0
100
AcDbSpline
210
0.0
220
0.0
230
1.0
 70
    11
 71
     3
 72
    26
 73
    22
 74
     0
 42
0.0000000001
 43
0.0000000001
 12
1.0
 22
0.0
 32
0.0
 13
1.0
 23
0.0
 33
0.0
 40
0.0
 40
0.0
 40
0.0
 40
0.0
 40
1.0
 40
1.0
 40
1.0
 40
2.0
 40
2.0
 40
2.0
 40
3.0
 40
3.0
 40
3.0
 40
4.0
 40
4.0
 40
4.0
 40
5.0
 40
5.0
 40
5.0
 40
6.0
 40
6.0
 40
6.0
 40
7.0
 40
7.0
 40
7.0
 40
7.0
 10
100.2078368890106
 20
-130.0585557400548
 30
0.0
 10
100.2078368890106
 20
-130.0585557400548
 30
0.0
 10
99.10368378598797
 20
-130.0585557400548
 30
0.0
 10
99.10368378598797
 20
-130.0585557400548
 30
0.0
 10
99.10368378598797
 20
-130.0585557400548
 30
0.0
 10
99.10368378598797
 20
-130.4109890081959
 30
0.0
 10
99.10368378598797
 20
-130.4109890081959
 30
0.0
 10
99.10368378598797
 20
-130.4109890081959
 30
0.0
 10
98.95554468012223
 20
-130.4109890081959
 30
0.0
 10
98.95554468012223
 20
-130.4109890081959
 30
0.0
 10
98.94073076953566
 20
-130.0561441732151
 30
0.0
 10
98.77777775308334
 20
-130.0065347982275
 30
0.0
 10
98.66340058297304
 20
-129.9748399197632
 30
0.0
 10
98.66340058297304
 20
-129.9748399197632
 30
0.0
 10
98.66340058297304
 20
-129.8187770942814
 30
0.0
 10
98.66340058297304
 20
-129.8187770942814
 30
0.0
 10
98.66340058297304
 20
-129.8187770942814
 30
0.0
 10
100.2078368890106
 20
-129.8187770942814
 30
0.0
 10
100.2078368890106
 20
-129.8187770942814
 30
0.0
 10
100.2078368890106
 20
-129.8187770942814
 30
0.0
 10
100.2078368890106
 20
-130.0585557400548
 30
0.0
 10
100.2078368890106
 20
-130.0585557400548
 30
0.0
  0
HATCH
  5
AA
330
A5
100
AcDbEntity
  8
_U+30EC_U+30A4_U+30E4_U+30FC 1
 62
   179
420
  2234388
100
AcDbHatch
 10
0.0
 20
0.0
 30
0.0
210
0.0
220
0.0
230
1.0
  2
SOLID
 70
     1
 71
     0
 91
        1
 92
        1
 93
        1
 72
     4
 94
        3
 73
     0
 74
     1
 95
       26
 96
       22
 40
0.0
 40
0.0
 40
0.0
 40
0.0
 40
1.0
 40
1.0
 40
1.0
 40
2.0
 40
2.0
 40
2.0
 40
3.0
 40
3.0
 40
3.0
 40
4.0
 40
4.0
 40
4.0
 40
5.0
 40
5.0
 40
5.0
 40
6.0
 40
6.0
 40
6.0
 40
7.0
 40
7.0
 40
7.0
 40
7.0
 10
100.2078368890106
 20
-130.0585557400548
 10
100.2078368890106
 20
-130.0585557400548
 10
99.10368378598797
 20
-130.0585557400548
 10
99.10368378598797
 20
-130.0585557400548
 10
99.10368378598797
 20
-130.0585557400548
 10
99.10368378598797
 20
-130.4109890081959
 10
99.10368378598797
 20
-130.4109890081959
 10
99.10368378598797
 20
-130.4109890081959
 10
98.95554468012223
 20
-130.4109890081959
 10
98.95554468012223
 20
-130.4109890081959
 10
98.94073076953566
 20
-130.0561441732151
 10
98.77777775308334
 20
-130.0065347982275
 10
98.66340058297304
 20
-129.9748399197632
 10
98.66340058297304
 20
-129.9748399197632
 10
98.66340058297304
 20
-129.8187770942814
 10
98.66340058297304
 20
-129.8187770942814
 10
98.66340058297304
 20
-129.8187770942814
 10
100.2078368890106
 20
-129.8187770942814
 10
100.2078368890106
 20
-129.8187770942814
 10
100.2078368890106
 20
-129.8187770942814
 10
100.2078368890106
 20
-130.0585557400548
 10
100.2078368890106
 20
-130.0585557400548
 97
        0
 97
        0
 75
     2
 76
     1
 98
        0
  0
SPLINE
  5
AB
330
A5
100
AcDbEntity
  8
_U+30EC_U+30A4_U+30E4_U+30FC 1
370
     0
100
AcDbSpline
210
0.0
220
0.0
230
1.0
 70
    11
 71
     3
 72
    29
 73
    25
 74
     0
 42
0.0000000001
 43
0.0000000001
 12
1.0
 22
0.0
 32
0.0
 13
1.0
 23
0.0
 33
0.0
 40
0.0
 40
0.0
 40
0.0
 40
0.0
 40
1.0
 40
1.0
 40
1.0
 40
2.0
 40
2.0
 40
2.0
 40
3.0
 40
3.0
 40
3.0
 40
4.0
 40
4.0
 40
4.0
 40
5.0
 40
5.0
 40
5.0
 40
6.0
 40
6.0
 40
6.0
 40
7.0
 40
7.0
 40
7.0
 40
8.0
 40
8.0
 40
8.0
 40
8.0
 10
100.0300699619716
 20
-128.323605653683
 30
0.0
 10
100.2395317674748
 20
-128.4390163524389
 30
0.0
 10
100.2584797926437
 20
-128.6243624895453
 30
0.0
 10
100.2584797926437
 20
-128.7487304365628
 30
0.0
 10
100.2584797926437
 20
-128.9202961917283
 30
0.0
 10
100.2119710035929
 20
-129.0718803930793
 30
0.0
 10
100.0300699619716
 20
-129.1735107098941
 30
0.0
 10
99.83542206705503
 20
-129.2844427845192
 30
0.0
 10
99.59839949766985
 20
-129.3047688478821
 30
0.0
 10
99.43579099076605
 20
-129.3047688478821
 30
0.0
 10
99.29178599948261
 20
-129.3047688478821
 30
0.0
 10
99.03994951951086
 20
-129.2865098418103
 30
0.0
 10
98.84116751001193
 20
-129.1735107098941
 30
0.0
 10
98.63825138593072
 20
-129.0584445206868
 30
0.0
 10
98.61482473663102
 20
-128.8865342559728
 30
0.0
 10
98.61482473663102
 20
-128.7487304365628
 30
0.0
 10
98.61482473663102
 20
-128.57888722914
 30
0.0
 10
98.65926646839074
 20
-128.4252359704979
 30
0.0
 10
98.84116751001193
 20
-128.323605653683
 30
0.0
 10
99.0337483476374
 20
-128.2171522031888
 30
0.0
 10
99.26215817830946
 20
-128.192347515695
 30
0.0
 10
99.43579099076605
 20
-128.192347515695
 30
0.0
 10
99.60701223638297
 20
-128.192347515695
 30
0.0
 10
99.83748912434619
 20
-128.2150851458976
 30
0.0
 10
100.0300699619716
 20
-128.323605653683
 30
0.0
  0
SPLINE
  5
AC
330
A5
100
AcDbEntity
  8
_U+30EC_U+30A4_U+30E4_U+30FC 1
370
     0
100
AcDbSpline
210
0.0
220
0.0
230
1.0
 70
    11
 71
     3
 72
    17
 73
    13
 74
     0
 42
0.0000000001
 43
0.0000000001
 12
1.0
 22
0.0
 32
0.0
 13
1.0
 23
0.0
 33
0.0
 40
0.0
 40
0.0
 40
0.0
 40
0.0
 40
1.0
 40
1.0
 40
1.0
 40
2.0
 40
2.0
 40
2.0
 40
3.0
 40
3.0
 40
3.0
 40
4.0
 40
4.0
 40
4.0
 40
4.0
 10
98.80740557425649
 20
-128.7487304365628
 30
0.0
 10
98.80740557425649
 20
-129.0153808271212
 30
0.0
 10
99.09093693269254
 20
-129.0649902021088
 30
0.0
 10
99.43579099076605
 20
-129.0649902021088
 30
0.0
 10
99.75515134224872
 20
-129.0649902021088
 30
0.0
 10
100.0638318977271
 20
-129.0267496422225
 30
0.0
 10
100.0638318977271
 20
-128.7487304365628
 30
0.0
 10
100.0638318977271
 20
-128.4841471032956
 30
0.0
 10
99.78271210613072
 20
-128.4321261614684
 30
0.0
 10
99.43579099076605
 20
-128.4321261614684
 30
0.0
 10
99.11608612973487
 20
-128.4321261614684
 30
0.0
 10
98.80740557425649
 20
-128.4727782881943
 30
0.0
 10
98.80740557425649
 20
-128.7487304365628
 30
0.0
  0
HATCH
  5
AD
330
A5
100
AcDbEntity
  8
_U+30EC_U+30A4_U+30E4_U+30FC 1
 62
   179
420
  2234388
100
AcDbHatch
 10
0.0
 20
0.0
 30
0.0
210
0.0
220
0.0
230
1.0
  2
SOLID
 70
     1
 71
     0
 91
        2
 92
        1
 93
        1
 72
     4
 94
        3
 73
     0
 74
     1
 95
       29
 96
       25
 40
0.0
 40
0.0
 40
0.0
 40
0.0
 40
1.0
 40
1.0
 40
1.0
 40
2.0
 40
2.0
 40
2.0
 40
3.0
 40
3.0
 40
3.0
 40
4.0
 40
4.0
 40
4.0
 40
5.0
 40
5.0
 40
5.0
 40
6.0
 40
6.0
 40
6.0
 40
7.0
 40
7.0
 40
7.0
 40
8.0
 40
8.0
 40
8.0
 40
8.0
 10
100.0300699619716
 20
-128.323605653683
 10
100.2395317674748
 20
-128.4390163524389
 10
100.2584797926437
 20
-128.6243624895453
 10
100.2584797926437
 20
-128.7487304365628
 10
100.2584797926437
 20
-128.9202961917283
 10
100.2119710035929
 20
-129.0718803930793
 10
100.0300699619716
 20
-129.1735107098941
 10
99.83542206705503
 20
-129.2844427845192
 10
99.59839949766985
 20
-129.3047688478821
 10
99.43579099076605
 20
-129.3047688478821
 10
99.29178599948261
 20
-129.3047688478821
 10
99.03994951951086
 20
-129.2865098418103
 10
98.84116751001193
 20
-129.1735107098941
 10
98.63825138593072
 20
-129.0584445206868
 10
98.61482473663102
 20
-128.8865342559728
 10
98.61482473663102
 20
-128.7487304365628
 10
98.61482473663102
 20
-128.57888722914
 10
98.65926646839074
 20
-128.4252359704979
 10
98.84116751001193
 20
-128.323605653683
 10
99.0337483476374
 20
-128.2171522031888
 10
99.26215817830946
 20
-128.192347515695
 10
99.43579099076605
 20
-128.192347515695
 10
99.60701223638297
 20
-128.192347515695
 10
99.83748912434619
 20
-128.2150851458976
 10
100.0300699619716
 20
-128.323605653683
 97
        0
 97
        0
 92
        1
 93
        1
 72
     4
 94
        3
 73
     0
 74
     1
 95
       17
 96
       13
 40
0.0
 40
0.0
 40
0.0
 40
0.0
 40
1.0
 40
1.0
 40
1.0
 40
2.0
 40
2.0
 40
2.0
 40
3.0
 40
3.0
 40
3.0
 40
4.0
 40
4.0
 40
4.0
 40
4.0
 10
98.80740557425649
 20
-128.7487304365628
 10
98.80740557425649
 20
-129.0153808271212
 10
99.09093693269254
 20
-129.0649902021088
 10
99.43579099076605
 20
-129.0649902021088
 10
99.75515134224872
 20
-129.0649902021088
 10
100.0638318977271
 20
-129.0267496422225
 10
100.0638318977271
 20
-128.7487304365628
 10
100.0638318977271
 20
-128.4841471032956
 10
99.78271210613072
 20
-128.4321261614684
 10
99.43579099076605
 20
-128.4321261614684
 10
99.11608612973487
 20
-128.4321261614684
 10
98.80740557425649
 20
-128.4727782881943
 10
98.80740557425649
 20
-128.7487304365628
 97
        0
 97
        0
 75
     2
 76
     1
 98
        0
  0
ENDBLK
  5
A8
330
A5
100
AcDbEntity
  8
0
100
AcDbBlockEnd
  0
BLOCK
  5
B0
330
AE
100
AcDbEntity
  8
0
100
AcDbBlockBegin
  2
block 5
 70
     0
 10
0.0
 20
0.0
 30
0.0
  3
block 5
  1

  0
SPLINE
  5
B2
330
AE
100
AcDbEntity
  8
_U+30EC_U+30A4_U+30E4_U+30FC 1
 62
   179
420
  2234388
370
     9
100
AcDbSpline
210
0.0
220
0.0
230
1.0
 70
    11
 71
     3
 72
    17
 73
    13
 74
     0
 42
0.0000000001
 43
0.0000000001
 12
1.0
 22
0.0
 32
0.0
 13
1.0
 23
0.0
 33
0.0
 40
0.0
 40
0.0
 40
0.0
 40
0.0
 40
1.0
 40
1.0
 40
1.0
 40
2.0
 40
2.0
 40
2.0
 40
3.0
 40
3.0
 40
3.0
 40
4.0
 40
4.0
 40
4.0
 40
4.0
 10
82.8962139962525
 20
-129.1494044121572
 30
0.0
 10
82.8962139962525
 20
-129.0942652455041
 30
0.0
 10
82.85144649739462
 20
-129.0494977455156
 30
0.0
 10
82.79630733213466
 20
-129.0494977455156
 30
0.0
 10
82.74120553487039
 20
-129.0494977455156
 30
0.0
 10
82.69640275710367
 20
-129.0942652455041
 30
0.0
 10
82.69640275710367
 20
-129.1494044121572
 30
0.0
 10
82.69640275710367
 20
-129.2045083010321
 30
0.0
 10
82.74120553487039
 20
-129.2493110787989
 30
0.0
 10
82.79630733213466
 20
-129.2493110787989
 30
0.0
 10
82.85144649739462
 20
-129.2493110787989
 30
0.0
 10
82.8962139962525
 20
-129.2045083010321
 30
0.0
 10
82.8962139962525
 20
-129.1494044121572
 30
0.0
  0
SPLINE
  5
B3
330
AE
100
AcDbEntity
  8
_U+30EC_U+30A4_U+30E4_U+30FC 1
 62
   179
420
  2234388
370
     9
100
AcDbSpline
210
0.0
220
0.0
230
1.0
 70
    11
 71
     3
 72
    17
 73
    13
 74
     0
 42
0.0000000001
 43
0.0000000001
 12
1.0
 22
0.0
 32
0.0
 13
1.0
 23
0.0
 33
0.0
 40
0.0
 40
0.0
 40
0.0
 40
0.0
 40
1.0
 40
1.0
 40
1.0
 40
2.0
 40
2.0
 40
2.0
 40
3.0
 40
3.0
 40
3.0
 40
4.0
 40
4.0
 40
4.0
 40
4.0
 10
83.89598619296841
 20
-129.1494044121572
 30
0.0
 10
83.89598619296841
 20
-129.0942652455041
 30
0.0
 10
83.85121869411053
 20
-129.0494977455156
 30
0.0
 10
83.79607952885057
 20
-129.0494977455156
 30
0.0
 10
83.74097775684261
 20
-129.0494977455156
 30
0.0
 10
83.69617497907589
 20
-129.0942652455041
 30
0.0
 10
83.69617497907589
 20
-129.1494044121572
 30
0.0
 10
83.69617497907589
 20
-129.2045083010321
 30
0.0
 10
83.74097775684261
 20
-129.2493110787989
 30
0.0
 10
83.79607952885057
 20
-129.2493110787989
 30
0.0
 10
83.85121869411053
 20
-129.2493110787989
 30
0.0
 10
83.89598619296841
 20
-129.2045083010321
 30
0.0
 10
83.89598619296841
 20
-129.1494044121572
 30
0.0
  0
INSERT
  5
B5
330
AE
100
AcDbEntity
  8
_U+30EC_U+30A4_U+30E4_U+30FC 1
100
AcDbBlockReference
  2
block 6
 10
0.0
 20
0.0
 30
0.0
  0
POLYLINE
  5
BA
330
AE
100
AcDbEntity
  8
_U+30EC_U+30A4_U+30E4_U+30FC 1
 62
   179
420
  2234388
370
     9
100
AcDb2dPolyline
 66
     1
 10
0.0
 20
0.0
 30
0.0
  0
VERTEX
  5
BB
330
BA
100
AcDbEntity
  8
_U+30EC_U+30A4_U+30E4_U+30FC 1
 62
   179
420
  2234388
370
     9
100
AcDbVertex
100
AcDb2dVertex
 10
84.65735117354437
 20
-129.1494044121572
 30
0.0
  0
VERTEX
  5
BC
330
BA
100
AcDbEntity
  8
_U+30EC_U+30A4_U+30E4_U+30FC 1
 62
   179
420
  2234388
370
     9
100
AcDbVertex
100
AcDb2dVertex
 10
80.81814127149077
 20
-129.1494044121572
 30
0.0
  0
SEQEND
  5
BD
330
BA
100
AcDbEntity
  8
_U+30EC_U+30A4_U+30E4_U+30FC 1
 62
   179
420
  2234388
370
     9
  0
ENDBLK
  5
B1
330
AE
100
AcDbEntity
  8
0
100
AcDbBlockEnd
  0
BLOCK
  5
B6
330
B4
100
AcDbEntity
  8
0
100
AcDbBlockBegin
  2
block 6
 70
     0
 10
0.0
 20
0.0
 30
0.0
  3
block 6
  1

  0
SPLINE
  5
B8
330
B4
100
AcDbEntity
  8
_U+30EC_U+30A4_U+30E4_U+30FC 1
370
     0
100
AcDbSpline
210
0.0
220
0.0
230
1.0
 70
    11
 71
     3
 72
    26
 73
    22
 74
     0
 42
0.0000000001
 43
0.0000000001
 12
1.0
 22
0.0
 32
0.0
 13
1.0
 23
0.0
 33
0.0
 40
0.0
 40
0.0
 40
0.0
 40
0.0
 40
1.0
 40
1.0
 40
1.0
 40
2.0
 40
2.0
 40
2.0
 40
3.0
 40
3.0
 40
3.0
 40
4.0
 40
4.0
 40
4.0
 40
5.0
 40
5.0
 40
5.0
 40
6.0
 40
6.0
 40
6.0
 40
7.0
 40
7.0
 40
7.0
 40
7.0
 10
81.62171900086193
 20
-128.9137505103063
 30
0.0
 10
81.62171900086193
 20
-128.9137505103063
 30
0.0
 10
81.62171900086193
 20
-127.8095974072837
 30
0.0
 10
81.62171900086193
 20
-127.8095974072837
 30
0.0
 10
81.62171900086193
 20
-127.8095974072837
 30
0.0
 10
81.291678853375
 20
-127.8095974072837
 30
0.0
 10
81.291678853375
 20
-127.8095974072837
 30
0.0
 10
81.291678853375
 20
-127.8095974072837
 30
0.0
 10
81.291678853375
 20
-127.661458301418
 30
0.0
 10
81.291678853375
 20
-127.661458301418
 30
0.0
 10
81.62378605815309
 20
-127.6468166456057
 30
0.0
 10
81.67029484720396
 20
-127.4838636291533
 30
0.0
 10
81.69992266837711
 20
-127.3696587138173
 30
0.0
 10
81.69992266837711
 20
-127.3696587138173
 30
0.0
 10
81.8459947169517
 20
-127.3696587138173
 30
0.0
 10
81.8459947169517
 20
-127.3696587138173
 30
0.0
 10
81.8459947169517
 20
-127.3696587138173
 30
0.0
 10
81.8459947169517
 20
-128.9137505103063
 30
0.0
 10
81.8459947169517
 20
-128.9137505103063
 30
0.0
 10
81.8459947169517
 20
-128.9137505103063
 30
0.0
 10
81.62171900086193
 20
-128.9137505103063
 30
0.0
 10
81.62171900086193
 20
-128.9137505103063
 30
0.0
  0
HATCH
  5
B9
330
B4
100
AcDbEntity
  8
_U+30EC_U+30A4_U+30E4_U+30FC 1
 62
   179
420
  2234388
100
AcDbHatch
 10
0.0
 20
0.0
 30
0.0
210
0.0
220
0.0
230
1.0
  2
SOLID
 70
     1
 71
     0
 91
        1
 92
        1
 93
        1
 72
     4
 94
        3
 73
     0
 74
     1
 95
       26
 96
       22
 40
0.0
 40
0.0
 40
0.0
 40
0.0
 40
1.0
 40
1.0
 40
1.0
 40
2.0
 40
2.0
 40
2.0
 40
3.0
 40
3.0
 40
3.0
 40
4.0
 40
4.0
 40
4.0
 40
5.0
 40
5.0
 40
5.0
 40
6.0
 40
6.0
 40
6.0
 40
7.0
 40
7.0
 40
7.0
 40
7.0
 10
81.62171900086193
 20
-128.9137505103063
 10
81.62171900086193
 20
-128.9137505103063
 10
81.62171900086193
 20
-127.8095974072837
 10
81.62171900086193
 20
-127.8095974072837
 10
81.62171900086193
 20
-127.8095974072837
 10
81.291678853375
 20
-127.8095974072837
 10
81.291678853375
 20
-127.8095974072837
 10
81.291678853375
 20
-127.8095974072837
 10
81.291678853375
 20
-127.661458301418
 10
81.291678853375
 20
-127.661458301418
 10
81.62378605815309
 20
-127.6468166456057
 10
81.67029484720396
 20
-127.4838636291533
 10
81.69992266837711
 20
-127.3696587138173
 10
81.69992266837711
 20
-127.3696587138173
 10
81.8459947169517
 20
-127.3696587138173
 10
81.8459947169517
 20
-127.3696587138173
 10
81.8459947169517
 20
-127.3696587138173
 10
81.8459947169517
 20
-128.9137505103063
 10
81.8459947169517
 20
-128.9137505103063
 10
81.8459947169517
 20
-128.9137505103063
 10
81.62171900086193
 20
-128.9137505103063
 10
81.62171900086193
 20
-128.9137505103063
 97
        0
 97
        0
 75
     2
 76
     1
 98
        0
  0
ENDBLK
  5
B7
330
B4
100
AcDbEntity
  8
0
100
AcDbBlockEnd
  0
BLOCK
  5
C9
330
C7
100
AcDbEntity
  8
0
100
AcDbBlockBegin
  2
block 7
 70
     0
 10
0.0
 20
0.0
 30
0.0
  3
block 7
  1

  0
SPLINE
  5
CB
330
C7
100
AcDbEntity
  8
_U+30EC_U+30A4_U+30E4_U+30FC 1
370
     0
100
AcDbSpline
210
0.0
220
0.0
230
1.0
 70
    11
 71
     3
 72
    26
 73
    22
 74
     0
 42
0.0000000001
 43
0.0000000001
 12
1.0
 22
0.0
 32
0.0
 13
1.0
 23
0.0
 33
0.0
 40
0.0
 40
0.0
 40
0.0
 40
0.0
 40
1.0
 40
1.0
 40
1.0
 40
2.0
 40
2.0
 40
2.0
 40
3.0
 40
3.0
 40
3.0
 40
4.0
 40
4.0
 40
4.0
 40
5.0
 40
5.0
 40
5.0
 40
6.0
 40
6.0
 40
6.0
 40
7.0
 40
7.0
 40
7.0
 40
7.0
 10
100.0621093499845
 20
-134.8989148968308
 30
0.0
 10
100.0621093499845
 20
-134.8989148968308
 30
0.0
 10
98.9579562469619
 20
-134.8989148968308
 30
0.0
 10
98.9579562469619
 20
-134.8989148968308
 30
0.0
 10
98.9579562469619
 20
-134.8989148968308
 30
0.0
 10
98.9579562469619
 20
-135.2513481649719
 30
0.0
 10
98.9579562469619
 20
-135.2513481649719
 30
0.0
 10
98.9579562469619
 20
-135.2513481649719
 30
0.0
 10
98.80981714109616
 20
-135.2513481649719
 30
0.0
 10
98.80981714109616
 20
-135.2513481649719
 30
0.0
 10
98.7950032305096
 20
-134.8965033299912
 30
0.0
 10
98.63205021405727
 20
-134.8468939550036
 30
0.0
 10
98.51767304394697
 20
-134.8151990765393
 30
0.0
 10
98.51767304394697
 20
-134.8151990765393
 30
0.0
 10
98.51767304394697
 20
-134.6591362510574
 30
0.0
 10
98.51767304394697
 20
-134.6591362510574
 30
0.0
 10
98.51767304394697
 20
-134.6591362510574
 30
0.0
 10
100.0621093499845
 20
-134.6591362510574
 30
0.0
 10
100.0621093499845
 20
-134.6591362510574
 30
0.0
 10
100.0621093499845
 20
-134.6591362510574
 30
0.0
 10
100.0621093499845
 20
-134.8989148968308
 30
0.0
 10
100.0621093499845
 20
-134.8989148968308
 30
0.0
  0
HATCH
  5
CC
330
C7
100
AcDbEntity
  8
_U+30EC_U+30A4_U+30E4_U+30FC 1
 62
   179
420
  2234388
100
AcDbHatch
 10
0.0
 20
0.0
 30
0.0
210
0.0
220
0.0
230
1.0
  2
SOLID
 70
     1
 71
     0
 91
        1
 92
        1
 93
        1
 72
     4
 94
        3
 73
     0
 74
     1
 95
       26
 96
       22
 40
0.0
 40
0.0
 40
0.0
 40
0.0
 40
1.0
 40
1.0
 40
1.0
 40
2.0
 40
2.0
 40
2.0
 40
3.0
 40
3.0
 40
3.0
 40
4.0
 40
4.0
 40
4.0
 40
5.0
 40
5.0
 40
5.0
 40
6.0
 40
6.0
 40
6.0
 40
7.0
 40
7.0
 40
7.0
 40
7.0
 10
100.0621093499845
 20
-134.8989148968308
 10
100.0621093499845
 20
-134.8989148968308
 10
98.9579562469619
 20
-134.8989148968308
 10
98.9579562469619
 20
-134.8989148968308
 10
98.9579562469619
 20
-134.8989148968308
 10
98.9579562469619
 20
-135.2513481649719
 10
98.9579562469619
 20
-135.2513481649719
 10
98.9579562469619
 20
-135.2513481649719
 10
98.80981714109616
 20
-135.2513481649719
 10
98.80981714109616
 20
-135.2513481649719
 10
98.7950032305096
 20
-134.8965033299912
 10
98.63205021405727
 20
-134.8468939550036
 10
98.51767304394697
 20
-134.8151990765393
 10
98.51767304394697
 20
-134.8151990765393
 10
98.51767304394697
 20
-134.6591362510574
 10
98.51767304394697
 20
-134.6591362510574
 10
98.51767304394697
 20
-134.6591362510574
 10
100.0621093499845
 20
-134.6591362510574
 10
100.0621093499845
 20
-134.6591362510574
 10
100.0621093499845
 20
-134.6591362510574
 10
100.0621093499845
 20
-134.8989148968308
 10
100.0621093499845
 20
-134.8989148968308
 97
        0
 97
        0
 75
     2
 76
     1
 98
        0
  0
ENDBLK
  5
CA
330
C7
100
AcDbEntity
  8
0
100
AcDbBlockEnd
  0
ENDSEC
  0
SECTION
  2
ENTITIES
  0
SPLINE
  5
41
330
1F
100
AcDbEntity
  8
_U+30EC_U+30A4_U+30E4_U+30FC 1
370
     0
100
AcDbSpline
210
0.0
220
0.0
230
1.0
 70
    11
 71
     3
 72
    53
 73
    49
 74
     0
 42
0.0000000001
 43
0.0000000001
 12
1.0
 22
0.0
 32
0.0
 13
1.0
 23
0.0
 33
0.0
 40
0.0
 40
0.0
 40
0.0
 40
0.0
 40
1.0
 40
1.0
 40
1.0
 40
2.0
 40
2.0
 40
2.0
 40
3.0
 40
3.0
 40
3.0
 40
4.0
 40
4.0
 40
4.0
 40
5.0
 40
5.0
 40
5.0
 40
6.0
 40
6.0
 40
6.0
 40
7.0
 40
7.0
 40
7.0
 40
8.0
 40
8.0
 40
8.0
 40
9.0
 40
9.0
 40
9.0
 40
10.0
 40
10.0
 40
10.0
 40
11.0
 40
11.0
 40
11.0
 40
12.0
 40
12.0
 40
12.0
 40
13.0
 40
13.0
 40
13.0
 40
14.0
 40
14.0
 40
14.0
 40
15.0
 40
15.0
 40
15.0
 40
16.0
 40
16.0
 40
16.0
 40
16.0
 10
96.77929164247153
 20
-134.8816905218352
 30
0.0
 10
96.77929164247153
 20
-134.8816905218352
 30
0.0
 10
87.14471666564195
 20
-134.8816905218352
 30
0.0
 10
87.14471666564195
 20
-134.8816905218352
 30
0.0
 10
86.9662816701942
 20
-134.5723044108013
 30
0.0
 10
86.63622497834082
 20
-134.382157188627
 30
0.0
 10
86.27931752105346
 20
-134.382157188627
 30
0.0
 10
86.27931752105346
 20
-134.382157188627
 30
0.0
 10
83.77886397373422
 20
-134.382157188627
 30
0.0
 10
83.77886397373422
 20
-134.382157188627
 30
0.0
 10
83.77886397373422
 20
-134.382157188627
 30
0.0
 10
83.77886397373422
 20
-124.3817185800156
 30
0.0
 10
83.77886397373422
 20
-124.3817185800156
 30
0.0
 10
83.77886397373422
 20
-124.3817185800156
 30
0.0
 10
86.77885084164262
 20
-124.3817185800156
 30
0.0
 10
86.77885084164262
 20
-124.3817185800156
 30
0.0
 10
87.0551463901493
 20
-124.3817185800156
 30
0.0
 10
87.27908971776937
 20
-124.1584808022938
 30
0.0
 10
87.27908971776937
 20
-123.8821852468071
 30
0.0
 10
87.27908971776937
 20
-123.6224349690944
 30
0.0
 10
87.08065222283192
 20
-123.4060763580374
 30
0.0
 10
86.8215722294416
 20
-123.3840277469318
 30
0.0
 10
84.46445228957674
 20
-123.1814627469824
 30
0.0
 10
82.09353873895267
 20
-123.1814627469824
 30
0.0
 10
79.73638352131094
 20
-123.3840277469318
 30
0.0
 10
79.46079352834182
 20
-123.4074521913703
 30
0.0
 10
79.25681942463024
 20
-123.6499869135318
 30
0.0
 10
79.28094742181896
 20
-123.9249066356854
 30
0.0
 10
79.30299603236757
 20
-124.1832810800652
 30
0.0
 10
79.51935463795891
 20
-124.3817185800156
 30
0.0
 10
79.77910490910992
 20
-124.3817185800156
 30
0.0
 10
79.77910490910992
 20
-124.3817185800156
 30
0.0
 10
82.77909177701832
 20
-124.3817185800156
 30
0.0
 10
82.77909177701832
 20
-124.3817185800156
 30
0.0
 10
82.77909177701832
 20
-124.3817185800156
 30
0.0
 10
82.77909177701832
 20
-134.382157188627
 30
0.0
 10
82.77909177701832
 20
-134.382157188627
 30
0.0
 10
82.77909177701832
 20
-134.382157188627
 30
0.0
 10
80.27863822969908
 20
-134.382157188627
 30
0.0
 10
80.27863822969908
 20
-134.382157188627
 30
0.0
 10
79.72675268822331
 20
-134.382157188627
 30
0.0
 10
79.27886603298317
 20
-134.8300085774034
 30
0.0
 10
79.27886603298317
 20
-135.3819294105989
 30
0.0
 10
79.27886603298317
 20
-135.3819294105989
 30
0.0
 10
97.27882497568037
 20
-135.3819294105989
 30
0.0
 10
97.27882497568037
 20
-135.3819294105989
 30
0.0
 10
97.27882497568037
 20
-135.1056338551125
 30
0.0
 10
97.05487919059041
 20
-134.8816905218352
 30
0.0
 10
96.77929164247153
 20
-134.8816905218352
 30
0.0
  0
HATCH
  5
42
330
1F
100
AcDbEntity
  8
_U+30EC_U+30A4_U+30E4_U+30FC 1
 62
   253
420
 11711154
100
AcDbHatch
 10
0.0
 20
0.0
 30
0.0
210
0.0
220
0.0
230
1.0
  2
SOLID
 70
     1
 71
     0
 91
        1
 92
        1
 93
        1
 72
     4
 94
        3
 73
     0
 74
     1
 95
       53
 96
       49
 40
0.0
 40
0.0
 40
0.0
 40
0.0
 40
1.0
 40
1.0
 40
1.0
 40
2.0
 40
2.0
 40
2.0
 40
3.0
 40
3.0
 40
3.0
 40
4.0
 40
4.0
 40
4.0
 40
5.0
 40
5.0
 40
5.0
 40
6.0
 40
6.0
 40
6.0
 40
7.0
 40
7.0
 40
7.0
 40
8.0
 40
8.0
 40
8.0
 40
9.0
 40
9.0
 40
9.0
 40
10.0
 40
10.0
 40
10.0
 40
11.0
 40
11.0
 40
11.0
 40
12.0
 40
12.0
 40
12.0
 40
13.0
 40
13.0
 40
13.0
 40
14.0
 40
14.0
 40
14.0
 40
15.0
 40
15.0
 40
15.0
 40
16.0
 40
16.0
 40
16.0
 40
16.0
 10
96.77929164247153
 20
-134.8816905218352
 10
96.77929164247153
 20
-134.8816905218352
 10
87.14471666564195
 20
-134.8816905218352
 10
87.14471666564195
 20
-134.8816905218352
 10
86.9662816701942
 20
-134.5723044108013
 10
86.63622497834082
 20
-134.382157188627
 10
86.27931752105346
 20
-134.382157188627
 10
86.27931752105346
 20
-134.382157188627
 10
83.77886397373422
 20
-134.382157188627
 10
83.77886397373422
 20
-134.382157188627
 10
83.77886397373422
 20
-134.382157188627
 10
83.77886397373422
 20
-124.3817185800156
 10
83.77886397373422
 20
-124.3817185800156
 10
83.77886397373422
 20
-124.3817185800156
 10
86.77885084164262
 20
-124.3817185800156
 10
86.77885084164262
 20
-124.3817185800156
 10
87.0551463901493
 20
-124.3817185800156
 10
87.27908971776937
 20
-124.1584808022938
 10
87.27908971776937
 20
-123.8821852468071
 10
87.27908971776937
 20
-123.6224349690944
 10
87.08065222283192
 20
-123.4060763580374
 10
86.8215722294416
 20
-123.3840277469318
 10
84.46445228957674
 20
-123.1814627469824
 10
82.09353873895267
 20
-123.1814627469824
 10
79.73638352131094
 20
-123.3840277469318
 10
79.46079352834182
 20
-123.4074521913703
 10
79.25681942463024
 20
-123.6499869135318
 10
79.28094742181896
 20
-123.9249066356854
 10
79.30299603236757
 20
-124.1832810800652
 10
79.51935463795891
 20
-124.3817185800156
 10
79.77910490910992
 20
-124.3817185800156
 10
79.77910490910992
 20
-124.3817185800156
 10
82.77909177701832
 20
-124.3817185800156
 10
82.77909177701832
 20
-124.3817185800156
 10
82.77909177701832
 20
-124.3817185800156
 10
82.77909177701832
 20
-134.382157188627
 10
82.77909177701832
 20
-134.382157188627
 10
82.77909177701832
 20
-134.382157188627
 10
80.27863822969908
 20
-134.382157188627
 10
80.27863822969908
 20
-134.382157188627
 10
79.72675268822331
 20
-134.382157188627
 10
79.27886603298317
 20
-134.8300085774034
 10
79.27886603298317
 20
-135.3819294105989
 10
79.27886603298317
 20
-135.3819294105989
 10
97.27882497568037
 20
-135.3819294105989
 10
97.27882497568037
 20
-135.3819294105989
 10
97.27882497568037
 20
-135.1056338551125
 10
97.05487919059041
 20
-134.8816905218352
 10
96.77929164247153
 20
-134.8816905218352
 97
        0
 97
        0
 75
     2
 76
     1
 98
        0
  0
POLYLINE
  5
43
330
1F
100
AcDbEntity
  8
_U+30EC_U+30A4_U+30E4_U+30FC 1
 62
   179
420
  2234388
370
    25
100
AcDb2dPolyline
 66
     1
 10
0.0
 20
0.0
 30
0.0
  0
VERTEX
  5
44
330
43
100
AcDbEntity
  8
_U+30EC_U+30A4_U+30E4_U+30FC 1
 62
   179
420
  2234388
370
    25
100
AcDbVertex
100
AcDb2dVertex
 10
80.27863822969908
 20
-134.382157188627
 30
0.0
  0
VERTEX
  5
45
330
43
100
AcDbEntity
  8
_U+30EC_U+30A4_U+30E4_U+30FC 1
 62
   179
420
  2234388
370
    25
100
AcDbVertex
100
AcDb2dVertex
 10
82.77909177701832
 20
-134.382157188627
 30
0.0
  0
SEQEND
  5
46
330
43
100
AcDbEntity
  8
_U+30EC_U+30A4_U+30E4_U+30FC 1
 62
   179
420
  2234388
370
    25
  0
POLYLINE
  5
47
330
1F
100
AcDbEntity
  8
_U+30EC_U+30A4_U+30E4_U+30FC 1
 62
   179
420
  2234388
370
    25
100
AcDb2dPolyline
 66
     1
 10
0.0
 20
0.0
 30
0.0
  0
VERTEX
  5
48
330
47
100
AcDbEntity
  8
_U+30EC_U+30A4_U+30E4_U+30FC 1
 62
   179
420
  2234388
370
    25
100
AcDbVertex
100
AcDb2dVertex
 10
79.27886603298317
 20
-135.3819294105989
 30
0.0
  0
VERTEX
  5
49
330
47
100
AcDbEntity
  8
_U+30EC_U+30A4_U+30E4_U+30FC 1
 62
   179
420
  2234388
370
    25
100
AcDbVertex
100
AcDb2dVertex
 10
97.27882497568037
 20
-135.3819294105989
 30
0.0
  0
SEQEND
  5
4A
330
47
100
AcDbEntity
  8
_U+30EC_U+30A4_U+30E4_U+30FC 1
 62
   179
420
  2234388
370
    25
  0
POLYLINE
  5
4B
330
1F
100
AcDbEntity
  8
_U+30EC_U+30A4_U+30E4_U+30FC 1
 62
   179
420
  2234388
370
    25
100
AcDb2dPolyline
 66
     1
 10
0.0
 20
0.0
 30
0.0
  0
VERTEX
  5
4C
330
4B
100
AcDbEntity
  8
_U+30EC_U+30A4_U+30E4_U+30FC 1
 62
   179
420
  2234388
370
    25
100
AcDbVertex
100
AcDb2dVertex
 10
87.14471666564195
 20
-134.8816905218352
 30
0.0
  0
VERTEX
  5
4D
330
4B
100
AcDbEntity
  8
_U+30EC_U+30A4_U+30E4_U+30FC 1
 62
   179
420
  2234388
370
    25
100
AcDbVertex
100
AcDb2dVertex
 10
96.77929164247153
 20
-134.8816905218352
 30
0.0
  0
SEQEND
  5
4E
330
4B
100
AcDbEntity
  8
_U+30EC_U+30A4_U+30E4_U+30FC 1
 62
   179
420
  2234388
370
    25
  0
POLYLINE
  5
4F
330
1F
100
AcDbEntity
  8
_U+30EC_U+30A4_U+30E4_U+30FC 1
 62
   179
420
  2234388
370
    25
100
AcDb2dPolyline
 66
     1
 10
0.0
 20
0.0
 30
0.0
  0
VERTEX
  5
50
330
4F
100
AcDbEntity
  8
_U+30EC_U+30A4_U+30E4_U+30FC 1
 62
   179
420
  2234388
370
    25
100
AcDbVertex
100
AcDb2dVertex
 10
79.77910490910992
 20
-124.3817185800156
 30
0.0
  0
VERTEX
  5
51
330
4F
100
AcDbEntity
  8
_U+30EC_U+30A4_U+30E4_U+30FC 1
 62
   179
420
  2234388
370
    25
100
AcDbVertex
100
AcDb2dVertex
 10
82.77909177701832
 20
-124.3817185800156
 30
0.0
  0
SEQEND
  5
52
330
4F
100
AcDbEntity
  8
_U+30EC_U+30A4_U+30E4_U+30FC 1
 62
   179
420
  2234388
370
    25
  0
POLYLINE
  5
53
330
1F
100
AcDbEntity
  8
_U+30EC_U+30A4_U+30E4_U+30FC 1
 62
   179
420
  2234388
370
    25
100
AcDb2dPolyline
 66
     1
 10
0.0
 20
0.0
 30
0.0
  0
VERTEX
  5
54
330
53
100
AcDbEntity
  8
_U+30EC_U+30A4_U+30E4_U+30FC 1
 62
   179
420
  2234388
370
    25
100
AcDbVertex
100
AcDb2dVertex
 10
82.77909177701832
 20
-124.3817185800156
 30
0.0
  0
VERTEX
  5
55
330
53
100
AcDbEntity
  8
_U+30EC_U+30A4_U+30E4_U+30FC 1
 62
   179
420
  2234388
370
    25
100
AcDbVertex
100
AcDb2dVertex
 10
82.77909177701832
 20
-134.382157188627
 30
0.0
  0
SEQEND
  5
56
330
53
100
AcDbEntity
  8
_U+30EC_U+30A4_U+30E4_U+30FC 1
 62
   179
420
  2234388
370
    25
  0
POLYLINE
  5
57
330
1F
100
AcDbEntity
  8
_U+30EC_U+30A4_U+30E4_U+30FC 1
 62
   179
420
  2234388
370
    25
100
AcDb2dPolyline
 66
     1
 10
0.0
 20
0.0
 30
0.0
  0
VERTEX
  5
58
330
57
100
AcDbEntity
  8
_U+30EC_U+30A4_U+30E4_U+30FC 1
 62
   179
420
  2234388
370
    25
100
AcDbVertex
100
AcDb2dVertex
 10
83.77886397373422
 20
-124.3817185800156
 30
0.0
  0
VERTEX
  5
59
330
57
100
AcDbEntity
  8
_U+30EC_U+30A4_U+30E4_U+30FC 1
 62
   179
420
  2234388
370
    25
100
AcDbVertex
100
AcDb2dVertex
 10
83.77886397373422
 20
-134.382157188627
 30
0.0
  0
SEQEND
  5
5A
330
57
100
AcDbEntity
  8
_U+30EC_U+30A4_U+30E4_U+30FC 1
 62
   179
420
  2234388
370
    25
  0
POLYLINE
  5
5B
330
1F
100
AcDbEntity
  8
_U+30EC_U+30A4_U+30E4_U+30FC 1
 62
   179
420
  2234388
370
    25
100
AcDb2dPolyline
 66
     1
 10
0.0
 20
0.0
 30
0.0
  0
VERTEX
  5
5C
330
5B
100
AcDbEntity
  8
_U+30EC_U+30A4_U+30E4_U+30FC 1
 62
   179
420
  2234388
370
    25
100
AcDbVertex
100
AcDb2dVertex
 10
83.77886397373422
 20
-124.3817185800156
 30
0.0
  0
VERTEX
  5
5D
330
5B
100
AcDbEntity
  8
_U+30EC_U+30A4_U+30E4_U+30FC 1
 62
   179
420
  2234388
370
    25
100
AcDbVertex
100
AcDb2dVertex
 10
86.77885084164262
 20
-124.3817185800156
 30
0.0
  0
SEQEND
  5
5E
330
5B
100
AcDbEntity
  8
_U+30EC_U+30A4_U+30E4_U+30FC 1
 62
   179
420
  2234388
370
    25
  0
POLYLINE
  5
5F
330
1F
100
AcDbEntity
  8
_U+30EC_U+30A4_U+30E4_U+30FC 1
 62
   179
420
  2234388
370
    25
100
AcDb2dPolyline
 66
     1
 10
0.0
 20
0.0
 30
0.0
  0
VERTEX
  5
60
330
5F
100
AcDbEntity
  8
_U+30EC_U+30A4_U+30E4_U+30FC 1
 62
   179
420
  2234388
370
    25
100
AcDbVertex
100
AcDb2dVertex
 10
83.77886397373422
 20
-134.382157188627
 30
0.0
  0
VERTEX
  5
61
330
5F
100
AcDbEntity
  8
_U+30EC_U+30A4_U+30E4_U+30FC 1
 62
   179
420
  2234388
370
    25
100
AcDbVertex
100
AcDb2dVertex
 10
86.27931752105346
 20
-134.382157188627
 30
0.0
  0
SEQEND
  5
62
330
5F
100
AcDbEntity
  8
_U+30EC_U+30A4_U+30E4_U+30FC 1
 62
   179
420
  2234388
370
    25
  0
SPLINE
  5
63
330
1F
100
AcDbEntity
  8
_U+30EC_U+30A4_U+30E4_U+30FC 1
 62
   179
420
  2234388
370
    25
100
AcDbSpline
210
0.0
220
0.0
230
1.0
 70
     8
 71
     3
 72
     8
 73
     4
 74
     0
 42
0.0000000001
 43
0.0000000001
 12
1.0
 22
0.0
 32
0.0
 13
1.0
 23
0.0
 33
0.0
 40
0.0
 40
0.0
 40
0.0
 40
0.0
 40
1.0
 40
1.0
 40
1.0
 40
1.0
 10
97.27882497568037
 20
-135.3819294105989
 30
0.0
 10
97.27882497568037
 20
-135.1056338551125
 30
0.0
 10
97.05487919059041
 20
-134.8816905218352
 30
0.0
 10
96.77929164247153
 20
-134.8816905218352
 30
0.0
  0
SPLINE
  5
64
330
1F
100
AcDbEntity
  8
_U+30EC_U+30A4_U+30E4_U+30FC 1
 62
   179
420
  2234388
370
     9
100
AcDbSpline
210
0.0
220
0.0
230
1.0
 70
    11
 71
     3
 72
    17
 73
    13
 74
     0
 42
0.0000000001
 43
0.0000000001
 12
1.0
 22
0.0
 32
0.0
 13
1.0
 23
0.0
 33
0.0
 40
0.0
 40
0.0
 40
0.0
 40
0.0
 40
1.0
 40
1.0
 40
1.0
 40
2.0
 40
2.0
 40
2.0
 40
3.0
 40
3.0
 40
3.0
 40
4.0
 40
4.0
 40
4.0
 40
4.0
 10
101.2565329722862
 20
-124.3817185800156
 30
0.0
 10
101.2565329722862
 20
-124.3266146911407
 30
0.0
 10
101.2117301956514
 20
-124.281811913374
 30
0.0
 10
101.1566263081684
 20
-124.281811913374
 30
0.0
 10
101.1014871429084
 20
-124.281811913374
 30
0.0
 10
101.0567221969577
 20
-124.3266146911407
 30
0.0
 10
101.0567221969577
 20
-124.3817185800156
 30
0.0
 10
101.0567221969577
 20
-124.4375280244464
 30
0.0
 10
101.1014871429084
 20
-124.4823308022127
 30
0.0
 10
101.1566263081684
 20
-124.4823308022127
 30
0.0
 10
101.2117301956514
 20
-124.4823308022127
 30
0.0
 10
101.2565329722862
 20
-124.4375280244464
 30
0.0
 10
101.2565329722862
 20
-124.3817185800156
 30
0.0
  0
SPLINE
  5
65
330
1F
100
AcDbEntity
  8
_U+30EC_U+30A4_U+30E4_U+30FC 1
 62
   179
420
  2234388
370
     9
100
AcDbSpline
210
0.0
220
0.0
230
1.0
 70
    11
 71
     3
 72
    17
 73
    13
 74
     0
 42
0.0000000001
 43
0.0000000001
 12
1.0
 22
0.0
 32
0.0
 13
1.0
 23
0.0
 33
0.0
 40
0.0
 40
0.0
 40
0.0
 40
0.0
 40
1.0
 40
1.0
 40
1.0
 40
2.0
 40
2.0
 40
2.0
 40
3.0
 40
3.0
 40
3.0
 40
4.0
 40
4.0
 40
4.0
 40
4.0
 10
101.2565329722862
 20
-134.382157188627
 30
0.0
 10
101.2565329722862
 20
-134.3270180219739
 30
0.0
 10
101.2117301956514
 20
-134.2822505219847
 30
0.0
 10
101.1566263081684
 20
-134.2822505219847
 30
0.0
 10
101.1014871429084
 20
-134.2822505219847
 30
0.0
 10
101.0567221969577
 20
-134.3270180219739
 30
0.0
 10
101.0567221969577
 20
-134.382157188627
 30
0.0
 10
101.0567221969577
 20
-134.4372610775019
 30
0.0
 10
101.1014871429084
 20
-134.4820638552686
 30
0.0
 10
101.1566263081684
 20
-134.4820638552686
 30
0.0
 10
101.2117301956514
 20
-134.4820638552686
 30
0.0
 10
101.2565329722862
 20
-134.4372610775019
 30
0.0
 10
101.2565329722862
 20
-134.382157188627
 30
0.0
  0
SPLINE
  5
66
330
1F
100
AcDbEntity
  8
_U+30EC_U+30A4_U+30E4_U+30FC 1
 62
   179
420
  2234388
370
     9
100
AcDbSpline
210
0.0
220
0.0
230
1.0
 70
    11
 71
     3
 72
    17
 73
    13
 74
     0
 42
0.0000000001
 43
0.0000000001
 12
1.0
 22
0.0
 32
0.0
 13
1.0
 23
0.0
 33
0.0
 40
0.0
 40
0.0
 40
0.0
 40
0.0
 40
1.0
 40
1.0
 40
1.0
 40
2.0
 40
2.0
 40
2.0
 40
3.0
 40
3.0
 40
3.0
 40
4.0
 40
4.0
 40
4.0
 40
4.0
 10
79.37877269710101
 20
-139.3823588540432
 30
0.0
 10
79.37877269710101
 20
-139.3265494096127
 30
0.0
 10
79.33400519824313
 20
-139.2817819096242
 30
0.0
 10
79.27886603298317
 20
-139.2817819096242
 30
0.0
 10
79.2237621455001
 20
-139.2817819096242
 30
0.0
 10
79.17895936886535
 20
-139.3265494096127
 30
0.0
 10
79.17895936886535
 20
-139.3823588540432
 30
0.0
 10
79.17895936886535
 20
-139.4374980206962
 30
0.0
 10
79.2237621455001
 20
-139.4822655206848
 30
0.0
 10
79.27886603298317
 20
-139.4822655206848
 30
0.0
 10
79.33400519824313
 20
-139.4822655206848
 30
0.0
 10
79.37877269710101
 20
-139.4374980206962
 30
0.0
 10
79.37877269710101
 20
-139.3823588540432
 30
0.0
  0
SPLINE
  5
67
330
1F
100
AcDbEntity
  8
_U+30EC_U+30A4_U+30E4_U+30FC 1
 62
   179
420
  2234388
370
     9
100
AcDbSpline
210
0.0
220
0.0
230
1.0
 70
    11
 71
     3
 72
    17
 73
    13
 74
     0
 42
0.0000000001
 43
0.0000000001
 12
1.0
 22
0.0
 32
0.0
 13
1.0
 23
0.0
 33
0.0
 40
0.0
 40
0.0
 40
0.0
 40
0.0
 40
1.0
 40
1.0
 40
1.0
 40
2.0
 40
2.0
 40
2.0
 40
3.0
 40
3.0
 40
3.0
 40
4.0
 40
4.0
 40
4.0
 40
4.0
 10
97.37872918232831
 20
-139.3823588540432
 30
0.0
 10
97.37872918232831
 20
-139.3265494096127
 30
0.0
 10
97.33392640569355
 20
-139.2817819096242
 30
0.0
 10
97.27882497568037
 20
-139.2817819096242
 30
0.0
 10
97.22368335295053
 20
-139.2817819096242
 30
0.0
 10
97.17891585409264
 20
-139.3265494096127
 30
0.0
 10
97.17891585409264
 20
-139.3823588540432
 30
0.0
 10
97.17891585409264
 20
-139.4374980206962
 30
0.0
 10
97.22368335295053
 20
-139.4822655206848
 30
0.0
 10
97.27882497568037
 20
-139.4822655206848
 30
0.0
 10
97.33392640569355
 20
-139.4822655206848
 30
0.0
 10
97.37872918232831
 20
-139.4374980206962
 30
0.0
 10
97.37872918232831
 20
-139.3823588540432
 30
0.0
  0
SPLINE
  5
68
330
1F
100
AcDbEntity
  8
_U+30EC_U+30A4_U+30E4_U+30FC 1
 62
   179
420
  2234388
370
    25
100
AcDbSpline
210
0.0
220
0.0
230
1.0
 70
     8
 71
     3
 72
     8
 73
     4
 74
     0
 42
0.0000000001
 43
0.0000000001
 12
1.0
 22
0.0
 32
0.0
 13
1.0
 23
0.0
 33
0.0
 40
0.0
 40
0.0
 40
0.0
 40
0.0
 40
1.0
 40
1.0
 40
1.0
 40
1.0
 10
87.14471666564195
 20
-134.8816905218352
 30
0.0
 10
86.9662816701942
 20
-134.5723044108013
 30
0.0
 10
86.63622497834082
 20
-134.382157188627
 30
0.0
 10
86.27931752105346
 20
-134.382157188627
 30
0.0
  0
SPLINE
  5
69
330
1F
100
AcDbEntity
  8
_U+30EC_U+30A4_U+30E4_U+30FC 1
 62
   179
420
  2234388
370
    25
100
AcDbSpline
210
0.0
220
0.0
230
1.0
 70
     8
 71
     3
 72
    11
 73
     7
 74
     0
 42
0.0000000001
 43
0.0000000001
 12
1.0
 22
0.0
 32
0.0
 13
1.0
 23
0.0
 33
0.0
 40
0.0
 40
0.0
 40
0.0
 40
0.0
 40
1.0
 40
1.0
 40
1.0
 40
2.0
 40
2.0
 40
2.0
 40
2.0
 10
86.77885084164262
 20
-124.3817185800156
 30
0.0
 10
87.0551463901493
 20
-124.3817185800156
 30
0.0
 10
87.27908971776937
 20
-124.1584808022938
 30
0.0
 10
87.27908971776937
 20
-123.8821852468071
 30
0.0
 10
87.27908971776937
 20
-123.6224349690944
 30
0.0
 10
87.08065222283192
 20
-123.4060763580374
 30
0.0
 10
86.8215722294416
 20
-123.3840277469318
 30
0.0
  0
SPLINE
  5
6A
330
1F
100
AcDbEntity
  8
_U+30EC_U+30A4_U+30E4_U+30FC 1
 62
   179
420
  2234388
370
    25
100
AcDbSpline
210
0.0
220
0.0
230
1.0
 70
     8
 71
     3
 72
    11
 73
     7
 74
     0
 42
0.0000000001
 43
0.0000000001
 12
1.0
 22
0.0
 32
0.0
 13
1.0
 23
0.0
 33
0.0
 40
0.0
 40
0.0
 40
0.0
 40
0.0
 40
1.0
 40
1.0
 40
1.0
 40
2.0
 40
2.0
 40
2.0
 40
2.0
 10
79.73638352131094
 20
-123.3840277469318
 30
0.0
 10
79.46079352834182
 20
-123.4074521913703
 30
0.0
 10
79.25681942463024
 20
-123.6499869135318
 30
0.0
 10
79.28094742181896
 20
-123.9249066356854
 30
0.0
 10
79.30299603236757
 20
-124.1832810800652
 30
0.0
 10
79.51935463795891
 20
-124.3817185800156
 30
0.0
 10
79.77910490910992
 20
-124.3817185800156
 30
0.0
  0
SPLINE
  5
6B
330
1F
100
AcDbEntity
  8
_U+30EC_U+30A4_U+30E4_U+30FC 1
 62
   179
420
  2234388
370
    25
100
AcDbSpline
210
0.0
220
0.0
230
1.0
 70
     8
 71
     3
 72
     8
 73
     4
 74
     0
 42
0.0000000001
 43
0.0000000001
 12
1.0
 22
0.0
 32
0.0
 13
1.0
 23
0.0
 33
0.0
 40
0.0
 40
0.0
 40
0.0
 40
0.0
 40
1.0
 40
1.0
 40
1.0
 40
1.0
 10
80.27863822969908
 20
-134.382157188627
 30
0.0
 10
79.72675268822331
 20
-134.382157188627
 30
0.0
 10
79.27886603298317
 20
-134.8300085774034
 30
0.0
 10
79.27886603298317
 20
-135.3819294105989
 30
0.0
  0
SPLINE
  5
6C
330
1F
100
AcDbEntity
  8
_U+30EC_U+30A4_U+30E4_U+30FC 1
 62
   179
420
  2234388
370
     9
100
AcDbSpline
210
0.0
220
0.0
230
1.0
 70
    11
 71
     3
 72
    17
 73
    13
 74
     0
 42
0.0000000001
 43
0.0000000001
 12
1.0
 22
0.0
 32
0.0
 13
1.0
 23
0.0
 33
0.0
 40
0.0
 40
0.0
 40
0.0
 40
0.0
 40
1.0
 40
1.0
 40
1.0
 40
2.0
 40
2.0
 40
2.0
 40
3.0
 40
3.0
 40
3.0
 40
4.0
 40
4.0
 40
4.0
 40
4.0
 10
87.37899638188719
 20
-119.2320096924141
 30
0.0
 10
87.37899638188719
 20
-119.1768705257613
 30
0.0
 10
87.33419360525244
 20
-119.1321030257725
 30
0.0
 10
87.27908971776937
 20
-119.1321030257725
 30
0.0
 10
87.22395275597172
 20
-119.1321030257725
 30
0.0
 10
87.17918305365153
 20
-119.1768705257613
 30
0.0
 10
87.17918305365153
 20
-119.2320096924141
 30
0.0
 10
87.17918305365153
 20
-119.2871135812893
 30
0.0
 10
87.22395275597172
 20
-119.3319163590561
 30
0.0
 10
87.27908971776937
 20
-119.3319163590561
 30
0.0
 10
87.33419360525244
 20
-119.3319163590561
 30
0.0
 10
87.37899638188719
 20
-119.2871135812893
 30
0.0
 10
87.37899638188719
 20
-119.2320096924141
 30
0.0
  0
SPLINE
  5
6D
330
1F
100
AcDbEntity
  8
_U+30EC_U+30A4_U+30E4_U+30FC 1
 62
   179
420
  2234388
370
     9
100
AcDbSpline
210
0.0
220
0.0
230
1.0
 70
    11
 71
     3
 72
    17
 73
    13
 74
     0
 42
0.0000000001
 43
0.0000000001
 12
1.0
 22
0.0
 32
0.0
 13
1.0
 23
0.0
 33
0.0
 40
0.0
 40
0.0
 40
0.0
 40
0.0
 40
1.0
 40
1.0
 40
1.0
 40
2.0
 40
2.0
 40
2.0
 40
3.0
 40
3.0
 40
3.0
 40
4.0
 40
4.0
 40
4.0
 40
4.0
 10
79.37877269710101
 20
-119.2320096924141
 30
0.0
 10
79.37877269710101
 20
-119.1768705257613
 30
0.0
 10
79.33400519824313
 20
-119.1321030257725
 30
0.0
 10
79.27886603298317
 20
-119.1321030257725
 30
0.0
 10
79.2237621455001
 20
-119.1321030257725
 30
0.0
 10
79.17895936886535
 20
-119.1768705257613
 30
0.0
 10
79.17895936886535
 20
-119.2320096924141
 30
0.0
 10
79.17895936886535
 20
-119.2871135812893
 30
0.0
 10
79.2237621455001
 20
-119.3319163590561
 30
0.0
 10
79.27886603298317
 20
-119.3319163590561
 30
0.0
 10
79.33400519824313
 20
-119.3319163590561
 30
0.0
 10
79.37877269710101
 20
-119.2871135812893
 30
0.0
 10
79.37877269710101
 20
-119.2320096924141
 30
0.0
  0
SPLINE
  5
6E
330
1F
100
AcDbEntity
  8
_U+30EC_U+30A4_U+30E4_U+30FC 1
 62
   179
420
  2234388
370
    25
100
AcDbSpline
210
0.0
220
0.0
230
1.0
 70
     8
 71
     3
 72
     8
 73
     4
 74
     0
 42
0.0000000001
 43
0.0000000001
 12
1.0
 22
0.0
 32
0.0
 13
1.0
 23
0.0
 33
0.0
 40
0.0
 40
0.0
 40
0.0
 40
0.0
 40
1.0
 40
1.0
 40
1.0
 40
1.0
 10
86.8215722294416
 20
-123.3840277469318
 30
0.0
 10
84.46445228957674
 20
-123.1814627469824
 30
0.0
 10
82.09353873895267
 20
-123.1814627469824
 30
0.0
 10
79.73638352131094
 20
-123.3840277469318
 30
0.0
  0
POLYLINE
  5
6F
330
1F
100
AcDbEntity
  8
_U+30EC_U+30A4_U+30E4_U+30FC 1
 62
   179
420
  2234388
370
     9
100
AcDb2dPolyline
 66
     1
 10
0.0
 20
0.0
 30
0.0
  0
VERTEX
  5
70
330
6F
100
AcDbEntity
  8
_U+30EC_U+30A4_U+30E4_U+30FC 1
 62
   179
420
  2234388
370
     9
100
AcDbVertex
100
AcDb2dVertex
 10
79.27886603298317
 20
-139.3823588540432
 30
0.0
  0
VERTEX
  5
71
330
6F
100
AcDbEntity
  8
_U+30EC_U+30A4_U+30E4_U+30FC 1
 62
   179
420
  2234388
370
     9
100
AcDbVertex
100
AcDb2dVertex
 10
97.27882497568037
 20
-139.3823588540432
 30
0.0
  0
SEQEND
  5
72
330
6F
100
AcDbEntity
  8
_U+30EC_U+30A4_U+30E4_U+30FC 1
 62
   179
420
  2234388
370
     9
  0
POLYLINE
  5
73
330
1F
100
AcDbEntity
  8
_U+30EC_U+30A4_U+30E4_U+30FC 1
 62
   179
420
  2234388
370
     9
100
AcDb2dPolyline
 66
     1
 10
0.0
 20
0.0
 30
0.0
  0
VERTEX
  5
74
330
73
100
AcDbEntity
  8
_U+30EC_U+30A4_U+30E4_U+30FC 1
 62
   179
420
  2234388
370
     9
100
AcDbVertex
100
AcDb2dVertex
 10
79.27886603298317
 20
-137.1216882990528
 30
0.0
  0
VERTEX
  5
75
330
73
100
AcDbEntity
  8
_U+30EC_U+30A4_U+30E4_U+30FC 1
 62
   179
420
  2234388
370
     9
100
AcDbVertex
100
AcDb2dVertex
 10
79.27886603298317
 20
-140.3821310760157
 30
0.0
  0
SEQEND
  5
76
330
73
100
AcDbEntity
  8
_U+30EC_U+30A4_U+30E4_U+30FC 1
 62
   179
420
  2234388
370
     9
  0
POLYLINE
  5
77
330
1F
100
AcDbEntity
  8
_U+30EC_U+30A4_U+30E4_U+30FC 1
 62
   179
420
  2234388
370
     9
100
AcDb2dPolyline
 66
     1
 10
0.0
 20
0.0
 30
0.0
  0
VERTEX
  5
78
330
77
100
AcDbEntity
  8
_U+30EC_U+30A4_U+30E4_U+30FC 1
 62
   179
420
  2234388
370
     9
100
AcDbVertex
100
AcDb2dVertex
 10
97.27882497568037
 20
-137.9223174655194
 30
0.0
  0
VERTEX
  5
79
330
77
100
AcDbEntity
  8
_U+30EC_U+30A4_U+30E4_U+30FC 1
 62
   179
420
  2234388
370
     9
100
AcDbVertex
100
AcDb2dVertex
 10
97.27882497568037
 20
-140.3821310760157
 30
0.0
  0
SEQEND
  5
7A
330
77
100
AcDbEntity
  8
_U+30EC_U+30A4_U+30E4_U+30FC 1
 62
   179
420
  2234388
370
     9
  0
INSERT
  5
7C
330
1F
100
AcDbEntity
  8
_U+30EC_U+30A4_U+30E4_U+30FC 1
100
AcDbBlockReference
  2
block 2
 10
0.0
 20
0.0
 30
0.0
  0
POLYLINE
  5
85
330
1F
100
AcDbEntity
  8
_U+30EC_U+30A4_U+30E4_U+30FC 1
 62
   179
420
  2234388
370
     9
100
AcDb2dPolyline
 66
     1
 10
0.0
 20
0.0
 30
0.0
  0
VERTEX
  5
86
330
85
100
AcDbEntity
  8
_U+30EC_U+30A4_U+30E4_U+30FC 1
 62
   179
420
  2234388
370
     9
100
AcDbVertex
100
AcDb2dVertex
 10
79.27886603298317
 20
-119.2320096924141
 30
0.0
  0
VERTEX
  5
87
330
85
100
AcDbEntity
  8
_U+30EC_U+30A4_U+30E4_U+30FC 1
 62
   179
420
  2234388
370
     9
100
AcDbVertex
100
AcDb2dVertex
 10
87.27908971776937
 20
-119.2320096924141
 30
0.0
  0
SEQEND
  5
88
330
85
100
AcDbEntity
  8
_U+30EC_U+30A4_U+30E4_U+30FC 1
 62
   179
420
  2234388
370
     9
  0
POLYLINE
  5
89
330
1F
100
AcDbEntity
  8
_U+30EC_U+30A4_U+30E4_U+30FC 1
 62
   179
420
  2234388
370
     9
100
AcDb2dPolyline
 66
     1
 10
0.0
 20
0.0
 30
0.0
  0
VERTEX
  5
8A
330
89
100
AcDbEntity
  8
_U+30EC_U+30A4_U+30E4_U+30FC 1
 62
   179
420
  2234388
370
     9
100
AcDbVertex
100
AcDb2dVertex
 10
79.27886603298317
 20
-121.3920680252076
 30
0.0
  0
VERTEX
  5
8B
330
89
100
AcDbEntity
  8
_U+30EC_U+30A4_U+30E4_U+30FC 1
 62
   179
420
  2234388
370
     9
100
AcDbVertex
100
AcDb2dVertex
 10
79.27886603298317
 20
-118.2322374704419
 30
0.0
  0
SEQEND
  5
8C
330
89
100
AcDbEntity
  8
_U+30EC_U+30A4_U+30E4_U+30FC 1
 62
   179
420
  2234388
370
     9
  0
POLYLINE
  5
8D
330
1F
100
AcDbEntity
  8
_U+30EC_U+30A4_U+30E4_U+30FC 1
 62
   179
420
  2234388
370
     9
100
AcDb2dPolyline
 66
     1
 10
0.0
 20
0.0
 30
0.0
  0
VERTEX
  5
8E
330
8D
100
AcDbEntity
  8
_U+30EC_U+30A4_U+30E4_U+30FC 1
 62
   179
420
  2234388
370
     9
100
AcDbVertex
100
AcDb2dVertex
 10
87.27908971776937
 20
-121.3920680252076
 30
0.0
  0
VERTEX
  5
8F
330
8D
100
AcDbEntity
  8
_U+30EC_U+30A4_U+30E4_U+30FC 1
 62
   179
420
  2234388
370
     9
100
AcDbVertex
100
AcDb2dVertex
 10
87.27908971776937
 20
-118.2322374704419
 30
0.0
  0
SEQEND
  5
90
330
8D
100
AcDbEntity
  8
_U+30EC_U+30A4_U+30E4_U+30FC 1
 62
   179
420
  2234388
370
     9
  0
INSERT
  5
92
330
1F
100
AcDbEntity
  8
_U+30EC_U+30A4_U+30E4_U+30FC 1
100
AcDbBlockReference
  2
block 3
 10
0.0
 20
0.0
 30
0.0
  0
POLYLINE
  5
99
330
1F
100
AcDbEntity
  8
_U+30EC_U+30A4_U+30E4_U+30FC 1
 62
   179
420
  2234388
370
     9
100
AcDb2dPolyline
 66
     1
 10
0.0
 20
0.0
 30
0.0
  0
VERTEX
  5
9A
330
99
100
AcDbEntity
  8
_U+30EC_U+30A4_U+30E4_U+30FC 1
 62
   179
420
  2234388
370
     9
100
AcDbVertex
100
AcDb2dVertex
 10
101.1566263081684
 20
-134.382157188627
 30
0.0
  0
VERTEX
  5
9B
330
99
100
AcDbEntity
  8
_U+30EC_U+30A4_U+30E4_U+30FC 1
 62
   179
420
  2234388
370
     9
100
AcDbVertex
100
AcDb2dVertex
 10
101.1566263081684
 20
-124.3817185800156
 30
0.0
  0
SEQEND
  5
9C
330
99
100
AcDbEntity
  8
_U+30EC_U+30A4_U+30E4_U+30FC 1
 62
   179
420
  2234388
370
     9
  0
POLYLINE
  5
9D
330
1F
100
AcDbEntity
  8
_U+30EC_U+30A4_U+30E4_U+30FC 1
 62
   179
420
  2234388
370
     9
100
AcDb2dPolyline
 66
     1
 10
0.0
 20
0.0
 30
0.0
  0
VERTEX
  5
9E
330
9D
100
AcDbEntity
  8
_U+30EC_U+30A4_U+30E4_U+30FC 1
 62
   179
420
  2234388
370
     9
100
AcDbVertex
100
AcDb2dVertex
 10
100.1609816113471
 20
-134.382157188627
 30
0.0
  0
VERTEX
  5
9F
330
9D
100
AcDbEntity
  8
_U+30EC_U+30A4_U+30E4_U+30FC 1
 62
   179
420
  2234388
370
     9
100
AcDbVertex
100
AcDb2dVertex
 10
102.1570687826449
 20
-134.382157188627
 30
0.0
  0
SEQEND
  5
A0
330
9D
100
AcDbEntity
  8
_U+30EC_U+30A4_U+30E4_U+30FC 1
 62
   179
420
  2234388
370
     9
  0
POLYLINE
  5
A1
330
1F
100
AcDbEntity
  8
_U+30EC_U+30A4_U+30E4_U+30FC 1
 62
   179
420
  2234388
370
     9
100
AcDb2dPolyline
 66
     1
 10
0.0
 20
0.0
 30
0.0
  0
VERTEX
  5
A2
330
A1
100
AcDbEntity
  8
_U+30EC_U+30A4_U+30E4_U+30FC 1
 62
   179
420
  2234388
370
     9
100
AcDbVertex
100
AcDb2dVertex
 10
100.1609816113471
 20
-124.3817185800156
 30
0.0
  0
VERTEX
  5
A3
330
A1
100
AcDbEntity
  8
_U+30EC_U+30A4_U+30E4_U+30FC 1
 62
   179
420
  2234388
370
     9
100
AcDbVertex
100
AcDb2dVertex
 10
102.1570687826449
 20
-124.3817185800156
 30
0.0
  0
SEQEND
  5
A4
330
A1
100
AcDbEntity
  8
_U+30EC_U+30A4_U+30E4_U+30FC 1
 62
   179
420
  2234388
370
     9
  0
INSERT
  5
A6
330
1F
100
AcDbEntity
  8
_U+30EC_U+30A4_U+30E4_U+30FC 1
100
AcDbBlockReference
  2
block 4
 10
0.0
 20
0.0
 30
0.0
  0
INSERT
  5
AF
330
1F
100
AcDbEntity
  8
_U+30EC_U+30A4_U+30E4_U+30FC 1
100
AcDbBlockReference
  2
block 5
 10
0.0
 20
0.0
 30
0.0
  0
SPLINE
  5
BE
330
1F
100
AcDbEntity
  8
_U+30EC_U+30A4_U+30E4_U+30FC 1
 62
   179
420
  2234388
370
     9
100
AcDbSpline
210
0.0
220
0.0
230
1.0
 70
    11
 71
     3
 72
    17
 73
    13
 74
     0
 42
0.0000000001
 43
0.0000000001
 12
1.0
 22
0.0
 32
0.0
 13
1.0
 23
0.0
 33
0.0
 40
0.0
 40
0.0
 40
0.0
 40
0.0
 40
1.0
 40
1.0
 40
1.0
 40
2.0
 40
2.0
 40
2.0
 40
3.0
 40
3.0
 40
3.0
 40
4.0
 40
4.0
 40
4.0
 40
4.0
 10
101.2565329722862
 20
-135.3753677439341
 30
0.0
 10
101.2565329722862
 20
-135.3199110772814
 30
0.0
 10
101.2117301956514
 20
-135.2751082995147
 30
0.0
 10
101.1566263081684
 20
-135.2751082995147
 30
0.0
 10
101.1014871429084
 20
-135.2751082995147
 30
0.0
 10
101.0567221969577
 20
-135.3199110772814
 30
0.0
 10
101.0567221969577
 20
-135.3753677439341
 30
0.0
 10
101.0567221969577
 20
-135.4305069105865
 30
0.0
 10
101.1014871429084
 20
-135.4752744105757
 30
0.0
 10
101.1566263081684
 20
-135.4752744105757
 30
0.0
 10
101.2117301956514
 20
-135.4752744105757
 30
0.0
 10
101.2565329722862
 20
-135.4305069105865
 30
0.0
 10
101.2565329722862
 20
-135.3753677439341
 30
0.0
  0
POLYLINE
  5
BF
330
1F
100
AcDbEntity
  8
_U+30EC_U+30A4_U+30E4_U+30FC 1
 62
   179
420
  2234388
370
     9
100
AcDb2dPolyline
 66
     1
 10
0.0
 20
0.0
 30
0.0
  0
VERTEX
  5
C0
330
BF
100
AcDbEntity
  8
_U+30EC_U+30A4_U+30E4_U+30FC 1
 62
   179
420
  2234388
370
     9
100
AcDbVertex
100
AcDb2dVertex
 10
101.1566263081684
 20
-132.9479744112073
 30
0.0
  0
VERTEX
  5
C1
330
BF
100
AcDbEntity
  8
_U+30EC_U+30A4_U+30E4_U+30FC 1
 62
   179
420
  2234388
370
     9
100
AcDbVertex
100
AcDb2dVertex
 10
101.1566263081684
 20
-135.3750149661563
 30
0.0
  0
SEQEND
  5
C2
330
BF
100
AcDbEntity
  8
_U+30EC_U+30A4_U+30E4_U+30FC 1
 62
   179
420
  2234388
370
     9
  0
POLYLINE
  5
C3
330
1F
100
AcDbEntity
  8
_U+30EC_U+30A4_U+30E4_U+30FC 1
 62
   179
420
  2234388
370
     9
100
AcDb2dPolyline
 66
     1
 10
0.0
 20
0.0
 30
0.0
  0
VERTEX
  5
C4
330
C3
100
AcDbEntity
  8
_U+30EC_U+30A4_U+30E4_U+30FC 1
 62
   179
420
  2234388
370
     9
100
AcDbVertex
100
AcDb2dVertex
 10
100.1609816113471
 20
-135.3750149661563
 30
0.0
  0
VERTEX
  5
C5
330
C3
100
AcDbEntity
  8
_U+30EC_U+30A4_U+30E4_U+30FC 1
 62
   179
420
  2234388
370
     9
100
AcDbVertex
100
AcDb2dVertex
 10
102.1570687826449
 20
-135.3750149661563
 30
0.0
  0
SEQEND
  5
C6
330
C3
100
AcDbEntity
  8
_U+30EC_U+30A4_U+30E4_U+30FC 1
 62
   179
420
  2234388
370
     9
  0
INSERT
  5
C8
330
1F
100
AcDbEntity
  8
_U+30EC_U+30A4_U+30E4_U+30FC 1
100
AcDbBlockReference
  2
block 7
 10
0.0
 20
0.0
 30
0.0
  0
ENDSEC
  0
SECTION
  2
OBJECTS
  0
DICTIONARY
  5
C
330
0
100
AcDbDictionary
281
     1
  3
ACAD_GROUP
350
D
  3
ACAD_LAYOUT
350
1A
  3
ACAD_MATERIAL
350
3B
  3
ACAD_MLEADERSTYLE
350
CE
  3
ACAD_MLINESTYLE
350
17
  3
ACAD_PLOTSETTINGS
350
19
  3
ACAD_PLOTSTYLENAME
350
E
  3
ACAD_TABLESTYLE
350
CD
  3
ACAD_VISUALSTYLE
350
2A
  0
SUN
  5
3F
330
29
100
AcDbSun
 90
        1
290
     0
 63
     7
421
 16777215
 40
1.0
291
     1
 91
  2455826
 92
 54000000
292
     0
 70
     2
 71
   256
280
     1
  0
DICTIONARY
  5
D
102
{ACAD_REACTORS
330
C
102
}
330
C
100
AcDbDictionary
281
     1
  0
DICTIONARY
  5
1A
102
{ACAD_REACTORS
330
C
102
}
330
C
100
AcDbDictionary
281
     1
  3
Layout1
350
1E
  3
Layout2
350
26
  3
Model
350
22
  0
DICTIONARY
  5
3B
102
{ACAD_REACTORS
330
C
102
}
330
C
100
AcDbDictionary
281
     1
  3
ByBlock
350
3D
  3
ByLayer
350
3C
  3
Global
350
3E
  0
DICTIONARY
  5
CE
102
{ACAD_REACTORS
330
C
102
}
330
C
100
AcDbDictionary
281
     1
  0
DICTIONARY
  5
17
102
{ACAD_REACTORS
330
C
102
}
330
C
100
AcDbDictionary
281
     1
  3
Standard
350
18
  0
DICTIONARY
  5
19
102
{ACAD_REACTORS
330
C
102
}
330
C
100
AcDbDictionary
281
     1
  0
ACDBDICTIONARYWDFLT
  5
E
102
{ACAD_REACTORS
330
C
102
}
330
C
100
AcDbDictionary
281
     1
  3
Normal
350
F
100
AcDbDictionaryWithDefault
340
F
  0
DICTIONARY
  5
CD
102
{ACAD_REACTORS
330
C
102
}
330
C
100
AcDbDictionary
281
     1
  0
DICTIONARY
  5
2A
102
{ACAD_REACTORS
330
C
102
}
330
C
100
AcDbDictionary
281
     1
  3
2dWireframe
350
2F
  3
3D Hidden
350
31
  3
3dWireframe
350
30
  3
Basic
350
32
  3
Brighten
350
36
  3
ColorChange
350
3A
  3
Conceptual
350
34
  3
Dim
350
35
  3
Facepattern
350
39
  3
Flat
350
2B
  3
FlatWithEdges
350
2C
  3
Gouraud
350
2D
  3
GouraudWithEdges
350
2E
  3
Linepattern
350
38
  3
Realistic
350
33
  3
Thicken
350
37
  0
LAYOUT
  5
1E
102
{ACAD_REACTORS
330
1A
102
}
330
1A
100
AcDbPlotSettings
  1

  2
none_device
  4

  6

 40
0.0
 41
0.0
 42
0.0
 43
0.0
 44
0.0
 45
0.0
 46
0.0
 47
0.0
 48
0.0
 49
0.0
140
0.0
141
0.0
142
1.0
143
1.0
 70
   688
 72
     0
 73
     0
 74
     5
  7

 75
    16
 76
     0
 77
     2
 78
   300
147
1.0
148
0.0
149
0.0
100
AcDbLayout
  1
Layout1
 70
     1
 71
     1
 10
0.0
 20
0.0
 11
12.0
 21
9.0
 12
0.0
 22
0.0
 32
0.0
 14
1.000000000000000E+20
 24
1.000000000000000E+20
 34
1.000000000000000E+20
 15
-1.000000000000000E+20
 25
-1.000000000000000E+20
 35
-1.000000000000000E+20
146
0.0
 13
0.0
 23
0.0
 33
0.0
 16
1.0
 26
0.0
 36
0.0
 17
0.0
 27
1.0
 37
0.0
 76
     0
330
1B
  0
LAYOUT
  5
26
102
{ACAD_REACTORS
330
1A
102
}
330
1A
100
AcDbPlotSettings
  1

  2
none_device
  4

  6

 40
0.0
 41
0.0
 42
0.0
 43
0.0
 44
0.0
 45
0.0
 46
0.0
 47
0.0
 48
0.0
 49
0.0
140
0.0
141
0.0
142
1.0
143
1.0
 70
   688
 72
     0
 73
     0
 74
     5
  7

 75
    16
 76
     0
 77
     2
 78
   300
147
1.0
148
0.0
149
0.0
100
AcDbLayout
  1
Layout2
 70
     1
 71
     2
 10
0.0
 20
0.0
 11
0.0
 21
0.0
 12
0.0
 22
0.0
 32
0.0
 14
0.0
 24
0.0
 34
0.0
 15
0.0
 25
0.0
 35
0.0
146
0.0
 13
0.0
 23
0.0
 33
0.0
 16
1.0
 26
0.0
 36
0.0
 17
0.0
 27
1.0
 37
0.0
 76
     0
330
23
  0
LAYOUT
  5
22
102
{ACAD_REACTORS
330
1A
102
}
330
1A
100
AcDbPlotSettings
  1

  2
none_device
  4

  6

 40
0.0
 41
0.0
 42
0.0
 43
0.0
 44
0.0
 45
0.0
 46
0.0
 47
0.0
 48
0.0
 49
0.0
140
0.0
141
0.0
142
1.0
143
1.0
 70
  1712
 72
     0
 73
     0
 74
     0
  7

 75
     0
 76
     0
 77
     2
 78
   300
147
1.0
148
0.0
149
0.0
100
AcDbLayout
  1
Model
 70
     1
 71
     0
 10
0.0
 20
0.0
 11
12.0
 21
9.0
 12
0.0
 22
0.0
 32
0.0
 14
1.000000000000000E+20
 24
1.000000000000000E+20
 34
1.000000000000000E+20
 15
-1.000000000000000E+20
 25
-1.000000000000000E+20
 35
-1.000000000000000E+20
146
0.0
 13
0.0
 23
0.0
 33
0.0
 16
1.0
 26
0.0
 36
0.0
 17
0.0
 27
1.0
 37
0.0
 76
     0
330
1F
331
29
  0
MATERIAL
  5
3D
102
{ACAD_REACTORS
330
3B
102
}
330
3B
100
AcDbMaterial
  1
ByBlock
 72
     1
 94
      127
  0
MATERIAL
  5
3C
102
{ACAD_REACTORS
330
3B
102
}
330
3B
100
AcDbMaterial
  1
ByLayer
 72
     1
 94
      127
  0
MATERIAL
  5
3E
102
{ACAD_REACTORS
330
3B
102
}
330
3B
100
AcDbMaterial
  1
Global
 72
     1
 94
      127
  0
MLINESTYLE
  5
18
102
{ACAD_REACTORS
330
17
102
}
330
17
100
AcDbMlineStyle
  2
Standard
 70
     0
  3

 62
   256
 51
90.0
 52
90.0
 71
     2
 49
0.5
 62
   256
  6
BYLAYER
 49
-0.5
 62
   256
  6
BYLAYER
  0
ACDBPLACEHOLDER
  5
F
102
{ACAD_REACTORS
330
E
102
}
330
E
  0
VISUALSTYLE
  5
2F
102
{ACAD_REACTORS
330
2A
102
}
330
2A
100
AcDbVisualStyle
  2
2dWireframe
 70
     4
177
     2
291
     0
 71
     0
176
     1
 72
     2
176
     1
 73
     0
176
     1
 90
        0
176
     1
 40
-0.6
176
     1
 41
-30.0
176
     1
 62
     5
 63
     7
421
 16777215
176
     1
 74
     1
176
     1
 91
        4
176
     1
 64
     7
176
     1
 65
   257
176
     1
 75
     1
176
     1
175
     1
176
     1
 42
1.0
176
     1
 92
        0
176
     1
 66
   257
176
     1
 43
1.0
176
     1
 76
     1
176
     1
 77
     6
176
     1
 78
     2
176
     1
 67
     7
176
     1
 79
     5
176
     1
170
     0
176
     1
171
     0
176
     1
290
     0
176
     1
 93
        1
176
     1
 44
0.0
176
     1
173
     0
176
     1
  0
VISUALSTYLE
  5
31
102
{ACAD_REACTORS
330
2A
102
}
330
2A
100
AcDbVisualStyle
  2
3D Hidden
 70
     6
177
     2
291
     0
 71
     1
176
     1
 72
     2
176
     1
 73
     2
176
     1
 90
        0
176
     1
 40
-0.6
176
     1
 41
-30.0
176
     1
 62
     5
 63
     7
421
 16777215
176
     1
 74
     2
176
     1
 91
        2
176
     1
 64
     7
176
     1
 65
   257
176
     1
 75
     2
176
     1
175
     1
176
     1
 42
40.0
176
     1
 92
        0
176
     1
 66
   257
176
     1
 43
1.0
176
     1
 76
     1
176
     1
 77
     6
176
     1
 78
     2
176
     1
 67
     7
176
     1
 79
     3
176
     1
170
     0
176
     1
171
     0
176
     1
290
     0
176
     1
 93
        1
176
     1
 44
0.0
176
     1
173
     0
176
     1
  0
VISUALSTYLE
  5
30
102
{ACAD_REACTORS
330
2A
102
}
330
2A
100
AcDbVisualStyle
  2
3dWireframe
 70
     5
177
     2
291
     0
 71
     0
176
     1
 72
     2
176
     1
 73
     0
176
     1
 90
        0
176
     1
 40
-0.6
176
     1
 41
-30.0
176
     1
 62
     5
 63
     7
421
 16777215
176
     1
 74
     1
176
     1
 91
        4
176
     1
 64
     7
176
     1
 65
   257
176
     1
 75
     1
176
     1
175
     1
176
     1
 42
1.0
176
     1
 92
        0
176
     1
 66
   257
176
     1
 43
1.0
176
     1
 76
     1
176
     1
 77
     6
176
     1
 78
     2
176
     1
 67
     7
176
     1
 79
     5
176
     1
170
     0
176
     1
171
     0
176
     1
290
     0
176
     1
 93
        1
176
     1
 44
0.0
176
     1
173
     0
176
     1
  0
VISUALSTYLE
  5
32
102
{ACAD_REACTORS
330
2A
102
}
330
2A
100
AcDbVisualStyle
  2
Basic
 70
     7
177
     2
291
     1
 71
     1
176
     1
 72
     0
176
     1
 73
     1
176
     1
 90
        0
176
     1
 40
-0.6
176
     1
 41
-30.0
176
     1
 62
     5
 63
     7
421
 16777215
176
     1
 74
     0
176
     1
 91
        4
176
     1
 64
     7
176
     1
 65
   257
176
     1
 75
     1
176
     1
175
     1
176
     1
 42
1.0
176
     1
 92
        8
176
     1
 66
     7
176
     1
 43
1.0
176
     1
 76
     1
176
     1
 77
     6
176
     1
 78
     2
176
     1
 67
     7
176
     1
 79
     5
176
     1
170
     0
176
     1
171
     0
176
     1
290
     0
176
     1
 93
        1
176
     1
 44
0.0
176
     1
173
     0
176
     1
  0
VISUALSTYLE
  5
36
102
{ACAD_REACTORS
330
2A
102
}
330
2A
100
AcDbVisualStyle
  2
Brighten
 70
    12
177
     2
291
     1
 71
     2
176
     1
 72
     2
176
     1
 73
     0
176
     1
 90
        0
176
     1
 40
-0.6
176
     1
 41
-30.0
176
     1
 62
     5
 63
     7
421
 16777215
176
     1
 74
     1
176
     1
 91
        4
176
     1
 64
     7
176
     1
 65
   257
176
     1
 75
     1
176
     1
175
     1
176
     1
 42
1.0
176
     1
 92
        8
176
     1
 66
     7
176
     1
 43
1.0
176
     1
 76
     1
176
     1
 77
     6
176
     1
 78
     2
176
     1
 67
     7
176
     1
 79
     5
176
     1
170
     0
176
     1
171
     0
176
     1
290
     0
176
     1
 93
        1
176
     1
 44
50.0
176
     1
173
     0
176
     1
  0
VISUALSTYLE
  5
3A
102
{ACAD_REACTORS
330
2A
102
}
330
2A
100
AcDbVisualStyle
  2
ColorChange
 70
    16
177
     2
291
     1
 71
     2
176
     1
 72
     2
176
     1
 73
     3
176
     1
 90
        0
176
     1
 40
-0.6
176
     1
 41
-30.0
176
     1
 62
     5
 63
     8
421
  8421504
176
     1
 74
     1
176
     1
 91
        4
176
     1
 64
     7
176
     1
 65
   257
176
     1
 75
     1
176
     1
175
     1
176
     1
 42
1.0
176
     1
 92
        8
176
     1
 66
     8
424
  8421504
176
     1
 43
1.0
176
     1
 76
     1
176
     1
 77
     6
176
     1
 78
     2
176
     1
 67
     7
176
     1
 79
     5
176
     1
170
     0
176
     1
171
     0
176
     1
290
     0
176
     1
 93
        1
176
     1
 44
0.0
176
     1
173
     0
176
     1
  0
VISUALSTYLE
  5
34
102
{ACAD_REACTORS
330
2A
102
}
330
2A
100
AcDbVisualStyle
  2
Conceptual
 70
     9
177
     2
291
     0
 71
     3
176
     1
 72
     2
176
     1
 73
     0
176
     1
 90
        0
176
     1
 40
-0.6
176
     1
 41
-30.0
176
     1
 62
     5
 63
     7
421
 16777215
176
     1
 74
     2
176
     1
 91
        2
176
     1
 64
     7
176
     1
 65
   257
176
     1
 75
     1
176
     1
175
     1
176
     1
 42
40.0
176
     1
 92
        8
176
     1
 66
     7
176
     1
 43
1.0
176
     1
 76
     1
176
     1
 77
     6
176
     1
 78
     2
176
     1
 67
     7
176
     1
 79
     3
176
     1
170
     0
176
     1
171
     0
176
     1
290
     0
176
     1
 93
        1
176
     1
 44
0.0
176
     1
173
     0
176
     1
  0
VISUALSTYLE
  5
35
102
{ACAD_REACTORS
330
2A
102
}
330
2A
100
AcDbVisualStyle
  2
Dim
 70
    11
177
     2
291
     1
 71
     2
176
     1
 72
     2
176
     1
 73
     0
176
     1
 90
        0
176
     1
 40
-0.6
176
     1
 41
-30.0
176
     1
 62
     5
 63
     7
421
 16777215
176
     1
 74
     1
176
     1
 91
        4
176
     1
 64
     7
176
     1
 65
   257
176
     1
 75
     1
176
     1
175
     1
176
     1
 42
1.0
176
     1
 92
        8
176
     1
 66
     7
176
     1
 43
1.0
176
     1
 76
     1
176
     1
 77
     6
176
     1
 78
     2
176
     1
 67
     7
176
     1
 79
     5
176
     1
170
     0
176
     1
171
     0
176
     1
290
     0
176
     1
 93
        1
176
     1
 44
-50.0
176
     1
173
     0
176
     1
  0
VISUALSTYLE
  5
39
102
{ACAD_REACTORS
330
2A
102
}
330
2A
100
AcDbVisualStyle
  2
Facepattern
 70
    15
177
     2
291
     1
 71
     2
176
     1
 72
     2
176
     1
 73
     0
176
     1
 90
        0
176
     1
 40
-0.6
176
     1
 41
-30.0
176
     1
 62
     5
 63
     7
421
 16777215
176
     1
 74
     1
176
     1
 91
        4
176
     1
 64
     7
176
     1
 65
   257
176
     1
 75
     1
176
     1
175
     1
176
     1
 42
1.0
176
     1
 92
        8
176
     1
 66
     7
176
     1
 43
1.0
176
     1
 76
     1
176
     1
 77
     6
176
     1
 78
     2
176
     1
 67
     7
176
     1
 79
     5
176
     1
170
     0
176
     1
171
     0
176
     1
290
     0
176
     1
 93
        1
176
     1
 44
0.0
176
     1
173
     0
176
     1
  0
VISUALSTYLE
  5
2B
102
{ACAD_REACTORS
330
2A
102
}
330
2A
100
AcDbVisualStyle
  2
Flat
 70
     0
177
     2
291
     1
 71
     2
176
     1
 72
     1
176
     1
 73
     1
176
     1
 90
        2
176
     1
 40
-0.6
176
     1
 41
30.0
176
     1
 62
     5
 63
     7
421
 16777215
176
     1
 74
     0
176
     1
 91
        4
176
     1
 64
     7
176
     1
 65
   257
176
     1
 75
     1
176
     1
175
     1
176
     1
 42
1.0
176
     1
 92
        8
176
     1
 66
     7
176
     1
 43
1.0
176
     1
 76
     1
176
     1
 77
     6
176
     1
 78
     2
176
     1
 67
     7
176
     1
 79
     5
176
     1
170
     0
176
     1
171
     0
176
     1
290
     0
176
     1
 93
       13
176
     1
 44
0.0
176
     1
173
     0
176
     1
  0
VISUALSTYLE
  5
2C
102
{ACAD_REACTORS
330
2A
102
}
330
2A
100
AcDbVisualStyle
  2
FlatWithEdges
 70
     1
177
     2
291
     1
 71
     2
176
     1
 72
     1
176
     1
 73
     1
176
     1
 90
        2
176
     1
 40
-0.6
176
     1
 41
30.0
176
     1
 62
     5
 63
     7
421
 16777215
176
     1
 74
     1
176
     1
 91
        4
176
     1
 64
     7
176
     1
 65
   257
176
     1
 75
     1
176
     1
175
     1
176
     1
 42
1.0
176
     1
 92
        0
176
     1
 66
   257
176
     1
 43
1.0
176
     1
 76
     1
176
     1
 77
     6
176
     1
 78
     2
176
     1
 67
     7
176
     1
 79
     5
176
     1
170
     0
176
     1
171
     0
176
     1
290
     0
176
     1
 93
       13
176
     1
 44
0.0
176
     1
173
     0
176
     1
  0
VISUALSTYLE
  5
2D
102
{ACAD_REACTORS
330
2A
102
}
330
2A
100
AcDbVisualStyle
  2
Gouraud
 70
     2
177
     2
291
     1
 71
     2
176
     1
 72
     2
176
     1
 73
     1
176
     1
 90
        2
176
     1
 40
-0.6
176
     1
 41
30.0
176
     1
 62
     5
 63
     7
421
 16777215
176
     1
 74
     0
176
     1
 91
        4
176
     1
 64
     7
176
     1
 65
   257
176
     1
 75
     1
176
     1
175
     1
176
     1
 42
1.0
176
     1
 92
        0
176
     1
 66
     7
176
     1
 43
1.0
176
     1
 76
     1
176
     1
 77
     6
176
     1
 78
     2
176
     1
 67
     7
176
     1
 79
     5
176
     1
170
     0
176
     1
171
     0
176
     1
290
     0
176
     1
 93
       13
176
     1
 44
0.0
176
     1
173
     0
176
     1
  0
VISUALSTYLE
  5
2E
102
{ACAD_REACTORS
330
2A
102
}
330
2A
100
AcDbVisualStyle
  2
GouraudWithEdges
 70
     3
177
     2
291
     1
 71
     2
176
     1
 72
     2
176
     1
 73
     1
176
     1
 90
        2
176
     1
 40
-0.6
176
     1
 41
30.0
176
     1
 62
     5
 63
     7
421
 16777215
176
     1
 74
     1
176
     1
 91
        4
176
     1
 64
     7
176
     1
 65
   257
176
     1
 75
     1
176
     1
175
     1
176
     1
 42
1.0
176
     1
 92
        0
176
     1
 66
   257
176
     1
 43
1.0
176
     1
 76
     1
176
     1
 77
     6
176
     1
 78
     2
176
     1
 67
     7
176
     1
 79
     5
176
     1
170
     0
176
     1
171
     0
176
     1
290
     0
176
     1
 93
       13
176
     1
 44
0.0
176
     1
173
     0
176
     1
  0
VISUALSTYLE
  5
38
102
{ACAD_REACTORS
330
2A
102
}
330
2A
100
AcDbVisualStyle
  2
Linepattern
 70
    14
177
     2
291
     1
 71
     2
176
     1
 72
     2
176
     1
 73
     0
176
     1
 90
        0
176
     1
 40
-0.6
176
     1
 41
-30.0
176
     1
 62
     5
 63
     7
421
 16777215
176
     1
 74
     1
176
     1
 91
        4
176
     1
 64
     7
176
     1
 65
   257
176
     1
 75
     7
176
     1
175
     7
176
     1
 42
1.0
176
     1
 92
        8
176
     1
 66
     7
176
     1
 43
1.0
176
     1
 76
     1
176
     1
 77
     6
176
     1
 78
     2
176
     1
 67
     7
176
     1
 79
     5
176
     1
170
     0
176
     1
171
     0
176
     1
290
     0
176
     1
 93
        1
176
     1
 44
0.0
176
     1
173
     0
176
     1
  0
VISUALSTYLE
  5
33
102
{ACAD_REACTORS
330
2A
102
}
330
2A
100
AcDbVisualStyle
  2
Realistic
 70
     8
177
     2
291
     0
 71
     2
176
     1
 72
     2
176
     1
 73
     0
176
     1
 90
        0
176
     1
 40
-0.6
176
     1
 41
-30.0
176
     1
 62
     5
 63
     7
421
 16777215
176
     1
 74
     1
176
     1
 91
        0
176
     1
 64
     7
176
     1
 65
   257
176
     1
 75
     1
176
     1
175
     1
176
     1
 42
1.0
176
     1
 92
        8
176
     1
 66
     8
424
  7895160
176
     1
 43
1.0
176
     1
 76
     1
176
     1
 77
     6
176
     1
 78
     2
176
     1
 67
     7
176
     1
 79
     5
176
     1
170
     0
176
     1
171
     0
176
     1
290
     0
176
     1
 93
       13
176
     1
 44
0.0
176
     1
173
     0
176
     1
  0
VISUALSTYLE
  5
37
102
{ACAD_REACTORS
330
2A
102
}
330
2A
100
AcDbVisualStyle
  2
Thicken
 70
    13
177
     2
291
     1
 71
     2
176
     1
 72
     2
176
     1
 73
     0
176
     1
 90
        0
176
     1
 40
-0.6
176
     1
 41
-30.0
176
     1
 62
     5
 63
     7
421
 16777215
176
     1
 74
     1
176
     1
 91
        4
176
     1
 64
     7
176
     1
 65
   257
176
     1
 75
     1
176
     1
175
     1
176
     1
 42
1.0
176
     1
 92
       12
176
     1
 66
     7
176
     1
 43
1.0
176
     1
 76
     1
176
     1
 77
     6
176
     1
 78
     2
176
     1
 67
     7
176
     1
 79
     5
176
     1
170
     0
176
     1
171
     0
176
     1
290
     0
176
     1
 93
        1
176
     1
 44
0.0
176
     1
173
     0
176
     1
  0
ENDSEC
  0
EOF
