  0
SECTION
  2
HEADER
  9
$ACADVER
  1
AC1024
  9
$ACADMAINTVER
 70
     6
  9
$DWGCODEPAGE
  3
UNDEFINED
  9
$INSBASE
 10
0.0
 20
0.0
 30
0.0
  9
$EXTMIN
 10
1.000000000000000E+20
 20
1.000000000000000E+20
 30
1.000000000000000E+20
  9
$EXTMAX
 10
-1.000000000000000E+20
 20
-1.000000000000000E+20
 30
-1.000000000000000E+20
  9
$LIMMIN
 10
0.0
 20
0.0
  9
$LIMMAX
 10
12.0
 20
9.0
  9
$ORTHOMODE
 70
     0
  9
$REGENMODE
 70
     1
  9
$FILLMODE
 70
     1
  9
$QTEXTMODE
 70
     0
  9
$MIRRTEXT
 70
     1
  9
$LTSCALE
 40
1.0
  9
$ATTMODE
 70
     1
  9
$TEXTSIZE
 40
0.2
  9
$TRACEWID
 40
0.05
  9
$TEXTSTYLE
  7
Standard
  9
$CLAYER
  8
0
  9
$CELTYPE
  6
ByLayer
  9
$CECOLOR
 62
   256
  9
$CELTSCALE
 40
1.0
  9
$DISPSILH
 70
     0
  9
$DIMSCALE
 40
1.0
  9
$DIMASZ
 40
0.18
  9
$DIMEXO
 40
0.0625
  9
$DIMDLI
 40
0.38
  9
$DIMRND
 40
0.0
  9
$DIMDLE
 40
0.0
  9
$DIMEXE
 40
0.18
  9
$DIMTP
 40
0.0
  9
$DIMTM
 40
0.0
  9
$DIMTXT
 40
0.18
  9
$DIMCEN
 40
0.09
  9
$DIMTSZ
 40
0.0
  9
$DIMTOL
 70
     0
  9
$DIMLIM
 70
     0
  9
$DIMTIH
 70
     1
  9
$DIMTOH
 70
     1
  9
$DIMSE1
 70
     0
  9
$DIMSE2
 70
     0
  9
$DIMTAD
 70
     0
  9
$DIMZIN
 70
     0
  9
$DIMBLK
  1

  9
$DIMASO
 70
     1
  9
$DIMSHO
 70
     1
  9
$DIMPOST
  1

  9
$DIMAPOST
  1

  9
$DIMALT
 70
     0
  9
$DIMALTD
 70
     2
  9
$DIMALTF
 40
25.4
  9
$DIMLFAC
 40
1.0
  9
$DIMTOFL
 70
     0
  9
$DIMTVP
 40
0.0
  9
$DIMTIX
 70
     0
  9
$DIMSOXD
 70
     0
  9
$DIMSAH
 70
     0
  9
$DIMBLK1
  1

  9
$DIMBLK2
  1

  9
$DIMSTYLE
  2
Standard
  9
$DIMCLRD
 70
     0
  9
$DIMCLRE
 70
     0
  9
$DIMCLRT
 70
     0
  9
$DIMTFAC
 40
1.0
  9
$DIMGAP
 40
0.09
  9
$DIMJUST
 70
     0
  9
$DIMSD1
 70
     0
  9
$DIMSD2
 70
     0
  9
$DIMTOLJ
 70
     1
  9
$DIMTZIN
 70
     0
  9
$DIMALTZ
 70
     0
  9
$DIMALTTZ
 70
     0
  9
$DIMUPT
 70
     0
  9
$DIMDEC
 70
     4
  9
$DIMTDEC
 70
     4
  9
$DIMALTU
 70
     2
  9
$DIMALTTD
 70
     2
  9
$DIMTXSTY
  7
Standard
  9
$DIMAUNIT
 70
     0
  9
$DIMADEC
 70
     0
  9
$DIMALTRND
 40
0.0
  9
$DIMAZIN
 70
     0
  9
$DIMDSEP
 70
    46
  9
$DIMATFIT
 70
     3
  9
$DIMFRAC
 70
     0
  9
$DIMLDRBLK
  1

  9
$DIMLUNIT
 70
     2
  9
$DIMLWD
 70
    -2
  9
$DIMLWE
 70
    -2
  9
$DIMTMOVE
 70
     0
  9
$DIMFXL
 40
1.0
  9
$DIMFXLON
 70
     0
  9
$DIMJOGANG
 40
0.7853981633974483
  9
$DIMTFILL
 70
     0
  9
$DIMTFILLCLR
 70
     0
  9
$DIMARCSYM
 70
     0
  9
$DIMLTYPE
  6

  9
$DIMLTEX1
  6

  9
$DIMLTEX2
  6

  9
$DIMTXTDIRECTION
 70
     0
  9
$LUNITS
 70
     2
  9
$LUPREC
 70
     4
  9
$SKETCHINC
 40
0.1
  9
$FILLETRAD
 40
0.5
  9
$AUNITS
 70
     0
  9
$AUPREC
 70
     0
  9
$MENU
  1
.
  9
$ELEVATION
 40
0.0
  9
$PELEVATION
 40
0.0
  9
$THICKNESS
 40
0.0
  9
$LIMCHECK
 70
     0
  9
$CHAMFERA
 40
0.5
  9
$CHAMFERB
 40
0.5
  9
$CHAMFERC
 40
1.0
  9
$CHAMFERD
 40
0.0
  9
$SKPOLY
 70
     0
  9
$TDCREATE
 40
2457917.6184375
  9
$TDUCREATE
 40
2457917.2434375
  9
$TDUPDATE
 40
2457917.6184375
  9
$TDUUPDATE
 40
2457917.2434375
  9
$TDINDWG
 40
0.0000000116
  9
$TDUSRTIMER
 40
0.0000000116
  9
$USRTIMER
 70
     1
  9
$ANGBASE
 50
0.0
  9
$ANGDIR
 70
     0
  9
$PDMODE
 70
     0
  9
$PDSIZE
 40
0.0
  9
$PLINEWID
 40
0.0
  9
$SPLFRAME
 70
     0
  9
$SPLINETYPE
 70
     6
  9
$SPLINESEGS
 70
     8
  9
$HANDSEED
  5
D8
  9
$SURFTAB1
 70
     6
  9
$SURFTAB2
 70
     6
  9
$SURFTYPE
 70
     6
  9
$SURFU
 70
     6
  9
$SURFV
 70
     6
  9
$UCSBASE
  2

  9
$UCSNAME
  2

  9
$UCSORG
 10
0.0
 20
0.0
 30
0.0
  9
$UCSXDIR
 10
1.0
 20
0.0
 30
0.0
  9
$UCSYDIR
 10
0.0
 20
1.0
 30
0.0
  9
$UCSORTHOREF
  2

  9
$UCSORTHOVIEW
 70
     0
  9
$UCSORGTOP
 10
0.0
 20
0.0
 30
0.0
  9
$UCSORGBOTTOM
 10
0.0
 20
0.0
 30
0.0
  9
$UCSORGLEFT
 10
0.0
 20
0.0
 30
0.0
  9
$UCSORGRIGHT
 10
0.0
 20
0.0
 30
0.0
  9
$UCSORGFRONT
 10
0.0
 20
0.0
 30
0.0
  9
$UCSORGBACK
 10
0.0
 20
0.0
 30
0.0
  9
$PUCSBASE
  2

  9
$PUCSNAME
  2

  9
$PUCSORG
 10
0.0
 20
0.0
 30
0.0
  9
$PUCSXDIR
 10
1.0
 20
0.0
 30
0.0
  9
$PUCSYDIR
 10
0.0
 20
1.0
 30
0.0
  9
$PUCSORTHOREF
  2

  9
$PUCSORTHOVIEW
 70
     0
  9
$PUCSORGTOP
 10
0.0
 20
0.0
 30
0.0
  9
$PUCSORGBOTTOM
 10
0.0
 20
0.0
 30
0.0
  9
$PUCSORGLEFT
 10
0.0
 20
0.0
 30
0.0
  9
$PUCSORGRIGHT
 10
0.0
 20
0.0
 30
0.0
  9
$PUCSORGFRONT
 10
0.0
 20
0.0
 30
0.0
  9
$PUCSORGBACK
 10
0.0
 20
0.0
 30
0.0
  9
$USERI1
 70
     0
  9
$USERI2
 70
     0
  9
$USERI3
 70
     0
  9
$USERI4
 70
     0
  9
$USERI5
 70
     0
  9
$USERR1
 40
0.0
  9
$USERR2
 40
0.0
  9
$USERR3
 40
0.0
  9
$USERR4
 40
0.0
  9
$USERR5
 40
0.0
  9
$WORLDVIEW
 70
     1
  9
$SHADEDGE
 70
     3
  9
$SHADEDIF
 70
    70
  9
$TILEMODE
 70
     1
  9
$MAXACTVP
 70
    64
  9
$PINSBASE
 10
0.0
 20
0.0
 30
0.0
  9
$PLIMCHECK
 70
     0
  9
$PEXTMIN
 10
1.000000000000000E+20
 20
1.000000000000000E+20
 30
1.000000000000000E+20
  9
$PEXTMAX
 10
-1.000000000000000E+20
 20
-1.000000000000000E+20
 30
-1.000000000000000E+20
  9
$PLIMMIN
 10
0.0
 20
0.0
  9
$PLIMMAX
 10
12.0
 20
9.0
  9
$UNITMODE
 70
     0
  9
$VISRETAIN
 70
     1
  9
$PLINEGEN
 70
     0
  9
$PSLTSCALE
 70
     1
  9
$TREEDEPTH
 70
  3020
  9
$CMLSTYLE
  2
Standard
  9
$CMLJUST
 70
     0
  9
$CMLSCALE
 40
1.0
  9
$PROXYGRAPHICS
 70
     1
  9
$MEASUREMENT
 70
     0
  9
$CELWEIGHT
370
    -1
  9
$ENDCAPS
280
     0
  9
$JOINSTYLE
280
     0
  9
$LWDISPLAY
290
     1
  9
$INSUNITS
 70
     1
  9
$HYPERLINKBASE
  1

  9
$STYLESHEET
  1

  9
$XEDIT
290
     1
  9
$CEPSNTYPE
380
     0
  9
$PSTYLEMODE
290
     1
  9
$FINGERPRINTGUID
  2
{FBCF5243-50F1-3398-6D13-4E6E15AD0120}
  9
$VERSIONGUID
  2
{FAEB1C32-E019-11D5-929B-00C0DF256EC4}
  9
$EXTNAMES
290
     1
  9
$PSVPSCALE
 40
0.0
  9
$OLESTARTUP
290
     0
  9
$SORTENTS
280
   127
  9
$INDEXCTL
280
     0
  9
$HIDETEXT
280
     1
  9
$XCLIPFRAME
280
     2
  9
$HALOGAP
280
     0
  9
$OBSCOLOR
 70
   257
  9
$OBSLTYPE
280
     0
  9
$INTERSECTIONDISPLAY
280
     0
  9
$INTERSECTIONCOLOR
 70
   257
  9
$DIMASSOC
280
     2
  9
$PROJECTNAME
  1

  9
$CAMERADISPLAY
290
     0
  9
$LENSLENGTH
 40
50.0
  9
$CAMERAHEIGHT
 40
0.0
  9
$STEPSPERSEC
 40
2.0
  9
$STEPSIZE
 40
6.0
  9
$3DDWFPREC
 40
2.0
  9
$PSOLWIDTH
 40
0.25
  9
$PSOLHEIGHT
 40
4.0
  9
$LOFTANG1
 40
1.570796326794897
  9
$LOFTANG2
 40
1.570796326794897
  9
$LOFTMAG1
 40
0.0
  9
$LOFTMAG2
 40
0.0
  9
$LOFTPARAM
 70
     7
  9
$LOFTNORMALS
280
     1
  9
$LATITUDE
 40
37.795
  9
$LONGITUDE
 40
-122.394
  9
$NORTHDIRECTION
 40
0.0
  9
$TIMEZONE
 70
 -8000
  9
$LIGHTGLYPHDISPLAY
280
     1
  9
$TILEMODELIGHTSYNCH
280
     1
  9
$CMATERIAL
347
3C
  9
$SOLIDHIST
280
     1
  9
$SHOWHIST
280
     1
  9
$DWFFRAME
280
     2
  9
$DGNFRAME
280
     2
  9
$REALWORLDSCALE
290
     1
  9
$INTERFERECOLOR
 62
   256
  9
$CSHADOW
280
     0
  9
$SHADOWPLANELOCATION
 40
0.0
  0
ENDSEC
  0
SECTION
  2
CLASSES
  0
CLASS
  1
ACDBDICTIONARYWDFLT
  2
AcDbDictionaryWithDefault
  3
ObjectDBX Classes
 90
        0
 91
        4
280
     0
281
     0
  0
CLASS
  1
VISUALSTYLE
  2
AcDbVisualStyle
  3
ObjectDBX Classes
 90
     4095
 91
        4
280
     0
281
     0
  0
CLASS
  1
MATERIAL
  2
AcDbMaterial
  3
ObjectDBX Classes
 90
     1153
 91
        4
280
     0
281
     0
  0
CLASS
  1
SUN
  2
AcDbSun
  3
SCENEOE
 90
     1024
 91
        4
280
     0
281
     0
  0
ENDSEC
  0
SECTION
  2
TABLES
  0
TABLE
  2
VPORT
  5
8
330
0
100
AcDbSymbolTable
 70
     1
  0
VPORT
  5
29
330
8
100
AcDbSymbolTableRecord
100
AcDbViewportTableRecord
  2
*Active
 70
     0
 10
0.0
 20
0.0
 11
1.0
 21
1.0
 12
0.0
 22
0.0
 13
0.0
 23
0.0
 14
0.5
 24
0.5
 15
0.5
 25
0.5
 16
0.0
 26
0.0
 36
1.0
 17
91.00082462281999
 27
-128.4993055234307
 37
0.0
 40
256.9986110468615
 41
0.7081814508812795
 42
50.0
 43
0.0
 44
0.0
 50
0.0
 51
0.0
 71
     0
 72
   100
 73
     1
 74
     3
 75
     0
 76
     0
 77
     0
 78
     0
281
     0
 65
     1
110
0.0
120
0.0
130
0.0
111
1.0
121
0.0
131
0.0
112
0.0
122
1.0
132
0.0
 79
     0
146
0.0
 60
     3
 61
     5
292
     1
282
     1
141
0.0
142
0.0
 63
   250
361
3F
  0
ENDTAB
  0
TABLE
  2
LTYPE
  5
5
330
0
100
AcDbSymbolTable
 70
     1
  0
LTYPE
  5
14
330
5
100
AcDbSymbolTableRecord
100
AcDbLinetypeTableRecord
  2
ByBlock
 70
     0
  3

 72
    65
 73
     0
 40
0.0
  0
LTYPE
  5
15
330
5
100
AcDbSymbolTableRecord
100
AcDbLinetypeTableRecord
  2
ByLayer
 70
     0
  3

 72
    65
 73
     0
 40
0.0
  0
LTYPE
  5
16
330
5
100
AcDbSymbolTableRecord
100
AcDbLinetypeTableRecord
  2
Continuous
 70
     0
  3
Solid line
 72
    65
 73
     0
 40
0.0
  0
ENDTAB
  0
TABLE
  2
LAYER
  5
2
330
0
100
AcDbSymbolTable
 70
     2
  0
LAYER
  5
10
330
2
100
AcDbSymbolTableRecord
100
AcDbLayerTableRecord
  2
0
 70
     0
 62
     7
  6
Continuous
370
    -3
390
F
347
3E
  0
LAYER
  5
40
330
2
100
AcDbSymbolTableRecord
100
AcDbLayerTableRecord
  2
_U+30EC_U+30A4_U+30E4_U+30FC 1
 70
     0
 62
     7
  6
Continuous
370
    -3
390
F
347
3E
  0
ENDTAB
  0
TABLE
  2
STYLE
  5
3
330
0
100
AcDbSymbolTable
 70
     1
  0
STYLE
  5
11
330
3
100
AcDbSymbolTableRecord
100
AcDbTextStyleTableRecord
  2
Standard
 70
     0
 40
0.0
 41
1.0
 50
0.0
 71
     0
 42
0.2
  3
txt
  4

  0
ENDTAB
  0
TABLE
  2
VIEW
  5
6
330
0
100
AcDbSymbolTable
 70
     0
  0
ENDTAB
  0
TABLE
  2
UCS
  5
7
330
0
100
AcDbSymbolTable
 70
     0
  0
ENDTAB
  0
TABLE
  2
APPID
  5
9
330
0
100
AcDbSymbolTable
 70
     1
  0
APPID
  5
12
330
9
100
AcDbSymbolTableRecord
100
AcDbRegAppTableRecord
  2
ACAD
 70
     0
  0
ENDTAB
  0
TABLE
  2
DIMSTYLE
  5
A
330
0
100
AcDbSymbolTable
 70
     1
100
AcDbDimStyleTable
  0
DIMSTYLE
105
27
330
A
100
AcDbSymbolTableRecord
100
AcDbDimStyleTableRecord
  2
Standard
 70
     0
178
     0
340
11
  0
ENDTAB
  0
TABLE
  2
BLOCK_RECORD
  5
1
330
0
100
AcDbSymbolTable
 70
     7
  0
BLOCK_RECORD
  5
1F
330
1
100
AcDbSymbolTableRecord
100
AcDbBlockTableRecord
  2
*Model_Space
340
22
 70
     0
280
     1
281
     0
  0
BLOCK_RECORD
  5
1B
330
1
100
AcDbSymbolTableRecord
100
AcDbBlockTableRecord
  2
*Paper_Space
340
1E
 70
     0
280
     1
281
     0
  0
BLOCK_RECORD
  5
23
330
1
100
AcDbSymbolTableRecord
100
AcDbBlockTableRecord
  2
*Paper_Space0
340
26
 70
     0
280
     1
281
     0
  0
BLOCK_RECORD
  5
7B
330
1
100
AcDbSymbolTableRecord
100
AcDbBlockTableRecord
  2
block 2
340
0
102
{BLKREFS
331
7C
102
}
 70
     0
280
     1
281
     0
  0
BLOCK_RECORD
  5
91
330
1
100
AcDbSymbolTableRecord
100
AcDbBlockTableRecord
  2
block 3
340
0
102
{BLKREFS
331
92
102
}
 70
     0
280
     1
281
     0
  0
BLOCK_RECORD
  5
A5
330
1
100
AcDbSymbolTableRecord
100
AcDbBlockTableRecord
  2
block 4
340
0
102
{BLKREFS
331
A6
102
}
 70
     0
280
     1
281
     0
  0
BLOCK_RECORD
  5
B7
330
1
100
AcDbSymbolTableRecord
100
AcDbBlockTableRecord
  2
block 5
340
0
102
{BLKREFS
331
B8
102
}
 70
     0
280
     1
281
     0
  0
BLOCK_RECORD
  5
BD
330
1
100
AcDbSymbolTableRecord
100
AcDbBlockTableRecord
  2
block 6
340
0
102
{BLKREFS
331
BE
102
}
 70
     0
280
     1
281
     0
  0
BLOCK_RECORD
  5
D0
330
1
100
AcDbSymbolTableRecord
100
AcDbBlockTableRecord
  2
block 7
340
0
102
{BLKREFS
331
D1
102
}
 70
     0
280
     1
281
     0
  0
ENDTAB
  0
ENDSEC
  0
SECTION
  2
BLOCKS
  0
BLOCK
  5
20
330
1F
100
AcDbEntity
  8
0
100
AcDbBlockBegin
  2
*Model_Space
 70
     0
 10
0.0
 20
0.0
 30
0.0
  3
*Model_Space
  1

  0
ENDBLK
  5
21
330
1F
100
AcDbEntity
  8
0
100
AcDbBlockEnd
  0
BLOCK
  5
1C
330
1B
100
AcDbEntity
 67
     1
  8
0
100
AcDbBlockBegin
  2
*Paper_Space
 70
     0
 10
0.0
 20
0.0
 30
0.0
  3
*Paper_Space
  1

  0
ENDBLK
  5
1D
330
1B
100
AcDbEntity
 67
     1
  8
0
100
AcDbBlockEnd
  0
BLOCK
  5
24
330
23
100
AcDbEntity
  8
0
100
AcDbBlockBegin
  2
*Paper_Space0
 70
     0
 10
0.0
 20
0.0
 30
0.0
  3
*Paper_Space0
  1

  0
ENDBLK
  5
25
330
23
100
AcDbEntity
  8
0
100
AcDbBlockEnd
  0
BLOCK
  5
7D
330
7B
100
AcDbEntity
  8
0
100
AcDbBlockBegin
  2
block 2
 70
     0
 10
0.0
 20
0.0
 30
0.0
  3
block 2
  1

  0
SPLINE
  5
7F
330
7B
100
AcDbEntity
  8
_U+30EC_U+30A4_U+30E4_U+30FC 1
370
     0
100
AcDbSpline
210
0.0
220
0.0
230
1.0
 70
    11
 71
     3
 72
    26
 73
    22
 74
     0
 42
0.0000000001
 43
0.0000000001
 12
1.0
 22
0.0
 32
0.0
 13
1.0
 23
0.0
 33
0.0
 40
0.0
 40
0.0
 40
0.0
 40
0.0
 40
1.0
 40
1.0
 40
1.0
 40
2.0
 40
2.0
 40
2.0
 40
3.0
 40
3.0
 40
3.0
 40
4.0
 40
4.0
 40
4.0
 40
5.0
 40
5.0
 40
5.0
 40
6.0
 40
6.0
 40
6.0
 40
7.0
 40
7.0
 40
7.0
 40
7.0
 10
87.67234020160622
 20
-137.941967738952
 30
0.0
 10
87.67234020160622
 20
-137.941967738952
 30
0.0
 10
87.67234020160622
 20
-136.8378146359294
 30
0.0
 10
87.67234020160622
 20
-136.8378146359294
 30
0.0
 10
87.67234020160622
 20
-136.8378146359294
 30
0.0
 10
87.31990693346516
 20
-136.8378146359294
 30
0.0
 10
87.31990693346516
 20
-136.8378146359294
 30
0.0
 10
87.31990693346516
 20
-136.8378146359294
 30
0.0
 10
87.31990693346516
 20
-136.6896755300637
 30
0.0
 10
87.31990693346516
 20
-136.6896755300637
 30
0.0
 10
87.6747517684459
 20
-136.6748616194771
 30
0.0
 10
87.7243611434335
 20
-136.5119086030248
 30
0.0
 10
87.75605602189779
 20
-136.3975314329145
 30
0.0
 10
87.75605602189779
 20
-136.3975314329145
 30
0.0
 10
87.91211884737962
 20
-136.3975314329145
 30
0.0
 10
87.91211884737962
 20
-136.3975314329145
 30
0.0
 10
87.91211884737962
 20
-136.3975314329145
 30
0.0
 10
87.91211884737962
 20
-137.941967738952
 30
0.0
 10
87.91211884737962
 20
-137.941967738952
 30
0.0
 10
87.91211884737962
 20
-137.941967738952
 30
0.0
 10
87.67234020160622
 20
-137.941967738952
 30
0.0
 10
87.67234020160622
 20
-137.941967738952
 30
0.0
  0
HATCH
  5
80
330
7B
100
AcDbEntity
  8
_U+30EC_U+30A4_U+30E4_U+30FC 1
 62
   179
420
  2234388
100
AcDbHatch
 10
0.0
 20
0.0
 30
0.0
210
0.0
220
0.0
230
1.0
  2
SOLID
 70
     1
 71
     0
 91
        1
 92
        1
 93
        1
 72
     4
 94
        3
 73
     0
 74
     1
 95
       26
 96
       22
 40
0.0
 40
0.0
 40
0.0
 40
0.0
 40
1.0
 40
1.0
 40
1.0
 40
2.0
 40
2.0
 40
2.0
 40
3.0
 40
3.0
 40
3.0
 40
4.0
 40
4.0
 40
4.0
 40
5.0
 40
5.0
 40
5.0
 40
6.0
 40
6.0
 40
6.0
 40
7.0
 40
7.0
 40
7.0
 40
7.0
 10
87.67234020160622
 20
-137.941967738952
 10
87.67234020160622
 20
-137.941967738952
 10
87.67234020160622
 20
-136.8378146359294
 10
87.67234020160622
 20
-136.8378146359294
 10
87.67234020160622
 20
-136.8378146359294
 10
87.31990693346516
 20
-136.8378146359294
 10
87.31990693346516
 20
-136.8378146359294
 10
87.31990693346516
 20
-136.8378146359294
 10
87.31990693346516
 20
-136.6896755300637
 10
87.31990693346516
 20
-136.6896755300637
 10
87.6747517684459
 20
-136.6748616194771
 10
87.7243611434335
 20
-136.5119086030248
 10
87.75605602189779
 20
-136.3975314329145
 10
87.75605602189779
 20
-136.3975314329145
 10
87.91211884737962
 20
-136.3975314329145
 10
87.91211884737962
 20
-136.3975314329145
 10
87.91211884737962
 20
-136.3975314329145
 10
87.91211884737962
 20
-137.941967738952
 10
87.91211884737962
 20
-137.941967738952
 10
87.91211884737962
 20
-137.941967738952
 10
87.67234020160622
 20
-137.941967738952
 10
87.67234020160622
 20
-137.941967738952
 97
        0
 97
        0
 75
     2
 76
     1
 98
        0
  0
SPLINE
  5
81
330
7B
100
AcDbEntity
  8
_U+30EC_U+30A4_U+30E4_U+30FC 1
370
     0
100
AcDbSpline
210
0.0
220
0.0
230
1.0
 70
    11
 71
     3
 72
    29
 73
    25
 74
     0
 42
0.0000000001
 43
0.0000000001
 12
1.0
 22
0.0
 32
0.0
 13
1.0
 23
0.0
 33
0.0
 40
0.0
 40
0.0
 40
0.0
 40
0.0
 40
1.0
 40
1.0
 40
1.0
 40
2.0
 40
2.0
 40
2.0
 40
3.0
 40
3.0
 40
3.0
 40
4.0
 40
4.0
 40
4.0
 40
5.0
 40
5.0
 40
5.0
 40
6.0
 40
6.0
 40
6.0
 40
7.0
 40
7.0
 40
7.0
 40
8.0
 40
8.0
 40
8.0
 40
8.0
 10
88.98216550509821
 20
-137.9926106425852
 30
0.0
 10
88.69725610846805
 20
-137.9926106425852
 30
0.0
 10
88.42612709377889
 20
-137.8551513327237
 30
0.0
 10
88.42612709377889
 20
-137.5061631600679
 30
0.0
 10
88.42612709377889
 20
-137.2501925655139
 30
0.0
 10
88.57771129512989
 20
-137.1551079301209
 30
0.0
 10
88.69071042704607
 20
-137.0937852304835
 30
0.0
 10
88.5573852317669
 20
-137.0345295881372
 30
0.0
 10
88.47573646876648
 20
-136.9201524180269
 30
0.0
 10
88.47573646876648
 20
-136.7592664588657
 30
0.0
 10
88.47573646876648
 20
-136.4843478391428
 30
0.0
 10
88.6882988602064
 20
-136.3489555865725
 30
0.0
 10
88.98216550509821
 20
-136.3489555865725
 30
0.0
 10
89.2853339078002
 20
-136.3489555865725
 30
0.0
 10
89.48859454142993
 20
-136.4929605778559
 30
0.0
 10
89.48859454142993
 20
-136.7592664588657
 30
0.0
 10
89.48859454142993
 20
-136.9201524180269
 30
0.0
 10
89.40522323068689
 20
-137.0345295881372
 30
0.0
 10
89.2715535258592
 20
-137.0937852304835
 30
0.0
 10
89.3666381612521
 20
-137.1444281341167
 30
0.0
 10
89.53613685912639
 20
-137.2395127695096
 30
0.0
 10
89.53613685912639
 20
-137.5020290454856
 30
0.0
 10
89.53613685912639
 20
-137.8765109247323
 30
0.0
 10
89.23779159010375
 20
-137.9926106425852
 30
0.0
 10
88.98216550509821
 20
-137.9926106425852
 30
0.0
  0
SPLINE
  5
82
330
7B
100
AcDbEntity
  8
_U+30EC_U+30A4_U+30E4_U+30FC 1
370
     0
100
AcDbSpline
210
0.0
220
0.0
230
1.0
 70
    11
 71
     3
 72
    17
 73
    13
 74
     0
 42
0.0000000001
 43
0.0000000001
 12
1.0
 22
0.0
 32
0.0
 13
1.0
 23
0.0
 33
0.0
 40
0.0
 40
0.0
 40
0.0
 40
0.0
 40
1.0
 40
1.0
 40
1.0
 40
2.0
 40
2.0
 40
2.0
 40
3.0
 40
3.0
 40
3.0
 40
4.0
 40
4.0
 40
4.0
 40
4.0
 10
88.98216550509821
 20
-137.2016167191718
 30
0.0
 10
88.82851424645607
 20
-137.2016167191718
 30
0.0
 10
88.66590573955227
 20
-137.2884331254001
 30
0.0
 10
88.66590573955227
 20
-137.4913492494813
 30
0.0
 10
88.66590573955227
 20
-137.6966769404022
 30
0.0
 10
88.8012979921226
 20
-137.7979627476686
 30
0.0
 10
88.98216550509821
 20
-137.7979627476686
 30
0.0
 10
89.18129202414565
 20
-137.7979627476686
 30
0.0
 10
89.29876978019267
 20
-137.6753173483937
 30
0.0
 10
89.29876978019267
 20
-137.4975504213548
 30
0.0
 10
89.29876978019267
 20
-137.2756862721047
 30
0.0
 10
89.12479245818756
 20
-137.2016167191718
 30
0.0
 10
88.98216550509821
 20
-137.2016167191718
 30
0.0
  0
SPLINE
  5
83
330
7B
100
AcDbEntity
  8
_U+30EC_U+30A4_U+30E4_U+30FC 1
370
     0
100
AcDbSpline
210
0.0
220
0.0
230
1.0
 70
    11
 71
     3
 72
    17
 73
    13
 74
     0
 42
0.0000000001
 43
0.0000000001
 12
1.0
 22
0.0
 32
0.0
 13
1.0
 23
0.0
 33
0.0
 40
0.0
 40
0.0
 40
0.0
 40
0.0
 40
1.0
 40
1.0
 40
1.0
 40
2.0
 40
2.0
 40
2.0
 40
3.0
 40
3.0
 40
3.0
 40
4.0
 40
4.0
 40
4.0
 40
4.0
 10
88.98216550509821
 20
-136.5415364241979
 30
0.0
 10
88.80612112580195
 20
-136.5415364241979
 30
0.0
 10
88.71551511453987
 20
-136.6366210595909
 30
0.0
 10
88.71551511453987
 20
-136.7720133121612
 30
0.0
 10
88.71551511453987
 20
-136.8946587114361
 30
0.0
 10
88.79234074386095
 20
-137.0131699961287
 30
0.0
 10
88.98216550509821
 20
-137.0131699961287
 30
0.0
 10
89.17233477588401
 20
-137.0131699961287
 30
0.0
 10
89.24916040520507
 20
-136.8946587114361
 30
0.0
 10
89.24916040520507
 20
-136.7720133121612
 30
0.0
 10
89.24916040520507
 20
-136.6366210595909
 30
0.0
 10
89.15648733665185
 20
-136.5415364241979
 30
0.0
 10
88.98216550509821
 20
-136.5415364241979
 30
0.0
  0
HATCH
  5
84
330
7B
100
AcDbEntity
  8
_U+30EC_U+30A4_U+30E4_U+30FC 1
 62
   179
420
  2234388
100
AcDbHatch
 10
0.0
 20
0.0
 30
0.0
210
0.0
220
0.0
230
1.0
  2
SOLID
 70
     1
 71
     0
 91
        3
 92
        1
 93
        1
 72
     4
 94
        3
 73
     0
 74
     1
 95
       29
 96
       25
 40
0.0
 40
0.0
 40
0.0
 40
0.0
 40
1.0
 40
1.0
 40
1.0
 40
2.0
 40
2.0
 40
2.0
 40
3.0
 40
3.0
 40
3.0
 40
4.0
 40
4.0
 40
4.0
 40
5.0
 40
5.0
 40
5.0
 40
6.0
 40
6.0
 40
6.0
 40
7.0
 40
7.0
 40
7.0
 40
8.0
 40
8.0
 40
8.0
 40
8.0
 10
88.98216550509821
 20
-137.9926106425852
 10
88.69725610846805
 20
-137.9926106425852
 10
88.42612709377889
 20
-137.8551513327237
 10
88.42612709377889
 20
-137.5061631600679
 10
88.42612709377889
 20
-137.2501925655139
 10
88.57771129512989
 20
-137.1551079301209
 10
88.69071042704607
 20
-137.0937852304835
 10
88.5573852317669
 20
-137.0345295881372
 10
88.47573646876648
 20
-136.9201524180269
 10
88.47573646876648
 20
-136.7592664588657
 10
88.47573646876648
 20
-136.4843478391428
 10
88.6882988602064
 20
-136.3489555865725
 10
88.98216550509821
 20
-136.3489555865725
 10
89.2853339078002
 20
-136.3489555865725
 10
89.48859454142993
 20
-136.4929605778559
 10
89.48859454142993
 20
-136.7592664588657
 10
89.48859454142993
 20
-136.9201524180269
 10
89.40522323068689
 20
-137.0345295881372
 10
89.2715535258592
 20
-137.0937852304835
 10
89.3666381612521
 20
-137.1444281341167
 10
89.53613685912639
 20
-137.2395127695096
 10
89.53613685912639
 20
-137.5020290454856
 10
89.53613685912639
 20
-137.8765109247323
 10
89.23779159010375
 20
-137.9926106425852
 10
88.98216550509821
 20
-137.9926106425852
 97
        0
 97
        0
 92
        1
 93
        1
 72
     4
 94
        3
 73
     0
 74
     1
 95
       17
 96
       13
 40
0.0
 40
0.0
 40
0.0
 40
0.0
 40
1.0
 40
1.0
 40
1.0
 40
2.0
 40
2.0
 40
2.0
 40
3.0
 40
3.0
 40
3.0
 40
4.0
 40
4.0
 40
4.0
 40
4.0
 10
88.98216550509821
 20
-137.2016167191718
 10
88.82851424645607
 20
-137.2016167191718
 10
88.66590573955227
 20
-137.2884331254001
 10
88.66590573955227
 20
-137.4913492494813
 10
88.66590573955227
 20
-137.6966769404022
 10
88.8012979921226
 20
-137.7979627476686
 10
88.98216550509821
 20
-137.7979627476686
 10
89.18129202414565
 20
-137.7979627476686
 10
89.29876978019267
 20
-137.6753173483937
 10
89.29876978019267
 20
-137.4975504213548
 10
89.29876978019267
 20
-137.2756862721047
 10
89.12479245818756
 20
-137.2016167191718
 10
88.98216550509821
 20
-137.2016167191718
 97
        0
 97
        0
 92
        1
 93
        1
 72
     4
 94
        3
 73
     0
 74
     1
 95
       17
 96
       13
 40
0.0
 40
0.0
 40
0.0
 40
0.0
 40
1.0
 40
1.0
 40
1.0
 40
2.0
 40
2.0
 40
2.0
 40
3.0
 40
3.0
 40
3.0
 40
4.0
 40
4.0
 40
4.0
 40
4.0
 10
88.98216550509821
 20
-136.5415364241979
 10
88.80612112580195
 20
-136.5415364241979
 10
88.71551511453987
 20
-136.6366210595909
 10
88.71551511453987
 20
-136.7720133121612
 10
88.71551511453987
 20
-136.8946587114361
 10
88.79234074386095
 20
-137.0131699961287
 10
88.98216550509821
 20
-137.0131699961287
 10
89.17233477588401
 20
-137.0131699961287
 10
89.24916040520507
 20
-136.8946587114361
 10
89.24916040520507
 20
-136.7720133121612
 10
89.24916040520507
 20
-136.6366210595909
 10
89.15648733665185
 20
-136.5415364241979
 10
88.98216550509821
 20
-136.5415364241979
 97
        0
 97
        0
 75
     2
 76
     1
 98
        0
  0
ENDBLK
  5
7E
330
7B
100
AcDbEntity
  8
0
100
AcDbBlockEnd
  0
BLOCK
  5
93
330
91
100
AcDbEntity
  8
0
100
AcDbBlockBegin
  2
block 3
 70
     0
 10
0.0
 20
0.0
 30
0.0
  3
block 3
  1

  0
SPLINE
  5
95
330
91
100
AcDbEntity
  8
_U+30EC_U+30A4_U+30E4_U+30FC 1
370
     0
100
AcDbSpline
210
0.0
220
0.0
230
1.0
 70
    11
 71
     3
 72
    29
 73
    25
 74
     0
 42
0.0000000001
 43
0.0000000001
 12
1.0
 22
0.0
 32
0.0
 13
1.0
 23
0.0
 33
0.0
 40
0.0
 40
0.0
 40
0.0
 40
0.0
 40
1.0
 40
1.0
 40
1.0
 40
2.0
 40
2.0
 40
2.0
 40
3.0
 40
3.0
 40
3.0
 40
4.0
 40
4.0
 40
4.0
 40
5.0
 40
5.0
 40
5.0
 40
6.0
 40
6.0
 40
6.0
 40
7.0
 40
7.0
 40
7.0
 40
8.0
 40
8.0
 40
8.0
 40
8.0
 10
83.39163680640904
 20
-119.3427584879595
 30
0.0
 10
83.10672740977888
 20
-119.3427584879595
 30
0.0
 10
82.83542614031545
 20
-119.2051269233237
 30
0.0
 10
82.83542614031545
 20
-118.8561387506679
 30
0.0
 10
82.83542614031545
 20
-118.6001681561139
 30
0.0
 10
82.98683808689218
 20
-118.5049112659467
 30
0.0
 10
83.10000947358265
 20
-118.4435885663092
 30
0.0
 10
82.9665120235292
 20
-118.3843329239629
 30
0.0
 10
82.88520777007732
 20
-118.2701280086269
 30
0.0
 10
82.88520777007732
 20
-118.10941430424
 30
0.0
 10
82.88520777007732
 20
-117.8343234297428
 30
0.0
 10
83.09777016151723
 20
-117.6989311771725
 30
0.0
 10
83.39163680640904
 20
-117.6989311771725
 30
0.0
 10
83.6944606995625
 20
-117.6989311771725
 30
0.0
 10
83.89806584274076
 20
-117.8427639136817
 30
0.0
 10
83.89806584274076
 20
-118.10941430424
 30
0.0
 10
83.89806584274076
 20
-118.2701280086269
 30
0.0
 10
83.81435002244919
 20
-118.3843329239629
 30
0.0
 10
83.68102482717002
 20
-118.4435885663092
 30
0.0
 10
83.77593720778866
 20
-118.4944037247167
 30
0.0
 10
83.94543590566295
 20
-118.5896606148838
 30
0.0
 10
83.94543590566295
 20
-118.8520046360856
 30
0.0
 10
83.94543590566295
 20
-119.226314260558
 30
0.0
 10
83.64709063664031
 20
-119.3427584879595
 30
0.0
 10
83.39163680640904
 20
-119.3427584879595
 30
0.0
  0
SPLINE
  5
96
330
91
100
AcDbEntity
  8
_U+30EC_U+30A4_U+30E4_U+30FC 1
370
     0
100
AcDbSpline
210
0.0
220
0.0
230
1.0
 70
    11
 71
     3
 72
    17
 73
    13
 74
     0
 42
0.0000000001
 43
0.0000000001
 12
1.0
 22
0.0
 32
0.0
 13
1.0
 23
0.0
 33
0.0
 40
0.0
 40
0.0
 40
0.0
 40
0.0
 40
1.0
 40
1.0
 40
1.0
 40
2.0
 40
2.0
 40
2.0
 40
3.0
 40
3.0
 40
3.0
 40
4.0
 40
4.0
 40
4.0
 40
4.0
 10
83.39163680640904
 20
-118.5515923097718
 30
0.0
 10
83.23781329299264
 20
-118.5515923097718
 30
0.0
 10
83.07503253131458
 20
-118.6382364612259
 30
0.0
 10
83.07503253131458
 20
-118.8413248400813
 30
0.0
 10
83.07503253131458
 20
-119.046480276228
 30
0.0
 10
83.21076929343343
 20
-119.1481105930428
 30
0.0
 10
83.39163680640904
 20
-119.1481105930428
 30
0.0
 10
83.59059107068222
 20
-119.1481105930428
 30
0.0
 10
83.70806882672923
 20
-119.0254651937679
 30
0.0
 10
83.70806882672923
 20
-118.8476982667291
 30
0.0
 10
83.70806882672923
 20
-118.6254896079304
 30
0.0
 10
83.53409150472412
 20
-118.5515923097718
 30
0.0
 10
83.39163680640904
 20
-118.5515923097718
 30
0.0
  0
SPLINE
  5
97
330
91
100
AcDbEntity
  8
_U+30EC_U+30A4_U+30E4_U+30FC 1
370
     0
100
AcDbSpline
210
0.0
220
0.0
230
1.0
 70
    11
 71
     3
 72
    17
 73
    13
 74
     0
 42
0.0000000001
 43
0.0000000001
 12
1.0
 22
0.0
 32
0.0
 13
1.0
 23
0.0
 33
0.0
 40
0.0
 40
0.0
 40
0.0
 40
0.0
 40
1.0
 40
1.0
 40
1.0
 40
2.0
 40
2.0
 40
2.0
 40
3.0
 40
3.0
 40
3.0
 40
4.0
 40
4.0
 40
4.0
 40
4.0
 10
83.39163680640904
 20
-117.891512014798
 30
0.0
 10
83.21524791756424
 20
-117.891512014798
 30
0.0
 10
83.12481416107644
 20
-117.9865966501909
 30
0.0
 10
83.12481416107644
 20
-118.1219889027612
 30
0.0
 10
83.12481416107644
 20
-118.2448065568103
 30
0.0
 10
83.20163979039751
 20
-118.3633178415029
 30
0.0
 10
83.39163680640904
 20
-118.3633178415029
 30
0.0
 10
83.5814615676463
 20
-118.3633178415029
 30
0.0
 10
83.65828719696738
 20
-118.2448065568103
 30
0.0
 10
83.65828719696738
 20
-118.1219889027612
 30
0.0
 10
83.65828719696738
 20
-117.9865966501909
 30
0.0
 10
83.56561412841415
 20
-117.891512014798
 30
0.0
 10
83.39163680640904
 20
-117.891512014798
 30
0.0
  0
HATCH
  5
98
330
91
100
AcDbEntity
  8
_U+30EC_U+30A4_U+30E4_U+30FC 1
 62
   179
420
  2234388
100
AcDbHatch
 10
0.0
 20
0.0
 30
0.0
210
0.0
220
0.0
230
1.0
  2
SOLID
 70
     1
 71
     0
 91
        3
 92
        1
 93
        1
 72
     4
 94
        3
 73
     0
 74
     1
 95
       29
 96
       25
 40
0.0
 40
0.0
 40
0.0
 40
0.0
 40
1.0
 40
1.0
 40
1.0
 40
2.0
 40
2.0
 40
2.0
 40
3.0
 40
3.0
 40
3.0
 40
4.0
 40
4.0
 40
4.0
 40
5.0
 40
5.0
 40
5.0
 40
6.0
 40
6.0
 40
6.0
 40
7.0
 40
7.0
 40
7.0
 40
8.0
 40
8.0
 40
8.0
 40
8.0
 10
83.39163680640904
 20
-119.3427584879595
 10
83.10672740977888
 20
-119.3427584879595
 10
82.83542614031545
 20
-119.2051269233237
 10
82.83542614031545
 20
-118.8561387506679
 10
82.83542614031545
 20
-118.6001681561139
 10
82.98683808689218
 20
-118.5049112659467
 10
83.10000947358265
 20
-118.4435885663092
 10
82.9665120235292
 20
-118.3843329239629
 10
82.88520777007732
 20
-118.2701280086269
 10
82.88520777007732
 20
-118.10941430424
 10
82.88520777007732
 20
-117.8343234297428
 10
83.09777016151723
 20
-117.6989311771725
 10
83.39163680640904
 20
-117.6989311771725
 10
83.6944606995625
 20
-117.6989311771725
 10
83.89806584274076
 20
-117.8427639136817
 10
83.89806584274076
 20
-118.10941430424
 10
83.89806584274076
 20
-118.2701280086269
 10
83.81435002244919
 20
-118.3843329239629
 10
83.68102482717002
 20
-118.4435885663092
 10
83.77593720778866
 20
-118.4944037247167
 10
83.94543590566295
 20
-118.5896606148838
 10
83.94543590566295
 20
-118.8520046360856
 10
83.94543590566295
 20
-119.226314260558
 10
83.64709063664031
 20
-119.3427584879595
 10
83.39163680640904
 20
-119.3427584879595
 97
        0
 97
        0
 92
        1
 93
        1
 72
     4
 94
        3
 73
     0
 74
     1
 95
       17
 96
       13
 40
0.0
 40
0.0
 40
0.0
 40
0.0
 40
1.0
 40
1.0
 40
1.0
 40
2.0
 40
2.0
 40
2.0
 40
3.0
 40
3.0
 40
3.0
 40
4.0
 40
4.0
 40
4.0
 40
4.0
 10
83.39163680640904
 20
-118.5515923097718
 10
83.23781329299264
 20
-118.5515923097718
 10
83.07503253131458
 20
-118.6382364612259
 10
83.07503253131458
 20
-118.8413248400813
 10
83.07503253131458
 20
-119.046480276228
 10
83.21076929343343
 20
-119.1481105930428
 10
83.39163680640904
 20
-119.1481105930428
 10
83.59059107068222
 20
-119.1481105930428
 10
83.70806882672923
 20
-119.0254651937679
 10
83.70806882672923
 20
-118.8476982667291
 10
83.70806882672923
 20
-118.6254896079304
 10
83.53409150472412
 20
-118.5515923097718
 10
83.39163680640904
 20
-118.5515923097718
 97
        0
 97
        0
 92
        1
 93
        1
 72
     4
 94
        3
 73
     0
 74
     1
 95
       17
 96
       13
 40
0.0
 40
0.0
 40
0.0
 40
0.0
 40
1.0
 40
1.0
 40
1.0
 40
2.0
 40
2.0
 40
2.0
 40
3.0
 40
3.0
 40
3.0
 40
4.0
 40
4.0
 40
4.0
 40
4.0
 10
83.39163680640904
 20
-117.891512014798
 10
83.21524791756424
 20
-117.891512014798
 10
83.12481416107644
 20
-117.9865966501909
 10
83.12481416107644
 20
-118.1219889027612
 10
83.12481416107644
 20
-118.2448065568103
 10
83.20163979039751
 20
-118.3633178415029
 10
83.39163680640904
 20
-118.3633178415029
 10
83.5814615676463
 20
-118.3633178415029
 10
83.65828719696738
 20
-118.2448065568103
 10
83.65828719696738
 20
-118.1219889027612
 10
83.65828719696738
 20
-117.9865966501909
 10
83.56561412841415
 20
-117.891512014798
 10
83.39163680640904
 20
-117.891512014798
 97
        0
 97
        0
 75
     2
 76
     1
 98
        0
  0
ENDBLK
  5
94
330
91
100
AcDbEntity
  8
0
100
AcDbBlockEnd
  0
BLOCK
  5
A7
330
A5
100
AcDbEntity
  8
0
100
AcDbBlockBegin
  2
block 4
 70
     0
 10
0.0
 20
0.0
 30
0.0
  3
block 4
  1

  0
SPLINE
  5
A9
330
A5
100
AcDbEntity
  8
_U+30EC_U+30A4_U+30E4_U+30FC 1
370
     0
100
AcDbSpline
210
0.0
220
0.0
230
1.0
 70
    11
 71
     3
 72
    29
 73
    25
 74
     0
 42
0.0000000001
 43
0.0000000001
 12
1.0
 22
0.0
 32
0.0
 13
1.0
 23
0.0
 33
0.0
 40
0.0
 40
0.0
 40
0.0
 40
0.0
 40
1.0
 40
1.0
 40
1.0
 40
2.0
 40
2.0
 40
2.0
 40
3.0
 40
3.0
 40
3.0
 40
4.0
 40
4.0
 40
4.0
 40
5.0
 40
5.0
 40
5.0
 40
6.0
 40
6.0
 40
6.0
 40
7.0
 40
7.0
 40
7.0
 40
8.0
 40
8.0
 40
8.0
 40
8.0
 10
100.2291964810191
 20
-130.0630343641856
 30
0.0
 10
100.2291964810191
 20
-130.3475992512673
 30
0.0
 10
100.0917371711576
 20
-130.6190727755049
 30
0.0
 10
99.74274899850182
 20
-130.6190727755049
 30
0.0
 10
99.48677840394775
 20
-130.6190727755049
 30
0.0
 10
99.39169376855486
 20
-130.467488574154
 30
0.0
 10
99.33037106891742
 20
-130.3544894422378
 30
0.0
 10
99.27111542657111
 20
-130.4878146375169
 30
0.0
 10
99.15673825646083
 20
-130.5694634005173
 30
0.0
 10
98.99585229729965
 20
-130.5694634005173
 30
0.0
 10
98.72093367757671
 20
-130.5694634005173
 30
0.0
 10
98.5855414250064
 20
-130.3569010090775
 30
0.0
 10
98.5855414250064
 20
-130.0630343641856
 30
0.0
 10
98.5855414250064
 20
-129.7598659614837
 30
0.0
 10
98.72954641628984
 20
-129.5566053278539
 30
0.0
 10
98.99585229729965
 20
-129.5566053278539
 30
0.0
 10
99.15673825646083
 20
-129.5566053278539
 30
0.0
 10
99.27111542657111
 20
-129.6399766385969
 30
0.0
 10
99.33037106891742
 20
-129.7736463434246
 30
0.0
 10
99.38101397255059
 20
-129.6785617080318
 30
0.0
 10
99.47609860794348
 20
-129.5090630101575
 30
0.0
 10
99.73861488391952
 20
-129.5090630101575
 30
0.0
 10
100.1130967631662
 20
-129.5090630101575
 30
0.0
 10
100.2291964810191
 20
-129.8074082791801
 30
0.0
 10
100.2291964810191
 20
-130.0630343641856
 30
0.0
  0
SPLINE
  5
AA
330
A5
100
AcDbEntity
  8
_U+30EC_U+30A4_U+30E4_U+30FC 1
370
     0
100
AcDbSpline
210
0.0
220
0.0
230
1.0
 70
    11
 71
     3
 72
    17
 73
    13
 74
     0
 42
0.0000000001
 43
0.0000000001
 12
1.0
 22
0.0
 32
0.0
 13
1.0
 23
0.0
 33
0.0
 40
0.0
 40
0.0
 40
0.0
 40
0.0
 40
1.0
 40
1.0
 40
1.0
 40
2.0
 40
2.0
 40
2.0
 40
3.0
 40
3.0
 40
3.0
 40
4.0
 40
4.0
 40
4.0
 40
4.0
 10
98.77812226263187
 20
-130.0630343641856
 30
0.0
 10
98.77812226263187
 20
-130.2394232530304
 30
0.0
 10
98.87320689802476
 20
-130.329684754744
 30
0.0
 10
99.00859915059507
 20
-130.329684754744
 30
0.0
 10
99.13124454986998
 20
-130.329684754744
 30
0.0
 10
99.24975583456256
 20
-130.2528591254229
 30
0.0
 10
99.24975583456256
 20
-130.0630343641856
 30
0.0
 10
99.24975583456256
 20
-129.8728650933998
 30
0.0
 10
99.13124454986998
 20
-129.7960394640788
 30
0.0
 10
99.00859915059507
 20
-129.7960394640788
 30
0.0
 10
98.87320689802476
 20
-129.7960394640788
 30
0.0
 10
98.77812226263187
 20
-129.888712532632
 30
0.0
 10
98.77812226263187
 20
-130.0630343641856
 30
0.0
  0
SPLINE
  5
AB
330
A5
100
AcDbEntity
  8
_U+30EC_U+30A4_U+30E4_U+30FC 1
370
     0
100
AcDbSpline
210
0.0
220
0.0
230
1.0
 70
    11
 71
     3
 72
    17
 73
    13
 74
     0
 42
0.0000000001
 43
0.0000000001
 12
1.0
 22
0.0
 32
0.0
 13
1.0
 23
0.0
 33
0.0
 40
0.0
 40
0.0
 40
0.0
 40
0.0
 40
1.0
 40
1.0
 40
1.0
 40
2.0
 40
2.0
 40
2.0
 40
3.0
 40
3.0
 40
3.0
 40
4.0
 40
4.0
 40
4.0
 40
4.0
 10
99.43820255760573
 20
-130.0630343641856
 30
0.0
 10
99.43820255760573
 20
-130.2166856228278
 30
0.0
 10
99.52501896383403
 20
-130.3792941297316
 30
0.0
 10
99.72793508791524
 20
-130.3792941297316
 30
0.0
 10
99.93326277883614
 20
-130.3792941297316
 30
0.0
 10
100.0345485861025
 20
-130.2439018771612
 30
0.0
 10
100.0345485861025
 20
-130.0630343641856
 30
0.0
 10
100.0345485861025
 20
-129.8639078451382
 30
0.0
 10
99.91190318682759
 20
-129.7464300890912
 30
0.0
 10
99.7341362597887
 20
-129.7464300890912
 30
0.0
 10
99.5122721105386
 20
-129.7464300890912
 30
0.0
 10
99.43820255760573
 20
-129.9204074110963
 30
0.0
 10
99.43820255760573
 20
-130.0630343641856
 30
0.0
  0
HATCH
  5
AC
330
A5
100
AcDbEntity
  8
_U+30EC_U+30A4_U+30E4_U+30FC 1
 62
   179
420
  2234388
100
AcDbHatch
 10
0.0
 20
0.0
 30
0.0
210
0.0
220
0.0
230
1.0
  2
SOLID
 70
     1
 71
     0
 91
        3
 92
        1
 93
        1
 72
     4
 94
        3
 73
     0
 74
     1
 95
       29
 96
       25
 40
0.0
 40
0.0
 40
0.0
 40
0.0
 40
1.0
 40
1.0
 40
1.0
 40
2.0
 40
2.0
 40
2.0
 40
3.0
 40
3.0
 40
3.0
 40
4.0
 40
4.0
 40
4.0
 40
5.0
 40
5.0
 40
5.0
 40
6.0
 40
6.0
 40
6.0
 40
7.0
 40
7.0
 40
7.0
 40
8.0
 40
8.0
 40
8.0
 40
8.0
 10
100.2291964810191
 20
-130.0630343641856
 10
100.2291964810191
 20
-130.3475992512673
 10
100.0917371711576
 20
-130.6190727755049
 10
99.74274899850182
 20
-130.6190727755049
 10
99.48677840394775
 20
-130.6190727755049
 10
99.39169376855486
 20
-130.467488574154
 10
99.33037106891742
 20
-130.3544894422378
 10
99.27111542657111
 20
-130.4878146375169
 10
99.15673825646083
 20
-130.5694634005173
 10
98.99585229729965
 20
-130.5694634005173
 10
98.72093367757671
 20
-130.5694634005173
 10
98.5855414250064
 20
-130.3569010090775
 10
98.5855414250064
 20
-130.0630343641856
 10
98.5855414250064
 20
-129.7598659614837
 10
98.72954641628984
 20
-129.5566053278539
 10
98.99585229729965
 20
-129.5566053278539
 10
99.15673825646083
 20
-129.5566053278539
 10
99.27111542657111
 20
-129.6399766385969
 10
99.33037106891742
 20
-129.7736463434246
 10
99.38101397255059
 20
-129.6785617080318
 10
99.47609860794348
 20
-129.5090630101575
 10
99.73861488391952
 20
-129.5090630101575
 10
100.1130967631662
 20
-129.5090630101575
 10
100.2291964810191
 20
-129.8074082791801
 10
100.2291964810191
 20
-130.0630343641856
 97
        0
 97
        0
 92
        1
 93
        1
 72
     4
 94
        3
 73
     0
 74
     1
 95
       17
 96
       13
 40
0.0
 40
0.0
 40
0.0
 40
0.0
 40
1.0
 40
1.0
 40
1.0
 40
2.0
 40
2.0
 40
2.0
 40
3.0
 40
3.0
 40
3.0
 40
4.0
 40
4.0
 40
4.0
 40
4.0
 10
98.77812226263187
 20
-130.0630343641856
 10
98.77812226263187
 20
-130.2394232530304
 10
98.87320689802476
 20
-130.329684754744
 10
99.00859915059507
 20
-130.329684754744
 10
99.13124454986998
 20
-130.329684754744
 10
99.24975583456256
 20
-130.2528591254229
 10
99.24975583456256
 20
-130.0630343641856
 10
99.24975583456256
 20
-129.8728650933998
 10
99.13124454986998
 20
-129.7960394640788
 10
99.00859915059507
 20
-129.7960394640788
 10
98.87320689802476
 20
-129.7960394640788
 10
98.77812226263187
 20
-129.888712532632
 10
98.77812226263187
 20
-130.0630343641856
 97
        0
 97
        0
 92
        1
 93
        1
 72
     4
 94
        3
 73
     0
 74
     1
 95
       17
 96
       13
 40
0.0
 40
0.0
 40
0.0
 40
0.0
 40
1.0
 40
1.0
 40
1.0
 40
2.0
 40
2.0
 40
2.0
 40
3.0
 40
3.0
 40
3.0
 40
4.0
 40
4.0
 40
4.0
 40
4.0
 10
99.43820255760573
 20
-130.0630343641856
 10
99.43820255760573
 20
-130.2166856228278
 10
99.52501896383403
 20
-130.3792941297316
 10
99.72793508791524
 20
-130.3792941297316
 10
99.93326277883614
 20
-130.3792941297316
 10
100.0345485861025
 20
-130.2439018771612
 10
100.0345485861025
 20
-130.0630343641856
 10
100.0345485861025
 20
-129.8639078451382
 10
99.91190318682759
 20
-129.7464300890912
 10
99.7341362597887
 20
-129.7464300890912
 10
99.5122721105386
 20
-129.7464300890912
 10
99.43820255760573
 20
-129.9204074110963
 10
99.43820255760573
 20
-130.0630343641856
 97
        0
 97
        0
 75
     2
 76
     1
 98
        0
  0
POLYLINE
  5
AD
330
A5
100
AcDbEntity
  8
_U+30EC_U+30A4_U+30E4_U+30FC 1
370
     0
100
AcDb2dPolyline
 66
     1
 10
0.0
 20
0.0
 30
0.0
  0
VERTEX
  5
AE
330
AD
100
AcDbEntity
  8
_U+30EC_U+30A4_U+30E4_U+30FC 1
370
     0
100
AcDbVertex
100
AcDb2dVertex
 10
100.1785535773859
 20
-129.2754855362575
 30
0.0
  0
VERTEX
  5
AF
330
AD
100
AcDbEntity
  8
_U+30EC_U+30A4_U+30E4_U+30FC 1
370
     0
100
AcDbVertex
100
AcDb2dVertex
 10
99.92671709741415
 20
-129.2754855362575
 30
0.0
  0
VERTEX
  5
B0
330
AD
100
AcDbEntity
  8
_U+30EC_U+30A4_U+30E4_U+30FC 1
370
     0
100
AcDbVertex
100
AcDb2dVertex
 10
99.92671709741415
 20
-129.0064235788595
 30
0.0
  0
VERTEX
  5
B1
330
AD
100
AcDbEntity
  8
_U+30EC_U+30A4_U+30E4_U+30FC 1
370
     0
100
AcDbVertex
100
AcDb2dVertex
 10
100.1785535773859
 20
-129.0064235788595
 30
0.0
  0
VERTEX
  5
B2
330
AD
100
AcDbEntity
  8
_U+30EC_U+30A4_U+30E4_U+30FC 1
370
     0
100
AcDbVertex
100
AcDb2dVertex
 10
100.1785535773859
 20
-129.2754855362575
 30
0.0
  0
SEQEND
  5
B3
330
AD
100
AcDbEntity
  8
_U+30EC_U+30A4_U+30E4_U+30FC 1
370
     0
  0
HATCH
  5
B4
330
A5
100
AcDbEntity
  8
_U+30EC_U+30A4_U+30E4_U+30FC 1
 62
   179
420
  2234388
100
AcDbHatch
 10
0.0
 20
0.0
 30
0.0
210
0.0
220
0.0
230
1.0
  2
SOLID
 70
     1
 71
     0
 91
        1
 92
        1
 93
        4
 72
     1
 10
100.1785535773859
 20
-129.2754855362575
 11
99.92671709741415
 21
-129.2754855362575
 72
     1
 10
99.92671709741415
 20
-129.2754855362575
 11
99.92671709741415
 21
-129.0064235788595
 72
     1
 10
99.92671709741415
 20
-129.0064235788595
 11
100.1785535773859
 21
-129.0064235788595
 72
     1
 10
100.1785535773859
 20
-129.0064235788595
 11
100.1785535773859
 21
-129.2754855362575
 97
        0
 75
     2
 76
     1
 98
        0
  0
SPLINE
  5
B5
330
A5
100
AcDbEntity
  8
_U+30EC_U+30A4_U+30E4_U+30FC 1
370
     0
100
AcDbSpline
210
0.0
220
0.0
230
1.0
 70
    11
 71
     3
 72
    53
 73
    49
 74
     0
 42
0.0000000001
 43
0.0000000001
 12
1.0
 22
0.0
 32
0.0
 13
1.0
 23
0.0
 33
0.0
 40
0.0
 40
0.0
 40
0.0
 40
0.0
 40
1.0
 40
1.0
 40
1.0
 40
2.0
 40
2.0
 40
2.0
 40
3.0
 40
3.0
 40
3.0
 40
4.0
 40
4.0
 40
4.0
 40
5.0
 40
5.0
 40
5.0
 40
6.0
 40
6.0
 40
6.0
 40
7.0
 40
7.0
 40
7.0
 40
8.0
 40
8.0
 40
8.0
 40
9.0
 40
9.0
 40
9.0
 40
10.0
 40
10.0
 40
10.0
 40
11.0
 40
11.0
 40
11.0
 40
12.0
 40
12.0
 40
12.0
 40
13.0
 40
13.0
 40
13.0
 40
14.0
 40
14.0
 40
14.0
 40
15.0
 40
15.0
 40
15.0
 40
16.0
 40
16.0
 40
16.0
 40
16.0
 10
100.2291964810191
 20
-128.2395453238429
 30
0.0
 10
100.2291964810191
 20
-128.3232611441345
 30
0.0
 10
100.2123155131414
 20
-128.4314371423713
 30
0.0
 10
100.1489257562128
 20
-128.5403021597052
 30
0.0
 10
100.0390272102333
 20
-128.7256482968116
 30
0.0
 10
99.90776907224529
 20
-128.7480414174658
 30
0.0
 10
99.79993758355697
 20
-128.7683674808287
 30
0.0
 10
99.79993758355697
 20
-128.7683674808287
 30
0.0
 10
99.79993758355697
 20
-128.531000401895
 30
0.0
 10
99.79993758355697
 20
-128.531000401895
 30
0.0
 10
99.99871959305588
 20
-128.4724337786458
 30
0.0
 10
100.028347414229
 20
-128.336697016527
 30
0.0
 10
100.028347414229
 20
-128.2371337570032
 30
0.0
 10
100.028347414229
 20
-128.0879611224919
 30
0.0
 10
99.92878415470531
 20
-127.9250081060396
 30
0.0
 10
99.69624020945095
 20
-127.9250081060396
 30
0.0
 10
99.44026961489688
 20
-127.9250081060396
 30
0.0
 10
99.37033417654631
 20
-128.1172444341165
 30
0.0
 10
99.37033417654631
 20
-128.2460910052649
 30
0.0
 10
99.37033417654631
 20
-128.2801974505688
 30
0.0
 10
99.37033417654631
 20
-128.4314371423713
 30
0.0
 10
99.49952525724318
 20
-128.5265217777642
 30
0.0
 10
99.49952525724318
 20
-128.5265217777642
 30
0.0
 10
99.48057723207431
 20
-128.7142794817103
 30
0.0
 10
99.48057723207431
 20
-128.7142794817103
 30
0.0
 10
99.48057723207431
 20
-128.7142794817103
 30
0.0
 10
98.63411727134842
 20
-128.585432910562
 30
0.0
 10
98.63411727134842
 20
-128.585432910562
 30
0.0
 10
98.63411727134842
 20
-128.585432910562
 30
0.0
 10
98.63411727134842
 20
-127.7534423508741
 30
0.0
 10
98.63411727134842
 20
-127.7534423508741
 30
0.0
 10
98.63411727134842
 20
-127.7534423508741
 30
0.0
 10
98.82876516626503
 20
-127.7534423508741
 30
0.0
 10
98.82876516626503
 20
-127.7534423508741
 30
0.0
 10
98.82876516626503
 20
-127.7534423508741
 30
0.0
 10
98.82876516626503
 20
-128.4111110790084
 30
0.0
 10
98.82876516626503
 20
-128.4111110790084
 30
0.0
 10
98.82876516626503
 20
-128.4111110790084
 30
0.0
 10
99.25182289185372
 20
-128.4813910269074
 30
0.0
 10
99.25182289185372
 20
-128.4813910269074
 30
0.0
 10
99.21806095609827
 20
-128.4159342126877
 30
0.0
 10
99.17775333892084
 20
-128.3277397682653
 30
0.0
 10
99.17775333892084
 20
-128.2009602544081
 30
0.0
 10
99.17775333892084
 20
-127.9298312397189
 30
0.0
 10
99.36413300467287
 20
-127.6766167215531
 30
0.0
 10
99.67729218428207
 20
-127.6766167215531
 30
0.0
 10
99.99458547847358
 20
-127.6766167215531
 30
0.0
 10
100.2291964810191
 20
-127.9160508577779
 30
0.0
 10
100.2291964810191
 20
-128.2395453238429
 30
0.0
  0
HATCH
  5
B6
330
A5
100
AcDbEntity
  8
_U+30EC_U+30A4_U+30E4_U+30FC 1
 62
   179
420
  2234388
100
AcDbHatch
 10
0.0
 20
0.0
 30
0.0
210
0.0
220
0.0
230
1.0
  2
SOLID
 70
     1
 71
     0
 91
        1
 92
        1
 93
        1
 72
     4
 94
        3
 73
     0
 74
     1
 95
       53
 96
       49
 40
0.0
 40
0.0
 40
0.0
 40
0.0
 40
1.0
 40
1.0
 40
1.0
 40
2.0
 40
2.0
 40
2.0
 40
3.0
 40
3.0
 40
3.0
 40
4.0
 40
4.0
 40
4.0
 40
5.0
 40
5.0
 40
5.0
 40
6.0
 40
6.0
 40
6.0
 40
7.0
 40
7.0
 40
7.0
 40
8.0
 40
8.0
 40
8.0
 40
9.0
 40
9.0
 40
9.0
 40
10.0
 40
10.0
 40
10.0
 40
11.0
 40
11.0
 40
11.0
 40
12.0
 40
12.0
 40
12.0
 40
13.0
 40
13.0
 40
13.0
 40
14.0
 40
14.0
 40
14.0
 40
15.0
 40
15.0
 40
15.0
 40
16.0
 40
16.0
 40
16.0
 40
16.0
 10
100.2291964810191
 20
-128.2395453238429
 10
100.2291964810191
 20
-128.3232611441345
 10
100.2123155131414
 20
-128.4314371423713
 10
100.1489257562128
 20
-128.5403021597052
 10
100.0390272102333
 20
-128.7256482968116
 10
99.90776907224529
 20
-128.7480414174658
 10
99.79993758355697
 20
-128.7683674808287
 10
99.79993758355697
 20
-128.7683674808287
 10
99.79993758355697
 20
-128.531000401895
 10
99.79993758355697
 20
-128.531000401895
 10
99.99871959305588
 20
-128.4724337786458
 10
100.028347414229
 20
-128.336697016527
 10
100.028347414229
 20
-128.2371337570032
 10
100.028347414229
 20
-128.0879611224919
 10
99.92878415470531
 20
-127.9250081060396
 10
99.69624020945095
 20
-127.9250081060396
 10
99.44026961489688
 20
-127.9250081060396
 10
99.37033417654631
 20
-128.1172444341165
 10
99.37033417654631
 20
-128.2460910052649
 10
99.37033417654631
 20
-128.2801974505688
 10
99.37033417654631
 20
-128.4314371423713
 10
99.49952525724318
 20
-128.5265217777642
 10
99.49952525724318
 20
-128.5265217777642
 10
99.48057723207431
 20
-128.7142794817103
 10
99.48057723207431
 20
-128.7142794817103
 10
99.48057723207431
 20
-128.7142794817103
 10
98.63411727134842
 20
-128.585432910562
 10
98.63411727134842
 20
-128.585432910562
 10
98.63411727134842
 20
-128.585432910562
 10
98.63411727134842
 20
-127.7534423508741
 10
98.63411727134842
 20
-127.7534423508741
 10
98.63411727134842
 20
-127.7534423508741
 10
98.82876516626503
 20
-127.7534423508741
 10
98.82876516626503
 20
-127.7534423508741
 10
98.82876516626503
 20
-127.7534423508741
 10
98.82876516626503
 20
-128.4111110790084
 10
98.82876516626503
 20
-128.4111110790084
 10
98.82876516626503
 20
-128.4111110790084
 10
99.25182289185372
 20
-128.4813910269074
 10
99.25182289185372
 20
-128.4813910269074
 10
99.21806095609827
 20
-128.4159342126877
 10
99.17775333892084
 20
-128.3277397682653
 10
99.17775333892084
 20
-128.2009602544081
 10
99.17775333892084
 20
-127.9298312397189
 10
99.36413300467287
 20
-127.6766167215531
 10
99.67729218428207
 20
-127.6766167215531
 10
99.99458547847358
 20
-127.6766167215531
 10
100.2291964810191
 20
-127.9160508577779
 10
100.2291964810191
 20
-128.2395453238429
 97
        0
 97
        0
 75
     2
 76
     1
 98
        0
  0
ENDBLK
  5
A8
330
A5
100
AcDbEntity
  8
0
100
AcDbBlockEnd
  0
BLOCK
  5
B9
330
B7
100
AcDbEntity
  8
0
100
AcDbBlockBegin
  2
block 5
 70
     0
 10
0.0
 20
0.0
 30
0.0
  3
block 5
  1

  0
SPLINE
  5
BB
330
B7
100
AcDbEntity
  8
_U+30EC_U+30A4_U+30E4_U+30FC 1
 62
   179
420
  2234388
370
     9
100
AcDbSpline
210
0.0
220
0.0
230
1.0
 70
    11
 71
     3
 72
    17
 73
    13
 74
     0
 42
0.0000000001
 43
0.0000000001
 12
1.0
 22
0.0
 32
0.0
 13
1.0
 23
0.0
 33
0.0
 40
0.0
 40
0.0
 40
0.0
 40
0.0
 40
1.0
 40
1.0
 40
1.0
 40
2.0
 40
2.0
 40
2.0
 40
3.0
 40
3.0
 40
3.0
 40
4.0
 40
4.0
 40
4.0
 40
4.0
 10
82.94616942370776
 20
-129.2048610788099
 30
0.0
 10
82.94616942370776
 20
-129.149757189935
 30
0.0
 10
82.90139982945354
 20
-129.1049544121683
 30
0.0
 10
82.84611955308607
 20
-129.1049544121683
 30
0.0
 10
82.79098038782612
 20
-129.1049544121683
 30
0.0
 10
82.74621288896823
 20
-129.149757189935
 30
0.0
 10
82.74621288896823
 20
-129.2048610788099
 30
0.0
 10
82.74621288896823
 20
-129.260000245463
 30
0.0
 10
82.79098038782612
 20
-129.3047677454515
 30
0.0
 10
82.84611955308607
 20
-129.3047677454515
 30
0.0
 10
82.90139982945354
 20
-129.3047677454515
 30
0.0
 10
82.94616942370776
 20
-129.260000245463
 30
0.0
 10
82.94616942370776
 20
-129.2048610788099
 30
0.0
  0
SPLINE
  5
BC
330
B7
100
AcDbEntity
  8
_U+30EC_U+30A4_U+30E4_U+30FC 1
 62
   179
420
  2234388
370
     9
100
AcDbSpline
210
0.0
220
0.0
230
1.0
 70
    11
 71
     3
 72
    17
 73
    13
 74
     0
 42
0.0000000001
 43
0.0000000001
 12
1.0
 22
0.0
 32
0.0
 13
1.0
 23
0.0
 33
0.0
 40
0.0
 40
0.0
 40
0.0
 40
0.0
 40
1.0
 40
1.0
 40
1.0
 40
2.0
 40
2.0
 40
2.0
 40
3.0
 40
3.0
 40
3.0
 40
4.0
 40
4.0
 40
4.0
 40
4.0
 10
83.9459416456803
 20
-129.2048610788099
 30
0.0
 10
83.9459416456803
 20
-129.149757189935
 30
0.0
 10
83.90117202616945
 20
-129.1049544121683
 30
0.0
 10
83.8458564720251
 20
-129.1049544121683
 30
0.0
 10
83.79075258454203
 20
-129.1049544121683
 30
0.0
 10
83.74594980790727
 20
-129.149757189935
 30
0.0
 10
83.74594980790727
 20
-129.2048610788099
 30
0.0
 10
83.74594980790727
 20
-129.260000245463
 30
0.0
 10
83.79075258454203
 20
-129.3047677454515
 30
0.0
 10
83.8458564720251
 20
-129.3047677454515
 30
0.0
 10
83.90117202616945
 20
-129.3047677454515
 30
0.0
 10
83.9459416456803
 20
-129.260000245463
 30
0.0
 10
83.9459416456803
 20
-129.2048610788099
 30
0.0
  0
INSERT
  5
BE
330
B7
100
AcDbEntity
  8
_U+30EC_U+30A4_U+30E4_U+30FC 1
100
AcDbBlockReference
  2
block 6
 10
0.0
 20
0.0
 30
0.0
  0
POLYLINE
  5
C3
330
B7
100
AcDbEntity
  8
_U+30EC_U+30A4_U+30E4_U+30FC 1
 62
   179
420
  2234388
370
     9
100
AcDb2dPolyline
 66
     1
 10
0.0
 20
0.0
 30
0.0
  0
VERTEX
  5
C4
330
C3
100
AcDbEntity
  8
_U+30EC_U+30A4_U+30E4_U+30FC 1
 62
   179
420
  2234388
370
     9
100
AcDbVertex
100
AcDb2dVertex
 10
84.70730450560329
 20
-129.2048610788099
 30
0.0
  0
VERTEX
  5
C5
330
C3
100
AcDbEntity
  8
_U+30EC_U+30A4_U+30E4_U+30FC 1
 62
   179
420
  2234388
370
     9
100
AcDbVertex
100
AcDb2dVertex
 10
80.86827099243408
 20
-129.2048610788099
 30
0.0
  0
SEQEND
  5
C6
330
C3
100
AcDbEntity
  8
_U+30EC_U+30A4_U+30E4_U+30FC 1
 62
   179
420
  2234388
370
     9
  0
ENDBLK
  5
BA
330
B7
100
AcDbEntity
  8
0
100
AcDbBlockEnd
  0
BLOCK
  5
BF
330
BD
100
AcDbEntity
  8
0
100
AcDbBlockBegin
  2
block 6
 70
     0
 10
0.0
 20
0.0
 30
0.0
  3
block 6
  1

  0
SPLINE
  5
C1
330
BD
100
AcDbEntity
  8
_U+30EC_U+30A4_U+30E4_U+30FC 1
370
     0
100
AcDbSpline
210
0.0
220
0.0
230
1.0
 70
    11
 71
     3
 72
    26
 73
    22
 74
     0
 42
0.0000000001
 43
0.0000000001
 12
1.0
 22
0.0
 32
0.0
 13
1.0
 23
0.0
 33
0.0
 40
0.0
 40
0.0
 40
0.0
 40
0.0
 40
1.0
 40
1.0
 40
1.0
 40
2.0
 40
2.0
 40
2.0
 40
3.0
 40
3.0
 40
3.0
 40
4.0
 40
4.0
 40
4.0
 40
5.0
 40
5.0
 40
5.0
 40
6.0
 40
6.0
 40
6.0
 40
7.0
 40
7.0
 40
7.0
 40
7.0
 10
81.67098386630101
 20
-128.9688720380703
 30
0.0
 10
81.67098386630101
 20
-128.9688720380703
 30
0.0
 10
81.67098386630101
 20
-127.8647189350477
 30
0.0
 10
81.67098386630101
 20
-127.8647189350477
 30
0.0
 10
81.67098386630101
 20
-127.8647189350477
 30
0.0
 10
81.34094371881407
 20
-127.8647189350477
 30
0.0
 10
81.34094371881407
 20
-127.8647189350477
 30
0.0
 10
81.34094371881407
 20
-127.8647189350477
 30
0.0
 10
81.34094371881407
 20
-127.716579829182
 30
0.0
 10
81.34094371881407
 20
-127.716579829182
 30
0.0
 10
81.67305092359216
 20
-127.7019381733697
 30
0.0
 10
81.71955971264303
 20
-127.5389851569173
 30
0.0
 10
81.74918753381618
 20
-127.4247802415813
 30
0.0
 10
81.74918753381618
 20
-127.4247802415813
 30
0.0
 10
81.89525958239078
 20
-127.4247802415813
 30
0.0
 10
81.89525958239078
 20
-127.4247802415813
 30
0.0
 10
81.89525958239078
 20
-127.4247802415813
 30
0.0
 10
81.89525958239078
 20
-128.9688720380703
 30
0.0
 10
81.89525958239078
 20
-128.9688720380703
 30
0.0
 10
81.89525958239078
 20
-128.9688720380703
 30
0.0
 10
81.67098386630101
 20
-128.9688720380703
 30
0.0
 10
81.67098386630101
 20
-128.9688720380703
 30
0.0
  0
HATCH
  5
C2
330
BD
100
AcDbEntity
  8
_U+30EC_U+30A4_U+30E4_U+30FC 1
 62
   179
420
  2234388
100
AcDbHatch
 10
0.0
 20
0.0
 30
0.0
210
0.0
220
0.0
230
1.0
  2
SOLID
 70
     1
 71
     0
 91
        1
 92
        1
 93
        1
 72
     4
 94
        3
 73
     0
 74
     1
 95
       26
 96
       22
 40
0.0
 40
0.0
 40
0.0
 40
0.0
 40
1.0
 40
1.0
 40
1.0
 40
2.0
 40
2.0
 40
2.0
 40
3.0
 40
3.0
 40
3.0
 40
4.0
 40
4.0
 40
4.0
 40
5.0
 40
5.0
 40
5.0
 40
6.0
 40
6.0
 40
6.0
 40
7.0
 40
7.0
 40
7.0
 40
7.0
 10
81.67098386630101
 20
-128.9688720380703
 10
81.67098386630101
 20
-128.9688720380703
 10
81.67098386630101
 20
-127.8647189350477
 10
81.67098386630101
 20
-127.8647189350477
 10
81.67098386630101
 20
-127.8647189350477
 10
81.34094371881407
 20
-127.8647189350477
 10
81.34094371881407
 20
-127.8647189350477
 10
81.34094371881407
 20
-127.8647189350477
 10
81.34094371881407
 20
-127.716579829182
 10
81.34094371881407
 20
-127.716579829182
 10
81.67305092359216
 20
-127.7019381733697
 10
81.71955971264303
 20
-127.5389851569173
 10
81.74918753381618
 20
-127.4247802415813
 10
81.74918753381618
 20
-127.4247802415813
 10
81.89525958239078
 20
-127.4247802415813
 10
81.89525958239078
 20
-127.4247802415813
 10
81.89525958239078
 20
-127.4247802415813
 10
81.89525958239078
 20
-128.9688720380703
 10
81.89525958239078
 20
-128.9688720380703
 10
81.89525958239078
 20
-128.9688720380703
 10
81.67098386630101
 20
-128.9688720380703
 10
81.67098386630101
 20
-128.9688720380703
 97
        0
 97
        0
 75
     2
 76
     1
 98
        0
  0
ENDBLK
  5
C0
330
BD
100
AcDbEntity
  8
0
100
AcDbBlockEnd
  0
BLOCK
  5
D2
330
D0
100
AcDbEntity
  8
0
100
AcDbBlockBegin
  2
block 7
 70
     0
 10
0.0
 20
0.0
 30
0.0
  3
block 7
  1

  0
SPLINE
  5
D4
330
D0
100
AcDbEntity
  8
_U+30EC_U+30A4_U+30E4_U+30FC 1
370
     0
100
AcDbSpline
210
0.0
220
0.0
230
1.0
 70
    11
 71
     3
 72
    26
 73
    22
 74
     0
 42
0.0000000001
 43
0.0000000001
 12
1.0
 22
0.0
 32
0.0
 13
1.0
 23
0.0
 33
0.0
 40
0.0
 40
0.0
 40
0.0
 40
0.0
 40
1.0
 40
1.0
 40
1.0
 40
2.0
 40
2.0
 40
2.0
 40
3.0
 40
3.0
 40
3.0
 40
4.0
 40
4.0
 40
4.0
 40
5.0
 40
5.0
 40
5.0
 40
6.0
 40
6.0
 40
6.0
 40
7.0
 40
7.0
 40
7.0
 40
7.0
 10
100.1785535773859
 20
-134.0610676748181
 30
0.0
 10
100.1785535773859
 20
-134.0610676748181
 30
0.0
 10
99.07440047436334
 20
-134.0610676748181
 30
0.0
 10
99.07440047436334
 20
-134.0610676748181
 30
0.0
 10
99.07440047436334
 20
-134.0610676748181
 30
0.0
 10
99.07440047436334
 20
-134.4135009429591
 30
0.0
 10
99.07440047436334
 20
-134.4135009429591
 30
0.0
 10
99.07440047436334
 20
-134.4135009429591
 30
0.0
 10
98.9262613684976
 20
-134.4135009429591
 30
0.0
 10
98.9262613684976
 20
-134.4135009429591
 30
0.0
 10
98.91144745791104
 20
-134.0586561079784
 30
0.0
 10
98.74849444145872
 20
-134.0090467329908
 30
0.0
 10
98.63411727134842
 20
-133.9773518545265
 30
0.0
 10
98.63411727134842
 20
-133.9773518545265
 30
0.0
 10
98.63411727134842
 20
-133.8212890290447
 30
0.0
 10
98.63411727134842
 20
-133.8212890290447
 30
0.0
 10
98.63411727134842
 20
-133.8212890290447
 30
0.0
 10
100.1785535773859
 20
-133.8212890290447
 30
0.0
 10
100.1785535773859
 20
-133.8212890290447
 30
0.0
 10
100.1785535773859
 20
-133.8212890290447
 30
0.0
 10
100.1785535773859
 20
-134.0610676748181
 30
0.0
 10
100.1785535773859
 20
-134.0610676748181
 30
0.0
  0
HATCH
  5
D5
330
D0
100
AcDbEntity
  8
_U+30EC_U+30A4_U+30E4_U+30FC 1
 62
   179
420
  2234388
100
AcDbHatch
 10
0.0
 20
0.0
 30
0.0
210
0.0
220
0.0
230
1.0
  2
SOLID
 70
     1
 71
     0
 91
        1
 92
        1
 93
        1
 72
     4
 94
        3
 73
     0
 74
     1
 95
       26
 96
       22
 40
0.0
 40
0.0
 40
0.0
 40
0.0
 40
1.0
 40
1.0
 40
1.0
 40
2.0
 40
2.0
 40
2.0
 40
3.0
 40
3.0
 40
3.0
 40
4.0
 40
4.0
 40
4.0
 40
5.0
 40
5.0
 40
5.0
 40
6.0
 40
6.0
 40
6.0
 40
7.0
 40
7.0
 40
7.0
 40
7.0
 10
100.1785535773859
 20
-134.0610676748181
 10
100.1785535773859
 20
-134.0610676748181
 10
99.07440047436334
 20
-134.0610676748181
 10
99.07440047436334
 20
-134.0610676748181
 10
99.07440047436334
 20
-134.0610676748181
 10
99.07440047436334
 20
-134.4135009429591
 10
99.07440047436334
 20
-134.4135009429591
 10
99.07440047436334
 20
-134.4135009429591
 10
98.9262613684976
 20
-134.4135009429591
 10
98.9262613684976
 20
-134.4135009429591
 10
98.91144745791104
 20
-134.0586561079784
 10
98.74849444145872
 20
-134.0090467329908
 10
98.63411727134842
 20
-133.9773518545265
 10
98.63411727134842
 20
-133.9773518545265
 10
98.63411727134842
 20
-133.8212890290447
 10
98.63411727134842
 20
-133.8212890290447
 10
98.63411727134842
 20
-133.8212890290447
 10
100.1785535773859
 20
-133.8212890290447
 10
100.1785535773859
 20
-133.8212890290447
 10
100.1785535773859
 20
-133.8212890290447
 10
100.1785535773859
 20
-134.0610676748181
 10
100.1785535773859
 20
-134.0610676748181
 97
        0
 97
        0
 75
     2
 76
     1
 98
        0
  0
ENDBLK
  5
D3
330
D0
100
AcDbEntity
  8
0
100
AcDbBlockEnd
  0
ENDSEC
  0
SECTION
  2
ENTITIES
  0
SPLINE
  5
41
330
1F
100
AcDbEntity
  8
_U+30EC_U+30A4_U+30E4_U+30FC 1
370
     0
100
AcDbSpline
210
0.0
220
0.0
230
1.0
 70
    11
 71
     3
 72
    53
 73
    49
 74
     0
 42
0.0000000001
 43
0.0000000001
 12
1.0
 22
0.0
 32
0.0
 13
1.0
 23
0.0
 33
0.0
 40
0.0
 40
0.0
 40
0.0
 40
0.0
 40
1.0
 40
1.0
 40
1.0
 40
2.0
 40
2.0
 40
2.0
 40
3.0
 40
3.0
 40
3.0
 40
4.0
 40
4.0
 40
4.0
 40
5.0
 40
5.0
 40
5.0
 40
6.0
 40
6.0
 40
6.0
 40
7.0
 40
7.0
 40
7.0
 40
8.0
 40
8.0
 40
8.0
 40
9.0
 40
9.0
 40
9.0
 40
10.0
 40
10.0
 40
10.0
 40
11.0
 40
11.0
 40
11.0
 40
12.0
 40
12.0
 40
12.0
 40
13.0
 40
13.0
 40
13.0
 40
14.0
 40
14.0
 40
14.0
 40
15.0
 40
15.0
 40
15.0
 40
16.0
 40
16.0
 40
16.0
 40
16.0
 10
96.84853947363236
 20
-134.0379871887125
 30
0.0
 10
96.84853947363236
 20
-134.0379871887125
 30
0.0
 10
87.21481360829807
 20
-134.0379871887125
 30
0.0
 10
87.21481360829807
 20
-134.0379871887125
 30
0.0
 10
87.03637861285033
 20
-133.7286010776792
 30
0.0
 10
86.70631973238194
 20
-133.5384538555043
 30
0.0
 10
86.3487441859489
 20
-133.5384538555043
 30
0.0
 10
86.3487441859489
 20
-133.5384538555043
 30
0.0
 10
83.84896091639035
 20
-133.5384538555043
 30
0.0
 10
83.84896091639035
 20
-133.5384538555043
 30
0.0
 10
83.84896091639035
 20
-133.5384538555043
 30
0.0
 10
83.84896091639035
 20
-125.0380263576295
 30
0.0
 10
83.84896091639035
 20
-125.0380263576295
 30
0.0
 10
83.84896091639035
 20
-125.0380263576295
 30
0.0
 10
86.84894997828766
 20
-125.0380263576295
 30
0.0
 10
86.84894997828766
 20
-125.0380263576295
 30
0.0
 10
87.12524333280543
 20
-125.0380263576295
 30
0.0
 10
87.3485163826648
 20
-124.8144358021296
 30
0.0
 10
87.3485163826648
 20
-124.5381402466432
 30
0.0
 10
87.3485163826648
 20
-124.2787074689304
 30
0.0
 10
87.15007888772736
 20
-124.0623841356509
 30
0.0
 10
86.89166917209772
 20
-124.0399827467679
 30
0.0
 10
84.53384367669531
 20
-123.8377352468184
 30
0.0
 10
82.1636356816088
 20
-123.8377352468184
 30
0.0
 10
79.80581018620639
 20
-124.0399827467679
 30
0.0
 10
79.53089047099795
 20
-124.0637599689841
 30
0.0
 10
79.32694964286758
 20
-124.305941913368
 30
0.0
 10
79.35037408671441
 20
-124.5812144132993
 30
0.0
 10
79.3730929750237
 20
-124.8395888576791
 30
0.0
 10
79.58945158061503
 20
-125.0380263576295
 30
0.0
 10
79.84920185176604
 20
-125.0380263576295
 30
0.0
 10
79.84920185176604
 20
-125.0380263576295
 30
0.0
 10
82.84918871967444
 20
-125.0380263576295
 30
0.0
 10
82.84918871967444
 20
-125.0380263576295
 30
0.0
 10
82.84918871967444
 20
-125.0380263576295
 30
0.0
 10
82.84918871967444
 20
-133.5384538555043
 30
0.0
 10
82.84918871967444
 20
-133.5384538555043
 30
0.0
 10
82.84918871967444
 20
-133.5384538555043
 30
0.0
 10
80.3487704501321
 20
-133.5384538555043
 30
0.0
 10
80.3487704501321
 20
-133.5384538555043
 30
0.0
 10
79.79684963087944
 20
-133.5384538555043
 30
0.0
 10
79.34899825341618
 20
-133.9859524665036
 30
0.0
 10
79.34899825341618
 20
-134.5382260774768
 30
0.0
 10
79.34899825341618
 20
-134.5382260774768
 30
0.0
 10
97.34874307198221
 20
-134.5382260774768
 30
0.0
 10
97.34874307198221
 20
-134.5382260774768
 30
0.0
 10
97.34874307198221
 20
-134.2619305219898
 30
0.0
 10
97.12483502213902
 20
-134.0379871887125
 30
0.0
 10
96.84853947363236
 20
-134.0379871887125
 30
0.0
  0
HATCH
  5
42
330
1F
100
AcDbEntity
  8
_U+30EC_U+30A4_U+30E4_U+30FC 1
 62
   253
420
 11711154
100
AcDbHatch
 10
0.0
 20
0.0
 30
0.0
210
0.0
220
0.0
230
1.0
  2
SOLID
 70
     1
 71
     0
 91
        1
 92
        1
 93
        1
 72
     4
 94
        3
 73
     0
 74
     1
 95
       53
 96
       49
 40
0.0
 40
0.0
 40
0.0
 40
0.0
 40
1.0
 40
1.0
 40
1.0
 40
2.0
 40
2.0
 40
2.0
 40
3.0
 40
3.0
 40
3.0
 40
4.0
 40
4.0
 40
4.0
 40
5.0
 40
5.0
 40
5.0
 40
6.0
 40
6.0
 40
6.0
 40
7.0
 40
7.0
 40
7.0
 40
8.0
 40
8.0
 40
8.0
 40
9.0
 40
9.0
 40
9.0
 40
10.0
 40
10.0
 40
10.0
 40
11.0
 40
11.0
 40
11.0
 40
12.0
 40
12.0
 40
12.0
 40
13.0
 40
13.0
 40
13.0
 40
14.0
 40
14.0
 40
14.0
 40
15.0
 40
15.0
 40
15.0
 40
16.0
 40
16.0
 40
16.0
 40
16.0
 10
96.84853947363236
 20
-134.0379871887125
 10
96.84853947363236
 20
-134.0379871887125
 10
87.21481360829807
 20
-134.0379871887125
 10
87.21481360829807
 20
-134.0379871887125
 10
87.03637861285033
 20
-133.7286010776792
 10
86.70631973238194
 20
-133.5384538555043
 10
86.3487441859489
 20
-133.5384538555043
 10
86.3487441859489
 20
-133.5384538555043
 10
83.84896091639035
 20
-133.5384538555043
 10
83.84896091639035
 20
-133.5384538555043
 10
83.84896091639035
 20
-133.5384538555043
 10
83.84896091639035
 20
-125.0380263576295
 10
83.84896091639035
 20
-125.0380263576295
 10
83.84896091639035
 20
-125.0380263576295
 10
86.84894997828766
 20
-125.0380263576295
 10
86.84894997828766
 20
-125.0380263576295
 10
87.12524333280543
 20
-125.0380263576295
 10
87.3485163826648
 20
-124.8144358021296
 10
87.3485163826648
 20
-124.5381402466432
 10
87.3485163826648
 20
-124.2787074689304
 10
87.15007888772736
 20
-124.0623841356509
 10
86.89166917209772
 20
-124.0399827467679
 10
84.53384367669531
 20
-123.8377352468184
 10
82.1636356816088
 20
-123.8377352468184
 10
79.80581018620639
 20
-124.0399827467679
 10
79.53089047099795
 20
-124.0637599689841
 10
79.32694964286758
 20
-124.305941913368
 10
79.35037408671441
 20
-124.5812144132993
 10
79.3730929750237
 20
-124.8395888576791
 10
79.58945158061503
 20
-125.0380263576295
 10
79.84920185176604
 20
-125.0380263576295
 10
79.84920185176604
 20
-125.0380263576295
 10
82.84918871967444
 20
-125.0380263576295
 10
82.84918871967444
 20
-125.0380263576295
 10
82.84918871967444
 20
-125.0380263576295
 10
82.84918871967444
 20
-133.5384538555043
 10
82.84918871967444
 20
-133.5384538555043
 10
82.84918871967444
 20
-133.5384538555043
 10
80.3487704501321
 20
-133.5384538555043
 10
80.3487704501321
 20
-133.5384538555043
 10
79.79684963087944
 20
-133.5384538555043
 10
79.34899825341618
 20
-133.9859524665036
 10
79.34899825341618
 20
-134.5382260774768
 10
79.34899825341618
 20
-134.5382260774768
 10
97.34874307198221
 20
-134.5382260774768
 10
97.34874307198221
 20
-134.5382260774768
 10
97.34874307198221
 20
-134.2619305219898
 10
97.12483502213902
 20
-134.0379871887125
 10
96.84853947363236
 20
-134.0379871887125
 97
        0
 97
        0
 75
     2
 76
     1
 98
        0
  0
POLYLINE
  5
43
330
1F
100
AcDbEntity
  8
_U+30EC_U+30A4_U+30E4_U+30FC 1
 62
   179
420
  2234388
370
    25
100
AcDb2dPolyline
 66
     1
 10
0.0
 20
0.0
 30
0.0
  0
VERTEX
  5
44
330
43
100
AcDbEntity
  8
_U+30EC_U+30A4_U+30E4_U+30FC 1
 62
   179
420
  2234388
370
    25
100
AcDbVertex
100
AcDb2dVertex
 10
80.3487704501321
 20
-133.5384538555043
 30
0.0
  0
VERTEX
  5
45
330
43
100
AcDbEntity
  8
_U+30EC_U+30A4_U+30E4_U+30FC 1
 62
   179
420
  2234388
370
    25
100
AcDbVertex
100
AcDb2dVertex
 10
82.84918871967444
 20
-133.5384538555043
 30
0.0
  0
SEQEND
  5
46
330
43
100
AcDbEntity
  8
_U+30EC_U+30A4_U+30E4_U+30FC 1
 62
   179
420
  2234388
370
    25
  0
POLYLINE
  5
47
330
1F
100
AcDbEntity
  8
_U+30EC_U+30A4_U+30E4_U+30FC 1
 62
   179
420
  2234388
370
    25
100
AcDb2dPolyline
 66
     1
 10
0.0
 20
0.0
 30
0.0
  0
VERTEX
  5
48
330
47
100
AcDbEntity
  8
_U+30EC_U+30A4_U+30E4_U+30FC 1
 62
   179
420
  2234388
370
    25
100
AcDbVertex
100
AcDb2dVertex
 10
79.34899825341618
 20
-134.5382260774768
 30
0.0
  0
VERTEX
  5
49
330
47
100
AcDbEntity
  8
_U+30EC_U+30A4_U+30E4_U+30FC 1
 62
   179
420
  2234388
370
    25
100
AcDbVertex
100
AcDb2dVertex
 10
97.34874307198221
 20
-134.5382260774768
 30
0.0
  0
SEQEND
  5
4A
330
47
100
AcDbEntity
  8
_U+30EC_U+30A4_U+30E4_U+30FC 1
 62
   179
420
  2234388
370
    25
  0
POLYLINE
  5
4B
330
1F
100
AcDbEntity
  8
_U+30EC_U+30A4_U+30E4_U+30FC 1
 62
   179
420
  2234388
370
    25
100
AcDb2dPolyline
 66
     1
 10
0.0
 20
0.0
 30
0.0
  0
VERTEX
  5
4C
330
4B
100
AcDbEntity
  8
_U+30EC_U+30A4_U+30E4_U+30FC 1
 62
   179
420
  2234388
370
    25
100
AcDbVertex
100
AcDb2dVertex
 10
87.21481360829807
 20
-134.0379871887125
 30
0.0
  0
VERTEX
  5
4D
330
4B
100
AcDbEntity
  8
_U+30EC_U+30A4_U+30E4_U+30FC 1
 62
   179
420
  2234388
370
    25
100
AcDbVertex
100
AcDb2dVertex
 10
96.84853947363236
 20
-134.0379871887125
 30
0.0
  0
SEQEND
  5
4E
330
4B
100
AcDbEntity
  8
_U+30EC_U+30A4_U+30E4_U+30FC 1
 62
   179
420
  2234388
370
    25
  0
POLYLINE
  5
4F
330
1F
100
AcDbEntity
  8
_U+30EC_U+30A4_U+30E4_U+30FC 1
 62
   179
420
  2234388
370
    25
100
AcDb2dPolyline
 66
     1
 10
0.0
 20
0.0
 30
0.0
  0
VERTEX
  5
50
330
4F
100
AcDbEntity
  8
_U+30EC_U+30A4_U+30E4_U+30FC 1
 62
   179
420
  2234388
370
    25
100
AcDbVertex
100
AcDb2dVertex
 10
79.84920185176604
 20
-125.0380263576295
 30
0.0
  0
VERTEX
  5
51
330
4F
100
AcDbEntity
  8
_U+30EC_U+30A4_U+30E4_U+30FC 1
 62
   179
420
  2234388
370
    25
100
AcDbVertex
100
AcDb2dVertex
 10
82.84918871967444
 20
-125.0380263576295
 30
0.0
  0
SEQEND
  5
52
330
4F
100
AcDbEntity
  8
_U+30EC_U+30A4_U+30E4_U+30FC 1
 62
   179
420
  2234388
370
    25
  0
POLYLINE
  5
53
330
1F
100
AcDbEntity
  8
_U+30EC_U+30A4_U+30E4_U+30FC 1
 62
   179
420
  2234388
370
    25
100
AcDb2dPolyline
 66
     1
 10
0.0
 20
0.0
 30
0.0
  0
VERTEX
  5
54
330
53
100
AcDbEntity
  8
_U+30EC_U+30A4_U+30E4_U+30FC 1
 62
   179
420
  2234388
370
    25
100
AcDbVertex
100
AcDb2dVertex
 10
82.84918871967444
 20
-125.0380263576295
 30
0.0
  0
VERTEX
  5
55
330
53
100
AcDbEntity
  8
_U+30EC_U+30A4_U+30E4_U+30FC 1
 62
   179
420
  2234388
370
    25
100
AcDbVertex
100
AcDb2dVertex
 10
82.84918871967444
 20
-133.5384538555043
 30
0.0
  0
SEQEND
  5
56
330
53
100
AcDbEntity
  8
_U+30EC_U+30A4_U+30E4_U+30FC 1
 62
   179
420
  2234388
370
    25
  0
POLYLINE
  5
57
330
1F
100
AcDbEntity
  8
_U+30EC_U+30A4_U+30E4_U+30FC 1
 62
   179
420
  2234388
370
    25
100
AcDb2dPolyline
 66
     1
 10
0.0
 20
0.0
 30
0.0
  0
VERTEX
  5
58
330
57
100
AcDbEntity
  8
_U+30EC_U+30A4_U+30E4_U+30FC 1
 62
   179
420
  2234388
370
    25
100
AcDbVertex
100
AcDb2dVertex
 10
83.84896091639035
 20
-125.0380263576295
 30
0.0
  0
VERTEX
  5
59
330
57
100
AcDbEntity
  8
_U+30EC_U+30A4_U+30E4_U+30FC 1
 62
   179
420
  2234388
370
    25
100
AcDbVertex
100
AcDb2dVertex
 10
83.84896091639035
 20
-133.5384538555043
 30
0.0
  0
SEQEND
  5
5A
330
57
100
AcDbEntity
  8
_U+30EC_U+30A4_U+30E4_U+30FC 1
 62
   179
420
  2234388
370
    25
  0
POLYLINE
  5
5B
330
1F
100
AcDbEntity
  8
_U+30EC_U+30A4_U+30E4_U+30FC 1
 62
   179
420
  2234388
370
    25
100
AcDb2dPolyline
 66
     1
 10
0.0
 20
0.0
 30
0.0
  0
VERTEX
  5
5C
330
5B
100
AcDbEntity
  8
_U+30EC_U+30A4_U+30E4_U+30FC 1
 62
   179
420
  2234388
370
    25
100
AcDbVertex
100
AcDb2dVertex
 10
83.84896091639035
 20
-125.0380263576295
 30
0.0
  0
VERTEX
  5
5D
330
5B
100
AcDbEntity
  8
_U+30EC_U+30A4_U+30E4_U+30FC 1
 62
   179
420
  2234388
370
    25
100
AcDbVertex
100
AcDb2dVertex
 10
86.84894997828766
 20
-125.0380263576295
 30
0.0
  0
SEQEND
  5
5E
330
5B
100
AcDbEntity
  8
_U+30EC_U+30A4_U+30E4_U+30FC 1
 62
   179
420
  2234388
370
    25
  0
POLYLINE
  5
5F
330
1F
100
AcDbEntity
  8
_U+30EC_U+30A4_U+30E4_U+30FC 1
 62
   179
420
  2234388
370
    25
100
AcDb2dPolyline
 66
     1
 10
0.0
 20
0.0
 30
0.0
  0
VERTEX
  5
60
330
5F
100
AcDbEntity
  8
_U+30EC_U+30A4_U+30E4_U+30FC 1
 62
   179
420
  2234388
370
    25
100
AcDbVertex
100
AcDb2dVertex
 10
83.84896091639035
 20
-133.5384538555043
 30
0.0
  0
VERTEX
  5
61
330
5F
100
AcDbEntity
  8
_U+30EC_U+30A4_U+30E4_U+30FC 1
 62
   179
420
  2234388
370
    25
100
AcDbVertex
100
AcDb2dVertex
 10
86.3487441859489
 20
-133.5384538555043
 30
0.0
  0
SEQEND
  5
62
330
5F
100
AcDbEntity
  8
_U+30EC_U+30A4_U+30E4_U+30FC 1
 62
   179
420
  2234388
370
    25
  0
SPLINE
  5
63
330
1F
100
AcDbEntity
  8
_U+30EC_U+30A4_U+30E4_U+30FC 1
 62
   179
420
  2234388
370
    25
100
AcDbSpline
210
0.0
220
0.0
230
1.0
 70
     8
 71
     3
 72
     8
 73
     4
 74
     0
 42
0.0000000001
 43
0.0000000001
 12
1.0
 22
0.0
 32
0.0
 13
1.0
 23
0.0
 33
0.0
 40
0.0
 40
0.0
 40
0.0
 40
0.0
 40
1.0
 40
1.0
 40
1.0
 40
1.0
 10
97.34874307198221
 20
-134.5382260774768
 30
0.0
 10
97.34874307198221
 20
-134.2619305219898
 30
0.0
 10
97.12483502213902
 20
-134.0379871887125
 30
0.0
 10
96.84853947363236
 20
-134.0379871887125
 30
0.0
  0
SPLINE
  5
64
330
1F
100
AcDbEntity
  8
_U+30EC_U+30A4_U+30E4_U+30FC 1
 62
   179
420
  2234388
370
     9
100
AcDbSpline
210
0.0
220
0.0
230
1.0
 70
    11
 71
     3
 72
    17
 73
    13
 74
     0
 42
0.0000000001
 43
0.0000000001
 12
1.0
 22
0.0
 32
0.0
 13
1.0
 23
0.0
 33
0.0
 40
0.0
 40
0.0
 40
0.0
 40
0.0
 40
1.0
 40
1.0
 40
1.0
 40
2.0
 40
2.0
 40
2.0
 40
3.0
 40
3.0
 40
3.0
 40
4.0
 40
4.0
 40
4.0
 40
4.0
 10
101.3264535260579
 20
-125.0380263576295
 30
0.0
 10
101.3264535260579
 20
-124.9828871909764
 30
0.0
 10
101.2816860272
 20
-124.9381196909878
 30
0.0
 10
101.2265468619401
 20
-124.9381196909878
 30
0.0
 10
101.171442974457
 20
-124.9381196909878
 30
0.0
 10
101.1266401978223
 20
-124.9828871909764
 30
0.0
 10
101.1266401978223
 20
-125.0380263576295
 30
0.0
 10
101.1266401978223
 20
-125.0934830242821
 30
0.0
 10
101.171442974457
 20
-125.1382858020489
 30
0.0
 10
101.2265468619401
 20
-125.1382858020489
 30
0.0
 10
101.2816860272
 20
-125.1382858020489
 30
0.0
 10
101.3264535260579
 20
-125.0934830242821
 30
0.0
 10
101.3264535260579
 20
-125.0380263576295
 30
0.0
  0
SPLINE
  5
65
330
1F
100
AcDbEntity
  8
_U+30EC_U+30A4_U+30E4_U+30FC 1
 62
   179
420
  2234388
370
     9
100
AcDbSpline
210
0.0
220
0.0
230
1.0
 70
    11
 71
     3
 72
    17
 73
    13
 74
     0
 42
0.0000000001
 43
0.0000000001
 12
1.0
 22
0.0
 32
0.0
 13
1.0
 23
0.0
 33
0.0
 40
0.0
 40
0.0
 40
0.0
 40
0.0
 40
1.0
 40
1.0
 40
1.0
 40
2.0
 40
2.0
 40
2.0
 40
3.0
 40
3.0
 40
3.0
 40
4.0
 40
4.0
 40
4.0
 40
4.0
 10
101.3264535260579
 20
-133.5384538555043
 30
0.0
 10
101.3264535260579
 20
-133.4829971888516
 30
0.0
 10
101.2816860272
 20
-133.4381944110849
 30
0.0
 10
101.2265468619401
 20
-133.4381944110849
 30
0.0
 10
101.171442974457
 20
-133.4381944110849
 30
0.0
 10
101.1266401978223
 20
-133.4829971888516
 30
0.0
 10
101.1266401978223
 20
-133.5384538555043
 30
0.0
 10
101.1266401978223
 20
-133.5935577443792
 30
0.0
 10
101.171442974457
 20
-133.6383605221459
 30
0.0
 10
101.2265468619401
 20
-133.6383605221459
 30
0.0
 10
101.2816860272
 20
-133.6383605221459
 30
0.0
 10
101.3264535260579
 20
-133.5935577443792
 30
0.0
 10
101.3264535260579
 20
-133.5384538555043
 30
0.0
  0
SPLINE
  5
66
330
1F
100
AcDbEntity
  8
_U+30EC_U+30A4_U+30E4_U+30FC 1
 62
   179
420
  2234388
370
     9
100
AcDbSpline
210
0.0
220
0.0
230
1.0
 70
    11
 71
     3
 72
    17
 73
    13
 74
     0
 42
0.0000000001
 43
0.0000000001
 12
1.0
 22
0.0
 32
0.0
 13
1.0
 23
0.0
 33
0.0
 40
0.0
 40
0.0
 40
0.0
 40
0.0
 40
1.0
 40
1.0
 40
1.0
 40
2.0
 40
2.0
 40
2.0
 40
3.0
 40
3.0
 40
3.0
 40
4.0
 40
4.0
 40
4.0
 40
4.0
 10
79.44890491753402
 20
-138.5383027431433
 30
0.0
 10
79.44890491753402
 20
-138.4828460764907
 30
0.0
 10
79.40410214089925
 20
-138.4380785765015
 30
0.0
 10
79.34899825341618
 20
-138.4380785765015
 30
0.0
 10
79.29386109128781
 20
-138.4380785765015
 30
0.0
 10
79.24909158929835
 20
-138.4828460764907
 30
0.0
 10
79.24909158929835
 20
-138.5383027431433
 30
0.0
 10
79.24909158929835
 20
-138.5934419097964
 30
0.0
 10
79.29386109128781
 20
-138.638209409785
 30
0.0
 10
79.34899825341618
 20
-138.638209409785
 30
0.0
 10
79.40410214089925
 20
-138.638209409785
 30
0.0
 10
79.44890491753402
 20
-138.5934419097964
 30
0.0
 10
79.44890491753402
 20
-138.5383027431433
 30
0.0
  0
SPLINE
  5
67
330
1F
100
AcDbEntity
  8
_U+30EC_U+30A4_U+30E4_U+30FC 1
 62
   179
420
  2234388
370
     9
100
AcDbSpline
210
0.0
220
0.0
230
1.0
 70
    11
 71
     3
 72
    17
 73
    13
 74
     0
 42
0.0000000001
 43
0.0000000001
 12
1.0
 22
0.0
 32
0.0
 13
1.0
 23
0.0
 33
0.0
 40
0.0
 40
0.0
 40
0.0
 40
0.0
 40
1.0
 40
1.0
 40
1.0
 40
2.0
 40
2.0
 40
2.0
 40
3.0
 40
3.0
 40
3.0
 40
4.0
 40
4.0
 40
4.0
 40
4.0
 10
97.44864973610005
 20
-138.5383027431433
 30
0.0
 10
97.44864973610005
 20
-138.4828460764907
 30
0.0
 10
97.40388223724216
 20
-138.4380785765015
 30
0.0
 10
97.34874307198221
 20
-138.4380785765015
 30
0.0
 10
97.29364164234315
 20
-138.4380785765015
 30
0.0
 10
97.24883886457643
 20
-138.4828460764907
 30
0.0
 10
97.24883886457643
 20
-138.5383027431433
 30
0.0
 10
97.24883886457643
 20
-138.5934419097964
 30
0.0
 10
97.29364164234315
 20
-138.638209409785
 30
0.0
 10
97.34874307198221
 20
-138.638209409785
 30
0.0
 10
97.40388223724216
 20
-138.638209409785
 30
0.0
 10
97.44864973610005
 20
-138.5934419097964
 30
0.0
 10
97.44864973610005
 20
-138.5383027431433
 30
0.0
  0
SPLINE
  5
68
330
1F
100
AcDbEntity
  8
_U+30EC_U+30A4_U+30E4_U+30FC 1
 62
   179
420
  2234388
370
    25
100
AcDbSpline
210
0.0
220
0.0
230
1.0
 70
     8
 71
     3
 72
     8
 73
     4
 74
     0
 42
0.0000000001
 43
0.0000000001
 12
1.0
 22
0.0
 32
0.0
 13
1.0
 23
0.0
 33
0.0
 40
0.0
 40
0.0
 40
0.0
 40
0.0
 40
1.0
 40
1.0
 40
1.0
 40
1.0
 10
87.21481360829807
 20
-134.0379871887125
 30
0.0
 10
87.03637861285033
 20
-133.7286010776792
 30
0.0
 10
86.70631973238194
 20
-133.5384538555043
 30
0.0
 10
86.3487441859489
 20
-133.5384538555043
 30
0.0
  0
SPLINE
  5
69
330
1F
100
AcDbEntity
  8
_U+30EC_U+30A4_U+30E4_U+30FC 1
 62
   179
420
  2234388
370
    25
100
AcDbSpline
210
0.0
220
0.0
230
1.0
 70
     8
 71
     3
 72
    11
 73
     7
 74
     0
 42
0.0000000001
 43
0.0000000001
 12
1.0
 22
0.0
 32
0.0
 13
1.0
 23
0.0
 33
0.0
 40
0.0
 40
0.0
 40
0.0
 40
0.0
 40
1.0
 40
1.0
 40
1.0
 40
2.0
 40
2.0
 40
2.0
 40
2.0
 10
86.84894997828766
 20
-125.0380263576295
 30
0.0
 10
87.12524333280543
 20
-125.0380263576295
 30
0.0
 10
87.3485163826648
 20
-124.8144358021296
 30
0.0
 10
87.3485163826648
 20
-124.5381402466432
 30
0.0
 10
87.3485163826648
 20
-124.2787074689304
 30
0.0
 10
87.15007888772736
 20
-124.0623841356509
 30
0.0
 10
86.89166917209772
 20
-124.0399827467679
 30
0.0
  0
SPLINE
  5
6A
330
1F
100
AcDbEntity
  8
_U+30EC_U+30A4_U+30E4_U+30FC 1
 62
   179
420
  2234388
370
    25
100
AcDbSpline
210
0.0
220
0.0
230
1.0
 70
     8
 71
     3
 72
    11
 73
     7
 74
     0
 42
0.0000000001
 43
0.0000000001
 12
1.0
 22
0.0
 32
0.0
 13
1.0
 23
0.0
 33
0.0
 40
0.0
 40
0.0
 40
0.0
 40
0.0
 40
1.0
 40
1.0
 40
1.0
 40
2.0
 40
2.0
 40
2.0
 40
2.0
 10
79.80581018620639
 20
-124.0399827467679
 30
0.0
 10
79.53089047099795
 20
-124.0637599689841
 30
0.0
 10
79.32694964286758
 20
-124.305941913368
 30
0.0
 10
79.35037408671441
 20
-124.5812144132993
 30
0.0
 10
79.3730929750237
 20
-124.8395888576791
 30
0.0
 10
79.58945158061503
 20
-125.0380263576295
 30
0.0
 10
79.84920185176604
 20
-125.0380263576295
 30
0.0
  0
SPLINE
  5
6B
330
1F
100
AcDbEntity
  8
_U+30EC_U+30A4_U+30E4_U+30FC 1
 62
   179
420
  2234388
370
    25
100
AcDbSpline
210
0.0
220
0.0
230
1.0
 70
     8
 71
     3
 72
     8
 73
     4
 74
     0
 42
0.0000000001
 43
0.0000000001
 12
1.0
 22
0.0
 32
0.0
 13
1.0
 23
0.0
 33
0.0
 40
0.0
 40
0.0
 40
0.0
 40
0.0
 40
1.0
 40
1.0
 40
1.0
 40
1.0
 10
80.3487704501321
 20
-133.5384538555043
 30
0.0
 10
79.79684963087944
 20
-133.5384538555043
 30
0.0
 10
79.34899825341618
 20
-133.9859524665036
 30
0.0
 10
79.34899825341618
 20
-134.5382260774768
 30
0.0
  0
SPLINE
  5
6C
330
1F
100
AcDbEntity
  8
_U+30EC_U+30A4_U+30E4_U+30FC 1
 62
   179
420
  2234388
370
     9
100
AcDbSpline
210
0.0
220
0.0
230
1.0
 70
    11
 71
     3
 72
    17
 73
    13
 74
     0
 42
0.0000000001
 43
0.0000000001
 12
1.0
 22
0.0
 32
0.0
 13
1.0
 23
0.0
 33
0.0
 40
0.0
 40
0.0
 40
0.0
 40
0.0
 40
1.0
 40
1.0
 40
1.0
 40
2.0
 40
2.0
 40
2.0
 40
3.0
 40
3.0
 40
3.0
 40
4.0
 40
4.0
 40
4.0
 40
4.0
 10
87.44909332454331
 20
-119.8882821922501
 30
0.0
 10
87.44909332454331
 20
-119.8331783033749
 30
0.0
 10
87.40432582568543
 20
-119.7883755256085
 30
0.0
 10
87.3485163826648
 20
-119.7883755256085
 30
0.0
 10
87.29337721740485
 20
-119.7883755256085
 30
0.0
 10
87.24857444077008
 20
-119.8331783033749
 30
0.0
 10
87.24857444077008
 20
-119.8882821922501
 30
0.0
 10
87.24857444077008
 20
-119.9434213589029
 30
0.0
 10
87.29337721740485
 20
-119.9881888588918
 30
0.0
 10
87.3485163826648
 20
-119.9881888588918
 30
0.0
 10
87.40432582568543
 20
-119.9881888588918
 30
0.0
 10
87.44909332454331
 20
-119.9434213589029
 30
0.0
 10
87.44909332454331
 20
-119.8882821922501
 30
0.0
  0
SPLINE
  5
6D
330
1F
100
AcDbEntity
  8
_U+30EC_U+30A4_U+30E4_U+30FC 1
 62
   179
420
  2234388
370
     9
100
AcDbSpline
210
0.0
220
0.0
230
1.0
 70
    11
 71
     3
 72
    17
 73
    13
 74
     0
 42
0.0000000001
 43
0.0000000001
 12
1.0
 22
0.0
 32
0.0
 13
1.0
 23
0.0
 33
0.0
 40
0.0
 40
0.0
 40
0.0
 40
0.0
 40
1.0
 40
1.0
 40
1.0
 40
2.0
 40
2.0
 40
2.0
 40
3.0
 40
3.0
 40
3.0
 40
4.0
 40
4.0
 40
4.0
 40
4.0
 10
79.44890491753402
 20
-119.8882821922501
 30
0.0
 10
79.44890491753402
 20
-119.8331783033749
 30
0.0
 10
79.40410214089925
 20
-119.7883755256085
 30
0.0
 10
79.34899825341618
 20
-119.7883755256085
 30
0.0
 10
79.29386109128781
 20
-119.7883755256085
 30
0.0
 10
79.24909158929835
 20
-119.8331783033749
 30
0.0
 10
79.24909158929835
 20
-119.8882821922501
 30
0.0
 10
79.24909158929835
 20
-119.9434213589029
 30
0.0
 10
79.29386109128781
 20
-119.9881888588918
 30
0.0
 10
79.34899825341618
 20
-119.9881888588918
 30
0.0
 10
79.40410214089925
 20
-119.9881888588918
 30
0.0
 10
79.44890491753402
 20
-119.9434213589029
 30
0.0
 10
79.44890491753402
 20
-119.8882821922501
 30
0.0
  0
SPLINE
  5
6E
330
1F
100
AcDbEntity
  8
_U+30EC_U+30A4_U+30E4_U+30FC 1
 62
   179
420
  2234388
370
    25
100
AcDbSpline
210
0.0
220
0.0
230
1.0
 70
     8
 71
     3
 72
     8
 73
     4
 74
     0
 42
0.0000000001
 43
0.0000000001
 12
1.0
 22
0.0
 32
0.0
 13
1.0
 23
0.0
 33
0.0
 40
0.0
 40
0.0
 40
0.0
 40
0.0
 40
1.0
 40
1.0
 40
1.0
 40
1.0
 10
86.89166917209772
 20
-124.0399827467679
 30
0.0
 10
84.53384367669531
 20
-123.8377352468184
 30
0.0
 10
82.1636356816088
 20
-123.8377352468184
 30
0.0
 10
79.80581018620639
 20
-124.0399827467679
 30
0.0
  0
POLYLINE
  5
6F
330
1F
100
AcDbEntity
  8
_U+30EC_U+30A4_U+30E4_U+30FC 1
 62
   179
420
  2234388
370
     9
100
AcDb2dPolyline
 66
     1
 10
0.0
 20
0.0
 30
0.0
  0
VERTEX
  5
70
330
6F
100
AcDbEntity
  8
_U+30EC_U+30A4_U+30E4_U+30FC 1
 62
   179
420
  2234388
370
     9
100
AcDbVertex
100
AcDb2dVertex
 10
79.34899825341618
 20
-138.5383027431433
 30
0.0
  0
VERTEX
  5
71
330
6F
100
AcDbEntity
  8
_U+30EC_U+30A4_U+30E4_U+30FC 1
 62
   179
420
  2234388
370
     9
100
AcDbVertex
100
AcDb2dVertex
 10
97.34874307198221
 20
-138.5383027431433
 30
0.0
  0
SEQEND
  5
72
330
6F
100
AcDbEntity
  8
_U+30EC_U+30A4_U+30E4_U+30FC 1
 62
   179
420
  2234388
370
     9
  0
POLYLINE
  5
73
330
1F
100
AcDbEntity
  8
_U+30EC_U+30A4_U+30E4_U+30FC 1
 62
   179
420
  2234388
370
     9
100
AcDb2dPolyline
 66
     1
 10
0.0
 20
0.0
 30
0.0
  0
VERTEX
  5
74
330
73
100
AcDbEntity
  8
_U+30EC_U+30A4_U+30E4_U+30FC 1
 62
   179
420
  2234388
370
     9
100
AcDbVertex
100
AcDb2dVertex
 10
79.34899825341618
 20
-136.2779849659308
 30
0.0
  0
VERTEX
  5
75
330
73
100
AcDbEntity
  8
_U+30EC_U+30A4_U+30E4_U+30FC 1
 62
   179
420
  2234388
370
     9
100
AcDbVertex
100
AcDb2dVertex
 10
79.34899825341618
 20
-139.5380749651152
 30
0.0
  0
SEQEND
  5
76
330
73
100
AcDbEntity
  8
_U+30EC_U+30A4_U+30E4_U+30FC 1
 62
   179
420
  2234388
370
     9
  0
POLYLINE
  5
77
330
1F
100
AcDbEntity
  8
_U+30EC_U+30A4_U+30E4_U+30FC 1
 62
   179
420
  2234388
370
     9
100
AcDb2dPolyline
 66
     1
 10
0.0
 20
0.0
 30
0.0
  0
VERTEX
  5
78
330
77
100
AcDbEntity
  8
_U+30EC_U+30A4_U+30E4_U+30FC 1
 62
   179
420
  2234388
370
     9
100
AcDbVertex
100
AcDb2dVertex
 10
97.34874307198221
 20
-137.0782966323971
 30
0.0
  0
VERTEX
  5
79
330
77
100
AcDbEntity
  8
_U+30EC_U+30A4_U+30E4_U+30FC 1
 62
   179
420
  2234388
370
     9
100
AcDbVertex
100
AcDb2dVertex
 10
97.34874307198221
 20
-139.5380749651152
 30
0.0
  0
SEQEND
  5
7A
330
77
100
AcDbEntity
  8
_U+30EC_U+30A4_U+30E4_U+30FC 1
 62
   179
420
  2234388
370
     9
  0
INSERT
  5
7C
330
1F
100
AcDbEntity
  8
_U+30EC_U+30A4_U+30E4_U+30FC 1
100
AcDbBlockReference
  2
block 2
 10
0.0
 20
0.0
 30
0.0
  0
POLYLINE
  5
85
330
1F
100
AcDbEntity
  8
_U+30EC_U+30A4_U+30E4_U+30FC 1
 62
   179
420
  2234388
370
     9
100
AcDb2dPolyline
 66
     1
 10
0.0
 20
0.0
 30
0.0
  0
VERTEX
  5
86
330
85
100
AcDbEntity
  8
_U+30EC_U+30A4_U+30E4_U+30FC 1
 62
   179
420
  2234388
370
     9
100
AcDbVertex
100
AcDb2dVertex
 10
79.34899825341618
 20
-119.8882821922501
 30
0.0
  0
VERTEX
  5
87
330
85
100
AcDbEntity
  8
_U+30EC_U+30A4_U+30E4_U+30FC 1
 62
   179
420
  2234388
370
     9
100
AcDbVertex
100
AcDb2dVertex
 10
87.3485163826648
 20
-119.8882821922501
 30
0.0
  0
SEQEND
  5
88
330
85
100
AcDbEntity
  8
_U+30EC_U+30A4_U+30E4_U+30FC 1
 62
   179
420
  2234388
370
     9
  0
POLYLINE
  5
89
330
1F
100
AcDbEntity
  8
_U+30EC_U+30A4_U+30E4_U+30FC 1
 62
   179
420
  2234388
370
     9
100
AcDb2dPolyline
 66
     1
 10
0.0
 20
0.0
 30
0.0
  0
VERTEX
  5
8A
330
89
100
AcDbEntity
  8
_U+30EC_U+30A4_U+30E4_U+30FC 1
 62
   179
420
  2234388
370
     9
100
AcDbVertex
100
AcDb2dVertex
 10
79.34899825341618
 20
-122.0483758028212
 30
0.0
  0
VERTEX
  5
8B
330
89
100
AcDbEntity
  8
_U+30EC_U+30A4_U+30E4_U+30FC 1
 62
   179
420
  2234388
370
     9
100
AcDbVertex
100
AcDb2dVertex
 10
79.34899825341618
 20
-118.888192470278
 30
0.0
  0
SEQEND
  5
8C
330
89
100
AcDbEntity
  8
_U+30EC_U+30A4_U+30E4_U+30FC 1
 62
   179
420
  2234388
370
     9
  0
POLYLINE
  5
8D
330
1F
100
AcDbEntity
  8
_U+30EC_U+30A4_U+30E4_U+30FC 1
 62
   179
420
  2234388
370
     9
100
AcDb2dPolyline
 66
     1
 10
0.0
 20
0.0
 30
0.0
  0
VERTEX
  5
8E
330
8D
100
AcDbEntity
  8
_U+30EC_U+30A4_U+30E4_U+30FC 1
 62
   179
420
  2234388
370
     9
100
AcDbVertex
100
AcDb2dVertex
 10
87.3485163826648
 20
-122.0483758028212
 30
0.0
  0
VERTEX
  5
8F
330
8D
100
AcDbEntity
  8
_U+30EC_U+30A4_U+30E4_U+30FC 1
 62
   179
420
  2234388
370
     9
100
AcDbVertex
100
AcDb2dVertex
 10
87.3485163826648
 20
-118.888192470278
 30
0.0
  0
SEQEND
  5
90
330
8D
100
AcDbEntity
  8
_U+30EC_U+30A4_U+30E4_U+30FC 1
 62
   179
420
  2234388
370
     9
  0
INSERT
  5
92
330
1F
100
AcDbEntity
  8
_U+30EC_U+30A4_U+30E4_U+30FC 1
100
AcDbBlockReference
  2
block 3
 10
0.0
 20
0.0
 30
0.0
  0
POLYLINE
  5
99
330
1F
100
AcDbEntity
  8
_U+30EC_U+30A4_U+30E4_U+30FC 1
 62
   179
420
  2234388
370
     9
100
AcDb2dPolyline
 66
     1
 10
0.0
 20
0.0
 30
0.0
  0
VERTEX
  5
9A
330
99
100
AcDbEntity
  8
_U+30EC_U+30A4_U+30E4_U+30FC 1
 62
   179
420
  2234388
370
     9
100
AcDbVertex
100
AcDb2dVertex
 10
101.2265468619401
 20
-133.5384538555043
 30
0.0
  0
VERTEX
  5
9B
330
99
100
AcDbEntity
  8
_U+30EC_U+30A4_U+30E4_U+30FC 1
 62
   179
420
  2234388
370
     9
100
AcDbVertex
100
AcDb2dVertex
 10
101.2265468619401
 20
-125.0380263576295
 30
0.0
  0
SEQEND
  5
9C
330
99
100
AcDbEntity
  8
_U+30EC_U+30A4_U+30E4_U+30FC 1
 62
   179
420
  2234388
370
     9
  0
POLYLINE
  5
9D
330
1F
100
AcDbEntity
  8
_U+30EC_U+30A4_U+30E4_U+30FC 1
 62
   179
420
  2234388
370
     9
100
AcDb2dPolyline
 66
     1
 10
0.0
 20
0.0
 30
0.0
  0
VERTEX
  5
9E
330
9D
100
AcDbEntity
  8
_U+30EC_U+30A4_U+30E4_U+30FC 1
 62
   179
420
  2234388
370
     9
100
AcDbVertex
100
AcDb2dVertex
 10
100.2336916416084
 20
-133.5384538555043
 30
0.0
  0
VERTEX
  5
9F
330
9D
100
AcDbEntity
  8
_U+30EC_U+30A4_U+30E4_U+30FC 1
 62
   179
420
  2234388
370
     9
100
AcDbVertex
100
AcDb2dVertex
 10
102.226319058656
 20
-133.5384538555043
 30
0.0
  0
SEQEND
  5
A0
330
9D
100
AcDbEntity
  8
_U+30EC_U+30A4_U+30E4_U+30FC 1
 62
   179
420
  2234388
370
     9
  0
POLYLINE
  5
A1
330
1F
100
AcDbEntity
  8
_U+30EC_U+30A4_U+30E4_U+30FC 1
 62
   179
420
  2234388
370
     9
100
AcDb2dPolyline
 66
     1
 10
0.0
 20
0.0
 30
0.0
  0
VERTEX
  5
A2
330
A1
100
AcDbEntity
  8
_U+30EC_U+30A4_U+30E4_U+30FC 1
 62
   179
420
  2234388
370
     9
100
AcDbVertex
100
AcDb2dVertex
 10
100.2336916416084
 20
-125.0380263576295
 30
0.0
  0
VERTEX
  5
A3
330
A1
100
AcDbEntity
  8
_U+30EC_U+30A4_U+30E4_U+30FC 1
 62
   179
420
  2234388
370
     9
100
AcDbVertex
100
AcDb2dVertex
 10
102.226319058656
 20
-125.0380263576295
 30
0.0
  0
SEQEND
  5
A4
330
A1
100
AcDbEntity
  8
_U+30EC_U+30A4_U+30E4_U+30FC 1
 62
   179
420
  2234388
370
     9
  0
INSERT
  5
A6
330
1F
100
AcDbEntity
  8
_U+30EC_U+30A4_U+30E4_U+30FC 1
100
AcDbBlockReference
  2
block 4
 10
0.0
 20
0.0
 30
0.0
  0
INSERT
  5
B8
330
1F
100
AcDbEntity
  8
_U+30EC_U+30A4_U+30E4_U+30FC 1
100
AcDbBlockReference
  2
block 5
 10
0.0
 20
0.0
 30
0.0
  0
SPLINE
  5
C7
330
1F
100
AcDbEntity
  8
_U+30EC_U+30A4_U+30E4_U+30FC 1
 62
   179
420
  2234388
370
     9
100
AcDbSpline
210
0.0
220
0.0
230
1.0
 70
    11
 71
     3
 72
    17
 73
    13
 74
     0
 42
0.0000000001
 43
0.0000000001
 12
1.0
 22
0.0
 32
0.0
 13
1.0
 23
0.0
 33
0.0
 40
0.0
 40
0.0
 40
0.0
 40
0.0
 40
1.0
 40
1.0
 40
1.0
 40
2.0
 40
2.0
 40
2.0
 40
3.0
 40
3.0
 40
3.0
 40
4.0
 40
4.0
 40
4.0
 40
4.0
 10
101.3292051926544
 20
-134.5375205219213
 30
0.0
 10
101.3292051926544
 20
-134.4820638552686
 30
0.0
 10
101.2844376937965
 20
-134.4372610775019
 30
0.0
 10
101.2292985285365
 20
-134.4372610775019
 30
0.0
 10
101.1741971969286
 20
-134.4372610775019
 30
0.0
 10
101.1293944191618
 20
-134.4820638552686
 30
0.0
 10
101.1293944191618
 20
-134.5375205219213
 30
0.0
 10
101.1293944191618
 20
-134.5926596885737
 30
0.0
 10
101.1741971969286
 20
-134.637427188563
 30
0.0
 10
101.2292985285365
 20
-134.637427188563
 30
0.0
 10
101.2844376937965
 20
-134.637427188563
 30
0.0
 10
101.3292051926544
 20
-134.5926596885737
 30
0.0
 10
101.3292051926544
 20
-134.5375205219213
 30
0.0
  0
POLYLINE
  5
C8
330
1F
100
AcDbEntity
  8
_U+30EC_U+30A4_U+30E4_U+30FC 1
 62
   179
420
  2234388
370
     9
100
AcDb2dPolyline
 66
     1
 10
0.0
 20
0.0
 30
0.0
  0
VERTEX
  5
C9
330
C8
100
AcDbEntity
  8
_U+30EC_U+30A4_U+30E4_U+30FC 1
 62
   179
420
  2234388
370
     9
100
AcDbVertex
100
AcDb2dVertex
 10
101.2292985285365
 20
-132.8900835778884
 30
0.0
  0
VERTEX
  5
CA
330
C8
100
AcDbEntity
  8
_U+30EC_U+30A4_U+30E4_U+30FC 1
 62
   179
420
  2234388
370
     9
100
AcDbVertex
100
AcDb2dVertex
 10
101.2292985285365
 20
-134.5371677441435
 30
0.0
  0
SEQEND
  5
CB
330
C8
100
AcDbEntity
  8
_U+30EC_U+30A4_U+30E4_U+30FC 1
 62
   179
420
  2234388
370
     9
  0
POLYLINE
  5
CC
330
1F
100
AcDbEntity
  8
_U+30EC_U+30A4_U+30E4_U+30FC 1
 62
   179
420
  2234388
370
     9
100
AcDb2dPolyline
 66
     1
 10
0.0
 20
0.0
 30
0.0
  0
VERTEX
  5
CD
330
CC
100
AcDbEntity
  8
_U+30EC_U+30A4_U+30E4_U+30FC 1
 62
   179
420
  2234388
370
     9
100
AcDbVertex
100
AcDb2dVertex
 10
100.2336916416084
 20
-134.5371677441435
 30
0.0
  0
VERTEX
  5
CE
330
CC
100
AcDbEntity
  8
_U+30EC_U+30A4_U+30E4_U+30FC 1
 62
   179
420
  2234388
370
     9
100
AcDbVertex
100
AcDb2dVertex
 10
102.2290707252525
 20
-134.5371677441435
 30
0.0
  0
SEQEND
  5
CF
330
CC
100
AcDbEntity
  8
_U+30EC_U+30A4_U+30E4_U+30FC 1
 62
   179
420
  2234388
370
     9
  0
INSERT
  5
D1
330
1F
100
AcDbEntity
  8
_U+30EC_U+30A4_U+30E4_U+30FC 1
100
AcDbBlockReference
  2
block 7
 10
0.0
 20
0.0
 30
0.0
  0
ENDSEC
  0
SECTION
  2
OBJECTS
  0
DICTIONARY
  5
C
330
0
100
AcDbDictionary
281
     1
  3
ACAD_GROUP
350
D
  3
ACAD_LAYOUT
350
1A
  3
ACAD_MATERIAL
350
3B
  3
ACAD_MLEADERSTYLE
350
D7
  3
ACAD_MLINESTYLE
350
17
  3
ACAD_PLOTSETTINGS
350
19
  3
ACAD_PLOTSTYLENAME
350
E
  3
ACAD_TABLESTYLE
350
D6
  3
ACAD_VISUALSTYLE
350
2A
  0
SUN
  5
3F
330
29
100
AcDbSun
 90
        1
290
     0
 63
     7
421
 16777215
 40
1.0
291
     1
 91
  2455826
 92
 54000000
292
     0
 70
     2
 71
   256
280
     1
  0
DICTIONARY
  5
D
102
{ACAD_REACTORS
330
C
102
}
330
C
100
AcDbDictionary
281
     1
  0
DICTIONARY
  5
1A
102
{ACAD_REACTORS
330
C
102
}
330
C
100
AcDbDictionary
281
     1
  3
Layout1
350
1E
  3
Layout2
350
26
  3
Model
350
22
  0
DICTIONARY
  5
3B
102
{ACAD_REACTORS
330
C
102
}
330
C
100
AcDbDictionary
281
     1
  3
ByBlock
350
3D
  3
ByLayer
350
3C
  3
Global
350
3E
  0
DICTIONARY
  5
D7
102
{ACAD_REACTORS
330
C
102
}
330
C
100
AcDbDictionary
281
     1
  0
DICTIONARY
  5
17
102
{ACAD_REACTORS
330
C
102
}
330
C
100
AcDbDictionary
281
     1
  3
Standard
350
18
  0
DICTIONARY
  5
19
102
{ACAD_REACTORS
330
C
102
}
330
C
100
AcDbDictionary
281
     1
  0
ACDBDICTIONARYWDFLT
  5
E
102
{ACAD_REACTORS
330
C
102
}
330
C
100
AcDbDictionary
281
     1
  3
Normal
350
F
100
AcDbDictionaryWithDefault
340
F
  0
DICTIONARY
  5
D6
102
{ACAD_REACTORS
330
C
102
}
330
C
100
AcDbDictionary
281
     1
  0
DICTIONARY
  5
2A
102
{ACAD_REACTORS
330
C
102
}
330
C
100
AcDbDictionary
281
     1
  3
2dWireframe
350
2F
  3
3D Hidden
350
31
  3
3dWireframe
350
30
  3
Basic
350
32
  3
Brighten
350
36
  3
ColorChange
350
3A
  3
Conceptual
350
34
  3
Dim
350
35
  3
Facepattern
350
39
  3
Flat
350
2B
  3
FlatWithEdges
350
2C
  3
Gouraud
350
2D
  3
GouraudWithEdges
350
2E
  3
Linepattern
350
38
  3
Realistic
350
33
  3
Thicken
350
37
  0
LAYOUT
  5
1E
102
{ACAD_REACTORS
330
1A
102
}
330
1A
100
AcDbPlotSettings
  1

  2
none_device
  4

  6

 40
0.0
 41
0.0
 42
0.0
 43
0.0
 44
0.0
 45
0.0
 46
0.0
 47
0.0
 48
0.0
 49
0.0
140
0.0
141
0.0
142
1.0
143
1.0
 70
   688
 72
     0
 73
     0
 74
     5
  7

 75
    16
 76
     0
 77
     2
 78
   300
147
1.0
148
0.0
149
0.0
100
AcDbLayout
  1
Layout1
 70
     1
 71
     1
 10
0.0
 20
0.0
 11
12.0
 21
9.0
 12
0.0
 22
0.0
 32
0.0
 14
1.000000000000000E+20
 24
1.000000000000000E+20
 34
1.000000000000000E+20
 15
-1.000000000000000E+20
 25
-1.000000000000000E+20
 35
-1.000000000000000E+20
146
0.0
 13
0.0
 23
0.0
 33
0.0
 16
1.0
 26
0.0
 36
0.0
 17
0.0
 27
1.0
 37
0.0
 76
     0
330
1B
  0
LAYOUT
  5
26
102
{ACAD_REACTORS
330
1A
102
}
330
1A
100
AcDbPlotSettings
  1

  2
none_device
  4

  6

 40
0.0
 41
0.0
 42
0.0
 43
0.0
 44
0.0
 45
0.0
 46
0.0
 47
0.0
 48
0.0
 49
0.0
140
0.0
141
0.0
142
1.0
143
1.0
 70
   688
 72
     0
 73
     0
 74
     5
  7

 75
    16
 76
     0
 77
     2
 78
   300
147
1.0
148
0.0
149
0.0
100
AcDbLayout
  1
Layout2
 70
     1
 71
     2
 10
0.0
 20
0.0
 11
0.0
 21
0.0
 12
0.0
 22
0.0
 32
0.0
 14
0.0
 24
0.0
 34
0.0
 15
0.0
 25
0.0
 35
0.0
146
0.0
 13
0.0
 23
0.0
 33
0.0
 16
1.0
 26
0.0
 36
0.0
 17
0.0
 27
1.0
 37
0.0
 76
     0
330
23
  0
LAYOUT
  5
22
102
{ACAD_REACTORS
330
1A
102
}
330
1A
100
AcDbPlotSettings
  1

  2
none_device
  4

  6

 40
0.0
 41
0.0
 42
0.0
 43
0.0
 44
0.0
 45
0.0
 46
0.0
 47
0.0
 48
0.0
 49
0.0
140
0.0
141
0.0
142
1.0
143
1.0
 70
  1712
 72
     0
 73
     0
 74
     0
  7

 75
     0
 76
     0
 77
     2
 78
   300
147
1.0
148
0.0
149
0.0
100
AcDbLayout
  1
Model
 70
     1
 71
     0
 10
0.0
 20
0.0
 11
12.0
 21
9.0
 12
0.0
 22
0.0
 32
0.0
 14
1.000000000000000E+20
 24
1.000000000000000E+20
 34
1.000000000000000E+20
 15
-1.000000000000000E+20
 25
-1.000000000000000E+20
 35
-1.000000000000000E+20
146
0.0
 13
0.0
 23
0.0
 33
0.0
 16
1.0
 26
0.0
 36
0.0
 17
0.0
 27
1.0
 37
0.0
 76
     0
330
1F
331
29
  0
MATERIAL
  5
3D
102
{ACAD_REACTORS
330
3B
102
}
330
3B
100
AcDbMaterial
  1
ByBlock
 72
     1
 94
      127
  0
MATERIAL
  5
3C
102
{ACAD_REACTORS
330
3B
102
}
330
3B
100
AcDbMaterial
  1
ByLayer
 72
     1
 94
      127
  0
MATERIAL
  5
3E
102
{ACAD_REACTORS
330
3B
102
}
330
3B
100
AcDbMaterial
  1
Global
 72
     1
 94
      127
  0
MLINESTYLE
  5
18
102
{ACAD_REACTORS
330
17
102
}
330
17
100
AcDbMlineStyle
  2
Standard
 70
     0
  3

 62
   256
 51
90.0
 52
90.0
 71
     2
 49
0.5
 62
   256
  6
BYLAYER
 49
-0.5
 62
   256
  6
BYLAYER
  0
ACDBPLACEHOLDER
  5
F
102
{ACAD_REACTORS
330
E
102
}
330
E
  0
VISUALSTYLE
  5
2F
102
{ACAD_REACTORS
330
2A
102
}
330
2A
100
AcDbVisualStyle
  2
2dWireframe
 70
     4
177
     2
291
     0
 71
     0
176
     1
 72
     2
176
     1
 73
     0
176
     1
 90
        0
176
     1
 40
-0.6
176
     1
 41
-30.0
176
     1
 62
     5
 63
     7
421
 16777215
176
     1
 74
     1
176
     1
 91
        4
176
     1
 64
     7
176
     1
 65
   257
176
     1
 75
     1
176
     1
175
     1
176
     1
 42
1.0
176
     1
 92
        0
176
     1
 66
   257
176
     1
 43
1.0
176
     1
 76
     1
176
     1
 77
     6
176
     1
 78
     2
176
     1
 67
     7
176
     1
 79
     5
176
     1
170
     0
176
     1
171
     0
176
     1
290
     0
176
     1
 93
        1
176
     1
 44
0.0
176
     1
173
     0
176
     1
  0
VISUALSTYLE
  5
31
102
{ACAD_REACTORS
330
2A
102
}
330
2A
100
AcDbVisualStyle
  2
3D Hidden
 70
     6
177
     2
291
     0
 71
     1
176
     1
 72
     2
176
     1
 73
     2
176
     1
 90
        0
176
     1
 40
-0.6
176
     1
 41
-30.0
176
     1
 62
     5
 63
     7
421
 16777215
176
     1
 74
     2
176
     1
 91
        2
176
     1
 64
     7
176
     1
 65
   257
176
     1
 75
     2
176
     1
175
     1
176
     1
 42
40.0
176
     1
 92
        0
176
     1
 66
   257
176
     1
 43
1.0
176
     1
 76
     1
176
     1
 77
     6
176
     1
 78
     2
176
     1
 67
     7
176
     1
 79
     3
176
     1
170
     0
176
     1
171
     0
176
     1
290
     0
176
     1
 93
        1
176
     1
 44
0.0
176
     1
173
     0
176
     1
  0
VISUALSTYLE
  5
30
102
{ACAD_REACTORS
330
2A
102
}
330
2A
100
AcDbVisualStyle
  2
3dWireframe
 70
     5
177
     2
291
     0
 71
     0
176
     1
 72
     2
176
     1
 73
     0
176
     1
 90
        0
176
     1
 40
-0.6
176
     1
 41
-30.0
176
     1
 62
     5
 63
     7
421
 16777215
176
     1
 74
     1
176
     1
 91
        4
176
     1
 64
     7
176
     1
 65
   257
176
     1
 75
     1
176
     1
175
     1
176
     1
 42
1.0
176
     1
 92
        0
176
     1
 66
   257
176
     1
 43
1.0
176
     1
 76
     1
176
     1
 77
     6
176
     1
 78
     2
176
     1
 67
     7
176
     1
 79
     5
176
     1
170
     0
176
     1
171
     0
176
     1
290
     0
176
     1
 93
        1
176
     1
 44
0.0
176
     1
173
     0
176
     1
  0
VISUALSTYLE
  5
32
102
{ACAD_REACTORS
330
2A
102
}
330
2A
100
AcDbVisualStyle
  2
Basic
 70
     7
177
     2
291
     1
 71
     1
176
     1
 72
     0
176
     1
 73
     1
176
     1
 90
        0
176
     1
 40
-0.6
176
     1
 41
-30.0
176
     1
 62
     5
 63
     7
421
 16777215
176
     1
 74
     0
176
     1
 91
        4
176
     1
 64
     7
176
     1
 65
   257
176
     1
 75
     1
176
     1
175
     1
176
     1
 42
1.0
176
     1
 92
        8
176
     1
 66
     7
176
     1
 43
1.0
176
     1
 76
     1
176
     1
 77
     6
176
     1
 78
     2
176
     1
 67
     7
176
     1
 79
     5
176
     1
170
     0
176
     1
171
     0
176
     1
290
     0
176
     1
 93
        1
176
     1
 44
0.0
176
     1
173
     0
176
     1
  0
VISUALSTYLE
  5
36
102
{ACAD_REACTORS
330
2A
102
}
330
2A
100
AcDbVisualStyle
  2
Brighten
 70
    12
177
     2
291
     1
 71
     2
176
     1
 72
     2
176
     1
 73
     0
176
     1
 90
        0
176
     1
 40
-0.6
176
     1
 41
-30.0
176
     1
 62
     5
 63
     7
421
 16777215
176
     1
 74
     1
176
     1
 91
        4
176
     1
 64
     7
176
     1
 65
   257
176
     1
 75
     1
176
     1
175
     1
176
     1
 42
1.0
176
     1
 92
        8
176
     1
 66
     7
176
     1
 43
1.0
176
     1
 76
     1
176
     1
 77
     6
176
     1
 78
     2
176
     1
 67
     7
176
     1
 79
     5
176
     1
170
     0
176
     1
171
     0
176
     1
290
     0
176
     1
 93
        1
176
     1
 44
50.0
176
     1
173
     0
176
     1
  0
VISUALSTYLE
  5
3A
102
{ACAD_REACTORS
330
2A
102
}
330
2A
100
AcDbVisualStyle
  2
ColorChange
 70
    16
177
     2
291
     1
 71
     2
176
     1
 72
     2
176
     1
 73
     3
176
     1
 90
        0
176
     1
 40
-0.6
176
     1
 41
-30.0
176
     1
 62
     5
 63
     8
421
  8421504
176
     1
 74
     1
176
     1
 91
        4
176
     1
 64
     7
176
     1
 65
   257
176
     1
 75
     1
176
     1
175
     1
176
     1
 42
1.0
176
     1
 92
        8
176
     1
 66
     8
424
  8421504
176
     1
 43
1.0
176
     1
 76
     1
176
     1
 77
     6
176
     1
 78
     2
176
     1
 67
     7
176
     1
 79
     5
176
     1
170
     0
176
     1
171
     0
176
     1
290
     0
176
     1
 93
        1
176
     1
 44
0.0
176
     1
173
     0
176
     1
  0
VISUALSTYLE
  5
34
102
{ACAD_REACTORS
330
2A
102
}
330
2A
100
AcDbVisualStyle
  2
Conceptual
 70
     9
177
     2
291
     0
 71
     3
176
     1
 72
     2
176
     1
 73
     0
176
     1
 90
        0
176
     1
 40
-0.6
176
     1
 41
-30.0
176
     1
 62
     5
 63
     7
421
 16777215
176
     1
 74
     2
176
     1
 91
        2
176
     1
 64
     7
176
     1
 65
   257
176
     1
 75
     1
176
     1
175
     1
176
     1
 42
40.0
176
     1
 92
        8
176
     1
 66
     7
176
     1
 43
1.0
176
     1
 76
     1
176
     1
 77
     6
176
     1
 78
     2
176
     1
 67
     7
176
     1
 79
     3
176
     1
170
     0
176
     1
171
     0
176
     1
290
     0
176
     1
 93
        1
176
     1
 44
0.0
176
     1
173
     0
176
     1
  0
VISUALSTYLE
  5
35
102
{ACAD_REACTORS
330
2A
102
}
330
2A
100
AcDbVisualStyle
  2
Dim
 70
    11
177
     2
291
     1
 71
     2
176
     1
 72
     2
176
     1
 73
     0
176
     1
 90
        0
176
     1
 40
-0.6
176
     1
 41
-30.0
176
     1
 62
     5
 63
     7
421
 16777215
176
     1
 74
     1
176
     1
 91
        4
176
     1
 64
     7
176
     1
 65
   257
176
     1
 75
     1
176
     1
175
     1
176
     1
 42
1.0
176
     1
 92
        8
176
     1
 66
     7
176
     1
 43
1.0
176
     1
 76
     1
176
     1
 77
     6
176
     1
 78
     2
176
     1
 67
     7
176
     1
 79
     5
176
     1
170
     0
176
     1
171
     0
176
     1
290
     0
176
     1
 93
        1
176
     1
 44
-50.0
176
     1
173
     0
176
     1
  0
VISUALSTYLE
  5
39
102
{ACAD_REACTORS
330
2A
102
}
330
2A
100
AcDbVisualStyle
  2
Facepattern
 70
    15
177
     2
291
     1
 71
     2
176
     1
 72
     2
176
     1
 73
     0
176
     1
 90
        0
176
     1
 40
-0.6
176
     1
 41
-30.0
176
     1
 62
     5
 63
     7
421
 16777215
176
     1
 74
     1
176
     1
 91
        4
176
     1
 64
     7
176
     1
 65
   257
176
     1
 75
     1
176
     1
175
     1
176
     1
 42
1.0
176
     1
 92
        8
176
     1
 66
     7
176
     1
 43
1.0
176
     1
 76
     1
176
     1
 77
     6
176
     1
 78
     2
176
     1
 67
     7
176
     1
 79
     5
176
     1
170
     0
176
     1
171
     0
176
     1
290
     0
176
     1
 93
        1
176
     1
 44
0.0
176
     1
173
     0
176
     1
  0
VISUALSTYLE
  5
2B
102
{ACAD_REACTORS
330
2A
102
}
330
2A
100
AcDbVisualStyle
  2
Flat
 70
     0
177
     2
291
     1
 71
     2
176
     1
 72
     1
176
     1
 73
     1
176
     1
 90
        2
176
     1
 40
-0.6
176
     1
 41
30.0
176
     1
 62
     5
 63
     7
421
 16777215
176
     1
 74
     0
176
     1
 91
        4
176
     1
 64
     7
176
     1
 65
   257
176
     1
 75
     1
176
     1
175
     1
176
     1
 42
1.0
176
     1
 92
        8
176
     1
 66
     7
176
     1
 43
1.0
176
     1
 76
     1
176
     1
 77
     6
176
     1
 78
     2
176
     1
 67
     7
176
     1
 79
     5
176
     1
170
     0
176
     1
171
     0
176
     1
290
     0
176
     1
 93
       13
176
     1
 44
0.0
176
     1
173
     0
176
     1
  0
VISUALSTYLE
  5
2C
102
{ACAD_REACTORS
330
2A
102
}
330
2A
100
AcDbVisualStyle
  2
FlatWithEdges
 70
     1
177
     2
291
     1
 71
     2
176
     1
 72
     1
176
     1
 73
     1
176
     1
 90
        2
176
     1
 40
-0.6
176
     1
 41
30.0
176
     1
 62
     5
 63
     7
421
 16777215
176
     1
 74
     1
176
     1
 91
        4
176
     1
 64
     7
176
     1
 65
   257
176
     1
 75
     1
176
     1
175
     1
176
     1
 42
1.0
176
     1
 92
        0
176
     1
 66
   257
176
     1
 43
1.0
176
     1
 76
     1
176
     1
 77
     6
176
     1
 78
     2
176
     1
 67
     7
176
     1
 79
     5
176
     1
170
     0
176
     1
171
     0
176
     1
290
     0
176
     1
 93
       13
176
     1
 44
0.0
176
     1
173
     0
176
     1
  0
VISUALSTYLE
  5
2D
102
{ACAD_REACTORS
330
2A
102
}
330
2A
100
AcDbVisualStyle
  2
Gouraud
 70
     2
177
     2
291
     1
 71
     2
176
     1
 72
     2
176
     1
 73
     1
176
     1
 90
        2
176
     1
 40
-0.6
176
     1
 41
30.0
176
     1
 62
     5
 63
     7
421
 16777215
176
     1
 74
     0
176
     1
 91
        4
176
     1
 64
     7
176
     1
 65
   257
176
     1
 75
     1
176
     1
175
     1
176
     1
 42
1.0
176
     1
 92
        0
176
     1
 66
     7
176
     1
 43
1.0
176
     1
 76
     1
176
     1
 77
     6
176
     1
 78
     2
176
     1
 67
     7
176
     1
 79
     5
176
     1
170
     0
176
     1
171
     0
176
     1
290
     0
176
     1
 93
       13
176
     1
 44
0.0
176
     1
173
     0
176
     1
  0
VISUALSTYLE
  5
2E
102
{ACAD_REACTORS
330
2A
102
}
330
2A
100
AcDbVisualStyle
  2
GouraudWithEdges
 70
     3
177
     2
291
     1
 71
     2
176
     1
 72
     2
176
     1
 73
     1
176
     1
 90
        2
176
     1
 40
-0.6
176
     1
 41
30.0
176
     1
 62
     5
 63
     7
421
 16777215
176
     1
 74
     1
176
     1
 91
        4
176
     1
 64
     7
176
     1
 65
   257
176
     1
 75
     1
176
     1
175
     1
176
     1
 42
1.0
176
     1
 92
        0
176
     1
 66
   257
176
     1
 43
1.0
176
     1
 76
     1
176
     1
 77
     6
176
     1
 78
     2
176
     1
 67
     7
176
     1
 79
     5
176
     1
170
     0
176
     1
171
     0
176
     1
290
     0
176
     1
 93
       13
176
     1
 44
0.0
176
     1
173
     0
176
     1
  0
VISUALSTYLE
  5
38
102
{ACAD_REACTORS
330
2A
102
}
330
2A
100
AcDbVisualStyle
  2
Linepattern
 70
    14
177
     2
291
     1
 71
     2
176
     1
 72
     2
176
     1
 73
     0
176
     1
 90
        0
176
     1
 40
-0.6
176
     1
 41
-30.0
176
     1
 62
     5
 63
     7
421
 16777215
176
     1
 74
     1
176
     1
 91
        4
176
     1
 64
     7
176
     1
 65
   257
176
     1
 75
     7
176
     1
175
     7
176
     1
 42
1.0
176
     1
 92
        8
176
     1
 66
     7
176
     1
 43
1.0
176
     1
 76
     1
176
     1
 77
     6
176
     1
 78
     2
176
     1
 67
     7
176
     1
 79
     5
176
     1
170
     0
176
     1
171
     0
176
     1
290
     0
176
     1
 93
        1
176
     1
 44
0.0
176
     1
173
     0
176
     1
  0
VISUALSTYLE
  5
33
102
{ACAD_REACTORS
330
2A
102
}
330
2A
100
AcDbVisualStyle
  2
Realistic
 70
     8
177
     2
291
     0
 71
     2
176
     1
 72
     2
176
     1
 73
     0
176
     1
 90
        0
176
     1
 40
-0.6
176
     1
 41
-30.0
176
     1
 62
     5
 63
     7
421
 16777215
176
     1
 74
     1
176
     1
 91
        0
176
     1
 64
     7
176
     1
 65
   257
176
     1
 75
     1
176
     1
175
     1
176
     1
 42
1.0
176
     1
 92
        8
176
     1
 66
     8
424
  7895160
176
     1
 43
1.0
176
     1
 76
     1
176
     1
 77
     6
176
     1
 78
     2
176
     1
 67
     7
176
     1
 79
     5
176
     1
170
     0
176
     1
171
     0
176
     1
290
     0
176
     1
 93
       13
176
     1
 44
0.0
176
     1
173
     0
176
     1
  0
VISUALSTYLE
  5
37
102
{ACAD_REACTORS
330
2A
102
}
330
2A
100
AcDbVisualStyle
  2
Thicken
 70
    13
177
     2
291
     1
 71
     2
176
     1
 72
     2
176
     1
 73
     0
176
     1
 90
        0
176
     1
 40
-0.6
176
     1
 41
-30.0
176
     1
 62
     5
 63
     7
421
 16777215
176
     1
 74
     1
176
     1
 91
        4
176
     1
 64
     7
176
     1
 65
   257
176
     1
 75
     1
176
     1
175
     1
176
     1
 42
1.0
176
     1
 92
       12
176
     1
 66
     7
176
     1
 43
1.0
176
     1
 76
     1
176
     1
 77
     6
176
     1
 78
     2
176
     1
 67
     7
176
     1
 79
     5
176
     1
170
     0
176
     1
171
     0
176
     1
290
     0
176
     1
 93
        1
176
     1
 44
0.0
176
     1
173
     0
176
     1
  0
ENDSEC
  0
EOF
