  0
SECTION
  2
HEADER
  9
$ACADVER
  1
AC1024
  9
$ACADMAINTVER
 70
     6
  9
$DWGCODEPAGE
  3
UNDEFINED
  9
$INSBASE
 10
0.0
 20
0.0
 30
0.0
  9
$EXTMIN
 10
1.000000000000000E+20
 20
1.000000000000000E+20
 30
1.000000000000000E+20
  9
$EXTMAX
 10
-1.000000000000000E+20
 20
-1.000000000000000E+20
 30
-1.000000000000000E+20
  9
$LIMMIN
 10
0.0
 20
0.0
  9
$LIMMAX
 10
12.0
 20
9.0
  9
$ORTHOMODE
 70
     0
  9
$REGENMODE
 70
     1
  9
$FILLMODE
 70
     1
  9
$QTEXTMODE
 70
     0
  9
$MIRRTEXT
 70
     1
  9
$LTSCALE
 40
1.0
  9
$ATTMODE
 70
     1
  9
$TEXTSIZE
 40
0.2
  9
$TRACEWID
 40
0.05
  9
$TEXTSTYLE
  7
Standard
  9
$CLAYER
  8
0
  9
$CELTYPE
  6
ByLayer
  9
$CECOLOR
 62
   256
  9
$CELTSCALE
 40
1.0
  9
$DISPSILH
 70
     0
  9
$DIMSCALE
 40
1.0
  9
$DIMASZ
 40
0.18
  9
$DIMEXO
 40
0.0625
  9
$DIMDLI
 40
0.38
  9
$DIMRND
 40
0.0
  9
$DIMDLE
 40
0.0
  9
$DIMEXE
 40
0.18
  9
$DIMTP
 40
0.0
  9
$DIMTM
 40
0.0
  9
$DIMTXT
 40
0.18
  9
$DIMCEN
 40
0.09
  9
$DIMTSZ
 40
0.0
  9
$DIMTOL
 70
     0
  9
$DIMLIM
 70
     0
  9
$DIMTIH
 70
     1
  9
$DIMTOH
 70
     1
  9
$DIMSE1
 70
     0
  9
$DIMSE2
 70
     0
  9
$DIMTAD
 70
     0
  9
$DIMZIN
 70
     0
  9
$DIMBLK
  1

  9
$DIMASO
 70
     1
  9
$DIMSHO
 70
     1
  9
$DIMPOST
  1

  9
$DIMAPOST
  1

  9
$DIMALT
 70
     0
  9
$DIMALTD
 70
     2
  9
$DIMALTF
 40
25.4
  9
$DIMLFAC
 40
1.0
  9
$DIMTOFL
 70
     0
  9
$DIMTVP
 40
0.0
  9
$DIMTIX
 70
     0
  9
$DIMSOXD
 70
     0
  9
$DIMSAH
 70
     0
  9
$DIMBLK1
  1

  9
$DIMBLK2
  1

  9
$DIMSTYLE
  2
Standard
  9
$DIMCLRD
 70
     0
  9
$DIMCLRE
 70
     0
  9
$DIMCLRT
 70
     0
  9
$DIMTFAC
 40
1.0
  9
$DIMGAP
 40
0.09
  9
$DIMJUST
 70
     0
  9
$DIMSD1
 70
     0
  9
$DIMSD2
 70
     0
  9
$DIMTOLJ
 70
     1
  9
$DIMTZIN
 70
     0
  9
$DIMALTZ
 70
     0
  9
$DIMALTTZ
 70
     0
  9
$DIMUPT
 70
     0
  9
$DIMDEC
 70
     4
  9
$DIMTDEC
 70
     4
  9
$DIMALTU
 70
     2
  9
$DIMALTTD
 70
     2
  9
$DIMTXSTY
  7
Standard
  9
$DIMAUNIT
 70
     0
  9
$DIMADEC
 70
     0
  9
$DIMALTRND
 40
0.0
  9
$DIMAZIN
 70
     0
  9
$DIMDSEP
 70
    46
  9
$DIMATFIT
 70
     3
  9
$DIMFRAC
 70
     0
  9
$DIMLDRBLK
  1

  9
$DIMLUNIT
 70
     2
  9
$DIMLWD
 70
    -2
  9
$DIMLWE
 70
    -2
  9
$DIMTMOVE
 70
     0
  9
$DIMFXL
 40
1.0
  9
$DIMFXLON
 70
     0
  9
$DIMJOGANG
 40
0.7853981633974483
  9
$DIMTFILL
 70
     0
  9
$DIMTFILLCLR
 70
     0
  9
$DIMARCSYM
 70
     0
  9
$DIMLTYPE
  6

  9
$DIMLTEX1
  6

  9
$DIMLTEX2
  6

  9
$DIMTXTDIRECTION
 70
     0
  9
$LUNITS
 70
     2
  9
$LUPREC
 70
     4
  9
$SKETCHINC
 40
0.1
  9
$FILLETRAD
 40
0.5
  9
$AUNITS
 70
     0
  9
$AUPREC
 70
     0
  9
$MENU
  1
.
  9
$ELEVATION
 40
0.0
  9
$PELEVATION
 40
0.0
  9
$THICKNESS
 40
0.0
  9
$LIMCHECK
 70
     0
  9
$CHAMFERA
 40
0.5
  9
$CHAMFERB
 40
0.5
  9
$CHAMFERC
 40
1.0
  9
$CHAMFERD
 40
0.0
  9
$SKPOLY
 70
     0
  9
$TDCREATE
 40
2457917.61841434
  9
$TDUCREATE
 40
2457917.243414352
  9
$TDUPDATE
 40
2457917.61841434
  9
$TDUUPDATE
 40
2457917.243414352
  9
$TDINDWG
 40
0.0000000116
  9
$TDUSRTIMER
 40
0.0000000116
  9
$USRTIMER
 70
     1
  9
$ANGBASE
 50
0.0
  9
$ANGDIR
 70
     0
  9
$PDMODE
 70
     0
  9
$PDSIZE
 40
0.0
  9
$PLINEWID
 40
0.0
  9
$SPLFRAME
 70
     0
  9
$SPLINETYPE
 70
     6
  9
$SPLINESEGS
 70
     8
  9
$HANDSEED
  5
E2
  9
$SURFTAB1
 70
     6
  9
$SURFTAB2
 70
     6
  9
$SURFTYPE
 70
     6
  9
$SURFU
 70
     6
  9
$SURFV
 70
     6
  9
$UCSBASE
  2

  9
$UCSNAME
  2

  9
$UCSORG
 10
0.0
 20
0.0
 30
0.0
  9
$UCSXDIR
 10
1.0
 20
0.0
 30
0.0
  9
$UCSYDIR
 10
0.0
 20
1.0
 30
0.0
  9
$UCSORTHOREF
  2

  9
$UCSORTHOVIEW
 70
     0
  9
$UCSORGTOP
 10
0.0
 20
0.0
 30
0.0
  9
$UCSORGBOTTOM
 10
0.0
 20
0.0
 30
0.0
  9
$UCSORGLEFT
 10
0.0
 20
0.0
 30
0.0
  9
$UCSORGRIGHT
 10
0.0
 20
0.0
 30
0.0
  9
$UCSORGFRONT
 10
0.0
 20
0.0
 30
0.0
  9
$UCSORGBACK
 10
0.0
 20
0.0
 30
0.0
  9
$PUCSBASE
  2

  9
$PUCSNAME
  2

  9
$PUCSORG
 10
0.0
 20
0.0
 30
0.0
  9
$PUCSXDIR
 10
1.0
 20
0.0
 30
0.0
  9
$PUCSYDIR
 10
0.0
 20
1.0
 30
0.0
  9
$PUCSORTHOREF
  2

  9
$PUCSORTHOVIEW
 70
     0
  9
$PUCSORGTOP
 10
0.0
 20
0.0
 30
0.0
  9
$PUCSORGBOTTOM
 10
0.0
 20
0.0
 30
0.0
  9
$PUCSORGLEFT
 10
0.0
 20
0.0
 30
0.0
  9
$PUCSORGRIGHT
 10
0.0
 20
0.0
 30
0.0
  9
$PUCSORGFRONT
 10
0.0
 20
0.0
 30
0.0
  9
$PUCSORGBACK
 10
0.0
 20
0.0
 30
0.0
  9
$USERI1
 70
     0
  9
$USERI2
 70
     0
  9
$USERI3
 70
     0
  9
$USERI4
 70
     0
  9
$USERI5
 70
     0
  9
$USERR1
 40
0.0
  9
$USERR2
 40
0.0
  9
$USERR3
 40
0.0
  9
$USERR4
 40
0.0
  9
$USERR5
 40
0.0
  9
$WORLDVIEW
 70
     1
  9
$SHADEDGE
 70
     3
  9
$SHADEDIF
 70
    70
  9
$TILEMODE
 70
     1
  9
$MAXACTVP
 70
    64
  9
$PINSBASE
 10
0.0
 20
0.0
 30
0.0
  9
$PLIMCHECK
 70
     0
  9
$PEXTMIN
 10
1.000000000000000E+20
 20
1.000000000000000E+20
 30
1.000000000000000E+20
  9
$PEXTMAX
 10
-1.000000000000000E+20
 20
-1.000000000000000E+20
 30
-1.000000000000000E+20
  9
$PLIMMIN
 10
0.0
 20
0.0
  9
$PLIMMAX
 10
12.0
 20
9.0
  9
$UNITMODE
 70
     0
  9
$VISRETAIN
 70
     1
  9
$PLINEGEN
 70
     0
  9
$PSLTSCALE
 70
     1
  9
$TREEDEPTH
 70
  3020
  9
$CMLSTYLE
  2
Standard
  9
$CMLJUST
 70
     0
  9
$CMLSCALE
 40
1.0
  9
$PROXYGRAPHICS
 70
     1
  9
$MEASUREMENT
 70
     0
  9
$CELWEIGHT
370
    -1
  9
$ENDCAPS
280
     0
  9
$JOINSTYLE
280
     0
  9
$LWDISPLAY
290
     1
  9
$INSUNITS
 70
     1
  9
$HYPERLINKBASE
  1

  9
$STYLESHEET
  1

  9
$XEDIT
290
     1
  9
$CEPSNTYPE
380
     0
  9
$PSTYLEMODE
290
     1
  9
$FINGERPRINTGUID
  2
{241AC1F5-5654-07D1-7632-8B7F01CE1814}
  9
$VERSIONGUID
  2
{FAEB1C32-E019-11D5-929B-00C0DF256EC4}
  9
$EXTNAMES
290
     1
  9
$PSVPSCALE
 40
0.0
  9
$OLESTARTUP
290
     0
  9
$SORTENTS
280
   127
  9
$INDEXCTL
280
     0
  9
$HIDETEXT
280
     1
  9
$XCLIPFRAME
280
     2
  9
$HALOGAP
280
     0
  9
$OBSCOLOR
 70
   257
  9
$OBSLTYPE
280
     0
  9
$INTERSECTIONDISPLAY
280
     0
  9
$INTERSECTIONCOLOR
 70
   257
  9
$DIMASSOC
280
     2
  9
$PROJECTNAME
  1

  9
$CAMERADISPLAY
290
     0
  9
$LENSLENGTH
 40
50.0
  9
$CAMERAHEIGHT
 40
0.0
  9
$STEPSPERSEC
 40
2.0
  9
$STEPSIZE
 40
6.0
  9
$3DDWFPREC
 40
2.0
  9
$PSOLWIDTH
 40
0.25
  9
$PSOLHEIGHT
 40
4.0
  9
$LOFTANG1
 40
1.570796326794897
  9
$LOFTANG2
 40
1.570796326794897
  9
$LOFTMAG1
 40
0.0
  9
$LOFTMAG2
 40
0.0
  9
$LOFTPARAM
 70
     7
  9
$LOFTNORMALS
280
     1
  9
$LATITUDE
 40
37.795
  9
$LONGITUDE
 40
-122.394
  9
$NORTHDIRECTION
 40
0.0
  9
$TIMEZONE
 70
 -8000
  9
$LIGHTGLYPHDISPLAY
280
     1
  9
$TILEMODELIGHTSYNCH
280
     1
  9
$CMATERIAL
347
3C
  9
$SOLIDHIST
280
     1
  9
$SHOWHIST
280
     1
  9
$DWFFRAME
280
     2
  9
$DGNFRAME
280
     2
  9
$REALWORLDSCALE
290
     1
  9
$INTERFERECOLOR
 62
   256
  9
$CSHADOW
280
     0
  9
$SHADOWPLANELOCATION
 40
0.0
  0
ENDSEC
  0
SECTION
  2
CLASSES
  0
CLASS
  1
ACDBDICTIONARYWDFLT
  2
AcDbDictionaryWithDefault
  3
ObjectDBX Classes
 90
        0
 91
        4
280
     0
281
     0
  0
CLASS
  1
VISUALSTYLE
  2
AcDbVisualStyle
  3
ObjectDBX Classes
 90
     4095
 91
        4
280
     0
281
     0
  0
CLASS
  1
MATERIAL
  2
AcDbMaterial
  3
ObjectDBX Classes
 90
     1153
 91
        4
280
     0
281
     0
  0
CLASS
  1
SUN
  2
AcDbSun
  3
SCENEOE
 90
     1024
 91
        4
280
     0
281
     0
  0
ENDSEC
  0
SECTION
  2
TABLES
  0
TABLE
  2
VPORT
  5
8
330
0
100
AcDbSymbolTable
 70
     1
  0
VPORT
  5
29
330
8
100
AcDbSymbolTableRecord
100
AcDbViewportTableRecord
  2
*Active
 70
     0
 10
0.0
 20
0.0
 11
1.0
 21
1.0
 12
0.0
 22
0.0
 13
0.0
 23
0.0
 14
0.5
 24
0.5
 15
0.5
 25
0.5
 16
0.0
 26
0.0
 36
1.0
 17
91.00082462281999
 27
-128.4993055234307
 37
0.0
 40
256.9986110468615
 41
0.7081814508812795
 42
50.0
 43
0.0
 44
0.0
 50
0.0
 51
0.0
 71
     0
 72
   100
 73
     1
 74
     3
 75
     0
 76
     0
 77
     0
 78
     0
281
     0
 65
     1
110
0.0
120
0.0
130
0.0
111
1.0
121
0.0
131
0.0
112
0.0
122
1.0
132
0.0
 79
     0
146
0.0
 60
     3
 61
     5
292
     1
282
     1
141
0.0
142
0.0
 63
   250
361
3F
  0
ENDTAB
  0
TABLE
  2
LTYPE
  5
5
330
0
100
AcDbSymbolTable
 70
     2
  0
LTYPE
  5
14
330
5
100
AcDbSymbolTableRecord
100
AcDbLinetypeTableRecord
  2
ByBlock
 70
     0
  3

 72
    65
 73
     0
 40
0.0
  0
LTYPE
  5
15
330
5
100
AcDbSymbolTableRecord
100
AcDbLinetypeTableRecord
  2
ByLayer
 70
     0
  3

 72
    65
 73
     0
 40
0.0
  0
LTYPE
  5
16
330
5
100
AcDbSymbolTableRecord
100
AcDbLinetypeTableRecord
  2
Continuous
 70
     0
  3
Solid line
 72
    65
 73
     0
 40
0.0
  0
LTYPE
  5
AA
330
5
100
AcDbSymbolTableRecord
100
AcDbLinetypeTableRecord
  2
AI-Linetype-1
 70
     0
  3
Adobe Illustrator Linetype No. 1
 72
    65
 73
     2
 40
1.411111110758333
 49
0.7055555553791667
 74
     0
 49
-0.7055555553791667
 74
     0
  0
ENDTAB
  0
TABLE
  2
LAYER
  5
2
330
0
100
AcDbSymbolTable
 70
     2
  0
LAYER
  5
10
330
2
100
AcDbSymbolTableRecord
100
AcDbLayerTableRecord
  2
0
 70
     0
 62
     7
  6
Continuous
370
    -3
390
F
347
3E
  0
LAYER
  5
40
330
2
100
AcDbSymbolTableRecord
100
AcDbLayerTableRecord
  2
_U+30EC_U+30A4_U+30E4_U+30FC 1
 70
     0
 62
     7
  6
Continuous
370
    -3
390
F
347
3E
  0
ENDTAB
  0
TABLE
  2
STYLE
  5
3
330
0
100
AcDbSymbolTable
 70
     1
  0
STYLE
  5
11
330
3
100
AcDbSymbolTableRecord
100
AcDbTextStyleTableRecord
  2
Standard
 70
     0
 40
0.0
 41
1.0
 50
0.0
 71
     0
 42
0.2
  3
txt
  4

  0
ENDTAB
  0
TABLE
  2
VIEW
  5
6
330
0
100
AcDbSymbolTable
 70
     0
  0
ENDTAB
  0
TABLE
  2
UCS
  5
7
330
0
100
AcDbSymbolTable
 70
     0
  0
ENDTAB
  0
TABLE
  2
APPID
  5
9
330
0
100
AcDbSymbolTable
 70
     1
  0
APPID
  5
12
330
9
100
AcDbSymbolTableRecord
100
AcDbRegAppTableRecord
  2
ACAD
 70
     0
  0
ENDTAB
  0
TABLE
  2
DIMSTYLE
  5
A
330
0
100
AcDbSymbolTable
 70
     1
100
AcDbDimStyleTable
  0
DIMSTYLE
105
27
330
A
100
AcDbSymbolTableRecord
100
AcDbDimStyleTableRecord
  2
Standard
 70
     0
178
     0
340
11
  0
ENDTAB
  0
TABLE
  2
BLOCK_RECORD
  5
1
330
0
100
AcDbSymbolTable
 70
     6
  0
BLOCK_RECORD
  5
1F
330
1
100
AcDbSymbolTableRecord
100
AcDbBlockTableRecord
  2
*Model_Space
340
22
 70
     0
280
     1
281
     0
  0
BLOCK_RECORD
  5
1B
330
1
100
AcDbSymbolTableRecord
100
AcDbBlockTableRecord
  2
*Paper_Space
340
1E
 70
     0
280
     1
281
     0
  0
BLOCK_RECORD
  5
23
330
1
100
AcDbSymbolTableRecord
100
AcDbBlockTableRecord
  2
*Paper_Space0
340
26
 70
     0
280
     1
281
     0
  0
BLOCK_RECORD
  5
7B
330
1
100
AcDbSymbolTableRecord
100
AcDbBlockTableRecord
  2
block 2
340
0
102
{BLKREFS
331
7C
102
}
 70
     0
280
     1
281
     0
  0
BLOCK_RECORD
  5
91
330
1
100
AcDbSymbolTableRecord
100
AcDbBlockTableRecord
  2
block 3
340
0
102
{BLKREFS
331
92
102
}
 70
     0
280
     1
281
     0
  0
BLOCK_RECORD
  5
AE
330
1
100
AcDbSymbolTableRecord
100
AcDbBlockTableRecord
  2
block 4
340
0
102
{BLKREFS
331
AF
102
}
 70
     0
280
     1
281
     0
  0
BLOCK_RECORD
  5
C1
330
1
100
AcDbSymbolTableRecord
100
AcDbBlockTableRecord
  2
block 5
340
0
102
{BLKREFS
331
C2
102
}
 70
     0
280
     1
281
     0
  0
BLOCK_RECORD
  5
CF
330
1
100
AcDbSymbolTableRecord
100
AcDbBlockTableRecord
  2
block 6
340
0
102
{BLKREFS
331
D0
102
}
 70
     0
280
     1
281
     0
  0
ENDTAB
  0
ENDSEC
  0
SECTION
  2
BLOCKS
  0
BLOCK
  5
20
330
1F
100
AcDbEntity
  8
0
100
AcDbBlockBegin
  2
*Model_Space
 70
     0
 10
0.0
 20
0.0
 30
0.0
  3
*Model_Space
  1

  0
ENDBLK
  5
21
330
1F
100
AcDbEntity
  8
0
100
AcDbBlockEnd
  0
BLOCK
  5
1C
330
1B
100
AcDbEntity
 67
     1
  8
0
100
AcDbBlockBegin
  2
*Paper_Space
 70
     0
 10
0.0
 20
0.0
 30
0.0
  3
*Paper_Space
  1

  0
ENDBLK
  5
1D
330
1B
100
AcDbEntity
 67
     1
  8
0
100
AcDbBlockEnd
  0
BLOCK
  5
24
330
23
100
AcDbEntity
  8
0
100
AcDbBlockBegin
  2
*Paper_Space0
 70
     0
 10
0.0
 20
0.0
 30
0.0
  3
*Paper_Space0
  1

  0
ENDBLK
  5
25
330
23
100
AcDbEntity
  8
0
100
AcDbBlockEnd
  0
BLOCK
  5
7D
330
7B
100
AcDbEntity
  8
0
100
AcDbBlockBegin
  2
block 2
 70
     0
 10
0.0
 20
0.0
 30
0.0
  3
block 2
  1

  0
SPLINE
  5
7F
330
7B
100
AcDbEntity
  8
_U+30EC_U+30A4_U+30E4_U+30FC 1
370
     0
100
AcDbSpline
210
0.0
220
0.0
230
1.0
 70
    11
 71
     3
 72
    26
 73
    22
 74
     0
 42
0.0000000001
 43
0.0000000001
 12
1.0
 22
0.0
 32
0.0
 13
1.0
 23
0.0
 33
0.0
 40
0.0
 40
0.0
 40
0.0
 40
0.0
 40
1.0
 40
1.0
 40
1.0
 40
2.0
 40
2.0
 40
2.0
 40
3.0
 40
3.0
 40
3.0
 40
4.0
 40
4.0
 40
4.0
 40
5.0
 40
5.0
 40
5.0
 40
6.0
 40
6.0
 40
6.0
 40
7.0
 40
7.0
 40
7.0
 40
7.0
 10
88.22131616718079
 20
-137.0717366193779
 30
0.0
 10
88.22131616718079
 20
-137.0717366193779
 30
0.0
 10
88.22131616718079
 20
-135.9675835163553
 30
0.0
 10
88.22131616718079
 20
-135.9675835163553
 30
0.0
 10
88.22131616718079
 20
-135.9675835163553
 30
0.0
 10
87.86888289903973
 20
-135.9675835163553
 30
0.0
 10
87.86888289903973
 20
-135.9675835163553
 30
0.0
 10
87.86888289903973
 20
-135.9675835163553
 30
0.0
 10
87.86888289903973
 20
-135.8194444104896
 30
0.0
 10
87.86888289903973
 20
-135.8194444104896
 30
0.0
 10
88.22372773402046
 20
-135.804630499903
 30
0.0
 10
88.27333710900805
 20
-135.6416774834507
 30
0.0
 10
88.30503198747236
 20
-135.5273003133404
 30
0.0
 10
88.30503198747236
 20
-135.5273003133404
 30
0.0
 10
88.46109481295417
 20
-135.5273003133404
 30
0.0
 10
88.46109481295417
 20
-135.5273003133404
 30
0.0
 10
88.46109481295417
 20
-135.5273003133404
 30
0.0
 10
88.46109481295417
 20
-137.0717366193779
 30
0.0
 10
88.46109481295417
 20
-137.0717366193779
 30
0.0
 10
88.46109481295417
 20
-137.0717366193779
 30
0.0
 10
88.22131616718079
 20
-137.0717366193779
 30
0.0
 10
88.22131616718079
 20
-137.0717366193779
 30
0.0
  0
HATCH
  5
80
330
7B
100
AcDbEntity
  8
_U+30EC_U+30A4_U+30E4_U+30FC 1
 62
     7
420
 16777215
100
AcDbHatch
 10
0.0
 20
0.0
 30
0.0
210
0.0
220
0.0
230
1.0
  2
SOLID
 70
     1
 71
     0
 91
        1
 92
        1
 93
        1
 72
     4
 94
        3
 73
     0
 74
     1
 95
       26
 96
       22
 40
0.0
 40
0.0
 40
0.0
 40
0.0
 40
1.0
 40
1.0
 40
1.0
 40
2.0
 40
2.0
 40
2.0
 40
3.0
 40
3.0
 40
3.0
 40
4.0
 40
4.0
 40
4.0
 40
5.0
 40
5.0
 40
5.0
 40
6.0
 40
6.0
 40
6.0
 40
7.0
 40
7.0
 40
7.0
 40
7.0
 10
88.22131616718079
 20
-137.0717366193779
 10
88.22131616718079
 20
-137.0717366193779
 10
88.22131616718079
 20
-135.9675835163553
 10
88.22131616718079
 20
-135.9675835163553
 10
88.22131616718079
 20
-135.9675835163553
 10
87.86888289903973
 20
-135.9675835163553
 10
87.86888289903973
 20
-135.9675835163553
 10
87.86888289903973
 20
-135.9675835163553
 10
87.86888289903973
 20
-135.8194444104896
 10
87.86888289903973
 20
-135.8194444104896
 10
88.22372773402046
 20
-135.804630499903
 10
88.27333710900805
 20
-135.6416774834507
 10
88.30503198747236
 20
-135.5273003133404
 10
88.30503198747236
 20
-135.5273003133404
 10
88.46109481295417
 20
-135.5273003133404
 10
88.46109481295417
 20
-135.5273003133404
 10
88.46109481295417
 20
-135.5273003133404
 10
88.46109481295417
 20
-137.0717366193779
 10
88.46109481295417
 20
-137.0717366193779
 10
88.46109481295417
 20
-137.0717366193779
 10
88.22131616718079
 20
-137.0717366193779
 10
88.22131616718079
 20
-137.0717366193779
 97
        0
 97
        0
 75
     2
 76
     1
 98
        0
  0
SPLINE
  5
81
330
7B
100
AcDbEntity
  8
_U+30EC_U+30A4_U+30E4_U+30FC 1
370
     0
100
AcDbSpline
210
0.0
220
0.0
230
1.0
 70
    11
 71
     3
 72
    29
 73
    25
 74
     0
 42
0.0000000001
 43
0.0000000001
 12
1.0
 22
0.0
 32
0.0
 13
1.0
 23
0.0
 33
0.0
 40
0.0
 40
0.0
 40
0.0
 40
0.0
 40
1.0
 40
1.0
 40
1.0
 40
2.0
 40
2.0
 40
2.0
 40
3.0
 40
3.0
 40
3.0
 40
4.0
 40
4.0
 40
4.0
 40
5.0
 40
5.0
 40
5.0
 40
6.0
 40
6.0
 40
6.0
 40
7.0
 40
7.0
 40
7.0
 40
8.0
 40
8.0
 40
8.0
 40
8.0
 10
89.53114147067278
 20
-137.1223795230111
 30
0.0
 10
89.24623207404261
 20
-137.1223795230111
 30
0.0
 10
88.97510305935344
 20
-136.9849202131496
 30
0.0
 10
88.97510305935344
 20
-136.6359320404938
 30
0.0
 10
88.97510305935344
 20
-136.3799614459397
 30
0.0
 10
89.12668726070444
 20
-136.2848768105468
 30
0.0
 10
89.23968639262064
 20
-136.2235541109094
 30
0.0
 10
89.10636119734147
 20
-136.1642984685631
 30
0.0
 10
89.02471243434105
 20
-136.0499212984528
 30
0.0
 10
89.02471243434105
 20
-135.8890353392916
 30
0.0
 10
89.02471243434105
 20
-135.6141167195687
 30
0.0
 10
89.23727482578096
 20
-135.4787244669984
 30
0.0
 10
89.53114147067278
 20
-135.4787244669984
 30
0.0
 10
89.83430987337476
 20
-135.4787244669984
 30
0.0
 10
90.0375705070045
 20
-135.6227294582818
 30
0.0
 10
90.0375705070045
 20
-135.8890353392916
 30
0.0
 10
90.0375705070045
 20
-136.0499212984528
 30
0.0
 10
89.95419919626146
 20
-136.1642984685631
 30
0.0
 10
89.82052949143376
 20
-136.2235541109094
 30
0.0
 10
89.91561412682665
 20
-136.2741970145426
 30
0.0
 10
90.08511282470094
 20
-136.3692816499355
 30
0.0
 10
90.08511282470094
 20
-136.6317979259115
 30
0.0
 10
90.08511282470094
 20
-137.0062798051582
 30
0.0
 10
89.78676755567831
 20
-137.1223795230111
 30
0.0
 10
89.53114147067278
 20
-137.1223795230111
 30
0.0
  0
SPLINE
  5
82
330
7B
100
AcDbEntity
  8
_U+30EC_U+30A4_U+30E4_U+30FC 1
370
     0
100
AcDbSpline
210
0.0
220
0.0
230
1.0
 70
    11
 71
     3
 72
    17
 73
    13
 74
     0
 42
0.0000000001
 43
0.0000000001
 12
1.0
 22
0.0
 32
0.0
 13
1.0
 23
0.0
 33
0.0
 40
0.0
 40
0.0
 40
0.0
 40
0.0
 40
1.0
 40
1.0
 40
1.0
 40
2.0
 40
2.0
 40
2.0
 40
3.0
 40
3.0
 40
3.0
 40
4.0
 40
4.0
 40
4.0
 40
4.0
 10
89.53114147067278
 20
-136.3313855995977
 30
0.0
 10
89.37749021203064
 20
-136.3313855995977
 30
0.0
 10
89.21488170512684
 20
-136.418202005826
 30
0.0
 10
89.21488170512684
 20
-136.6211181299072
 30
0.0
 10
89.21488170512684
 20
-136.8264458208281
 30
0.0
 10
89.35027395769715
 20
-136.9277316280944
 30
0.0
 10
89.53114147067278
 20
-136.9277316280944
 30
0.0
 10
89.73026798972022
 20
-136.9277316280944
 30
0.0
 10
89.84774574576723
 20
-136.8050862288196
 30
0.0
 10
89.84774574576723
 20
-136.6273193017807
 30
0.0
 10
89.84774574576723
 20
-136.4054551525306
 30
0.0
 10
89.67376842376211
 20
-136.3313855995977
 30
0.0
 10
89.53114147067278
 20
-136.3313855995977
 30
0.0
  0
SPLINE
  5
83
330
7B
100
AcDbEntity
  8
_U+30EC_U+30A4_U+30E4_U+30FC 1
370
     0
100
AcDbSpline
210
0.0
220
0.0
230
1.0
 70
    11
 71
     3
 72
    17
 73
    13
 74
     0
 42
0.0000000001
 43
0.0000000001
 12
1.0
 22
0.0
 32
0.0
 13
1.0
 23
0.0
 33
0.0
 40
0.0
 40
0.0
 40
0.0
 40
0.0
 40
1.0
 40
1.0
 40
1.0
 40
2.0
 40
2.0
 40
2.0
 40
3.0
 40
3.0
 40
3.0
 40
4.0
 40
4.0
 40
4.0
 40
4.0
 10
89.53114147067278
 20
-135.6713053046238
 30
0.0
 10
89.3550970913765
 20
-135.6713053046238
 30
0.0
 10
89.26449108011444
 20
-135.7663899400168
 30
0.0
 10
89.26449108011444
 20
-135.9017821925871
 30
0.0
 10
89.26449108011444
 20
-136.024427591862
 30
0.0
 10
89.3413167094355
 20
-136.1429388765546
 30
0.0
 10
89.53114147067278
 20
-136.1429388765546
 30
0.0
 10
89.72131074145857
 20
-136.1429388765546
 30
0.0
 10
89.79813637077963
 20
-136.024427591862
 30
0.0
 10
89.79813637077963
 20
-135.9017821925871
 30
0.0
 10
89.79813637077963
 20
-135.7663899400168
 30
0.0
 10
89.70546330222642
 20
-135.6713053046238
 30
0.0
 10
89.53114147067278
 20
-135.6713053046238
 30
0.0
  0
HATCH
  5
84
330
7B
100
AcDbEntity
  8
_U+30EC_U+30A4_U+30E4_U+30FC 1
 62
     7
420
 16777215
100
AcDbHatch
 10
0.0
 20
0.0
 30
0.0
210
0.0
220
0.0
230
1.0
  2
SOLID
 70
     1
 71
     0
 91
        3
 92
        1
 93
        1
 72
     4
 94
        3
 73
     0
 74
     1
 95
       29
 96
       25
 40
0.0
 40
0.0
 40
0.0
 40
0.0
 40
1.0
 40
1.0
 40
1.0
 40
2.0
 40
2.0
 40
2.0
 40
3.0
 40
3.0
 40
3.0
 40
4.0
 40
4.0
 40
4.0
 40
5.0
 40
5.0
 40
5.0
 40
6.0
 40
6.0
 40
6.0
 40
7.0
 40
7.0
 40
7.0
 40
8.0
 40
8.0
 40
8.0
 40
8.0
 10
89.53114147067278
 20
-137.1223795230111
 10
89.24623207404261
 20
-137.1223795230111
 10
88.97510305935344
 20
-136.9849202131496
 10
88.97510305935344
 20
-136.6359320404938
 10
88.97510305935344
 20
-136.3799614459397
 10
89.12668726070444
 20
-136.2848768105468
 10
89.23968639262064
 20
-136.2235541109094
 10
89.10636119734147
 20
-136.1642984685631
 10
89.02471243434105
 20
-136.0499212984528
 10
89.02471243434105
 20
-135.8890353392916
 10
89.02471243434105
 20
-135.6141167195687
 10
89.23727482578096
 20
-135.4787244669984
 10
89.53114147067278
 20
-135.4787244669984
 10
89.83430987337476
 20
-135.4787244669984
 10
90.0375705070045
 20
-135.6227294582818
 10
90.0375705070045
 20
-135.8890353392916
 10
90.0375705070045
 20
-136.0499212984528
 10
89.95419919626146
 20
-136.1642984685631
 10
89.82052949143376
 20
-136.2235541109094
 10
89.91561412682665
 20
-136.2741970145426
 10
90.08511282470094
 20
-136.3692816499355
 10
90.08511282470094
 20
-136.6317979259115
 10
90.08511282470094
 20
-137.0062798051582
 10
89.78676755567831
 20
-137.1223795230111
 10
89.53114147067278
 20
-137.1223795230111
 97
        0
 97
        0
 92
        1
 93
        1
 72
     4
 94
        3
 73
     0
 74
     1
 95
       17
 96
       13
 40
0.0
 40
0.0
 40
0.0
 40
0.0
 40
1.0
 40
1.0
 40
1.0
 40
2.0
 40
2.0
 40
2.0
 40
3.0
 40
3.0
 40
3.0
 40
4.0
 40
4.0
 40
4.0
 40
4.0
 10
89.53114147067278
 20
-136.3313855995977
 10
89.37749021203064
 20
-136.3313855995977
 10
89.21488170512684
 20
-136.418202005826
 10
89.21488170512684
 20
-136.6211181299072
 10
89.21488170512684
 20
-136.8264458208281
 10
89.35027395769715
 20
-136.9277316280944
 10
89.53114147067278
 20
-136.9277316280944
 10
89.73026798972022
 20
-136.9277316280944
 10
89.84774574576723
 20
-136.8050862288196
 10
89.84774574576723
 20
-136.6273193017807
 10
89.84774574576723
 20
-136.4054551525306
 10
89.67376842376211
 20
-136.3313855995977
 10
89.53114147067278
 20
-136.3313855995977
 97
        0
 97
        0
 92
        1
 93
        1
 72
     4
 94
        3
 73
     0
 74
     1
 95
       17
 96
       13
 40
0.0
 40
0.0
 40
0.0
 40
0.0
 40
1.0
 40
1.0
 40
1.0
 40
2.0
 40
2.0
 40
2.0
 40
3.0
 40
3.0
 40
3.0
 40
4.0
 40
4.0
 40
4.0
 40
4.0
 10
89.53114147067278
 20
-135.6713053046238
 10
89.3550970913765
 20
-135.6713053046238
 10
89.26449108011444
 20
-135.7663899400168
 10
89.26449108011444
 20
-135.9017821925871
 10
89.26449108011444
 20
-136.024427591862
 10
89.3413167094355
 20
-136.1429388765546
 10
89.53114147067278
 20
-136.1429388765546
 10
89.72131074145857
 20
-136.1429388765546
 10
89.79813637077963
 20
-136.024427591862
 10
89.79813637077963
 20
-135.9017821925871
 10
89.79813637077963
 20
-135.7663899400168
 10
89.70546330222642
 20
-135.6713053046238
 10
89.53114147067278
 20
-135.6713053046238
 97
        0
 97
        0
 75
     2
 76
     1
 98
        0
  0
ENDBLK
  5
7E
330
7B
100
AcDbEntity
  8
0
100
AcDbBlockEnd
  0
BLOCK
  5
93
330
91
100
AcDbEntity
  8
0
100
AcDbBlockBegin
  2
block 3
 70
     0
 10
0.0
 20
0.0
 30
0.0
  3
block 3
  1

  0
SPLINE
  5
95
330
91
100
AcDbEntity
  8
_U+30EC_U+30A4_U+30E4_U+30FC 1
370
     0
100
AcDbSpline
210
0.0
220
0.0
230
1.0
 70
    11
 71
     3
 72
    29
 73
    25
 74
     0
 42
0.0000000001
 43
0.0000000001
 12
1.0
 22
0.0
 32
0.0
 13
1.0
 23
0.0
 33
0.0
 40
0.0
 40
0.0
 40
0.0
 40
0.0
 40
1.0
 40
1.0
 40
1.0
 40
2.0
 40
2.0
 40
2.0
 40
3.0
 40
3.0
 40
3.0
 40
4.0
 40
4.0
 40
4.0
 40
5.0
 40
5.0
 40
5.0
 40
6.0
 40
6.0
 40
6.0
 40
7.0
 40
7.0
 40
7.0
 40
8.0
 40
8.0
 40
8.0
 40
8.0
 10
83.94026826243507
 20
-120.4722330427986
 30
0.0
 10
83.65535886580491
 20
-120.4722330427986
 30
0.0
 10
83.38405759634149
 20
-120.3346014781629
 30
0.0
 10
83.38405759634149
 20
-119.9856133055071
 30
0.0
 10
83.38405759634149
 20
-119.729642710953
 30
0.0
 10
83.53546954291822
 20
-119.6343858207859
 30
0.0
 10
83.64864092960867
 20
-119.5730631211484
 30
0.0
 10
83.51514347955525
 20
-119.5138074788021
 30
0.0
 10
83.43383922610334
 20
-119.3996025634661
 30
0.0
 10
83.43383922610334
 20
-119.2388888590792
 30
0.0
 10
83.43383922610334
 20
-118.963797984582
 30
0.0
 10
83.646229362769
 20
-118.8284057320117
 30
0.0
 10
83.94026826243507
 20
-118.8284057320117
 30
0.0
 10
84.2432644103628
 20
-118.8284057320117
 30
0.0
 10
84.44669729876681
 20
-118.9722384685208
 30
0.0
 10
84.44669729876681
 20
-119.2388888590792
 30
0.0
 10
84.44669729876681
 20
-119.3996025634661
 30
0.0
 10
84.36298147847523
 20
-119.5138074788021
 30
0.0
 10
84.22965628319606
 20
-119.5730631211484
 30
0.0
 10
84.3245686638147
 20
-119.6238782795558
 30
0.0
 10
84.49406736168899
 20
-119.719135169723
 30
0.0
 10
84.49406736168899
 20
-119.9813069361505
 30
0.0
 10
84.49406736168899
 20
-120.3557888153972
 30
0.0
 10
84.19572209266636
 20
-120.4722330427986
 30
0.0
 10
83.94026826243507
 20
-120.4722330427986
 30
0.0
  0
SPLINE
  5
96
330
91
100
AcDbEntity
  8
_U+30EC_U+30A4_U+30E4_U+30FC 1
370
     0
100
AcDbSpline
210
0.0
220
0.0
230
1.0
 70
    11
 71
     3
 72
    17
 73
    13
 74
     0
 42
0.0000000001
 43
0.0000000001
 12
1.0
 22
0.0
 32
0.0
 13
1.0
 23
0.0
 33
0.0
 40
0.0
 40
0.0
 40
0.0
 40
0.0
 40
1.0
 40
1.0
 40
1.0
 40
2.0
 40
2.0
 40
2.0
 40
3.0
 40
3.0
 40
3.0
 40
4.0
 40
4.0
 40
4.0
 40
4.0
 10
83.94026826243507
 20
-119.681066864611
 30
0.0
 10
83.78644474901867
 20
-119.681066864611
 30
0.0
 10
83.62366398734062
 20
-119.767711016065
 30
0.0
 10
83.62366398734062
 20
-119.9707993949205
 30
0.0
 10
83.62366398734062
 20
-120.1759548310671
 30
0.0
 10
83.75940074945946
 20
-120.277585147882
 30
0.0
 10
83.94026826243507
 20
-120.277585147882
 30
0.0
 10
84.13922252670825
 20
-120.277585147882
 30
0.0
 10
84.25670028275528
 20
-120.1549397486071
 30
0.0
 10
84.25670028275528
 20
-119.9771728215682
 30
0.0
 10
84.25670028275528
 20
-119.7549641627696
 30
0.0
 10
84.08272296075016
 20
-119.681066864611
 30
0.0
 10
83.94026826243507
 20
-119.681066864611
 30
0.0
  0
SPLINE
  5
97
330
91
100
AcDbEntity
  8
_U+30EC_U+30A4_U+30E4_U+30FC 1
370
     0
100
AcDbSpline
210
0.0
220
0.0
230
1.0
 70
    11
 71
     3
 72
    17
 73
    13
 74
     0
 42
0.0000000001
 43
0.0000000001
 12
1.0
 22
0.0
 32
0.0
 13
1.0
 23
0.0
 33
0.0
 40
0.0
 40
0.0
 40
0.0
 40
0.0
 40
1.0
 40
1.0
 40
1.0
 40
2.0
 40
2.0
 40
2.0
 40
3.0
 40
3.0
 40
3.0
 40
4.0
 40
4.0
 40
4.0
 40
4.0
 10
83.94026826243507
 20
-119.0209865696371
 30
0.0
 10
83.76387937359029
 20
-119.0209865696371
 30
0.0
 10
83.67344561710247
 20
-119.11607120503
 30
0.0
 10
83.67344561710247
 20
-119.2514634576003
 30
0.0
 10
83.67344561710247
 20
-119.3742811116495
 30
0.0
 10
83.75027124642355
 20
-119.4927923963421
 30
0.0
 10
83.94026826243507
 20
-119.4927923963421
 30
0.0
 10
84.13009302367234
 20
-119.4927923963421
 30
0.0
 10
84.20709090776768
 20
-119.3742811116495
 30
0.0
 10
84.20709090776768
 20
-119.2514634576003
 30
0.0
 10
84.20709090776768
 20
-119.11607120503
 30
0.0
 10
84.1142455844402
 20
-119.0209865696371
 30
0.0
 10
83.94026826243507
 20
-119.0209865696371
 30
0.0
  0
HATCH
  5
98
330
91
100
AcDbEntity
  8
_U+30EC_U+30A4_U+30E4_U+30FC 1
 62
     7
420
 16777215
100
AcDbHatch
 10
0.0
 20
0.0
 30
0.0
210
0.0
220
0.0
230
1.0
  2
SOLID
 70
     1
 71
     0
 91
        3
 92
        1
 93
        1
 72
     4
 94
        3
 73
     0
 74
     1
 95
       29
 96
       25
 40
0.0
 40
0.0
 40
0.0
 40
0.0
 40
1.0
 40
1.0
 40
1.0
 40
2.0
 40
2.0
 40
2.0
 40
3.0
 40
3.0
 40
3.0
 40
4.0
 40
4.0
 40
4.0
 40
5.0
 40
5.0
 40
5.0
 40
6.0
 40
6.0
 40
6.0
 40
7.0
 40
7.0
 40
7.0
 40
8.0
 40
8.0
 40
8.0
 40
8.0
 10
83.94026826243507
 20
-120.4722330427986
 10
83.65535886580491
 20
-120.4722330427986
 10
83.38405759634149
 20
-120.3346014781629
 10
83.38405759634149
 20
-119.9856133055071
 10
83.38405759634149
 20
-119.729642710953
 10
83.53546954291822
 20
-119.6343858207859
 10
83.64864092960867
 20
-119.5730631211484
 10
83.51514347955525
 20
-119.5138074788021
 10
83.43383922610334
 20
-119.3996025634661
 10
83.43383922610334
 20
-119.2388888590792
 10
83.43383922610334
 20
-118.963797984582
 10
83.646229362769
 20
-118.8284057320117
 10
83.94026826243507
 20
-118.8284057320117
 10
84.2432644103628
 20
-118.8284057320117
 10
84.44669729876681
 20
-118.9722384685208
 10
84.44669729876681
 20
-119.2388888590792
 10
84.44669729876681
 20
-119.3996025634661
 10
84.36298147847523
 20
-119.5138074788021
 10
84.22965628319606
 20
-119.5730631211484
 10
84.3245686638147
 20
-119.6238782795558
 10
84.49406736168899
 20
-119.719135169723
 10
84.49406736168899
 20
-119.9813069361505
 10
84.49406736168899
 20
-120.3557888153972
 10
84.19572209266636
 20
-120.4722330427986
 10
83.94026826243507
 20
-120.4722330427986
 97
        0
 97
        0
 92
        1
 93
        1
 72
     4
 94
        3
 73
     0
 74
     1
 95
       17
 96
       13
 40
0.0
 40
0.0
 40
0.0
 40
0.0
 40
1.0
 40
1.0
 40
1.0
 40
2.0
 40
2.0
 40
2.0
 40
3.0
 40
3.0
 40
3.0
 40
4.0
 40
4.0
 40
4.0
 40
4.0
 10
83.94026826243507
 20
-119.681066864611
 10
83.78644474901867
 20
-119.681066864611
 10
83.62366398734062
 20
-119.767711016065
 10
83.62366398734062
 20
-119.9707993949205
 10
83.62366398734062
 20
-120.1759548310671
 10
83.75940074945946
 20
-120.277585147882
 10
83.94026826243507
 20
-120.277585147882
 10
84.13922252670825
 20
-120.277585147882
 10
84.25670028275528
 20
-120.1549397486071
 10
84.25670028275528
 20
-119.9771728215682
 10
84.25670028275528
 20
-119.7549641627696
 10
84.08272296075016
 20
-119.681066864611
 10
83.94026826243507
 20
-119.681066864611
 97
        0
 97
        0
 92
        1
 93
        1
 72
     4
 94
        3
 73
     0
 74
     1
 95
       17
 96
       13
 40
0.0
 40
0.0
 40
0.0
 40
0.0
 40
1.0
 40
1.0
 40
1.0
 40
2.0
 40
2.0
 40
2.0
 40
3.0
 40
3.0
 40
3.0
 40
4.0
 40
4.0
 40
4.0
 40
4.0
 10
83.94026826243507
 20
-119.0209865696371
 10
83.76387937359029
 20
-119.0209865696371
 10
83.67344561710247
 20
-119.11607120503
 10
83.67344561710247
 20
-119.2514634576003
 10
83.67344561710247
 20
-119.3742811116495
 10
83.75027124642355
 20
-119.4927923963421
 10
83.94026826243507
 20
-119.4927923963421
 10
84.13009302367234
 20
-119.4927923963421
 10
84.20709090776768
 20
-119.3742811116495
 10
84.20709090776768
 20
-119.2514634576003
 10
84.20709090776768
 20
-119.11607120503
 10
84.1142455844402
 20
-119.0209865696371
 10
83.94026826243507
 20
-119.0209865696371
 97
        0
 97
        0
 75
     2
 76
     1
 98
        0
  0
ENDBLK
  5
94
330
91
100
AcDbEntity
  8
0
100
AcDbBlockEnd
  0
BLOCK
  5
B0
330
AE
100
AcDbEntity
  8
0
100
AcDbBlockBegin
  2
block 4
 70
     0
 10
0.0
 20
0.0
 30
0.0
  3
block 4
  1

  0
SPLINE
  5
B2
330
AE
100
AcDbEntity
  8
_U+30EC_U+30A4_U+30E4_U+30FC 1
370
     0
100
AcDbSpline
210
0.0
220
0.0
230
1.0
 70
    11
 71
     3
 72
    26
 73
    22
 74
     0
 42
0.0000000001
 43
0.0000000001
 12
1.0
 22
0.0
 32
0.0
 13
1.0
 23
0.0
 33
0.0
 40
0.0
 40
0.0
 40
0.0
 40
0.0
 40
1.0
 40
1.0
 40
1.0
 40
2.0
 40
2.0
 40
2.0
 40
3.0
 40
3.0
 40
3.0
 40
4.0
 40
4.0
 40
4.0
 40
5.0
 40
5.0
 40
5.0
 40
6.0
 40
6.0
 40
6.0
 40
7.0
 40
7.0
 40
7.0
 40
7.0
 10
82.2197875771013
 20
-129.1011637047039
 30
0.0
 10
82.2197875771013
 20
-129.1011637047039
 30
0.0
 10
82.2197875771013
 20
-127.9966660921328
 30
0.0
 10
82.2197875771013
 20
-127.9966660921328
 30
0.0
 10
82.2197875771013
 20
-127.9966660921328
 30
0.0
 10
81.88974742961437
 20
-127.9966660921328
 30
0.0
 10
81.88974742961437
 20
-127.9966660921328
 30
0.0
 10
81.88974742961437
 20
-127.9966660921328
 30
0.0
 10
81.88974742961437
 20
-127.848526986267
 30
0.0
 10
81.88974742961437
 20
-127.848526986267
 30
0.0
 10
82.22185463439246
 20
-127.8338853304547
 30
0.0
 10
82.26836342344333
 20
-127.6709323140024
 30
0.0
 10
82.29799124461648
 20
-127.5567273986664
 30
0.0
 10
82.29799124461648
 20
-127.5567273986664
 30
0.0
 10
82.44406329319106
 20
-127.5567273986664
 30
0.0
 10
82.44406329319106
 20
-127.5567273986664
 30
0.0
 10
82.44406329319106
 20
-127.5567273986664
 30
0.0
 10
82.44406329319106
 20
-129.1011637047039
 30
0.0
 10
82.44406329319106
 20
-129.1011637047039
 30
0.0
 10
82.44406329319106
 20
-129.1011637047039
 30
0.0
 10
82.2197875771013
 20
-129.1011637047039
 30
0.0
 10
82.2197875771013
 20
-129.1011637047039
 30
0.0
  0
HATCH
  5
B3
330
AE
100
AcDbEntity
  8
_U+30EC_U+30A4_U+30E4_U+30FC 1
 62
   179
420
  2234388
100
AcDbHatch
 10
0.0
 20
0.0
 30
0.0
210
0.0
220
0.0
230
1.0
  2
SOLID
 70
     1
 71
     0
 91
        1
 92
        1
 93
        1
 72
     4
 94
        3
 73
     0
 74
     1
 95
       26
 96
       22
 40
0.0
 40
0.0
 40
0.0
 40
0.0
 40
1.0
 40
1.0
 40
1.0
 40
2.0
 40
2.0
 40
2.0
 40
3.0
 40
3.0
 40
3.0
 40
4.0
 40
4.0
 40
4.0
 40
5.0
 40
5.0
 40
5.0
 40
6.0
 40
6.0
 40
6.0
 40
7.0
 40
7.0
 40
7.0
 40
7.0
 10
82.2197875771013
 20
-129.1011637047039
 10
82.2197875771013
 20
-129.1011637047039
 10
82.2197875771013
 20
-127.9966660921328
 10
82.2197875771013
 20
-127.9966660921328
 10
82.2197875771013
 20
-127.9966660921328
 10
81.88974742961437
 20
-127.9966660921328
 10
81.88974742961437
 20
-127.9966660921328
 10
81.88974742961437
 20
-127.9966660921328
 10
81.88974742961437
 20
-127.848526986267
 10
81.88974742961437
 20
-127.848526986267
 10
82.22185463439246
 20
-127.8338853304547
 10
82.26836342344333
 20
-127.6709323140024
 10
82.29799124461648
 20
-127.5567273986664
 10
82.29799124461648
 20
-127.5567273986664
 10
82.44406329319106
 20
-127.5567273986664
 10
82.44406329319106
 20
-127.5567273986664
 10
82.44406329319106
 20
-127.5567273986664
 10
82.44406329319106
 20
-129.1011637047039
 10
82.44406329319106
 20
-129.1011637047039
 10
82.44406329319106
 20
-129.1011637047039
 10
82.2197875771013
 20
-129.1011637047039
 10
82.2197875771013
 20
-129.1011637047039
 97
        0
 97
        0
 75
     2
 76
     1
 98
        0
  0
ENDBLK
  5
B1
330
AE
100
AcDbEntity
  8
0
100
AcDbBlockEnd
  0
BLOCK
  5
C3
330
C1
100
AcDbEntity
  8
0
100
AcDbBlockBegin
  2
block 5
 70
     0
 10
0.0
 20
0.0
 30
0.0
  3
block 5
  1

  0
SPLINE
  5
C5
330
C1
100
AcDbEntity
  8
_U+30EC_U+30A4_U+30E4_U+30FC 1
370
     0
100
AcDbSpline
210
0.0
220
0.0
230
1.0
 70
    11
 71
     3
 72
    26
 73
    22
 74
     0
 42
0.0000000001
 43
0.0000000001
 12
1.0
 22
0.0
 32
0.0
 13
1.0
 23
0.0
 33
0.0
 40
0.0
 40
0.0
 40
0.0
 40
0.0
 40
1.0
 40
1.0
 40
1.0
 40
2.0
 40
2.0
 40
2.0
 40
3.0
 40
3.0
 40
3.0
 40
4.0
 40
4.0
 40
4.0
 40
5.0
 40
5.0
 40
5.0
 40
6.0
 40
6.0
 40
6.0
 40
7.0
 40
7.0
 40
7.0
 40
7.0
 10
100.7273572881862
 20
-133.1867024406617
 30
0.0
 10
100.7273572881862
 20
-133.1867024406617
 30
0.0
 10
99.62320418516364
 20
-133.1867024406617
 30
0.0
 10
99.62320418516364
 20
-133.1867024406617
 30
0.0
 10
99.62320418516364
 20
-133.1867024406617
 30
0.0
 10
99.62320418516364
 20
-133.5391357088027
 30
0.0
 10
99.62320418516364
 20
-133.5391357088027
 30
0.0
 10
99.62320418516364
 20
-133.5391357088027
 30
0.0
 10
99.4750650792979
 20
-133.5391357088027
 30
0.0
 10
99.4750650792979
 20
-133.5391357088027
 30
0.0
 10
99.46025116871132
 20
-133.184290873822
 30
0.0
 10
99.29729815225902
 20
-133.1346814988344
 30
0.0
 10
99.18292098214872
 20
-133.1029866203701
 30
0.0
 10
99.18292098214872
 20
-133.1029866203701
 30
0.0
 10
99.18292098214872
 20
-132.9469237948883
 30
0.0
 10
99.18292098214872
 20
-132.9469237948883
 30
0.0
 10
99.18292098214872
 20
-132.9469237948883
 30
0.0
 10
100.7273572881862
 20
-132.9469237948883
 30
0.0
 10
100.7273572881862
 20
-132.9469237948883
 30
0.0
 10
100.7273572881862
 20
-132.9469237948883
 30
0.0
 10
100.7273572881862
 20
-133.1867024406617
 30
0.0
 10
100.7273572881862
 20
-133.1867024406617
 30
0.0
  0
HATCH
  5
C6
330
C1
100
AcDbEntity
  8
_U+30EC_U+30A4_U+30E4_U+30FC 1
 62
   179
420
  2234388
100
AcDbHatch
 10
0.0
 20
0.0
 30
0.0
210
0.0
220
0.0
230
1.0
  2
SOLID
 70
     1
 71
     0
 91
        1
 92
        1
 93
        1
 72
     4
 94
        3
 73
     0
 74
     1
 95
       26
 96
       22
 40
0.0
 40
0.0
 40
0.0
 40
0.0
 40
1.0
 40
1.0
 40
1.0
 40
2.0
 40
2.0
 40
2.0
 40
3.0
 40
3.0
 40
3.0
 40
4.0
 40
4.0
 40
4.0
 40
5.0
 40
5.0
 40
5.0
 40
6.0
 40
6.0
 40
6.0
 40
7.0
 40
7.0
 40
7.0
 40
7.0
 10
100.7273572881862
 20
-133.1867024406617
 10
100.7273572881862
 20
-133.1867024406617
 10
99.62320418516364
 20
-133.1867024406617
 10
99.62320418516364
 20
-133.1867024406617
 10
99.62320418516364
 20
-133.1867024406617
 10
99.62320418516364
 20
-133.5391357088027
 10
99.62320418516364
 20
-133.5391357088027
 10
99.62320418516364
 20
-133.5391357088027
 10
99.4750650792979
 20
-133.5391357088027
 10
99.4750650792979
 20
-133.5391357088027
 10
99.46025116871132
 20
-133.184290873822
 10
99.29729815225902
 20
-133.1346814988344
 10
99.18292098214872
 20
-133.1029866203701
 10
99.18292098214872
 20
-133.1029866203701
 10
99.18292098214872
 20
-132.9469237948883
 10
99.18292098214872
 20
-132.9469237948883
 10
99.18292098214872
 20
-132.9469237948883
 10
100.7273572881862
 20
-132.9469237948883
 10
100.7273572881862
 20
-132.9469237948883
 10
100.7273572881862
 20
-132.9469237948883
 10
100.7273572881862
 20
-133.1867024406617
 10
100.7273572881862
 20
-133.1867024406617
 97
        0
 97
        0
 75
     2
 76
     1
 98
        0
  0
ENDBLK
  5
C4
330
C1
100
AcDbEntity
  8
0
100
AcDbBlockEnd
  0
BLOCK
  5
D1
330
CF
100
AcDbEntity
  8
0
100
AcDbBlockBegin
  2
block 6
 70
     0
 10
0.0
 20
0.0
 30
0.0
  3
block 6
  1

  0
SPLINE
  5
D3
330
CF
100
AcDbEntity
  8
_U+30EC_U+30A4_U+30E4_U+30FC 1
370
     0
100
AcDbSpline
210
0.0
220
0.0
230
1.0
 70
    11
 71
     3
 72
    32
 73
    28
 74
     0
 42
0.0000000001
 43
0.0000000001
 12
1.0
 22
0.0
 32
0.0
 13
1.0
 23
0.0
 33
0.0
 40
0.0
 40
0.0
 40
0.0
 40
0.0
 40
1.0
 40
1.0
 40
1.0
 40
2.0
 40
2.0
 40
2.0
 40
3.0
 40
3.0
 40
3.0
 40
4.0
 40
4.0
 40
4.0
 40
5.0
 40
5.0
 40
5.0
 40
6.0
 40
6.0
 40
6.0
 40
7.0
 40
7.0
 40
7.0
 40
8.0
 40
8.0
 40
8.0
 40
9.0
 40
9.0
 40
9.0
 40
9.0
 10
100.7783447013679
 20
-123.9376545914114
 30
0.0
 10
100.7783447013679
 20
-124.4895588881485
 30
0.0
 10
100.2243733473397
 20
-124.4985161364101
 30
0.0
 10
100.0104329177057
 20
-124.4985161364101
 30
0.0
 10
99.77995602974252
 20
-124.4985161364101
 30
0.0
 10
99.13262258806407
 20
-124.4781900730471
 30
0.0
 10
99.13262258806407
 20
-123.8970024646855
 30
0.0
 10
99.13262258806407
 20
-123.711656327579
 30
0.0
 10
99.20255802641465
 20
-123.4494845611515
 30
0.0
 10
99.53466523119273
 20
-123.4088324344256
 30
0.0
 10
99.53466523119273
 20
-123.4088324344256
 30
0.0
 10
99.53466523119273
 20
-123.6372422650976
 30
0.0
 10
99.53466523119273
 20
-123.6372422650976
 30
0.0
 10
99.47747664613757
 20
-123.6482665706504
 30
0.0
 10
99.32933754027184
 20
-123.6823730159544
 30
0.0
 10
99.32933754027184
 20
-123.8994140315252
 30
0.0
 10
99.32933754027184
 20
-124.2115396824888
 30
0.0
 10
99.65731063046762
 20
-124.2542588665059
 30
0.0
 10
99.86229381183999
 20
-124.2680392484469
 30
0.0
 10
99.78409014432482
 20
-124.1684759889232
 30
0.0
 10
99.72483450197852
 20
-124.0961289837329
 30
0.0
 10
99.72483450197852
 20
-123.9018255983648
 30
0.0
 10
99.72483450197852
 20
-123.7095892702879
 30
0.0
 10
99.83301050021537
 20
-123.3860948042229
 30
0.0
 10
100.2391872579263
 20
-123.3860948042229
 30
0.0
 10
100.558547609409
 20
-123.3860948042229
 30
0.0
 10
100.7783447013679
 20
-123.5986571956628
 30
0.0
 10
100.7783447013679
 20
-123.9376545914114
 30
0.0
  0
SPLINE
  5
D4
330
CF
100
AcDbEntity
  8
_U+30EC_U+30A4_U+30E4_U+30FC 1
370
     0
100
AcDbSpline
210
0.0
220
0.0
230
1.0
 70
    11
 71
     3
 72
    17
 73
    13
 74
     0
 42
0.0000000001
 43
0.0000000001
 12
1.0
 22
0.0
 32
0.0
 13
1.0
 23
0.0
 33
0.0
 40
0.0
 40
0.0
 40
0.0
 40
0.0
 40
1.0
 40
1.0
 40
1.0
 40
2.0
 40
2.0
 40
2.0
 40
3.0
 40
3.0
 40
3.0
 40
4.0
 40
4.0
 40
4.0
 40
4.0
 10
99.91948239689513
 20
-123.9197400948881
 30
0.0
 10
99.91948239689513
 20
-124.2001708673875
 30
0.0
 10
100.1310112596895
 20
-124.2408229941134
 30
0.0
 10
100.2474554870909
 20
-124.2408229941134
 30
0.0
 10
100.4231553568387
 20
-124.2408229941134
 30
0.0
 10
100.586108373291
 20
-124.1391926772985
 30
0.0
 10
100.586108373291
 20
-123.9424777250908
 30
0.0
 10
100.586108373291
 20
-123.8136311539424
 30
0.0
 10
100.5268527309447
 20
-123.6258734499963
 30
0.0
 10
100.2412543152175
 20
-123.6258734499963
 30
0.0
 10
100.0169785991277
 20
-123.6258734499963
 30
0.0
 10
99.91948239689513
 20
-123.7750460845076
 30
0.0
 10
99.91948239689513
 20
-123.9197400948881
 30
0.0
  0
HATCH
  5
D5
330
CF
100
AcDbEntity
  8
_U+30EC_U+30A4_U+30E4_U+30FC 1
 62
     7
420
 16777215
100
AcDbHatch
 10
0.0
 20
0.0
 30
0.0
210
0.0
220
0.0
230
1.0
  2
SOLID
 70
     1
 71
     0
 91
        2
 92
        1
 93
        1
 72
     4
 94
        3
 73
     0
 74
     1
 95
       32
 96
       28
 40
0.0
 40
0.0
 40
0.0
 40
0.0
 40
1.0
 40
1.0
 40
1.0
 40
2.0
 40
2.0
 40
2.0
 40
3.0
 40
3.0
 40
3.0
 40
4.0
 40
4.0
 40
4.0
 40
5.0
 40
5.0
 40
5.0
 40
6.0
 40
6.0
 40
6.0
 40
7.0
 40
7.0
 40
7.0
 40
8.0
 40
8.0
 40
8.0
 40
9.0
 40
9.0
 40
9.0
 40
9.0
 10
100.7783447013679
 20
-123.9376545914114
 10
100.7783447013679
 20
-124.4895588881485
 10
100.2243733473397
 20
-124.4985161364101
 10
100.0104329177057
 20
-124.4985161364101
 10
99.77995602974252
 20
-124.4985161364101
 10
99.13262258806407
 20
-124.4781900730471
 10
99.13262258806407
 20
-123.8970024646855
 10
99.13262258806407
 20
-123.711656327579
 10
99.20255802641465
 20
-123.4494845611515
 10
99.53466523119273
 20
-123.4088324344256
 10
99.53466523119273
 20
-123.4088324344256
 10
99.53466523119273
 20
-123.6372422650976
 10
99.53466523119273
 20
-123.6372422650976
 10
99.47747664613757
 20
-123.6482665706504
 10
99.32933754027184
 20
-123.6823730159544
 10
99.32933754027184
 20
-123.8994140315252
 10
99.32933754027184
 20
-124.2115396824888
 10
99.65731063046762
 20
-124.2542588665059
 10
99.86229381183999
 20
-124.2680392484469
 10
99.78409014432482
 20
-124.1684759889232
 10
99.72483450197852
 20
-124.0961289837329
 10
99.72483450197852
 20
-123.9018255983648
 10
99.72483450197852
 20
-123.7095892702879
 10
99.83301050021537
 20
-123.3860948042229
 10
100.2391872579263
 20
-123.3860948042229
 10
100.558547609409
 20
-123.3860948042229
 10
100.7783447013679
 20
-123.5986571956628
 10
100.7783447013679
 20
-123.9376545914114
 97
        0
 97
        0
 92
        1
 93
        1
 72
     4
 94
        3
 73
     0
 74
     1
 95
       17
 96
       13
 40
0.0
 40
0.0
 40
0.0
 40
0.0
 40
1.0
 40
1.0
 40
1.0
 40
2.0
 40
2.0
 40
2.0
 40
3.0
 40
3.0
 40
3.0
 40
4.0
 40
4.0
 40
4.0
 40
4.0
 10
99.91948239689513
 20
-123.9197400948881
 10
99.91948239689513
 20
-124.2001708673875
 10
100.1310112596895
 20
-124.2408229941134
 10
100.2474554870909
 20
-124.2408229941134
 10
100.4231553568387
 20
-124.2408229941134
 10
100.586108373291
 20
-124.1391926772985
 10
100.586108373291
 20
-123.9424777250908
 10
100.586108373291
 20
-123.8136311539424
 10
100.5268527309447
 20
-123.6258734499963
 10
100.2412543152175
 20
-123.6258734499963
 10
100.0169785991277
 20
-123.6258734499963
 10
99.91948239689513
 20
-123.7750460845076
 10
99.91948239689513
 20
-123.9197400948881
 97
        0
 97
        0
 75
     2
 76
     1
 98
        0
  0
POLYLINE
  5
D6
330
CF
100
AcDbEntity
  8
_U+30EC_U+30A4_U+30E4_U+30FC 1
370
     0
100
AcDb2dPolyline
 66
     1
 10
0.0
 20
0.0
 30
0.0
  0
VERTEX
  5
D7
330
D6
100
AcDbEntity
  8
_U+30EC_U+30A4_U+30E4_U+30FC 1
370
     0
100
AcDbVertex
100
AcDb2dVertex
 10
100.7277017977348
 20
-123.1549288971627
 30
0.0
  0
VERTEX
  5
D8
330
D6
100
AcDbEntity
  8
_U+30EC_U+30A4_U+30E4_U+30FC 1
370
     0
100
AcDbVertex
100
AcDb2dVertex
 10
100.475865317763
 20
-123.1549288971627
 30
0.0
  0
VERTEX
  5
D9
330
D6
100
AcDbEntity
  8
_U+30EC_U+30A4_U+30E4_U+30FC 1
370
     0
100
AcDbVertex
100
AcDb2dVertex
 10
100.475865317763
 20
-122.8858669397647
 30
0.0
  0
VERTEX
  5
DA
330
D6
100
AcDbEntity
  8
_U+30EC_U+30A4_U+30E4_U+30FC 1
370
     0
100
AcDbVertex
100
AcDb2dVertex
 10
100.7277017977348
 20
-122.8858669397647
 30
0.0
  0
VERTEX
  5
DB
330
D6
100
AcDbEntity
  8
_U+30EC_U+30A4_U+30E4_U+30FC 1
370
     0
100
AcDbVertex
100
AcDb2dVertex
 10
100.7277017977348
 20
-123.1549288971627
 30
0.0
  0
SEQEND
  5
DC
330
D6
100
AcDbEntity
  8
_U+30EC_U+30A4_U+30E4_U+30FC 1
370
     0
  0
HATCH
  5
DD
330
CF
100
AcDbEntity
  8
_U+30EC_U+30A4_U+30E4_U+30FC 1
 62
     7
420
 16777215
100
AcDbHatch
 10
0.0
 20
0.0
 30
0.0
210
0.0
220
0.0
230
1.0
  2
SOLID
 70
     1
 71
     0
 91
        1
 92
        1
 93
        4
 72
     1
 10
100.7277017977348
 20
-123.1549288971627
 11
100.475865317763
 21
-123.1549288971627
 72
     1
 10
100.475865317763
 20
-123.1549288971627
 11
100.475865317763
 21
-122.8858669397647
 72
     1
 10
100.475865317763
 20
-122.8858669397647
 11
100.7277017977348
 21
-122.8858669397647
 72
     1
 10
100.7277017977348
 20
-122.8858669397647
 11
100.7277017977348
 21
-123.1549288971627
 97
        0
 75
     2
 76
     1
 98
        0
  0
SPLINE
  5
DE
330
CF
100
AcDbEntity
  8
_U+30EC_U+30A4_U+30E4_U+30FC 1
370
     0
100
AcDbSpline
210
0.0
220
0.0
230
1.0
 70
    11
 71
     3
 72
    53
 73
    49
 74
     0
 42
0.0000000001
 43
0.0000000001
 12
1.0
 22
0.0
 32
0.0
 13
1.0
 23
0.0
 33
0.0
 40
0.0
 40
0.0
 40
0.0
 40
0.0
 40
1.0
 40
1.0
 40
1.0
 40
2.0
 40
2.0
 40
2.0
 40
3.0
 40
3.0
 40
3.0
 40
4.0
 40
4.0
 40
4.0
 40
5.0
 40
5.0
 40
5.0
 40
6.0
 40
6.0
 40
6.0
 40
7.0
 40
7.0
 40
7.0
 40
8.0
 40
8.0
 40
8.0
 40
9.0
 40
9.0
 40
9.0
 40
10.0
 40
10.0
 40
10.0
 40
11.0
 40
11.0
 40
11.0
 40
12.0
 40
12.0
 40
12.0
 40
13.0
 40
13.0
 40
13.0
 40
14.0
 40
14.0
 40
14.0
 40
15.0
 40
15.0
 40
15.0
 40
16.0
 40
16.0
 40
16.0
 40
16.0
 10
100.7783447013679
 20
-122.118988684748
 30
0.0
 10
100.7783447013679
 20
-122.2027045050396
 30
0.0
 10
100.7614637334902
 20
-122.3108805032765
 30
0.0
 10
100.6980739765616
 20
-122.4197455206103
 30
0.0
 10
100.5881754305821
 20
-122.6050916577168
 30
0.0
 10
100.4569172925941
 20
-122.6274847783709
 30
0.0
 10
100.3490858039058
 20
-122.6478108417339
 30
0.0
 10
100.3490858039058
 20
-122.6478108417339
 30
0.0
 10
100.3490858039058
 20
-122.4104437628002
 30
0.0
 10
100.3490858039058
 20
-122.4104437628002
 30
0.0
 10
100.5478678134047
 20
-122.3518771395509
 30
0.0
 10
100.5774956345779
 20
-122.2161403774321
 30
0.0
 10
100.5774956345779
 20
-122.1165771179084
 30
0.0
 10
100.5774956345779
 20
-121.967404483397
 30
0.0
 10
100.4779323750541
 20
-121.8044514669447
 30
0.0
 10
100.2453884297998
 20
-121.8044514669447
 30
0.0
 10
99.9894178352457
 20
-121.8044514669447
 30
0.0
 10
99.91948239689513
 20
-121.9966877950217
 30
0.0
 10
99.91948239689513
 20
-122.12553436617
 30
0.0
 10
99.91948239689513
 20
-122.159640811474
 30
0.0
 10
99.91948239689513
 20
-122.3108805032765
 30
0.0
 10
100.048673477592
 20
-122.4059651386693
 30
0.0
 10
100.048673477592
 20
-122.4059651386693
 30
0.0
 10
100.0297254524231
 20
-122.5937228426155
 30
0.0
 10
100.0297254524231
 20
-122.5937228426155
 30
0.0
 10
100.0297254524231
 20
-122.5937228426155
 30
0.0
 10
99.18326549169724
 20
-122.4648762714671
 30
0.0
 10
99.18326549169724
 20
-122.4648762714671
 30
0.0
 10
99.18326549169724
 20
-122.4648762714671
 30
0.0
 10
99.18326549169724
 20
-121.6328857117793
 30
0.0
 10
99.18326549169724
 20
-121.6328857117793
 30
0.0
 10
99.18326549169724
 20
-121.6328857117793
 30
0.0
 10
99.37791338661386
 20
-121.6328857117793
 30
0.0
 10
99.37791338661386
 20
-121.6328857117793
 30
0.0
 10
99.37791338661386
 20
-121.6328857117793
 30
0.0
 10
99.37791338661386
 20
-122.2905544399135
 30
0.0
 10
99.37791338661386
 20
-122.2905544399135
 30
0.0
 10
99.37791338661386
 20
-122.2905544399135
 30
0.0
 10
99.80097111220255
 20
-122.3608343878126
 30
0.0
 10
99.80097111220255
 20
-122.3608343878126
 30
0.0
 10
99.7672091764471
 20
-122.2953775735928
 30
0.0
 10
99.72690155926966
 20
-122.2071831291704
 30
0.0
 10
99.72690155926966
 20
-122.0804036153132
 30
0.0
 10
99.72690155926966
 20
-121.8092746006241
 30
0.0
 10
99.91328122502168
 20
-121.5560600824582
 30
0.0
 10
100.2264404046309
 20
-121.5560600824582
 30
0.0
 10
100.5437336988224
 20
-121.5560600824582
 30
0.0
 10
100.7783447013679
 20
-121.7954942186831
 30
0.0
 10
100.7783447013679
 20
-122.118988684748
 30
0.0
  0
HATCH
  5
DF
330
CF
100
AcDbEntity
  8
_U+30EC_U+30A4_U+30E4_U+30FC 1
 62
     7
420
 16777215
100
AcDbHatch
 10
0.0
 20
0.0
 30
0.0
210
0.0
220
0.0
230
1.0
  2
SOLID
 70
     1
 71
     0
 91
        1
 92
        1
 93
        1
 72
     4
 94
        3
 73
     0
 74
     1
 95
       53
 96
       49
 40
0.0
 40
0.0
 40
0.0
 40
0.0
 40
1.0
 40
1.0
 40
1.0
 40
2.0
 40
2.0
 40
2.0
 40
3.0
 40
3.0
 40
3.0
 40
4.0
 40
4.0
 40
4.0
 40
5.0
 40
5.0
 40
5.0
 40
6.0
 40
6.0
 40
6.0
 40
7.0
 40
7.0
 40
7.0
 40
8.0
 40
8.0
 40
8.0
 40
9.0
 40
9.0
 40
9.0
 40
10.0
 40
10.0
 40
10.0
 40
11.0
 40
11.0
 40
11.0
 40
12.0
 40
12.0
 40
12.0
 40
13.0
 40
13.0
 40
13.0
 40
14.0
 40
14.0
 40
14.0
 40
15.0
 40
15.0
 40
15.0
 40
16.0
 40
16.0
 40
16.0
 40
16.0
 10
100.7783447013679
 20
-122.118988684748
 10
100.7783447013679
 20
-122.2027045050396
 10
100.7614637334902
 20
-122.3108805032765
 10
100.6980739765616
 20
-122.4197455206103
 10
100.5881754305821
 20
-122.6050916577168
 10
100.4569172925941
 20
-122.6274847783709
 10
100.3490858039058
 20
-122.6478108417339
 10
100.3490858039058
 20
-122.6478108417339
 10
100.3490858039058
 20
-122.4104437628002
 10
100.3490858039058
 20
-122.4104437628002
 10
100.5478678134047
 20
-122.3518771395509
 10
100.5774956345779
 20
-122.2161403774321
 10
100.5774956345779
 20
-122.1165771179084
 10
100.5774956345779
 20
-121.967404483397
 10
100.4779323750541
 20
-121.8044514669447
 10
100.2453884297998
 20
-121.8044514669447
 10
99.9894178352457
 20
-121.8044514669447
 10
99.91948239689513
 20
-121.9966877950217
 10
99.91948239689513
 20
-122.12553436617
 10
99.91948239689513
 20
-122.159640811474
 10
99.91948239689513
 20
-122.3108805032765
 10
100.048673477592
 20
-122.4059651386693
 10
100.048673477592
 20
-122.4059651386693
 10
100.0297254524231
 20
-122.5937228426155
 10
100.0297254524231
 20
-122.5937228426155
 10
100.0297254524231
 20
-122.5937228426155
 10
99.18326549169724
 20
-122.4648762714671
 10
99.18326549169724
 20
-122.4648762714671
 10
99.18326549169724
 20
-122.4648762714671
 10
99.18326549169724
 20
-121.6328857117793
 10
99.18326549169724
 20
-121.6328857117793
 10
99.18326549169724
 20
-121.6328857117793
 10
99.37791338661386
 20
-121.6328857117793
 10
99.37791338661386
 20
-121.6328857117793
 10
99.37791338661386
 20
-121.6328857117793
 10
99.37791338661386
 20
-122.2905544399135
 10
99.37791338661386
 20
-122.2905544399135
 10
99.37791338661386
 20
-122.2905544399135
 10
99.80097111220255
 20
-122.3608343878126
 10
99.80097111220255
 20
-122.3608343878126
 10
99.7672091764471
 20
-122.2953775735928
 10
99.72690155926966
 20
-122.2071831291704
 10
99.72690155926966
 20
-122.0804036153132
 10
99.72690155926966
 20
-121.8092746006241
 10
99.91328122502168
 20
-121.5560600824582
 10
100.2264404046309
 20
-121.5560600824582
 10
100.5437336988224
 20
-121.5560600824582
 10
100.7783447013679
 20
-121.7954942186831
 10
100.7783447013679
 20
-122.118988684748
 97
        0
 97
        0
 75
     2
 76
     1
 98
        0
  0
ENDBLK
  5
D2
330
CF
100
AcDbEntity
  8
0
100
AcDbBlockEnd
  0
ENDSEC
  0
SECTION
  2
ENTITIES
  0
SPLINE
  5
41
330
1F
100
AcDbEntity
  8
_U+30EC_U+30A4_U+30E4_U+30FC 1
370
     0
100
AcDbSpline
210
0.0
220
0.0
230
1.0
 70
    11
 71
     3
 72
    53
 73
    49
 74
     0
 42
0.0000000001
 43
0.0000000001
 12
1.0
 22
0.0
 32
0.0
 13
1.0
 23
0.0
 33
0.0
 40
0.0
 40
0.0
 40
0.0
 40
0.0
 40
1.0
 40
1.0
 40
1.0
 40
2.0
 40
2.0
 40
2.0
 40
3.0
 40
3.0
 40
3.0
 40
4.0
 40
4.0
 40
4.0
 40
5.0
 40
5.0
 40
5.0
 40
6.0
 40
6.0
 40
6.0
 40
7.0
 40
7.0
 40
7.0
 40
8.0
 40
8.0
 40
8.0
 40
9.0
 40
9.0
 40
9.0
 40
10.0
 40
10.0
 40
10.0
 40
11.0
 40
11.0
 40
11.0
 40
12.0
 40
12.0
 40
12.0
 40
13.0
 40
13.0
 40
13.0
 40
14.0
 40
14.0
 40
14.0
 40
15.0
 40
15.0
 40
15.0
 40
16.0
 40
16.0
 40
16.0
 40
16.0
 10
97.39802612628046
 20
-133.1681077444855
 30
0.0
 10
97.39802612628046
 20
-133.1681077444855
 30
0.0
 10
87.7634535943011
 20
-133.1681077444855
 30
0.0
 10
87.7634535943011
 20
-133.1681077444855
 30
0.0
 10
87.58501859885335
 20
-132.8587216334523
 30
0.0
 10
87.25495971838497
 20
-132.6685744112773
 30
0.0
 10
86.8980544497126
 20
-132.6685744112773
 30
0.0
 10
86.8980544497126
 20
-132.6685744112773
 30
0.0
 10
84.39760090239338
 20
-132.6685744112773
 30
0.0
 10
84.39760090239338
 20
-132.6685744112773
 30
0.0
 10
84.39760090239338
 20
-132.6685744112773
 30
0.0
 10
84.39760090239338
 20
-126.1685380240135
 30
0.0
 10
84.39760090239338
 20
-126.1685380240135
 30
0.0
 10
84.39760090239338
 20
-126.1685380240135
 30
0.0
 10
87.39758777030178
 20
-126.1685380240135
 30
0.0
 10
87.39758777030178
 20
-126.1685380240135
 30
0.0
 10
87.67388331880845
 20
-126.1685380240135
 30
0.0
 10
87.89782664642851
 20
-125.9445946907362
 30
0.0
 10
87.89782664642851
 20
-125.6682991352495
 30
0.0
 10
87.89782664642851
 20
-125.4085488575368
 30
0.0
 10
87.69938915149108
 20
-125.1921902464798
 30
0.0
 10
87.44030915810076
 20
-125.1701416353742
 30
0.0
 10
85.08318921823589
 20
-124.9675766354248
 30
0.0
 10
82.71227775709973
 20
-124.9675766354248
 30
0.0
 10
80.35512044997009
 20
-125.1701416353742
 30
0.0
 10
80.07953045700097
 20
-125.1935660798127
 30
0.0
 10
79.87555435109373
 20
-125.4361008019742
 30
0.0
 10
79.89968435047813
 20
-125.7110205241278
 30
0.0
 10
79.92173296102672
 20
-125.9701005240631
 30
0.0
 10
80.13809156661807
 20
-126.1685380240135
 30
0.0
 10
80.39784183776906
 20
-126.1685380240135
 30
0.0
 10
80.39784183776906
 20
-126.1685380240135
 30
0.0
 10
83.39782870567747
 20
-126.1685380240135
 30
0.0
 10
83.39782870567747
 20
-126.1685380240135
 30
0.0
 10
83.39782870567747
 20
-126.1685380240135
 30
0.0
 10
83.39782870567747
 20
-132.6685744112773
 30
0.0
 10
83.39782870567747
 20
-132.6685744112773
 30
0.0
 10
83.39782870567747
 20
-132.6685744112773
 30
0.0
 10
80.89737515835824
 20
-132.6685744112773
 30
0.0
 10
80.89737515835824
 20
-132.6685744112773
 30
0.0
 10
80.34549164658037
 20
-132.6685744112773
 30
0.0
 10
79.89760296164233
 20
-133.1157202444989
 30
0.0
 10
79.89760296164233
 20
-133.6683113554717
 30
0.0
 10
79.89760296164233
 20
-133.6683113554717
 30
0.0
 10
97.89755944686962
 20
-133.6683113554717
 30
0.0
 10
97.89755944686962
 20
-133.6683113554717
 30
0.0
 10
97.89755944686962
 20
-133.3920157999853
 30
0.0
 10
97.67361611924956
 20
-133.1681077444855
 30
0.0
 10
97.39802612628046
 20
-133.1681077444855
 30
0.0
  0
HATCH
  5
42
330
1F
100
AcDbEntity
  8
_U+30EC_U+30A4_U+30E4_U+30FC 1
 62
   253
420
 11711154
100
AcDbHatch
 10
0.0
 20
0.0
 30
0.0
210
0.0
220
0.0
230
1.0
  2
SOLID
 70
     1
 71
     0
 91
        1
 92
        1
 93
        1
 72
     4
 94
        3
 73
     0
 74
     1
 95
       53
 96
       49
 40
0.0
 40
0.0
 40
0.0
 40
0.0
 40
1.0
 40
1.0
 40
1.0
 40
2.0
 40
2.0
 40
2.0
 40
3.0
 40
3.0
 40
3.0
 40
4.0
 40
4.0
 40
4.0
 40
5.0
 40
5.0
 40
5.0
 40
6.0
 40
6.0
 40
6.0
 40
7.0
 40
7.0
 40
7.0
 40
8.0
 40
8.0
 40
8.0
 40
9.0
 40
9.0
 40
9.0
 40
10.0
 40
10.0
 40
10.0
 40
11.0
 40
11.0
 40
11.0
 40
12.0
 40
12.0
 40
12.0
 40
13.0
 40
13.0
 40
13.0
 40
14.0
 40
14.0
 40
14.0
 40
15.0
 40
15.0
 40
15.0
 40
16.0
 40
16.0
 40
16.0
 40
16.0
 10
97.39802612628046
 20
-133.1681077444855
 10
97.39802612628046
 20
-133.1681077444855
 10
87.7634535943011
 20
-133.1681077444855
 10
87.7634535943011
 20
-133.1681077444855
 10
87.58501859885335
 20
-132.8587216334523
 10
87.25495971838497
 20
-132.6685744112773
 10
86.8980544497126
 20
-132.6685744112773
 10
86.8980544497126
 20
-132.6685744112773
 10
84.39760090239338
 20
-132.6685744112773
 10
84.39760090239338
 20
-132.6685744112773
 10
84.39760090239338
 20
-132.6685744112773
 10
84.39760090239338
 20
-126.1685380240135
 10
84.39760090239338
 20
-126.1685380240135
 10
84.39760090239338
 20
-126.1685380240135
 10
87.39758777030178
 20
-126.1685380240135
 10
87.39758777030178
 20
-126.1685380240135
 10
87.67388331880845
 20
-126.1685380240135
 10
87.89782664642851
 20
-125.9445946907362
 10
87.89782664642851
 20
-125.6682991352495
 10
87.89782664642851
 20
-125.4085488575368
 10
87.69938915149108
 20
-125.1921902464798
 10
87.44030915810076
 20
-125.1701416353742
 10
85.08318921823589
 20
-124.9675766354248
 10
82.71227775709973
 20
-124.9675766354248
 10
80.35512044997009
 20
-125.1701416353742
 10
80.07953045700097
 20
-125.1935660798127
 10
79.87555435109373
 20
-125.4361008019742
 10
79.89968435047813
 20
-125.7110205241278
 10
79.92173296102672
 20
-125.9701005240631
 10
80.13809156661807
 20
-126.1685380240135
 10
80.39784183776906
 20
-126.1685380240135
 10
80.39784183776906
 20
-126.1685380240135
 10
83.39782870567747
 20
-126.1685380240135
 10
83.39782870567747
 20
-126.1685380240135
 10
83.39782870567747
 20
-126.1685380240135
 10
83.39782870567747
 20
-132.6685744112773
 10
83.39782870567747
 20
-132.6685744112773
 10
83.39782870567747
 20
-132.6685744112773
 10
80.89737515835824
 20
-132.6685744112773
 10
80.89737515835824
 20
-132.6685744112773
 10
80.34549164658037
 20
-132.6685744112773
 10
79.89760296164233
 20
-133.1157202444989
 10
79.89760296164233
 20
-133.6683113554717
 10
79.89760296164233
 20
-133.6683113554717
 10
97.89755944686962
 20
-133.6683113554717
 10
97.89755944686962
 20
-133.6683113554717
 10
97.89755944686962
 20
-133.3920157999853
 10
97.67361611924956
 20
-133.1681077444855
 10
97.39802612628046
 20
-133.1681077444855
 97
        0
 97
        0
 75
     2
 76
     1
 98
        0
  0
POLYLINE
  5
43
330
1F
100
AcDbEntity
  8
_U+30EC_U+30A4_U+30E4_U+30FC 1
 62
     7
420
 16777215
370
    25
100
AcDb2dPolyline
 66
     1
 10
0.0
 20
0.0
 30
0.0
  0
VERTEX
  5
44
330
43
100
AcDbEntity
  8
_U+30EC_U+30A4_U+30E4_U+30FC 1
 62
     7
420
 16777215
370
    25
100
AcDbVertex
100
AcDb2dVertex
 10
80.89737515835824
 20
-132.6685744112773
 30
0.0
  0
VERTEX
  5
45
330
43
100
AcDbEntity
  8
_U+30EC_U+30A4_U+30E4_U+30FC 1
 62
     7
420
 16777215
370
    25
100
AcDbVertex
100
AcDb2dVertex
 10
83.39782870567747
 20
-132.6685744112773
 30
0.0
  0
SEQEND
  5
46
330
43
100
AcDbEntity
  8
_U+30EC_U+30A4_U+30E4_U+30FC 1
 62
     7
420
 16777215
370
    25
  0
POLYLINE
  5
47
330
1F
100
AcDbEntity
  8
_U+30EC_U+30A4_U+30E4_U+30FC 1
 62
     7
420
 16777215
370
    25
100
AcDb2dPolyline
 66
     1
 10
0.0
 20
0.0
 30
0.0
  0
VERTEX
  5
48
330
47
100
AcDbEntity
  8
_U+30EC_U+30A4_U+30E4_U+30FC 1
 62
     7
420
 16777215
370
    25
100
AcDbVertex
100
AcDb2dVertex
 10
79.89760296164233
 20
-133.6683113554717
 30
0.0
  0
VERTEX
  5
49
330
47
100
AcDbEntity
  8
_U+30EC_U+30A4_U+30E4_U+30FC 1
 62
     7
420
 16777215
370
    25
100
AcDbVertex
100
AcDb2dVertex
 10
97.89755944686962
 20
-133.6683113554717
 30
0.0
  0
SEQEND
  5
4A
330
47
100
AcDbEntity
  8
_U+30EC_U+30A4_U+30E4_U+30FC 1
 62
     7
420
 16777215
370
    25
  0
POLYLINE
  5
4B
330
1F
100
AcDbEntity
  8
_U+30EC_U+30A4_U+30E4_U+30FC 1
 62
     7
420
 16777215
370
    25
100
AcDb2dPolyline
 66
     1
 10
0.0
 20
0.0
 30
0.0
  0
VERTEX
  5
4C
330
4B
100
AcDbEntity
  8
_U+30EC_U+30A4_U+30E4_U+30FC 1
 62
     7
420
 16777215
370
    25
100
AcDbVertex
100
AcDb2dVertex
 10
87.7634535943011
 20
-133.1681077444855
 30
0.0
  0
VERTEX
  5
4D
330
4B
100
AcDbEntity
  8
_U+30EC_U+30A4_U+30E4_U+30FC 1
 62
     7
420
 16777215
370
    25
100
AcDbVertex
100
AcDb2dVertex
 10
97.39802612628046
 20
-133.1681077444855
 30
0.0
  0
SEQEND
  5
4E
330
4B
100
AcDbEntity
  8
_U+30EC_U+30A4_U+30E4_U+30FC 1
 62
     7
420
 16777215
370
    25
  0
POLYLINE
  5
4F
330
1F
100
AcDbEntity
  8
_U+30EC_U+30A4_U+30E4_U+30FC 1
 62
     7
420
 16777215
370
    25
100
AcDb2dPolyline
 66
     1
 10
0.0
 20
0.0
 30
0.0
  0
VERTEX
  5
50
330
4F
100
AcDbEntity
  8
_U+30EC_U+30A4_U+30E4_U+30FC 1
 62
     7
420
 16777215
370
    25
100
AcDbVertex
100
AcDb2dVertex
 10
80.39784183776906
 20
-126.1685380240135
 30
0.0
  0
VERTEX
  5
51
330
4F
100
AcDbEntity
  8
_U+30EC_U+30A4_U+30E4_U+30FC 1
 62
     7
420
 16777215
370
    25
100
AcDbVertex
100
AcDb2dVertex
 10
83.39782870567747
 20
-126.1685380240135
 30
0.0
  0
SEQEND
  5
52
330
4F
100
AcDbEntity
  8
_U+30EC_U+30A4_U+30E4_U+30FC 1
 62
     7
420
 16777215
370
    25
  0
POLYLINE
  5
53
330
1F
100
AcDbEntity
  8
_U+30EC_U+30A4_U+30E4_U+30FC 1
 62
     7
420
 16777215
370
    25
100
AcDb2dPolyline
 66
     1
 10
0.0
 20
0.0
 30
0.0
  0
VERTEX
  5
54
330
53
100
AcDbEntity
  8
_U+30EC_U+30A4_U+30E4_U+30FC 1
 62
     7
420
 16777215
370
    25
100
AcDbVertex
100
AcDb2dVertex
 10
83.39782870567747
 20
-126.1685380240135
 30
0.0
  0
VERTEX
  5
55
330
53
100
AcDbEntity
  8
_U+30EC_U+30A4_U+30E4_U+30FC 1
 62
     7
420
 16777215
370
    25
100
AcDbVertex
100
AcDb2dVertex
 10
83.39782870567747
 20
-132.6685744112773
 30
0.0
  0
SEQEND
  5
56
330
53
100
AcDbEntity
  8
_U+30EC_U+30A4_U+30E4_U+30FC 1
 62
     7
420
 16777215
370
    25
  0
POLYLINE
  5
57
330
1F
100
AcDbEntity
  8
_U+30EC_U+30A4_U+30E4_U+30FC 1
 62
     7
420
 16777215
370
    25
100
AcDb2dPolyline
 66
     1
 10
0.0
 20
0.0
 30
0.0
  0
VERTEX
  5
58
330
57
100
AcDbEntity
  8
_U+30EC_U+30A4_U+30E4_U+30FC 1
 62
     7
420
 16777215
370
    25
100
AcDbVertex
100
AcDb2dVertex
 10
84.39760090239338
 20
-126.1685380240135
 30
0.0
  0
VERTEX
  5
59
330
57
100
AcDbEntity
  8
_U+30EC_U+30A4_U+30E4_U+30FC 1
 62
     7
420
 16777215
370
    25
100
AcDbVertex
100
AcDb2dVertex
 10
84.39760090239338
 20
-132.6685744112773
 30
0.0
  0
SEQEND
  5
5A
330
57
100
AcDbEntity
  8
_U+30EC_U+30A4_U+30E4_U+30FC 1
 62
     7
420
 16777215
370
    25
  0
POLYLINE
  5
5B
330
1F
100
AcDbEntity
  8
_U+30EC_U+30A4_U+30E4_U+30FC 1
 62
     7
420
 16777215
370
    25
100
AcDb2dPolyline
 66
     1
 10
0.0
 20
0.0
 30
0.0
  0
VERTEX
  5
5C
330
5B
100
AcDbEntity
  8
_U+30EC_U+30A4_U+30E4_U+30FC 1
 62
     7
420
 16777215
370
    25
100
AcDbVertex
100
AcDb2dVertex
 10
84.39760090239338
 20
-126.1685380240135
 30
0.0
  0
VERTEX
  5
5D
330
5B
100
AcDbEntity
  8
_U+30EC_U+30A4_U+30E4_U+30FC 1
 62
     7
420
 16777215
370
    25
100
AcDbVertex
100
AcDb2dVertex
 10
87.39758777030178
 20
-126.1685380240135
 30
0.0
  0
SEQEND
  5
5E
330
5B
100
AcDbEntity
  8
_U+30EC_U+30A4_U+30E4_U+30FC 1
 62
     7
420
 16777215
370
    25
  0
POLYLINE
  5
5F
330
1F
100
AcDbEntity
  8
_U+30EC_U+30A4_U+30E4_U+30FC 1
 62
     7
420
 16777215
370
    25
100
AcDb2dPolyline
 66
     1
 10
0.0
 20
0.0
 30
0.0
  0
VERTEX
  5
60
330
5F
100
AcDbEntity
  8
_U+30EC_U+30A4_U+30E4_U+30FC 1
 62
     7
420
 16777215
370
    25
100
AcDbVertex
100
AcDb2dVertex
 10
84.39760090239338
 20
-132.6685744112773
 30
0.0
  0
VERTEX
  5
61
330
5F
100
AcDbEntity
  8
_U+30EC_U+30A4_U+30E4_U+30FC 1
 62
     7
420
 16777215
370
    25
100
AcDbVertex
100
AcDb2dVertex
 10
86.8980544497126
 20
-132.6685744112773
 30
0.0
  0
SEQEND
  5
62
330
5F
100
AcDbEntity
  8
_U+30EC_U+30A4_U+30E4_U+30FC 1
 62
     7
420
 16777215
370
    25
  0
SPLINE
  5
63
330
1F
100
AcDbEntity
  8
_U+30EC_U+30A4_U+30E4_U+30FC 1
 62
     7
420
 16777215
370
    25
100
AcDbSpline
210
0.0
220
0.0
230
1.0
 70
     8
 71
     3
 72
     8
 73
     4
 74
     0
 42
0.0000000001
 43
0.0000000001
 12
1.0
 22
0.0
 32
0.0
 13
1.0
 23
0.0
 33
0.0
 40
0.0
 40
0.0
 40
0.0
 40
0.0
 40
1.0
 40
1.0
 40
1.0
 40
1.0
 10
97.89755944686962
 20
-133.6683113554717
 30
0.0
 10
97.89755944686962
 20
-133.3920157999853
 30
0.0
 10
97.67361611924956
 20
-133.1681077444855
 30
0.0
 10
97.39802612628046
 20
-133.1681077444855
 30
0.0
  0
SPLINE
  5
64
330
1F
100
AcDbEntity
  8
_U+30EC_U+30A4_U+30E4_U+30FC 1
 62
     7
420
 16777215
370
     9
100
AcDbSpline
210
0.0
220
0.0
230
1.0
 70
    11
 71
     3
 72
    17
 73
    13
 74
     0
 42
0.0000000001
 43
0.0000000001
 12
1.0
 22
0.0
 32
0.0
 13
1.0
 23
0.0
 33
0.0
 40
0.0
 40
0.0
 40
0.0
 40
0.0
 40
1.0
 40
1.0
 40
1.0
 40
2.0
 40
2.0
 40
2.0
 40
3.0
 40
3.0
 40
3.0
 40
4.0
 40
4.0
 40
4.0
 40
4.0
 10
101.8752699009453
 20
-126.1685380240135
 30
0.0
 10
101.8752699009453
 20
-126.1133988573604
 30
0.0
 10
101.8304671243106
 20
-126.0686313573719
 30
0.0
 10
101.7753632368275
 20
-126.0686313573719
 30
0.0
 10
101.7202240715676
 20
-126.0686313573719
 30
0.0
 10
101.6754565727097
 20
-126.1133988573604
 30
0.0
 10
101.6754565727097
 20
-126.1685380240135
 30
0.0
 10
101.6754565727097
 20
-126.2236419128884
 30
0.0
 10
101.7202240715676
 20
-126.2684446906551
 30
0.0
 10
101.7753632368275
 20
-126.2684446906551
 30
0.0
 10
101.8304671243106
 20
-126.2684446906551
 30
0.0
 10
101.8752699009453
 20
-126.2236419128884
 30
0.0
 10
101.8752699009453
 20
-126.1685380240135
 30
0.0
  0
SPLINE
  5
65
330
1F
100
AcDbEntity
  8
_U+30EC_U+30A4_U+30E4_U+30FC 1
 62
     7
420
 16777215
370
     9
100
AcDbSpline
210
0.0
220
0.0
230
1.0
 70
    11
 71
     3
 72
    17
 73
    13
 74
     0
 42
0.0000000001
 43
0.0000000001
 12
1.0
 22
0.0
 32
0.0
 13
1.0
 23
0.0
 33
0.0
 40
0.0
 40
0.0
 40
0.0
 40
0.0
 40
1.0
 40
1.0
 40
1.0
 40
2.0
 40
2.0
 40
2.0
 40
3.0
 40
3.0
 40
3.0
 40
4.0
 40
4.0
 40
4.0
 40
4.0
 10
101.8752699009453
 20
-132.6685744112773
 30
0.0
 10
101.8752699009453
 20
-132.6127649668469
 30
0.0
 10
101.8304671243106
 20
-132.5679621890802
 30
0.0
 10
101.7753632368275
 20
-132.5679621890802
 30
0.0
 10
101.7202240715676
 20
-132.5679621890802
 30
0.0
 10
101.6754565727097
 20
-132.6127649668469
 30
0.0
 10
101.6754565727097
 20
-132.6685744112773
 30
0.0
 10
101.6754565727097
 20
-132.7236783001523
 30
0.0
 10
101.7202240715676
 20
-132.768481077919
 30
0.0
 10
101.7753632368275
 20
-132.768481077919
 30
0.0
 10
101.8304671243106
 20
-132.768481077919
 30
0.0
 10
101.8752699009453
 20
-132.7236783001523
 30
0.0
 10
101.8752699009453
 20
-132.6685744112773
 30
0.0
  0
SPLINE
  5
66
330
1F
100
AcDbEntity
  8
_U+30EC_U+30A4_U+30E4_U+30FC 1
 62
     7
420
 16777215
370
     9
100
AcDbSpline
210
0.0
220
0.0
230
1.0
 70
    11
 71
     3
 72
    17
 73
    13
 74
     0
 42
0.0000000001
 43
0.0000000001
 12
1.0
 22
0.0
 32
0.0
 13
1.0
 23
0.0
 33
0.0
 40
0.0
 40
0.0
 40
0.0
 40
0.0
 40
1.0
 40
1.0
 40
1.0
 40
2.0
 40
2.0
 40
2.0
 40
3.0
 40
3.0
 40
3.0
 40
4.0
 40
4.0
 40
4.0
 40
4.0
 10
79.99750962576017
 20
-137.6687760766941
 30
0.0
 10
79.99750962576017
 20
-137.6129666322637
 30
0.0
 10
79.95274212690228
 20
-137.568163854497
 30
0.0
 10
79.89760296164233
 20
-137.568163854497
 30
0.0
 10
79.84249907415926
 20
-137.568163854497
 30
0.0
 10
79.7976962975245
 20
-137.6129666322637
 30
0.0
 10
79.7976962975245
 20
-137.6687760766941
 30
0.0
 10
79.7976962975245
 20
-137.723879965569
 30
0.0
 10
79.84249907415926
 20
-137.7686827433358
 30
0.0
 10
79.89760296164233
 20
-137.7686827433358
 30
0.0
 10
79.95274212690228
 20
-137.7686827433358
 30
0.0
 10
79.99750962576017
 20
-137.723879965569
 30
0.0
 10
79.99750962576017
 20
-137.6687760766941
 30
0.0
  0
SPLINE
  5
67
330
1F
100
AcDbEntity
  8
_U+30EC_U+30A4_U+30E4_U+30FC 1
 62
     7
420
 16777215
370
     9
100
AcDbSpline
210
0.0
220
0.0
230
1.0
 70
    11
 71
     3
 72
    17
 73
    13
 74
     0
 42
0.0000000001
 43
0.0000000001
 12
1.0
 22
0.0
 32
0.0
 13
1.0
 23
0.0
 33
0.0
 40
0.0
 40
0.0
 40
0.0
 40
0.0
 40
1.0
 40
1.0
 40
1.0
 40
2.0
 40
2.0
 40
2.0
 40
3.0
 40
3.0
 40
3.0
 40
4.0
 40
4.0
 40
4.0
 40
4.0
 10
97.99746611098746
 20
-137.6687760766941
 30
0.0
 10
97.99746611098746
 20
-137.6129666322637
 30
0.0
 10
97.9526633343527
 20
-137.568163854497
 30
0.0
 10
97.89755944686962
 20
-137.568163854497
 30
0.0
 10
97.84242028160968
 20
-137.568163854497
 30
0.0
 10
97.7976527827518
 20
-137.6129666322637
 30
0.0
 10
97.7976527827518
 20
-137.6687760766941
 30
0.0
 10
97.7976527827518
 20
-137.723879965569
 30
0.0
 10
97.84242028160968
 20
-137.7686827433358
 30
0.0
 10
97.89755944686962
 20
-137.7686827433358
 30
0.0
 10
97.9526633343527
 20
-137.7686827433358
 30
0.0
 10
97.99746611098746
 20
-137.723879965569
 30
0.0
 10
97.99746611098746
 20
-137.6687760766941
 30
0.0
  0
SPLINE
  5
68
330
1F
100
AcDbEntity
  8
_U+30EC_U+30A4_U+30E4_U+30FC 1
 62
     7
420
 16777215
370
    25
100
AcDbSpline
210
0.0
220
0.0
230
1.0
 70
     8
 71
     3
 72
     8
 73
     4
 74
     0
 42
0.0000000001
 43
0.0000000001
 12
1.0
 22
0.0
 32
0.0
 13
1.0
 23
0.0
 33
0.0
 40
0.0
 40
0.0
 40
0.0
 40
0.0
 40
1.0
 40
1.0
 40
1.0
 40
1.0
 10
87.7634535943011
 20
-133.1681077444855
 30
0.0
 10
87.58501859885335
 20
-132.8587216334523
 30
0.0
 10
87.25495971838497
 20
-132.6685744112773
 30
0.0
 10
86.8980544497126
 20
-132.6685744112773
 30
0.0
  0
SPLINE
  5
69
330
1F
100
AcDbEntity
  8
_U+30EC_U+30A4_U+30E4_U+30FC 1
 62
     7
420
 16777215
370
    25
100
AcDbSpline
210
0.0
220
0.0
230
1.0
 70
     8
 71
     3
 72
    11
 73
     7
 74
     0
 42
0.0000000001
 43
0.0000000001
 12
1.0
 22
0.0
 32
0.0
 13
1.0
 23
0.0
 33
0.0
 40
0.0
 40
0.0
 40
0.0
 40
0.0
 40
1.0
 40
1.0
 40
1.0
 40
2.0
 40
2.0
 40
2.0
 40
2.0
 10
87.39758777030178
 20
-126.1685380240135
 30
0.0
 10
87.67388331880845
 20
-126.1685380240135
 30
0.0
 10
87.89782664642851
 20
-125.9445946907362
 30
0.0
 10
87.89782664642851
 20
-125.6682991352495
 30
0.0
 10
87.89782664642851
 20
-125.4085488575368
 30
0.0
 10
87.69938915149108
 20
-125.1921902464798
 30
0.0
 10
87.44030915810076
 20
-125.1701416353742
 30
0.0
  0
SPLINE
  5
6A
330
1F
100
AcDbEntity
  8
_U+30EC_U+30A4_U+30E4_U+30FC 1
 62
     7
420
 16777215
370
    25
100
AcDbSpline
210
0.0
220
0.0
230
1.0
 70
     8
 71
     3
 72
    11
 73
     7
 74
     0
 42
0.0000000001
 43
0.0000000001
 12
1.0
 22
0.0
 32
0.0
 13
1.0
 23
0.0
 33
0.0
 40
0.0
 40
0.0
 40
0.0
 40
0.0
 40
1.0
 40
1.0
 40
1.0
 40
2.0
 40
2.0
 40
2.0
 40
2.0
 10
80.35512044997009
 20
-125.1701416353742
 30
0.0
 10
80.07953045700097
 20
-125.1935660798127
 30
0.0
 10
79.87555435109373
 20
-125.4361008019742
 30
0.0
 10
79.89968435047813
 20
-125.7110205241278
 30
0.0
 10
79.92173296102672
 20
-125.9701005240631
 30
0.0
 10
80.13809156661807
 20
-126.1685380240135
 30
0.0
 10
80.39784183776906
 20
-126.1685380240135
 30
0.0
  0
SPLINE
  5
6B
330
1F
100
AcDbEntity
  8
_U+30EC_U+30A4_U+30E4_U+30FC 1
 62
     7
420
 16777215
370
    25
100
AcDbSpline
210
0.0
220
0.0
230
1.0
 70
     8
 71
     3
 72
     8
 73
     4
 74
     0
 42
0.0000000001
 43
0.0000000001
 12
1.0
 22
0.0
 32
0.0
 13
1.0
 23
0.0
 33
0.0
 40
0.0
 40
0.0
 40
0.0
 40
0.0
 40
1.0
 40
1.0
 40
1.0
 40
1.0
 10
80.89737515835824
 20
-132.6685744112773
 30
0.0
 10
80.34549164658037
 20
-132.6685744112773
 30
0.0
 10
79.89760296164233
 20
-133.1157202444989
 30
0.0
 10
79.89760296164233
 20
-133.6683113554717
 30
0.0
  0
SPLINE
  5
6C
330
1F
100
AcDbEntity
  8
_U+30EC_U+30A4_U+30E4_U+30FC 1
 62
     7
420
 16777215
370
     9
100
AcDbSpline
210
0.0
220
0.0
230
1.0
 70
    11
 71
     3
 72
    17
 73
    13
 74
     0
 42
0.0000000001
 43
0.0000000001
 12
1.0
 22
0.0
 32
0.0
 13
1.0
 23
0.0
 33
0.0
 40
0.0
 40
0.0
 40
0.0
 40
0.0
 40
1.0
 40
1.0
 40
1.0
 40
2.0
 40
2.0
 40
2.0
 40
3.0
 40
3.0
 40
3.0
 40
4.0
 40
4.0
 40
4.0
 40
4.0
 10
87.99773331054635
 20
-121.0179471919676
 30
0.0
 10
87.99773331054635
 20
-120.9628080253149
 30
0.0
 10
87.95293053391158
 20
-120.918040525326
 30
0.0
 10
87.89782664642851
 20
-120.918040525326
 30
0.0
 10
87.84268748116855
 20
-120.918040525326
 30
0.0
 10
87.79792220027282
 20
-120.9628080253149
 30
0.0
 10
87.79792220027282
 20
-121.0179471919676
 30
0.0
 10
87.79792220027282
 20
-121.0737566363984
 30
0.0
 10
87.84268748116855
 20
-121.1185241363869
 30
0.0
 10
87.89782664642851
 20
-121.1185241363869
 30
0.0
 10
87.95293053391158
 20
-121.1185241363869
 30
0.0
 10
87.99773331054635
 20
-121.0737566363984
 30
0.0
 10
87.99773331054635
 20
-121.0179471919676
 30
0.0
  0
SPLINE
  5
6D
330
1F
100
AcDbEntity
  8
_U+30EC_U+30A4_U+30E4_U+30FC 1
 62
     7
420
 16777215
370
     9
100
AcDbSpline
210
0.0
220
0.0
230
1.0
 70
    11
 71
     3
 72
    17
 73
    13
 74
     0
 42
0.0000000001
 43
0.0000000001
 12
1.0
 22
0.0
 32
0.0
 13
1.0
 23
0.0
 33
0.0
 40
0.0
 40
0.0
 40
0.0
 40
0.0
 40
1.0
 40
1.0
 40
1.0
 40
2.0
 40
2.0
 40
2.0
 40
3.0
 40
3.0
 40
3.0
 40
4.0
 40
4.0
 40
4.0
 40
4.0
 10
79.99750962576017
 20
-121.0179471919676
 30
0.0
 10
79.99750962576017
 20
-120.9628080253149
 30
0.0
 10
79.95274212690228
 20
-120.918040525326
 30
0.0
 10
79.89760296164233
 20
-120.918040525326
 30
0.0
 10
79.84249907415926
 20
-120.918040525326
 30
0.0
 10
79.7976962975245
 20
-120.9628080253149
 30
0.0
 10
79.7976962975245
 20
-121.0179471919676
 30
0.0
 10
79.7976962975245
 20
-121.0737566363984
 30
0.0
 10
79.84249907415926
 20
-121.1185241363869
 30
0.0
 10
79.89760296164233
 20
-121.1185241363869
 30
0.0
 10
79.95274212690228
 20
-121.1185241363869
 30
0.0
 10
79.99750962576017
 20
-121.0737566363984
 30
0.0
 10
79.99750962576017
 20
-121.0179471919676
 30
0.0
  0
SPLINE
  5
6E
330
1F
100
AcDbEntity
  8
_U+30EC_U+30A4_U+30E4_U+30FC 1
 62
     7
420
 16777215
370
    25
100
AcDbSpline
210
0.0
220
0.0
230
1.0
 70
     8
 71
     3
 72
     8
 73
     4
 74
     0
 42
0.0000000001
 43
0.0000000001
 12
1.0
 22
0.0
 32
0.0
 13
1.0
 23
0.0
 33
0.0
 40
0.0
 40
0.0
 40
0.0
 40
0.0
 40
1.0
 40
1.0
 40
1.0
 40
1.0
 10
87.44030915810076
 20
-125.1701416353742
 30
0.0
 10
85.08318921823589
 20
-124.9675766354248
 30
0.0
 10
82.71227775709973
 20
-124.9675766354248
 30
0.0
 10
80.35512044997009
 20
-125.1701416353742
 30
0.0
  0
POLYLINE
  5
6F
330
1F
100
AcDbEntity
  8
_U+30EC_U+30A4_U+30E4_U+30FC 1
 62
     7
420
 16777215
370
     9
100
AcDb2dPolyline
 66
     1
 10
0.0
 20
0.0
 30
0.0
  0
VERTEX
  5
70
330
6F
100
AcDbEntity
  8
_U+30EC_U+30A4_U+30E4_U+30FC 1
 62
     7
420
 16777215
370
     9
100
AcDbVertex
100
AcDb2dVertex
 10
79.89760296164233
 20
-137.6687760766941
 30
0.0
  0
VERTEX
  5
71
330
6F
100
AcDbEntity
  8
_U+30EC_U+30A4_U+30E4_U+30FC 1
 62
     7
420
 16777215
370
     9
100
AcDbVertex
100
AcDb2dVertex
 10
97.89755944686962
 20
-137.6687760766941
 30
0.0
  0
SEQEND
  5
72
330
6F
100
AcDbEntity
  8
_U+30EC_U+30A4_U+30E4_U+30FC 1
 62
     7
420
 16777215
370
     9
  0
POLYLINE
  5
73
330
1F
100
AcDbEntity
  8
_U+30EC_U+30A4_U+30E4_U+30FC 1
 62
     7
420
 16777215
370
     9
100
AcDb2dPolyline
 66
     1
 10
0.0
 20
0.0
 30
0.0
  0
VERTEX
  5
74
330
73
100
AcDbEntity
  8
_U+30EC_U+30A4_U+30E4_U+30FC 1
 62
     7
420
 16777215
370
     9
100
AcDbVertex
100
AcDb2dVertex
 10
79.89760296164233
 20
-135.4081055217038
 30
0.0
  0
VERTEX
  5
75
330
73
100
AcDbEntity
  8
_U+30EC_U+30A4_U+30E4_U+30FC 1
 62
     7
420
 16777215
370
     9
100
AcDbVertex
100
AcDb2dVertex
 10
79.89760296164233
 20
-138.668548298666
 30
0.0
  0
SEQEND
  5
76
330
73
100
AcDbEntity
  8
_U+30EC_U+30A4_U+30E4_U+30FC 1
 62
     7
420
 16777215
370
     9
  0
POLYLINE
  5
77
330
1F
100
AcDbEntity
  8
_U+30EC_U+30A4_U+30E4_U+30FC 1
 62
     7
420
 16777215
370
     9
100
AcDb2dPolyline
 66
     1
 10
0.0
 20
0.0
 30
0.0
  0
VERTEX
  5
78
330
77
100
AcDbEntity
  8
_U+30EC_U+30A4_U+30E4_U+30FC 1
 62
     7
420
 16777215
370
     9
100
AcDbVertex
100
AcDb2dVertex
 10
97.89755944686962
 20
-136.2087346881698
 30
0.0
  0
VERTEX
  5
79
330
77
100
AcDbEntity
  8
_U+30EC_U+30A4_U+30E4_U+30FC 1
 62
     7
420
 16777215
370
     9
100
AcDbVertex
100
AcDb2dVertex
 10
97.89755944686962
 20
-138.668548298666
 30
0.0
  0
SEQEND
  5
7A
330
77
100
AcDbEntity
  8
_U+30EC_U+30A4_U+30E4_U+30FC 1
 62
     7
420
 16777215
370
     9
  0
INSERT
  5
7C
330
1F
100
AcDbEntity
  8
_U+30EC_U+30A4_U+30E4_U+30FC 1
100
AcDbBlockReference
  2
block 2
 10
0.0
 20
0.0
 30
0.0
  0
POLYLINE
  5
85
330
1F
100
AcDbEntity
  8
_U+30EC_U+30A4_U+30E4_U+30FC 1
 62
     7
420
 16777215
370
     9
100
AcDb2dPolyline
 66
     1
 10
0.0
 20
0.0
 30
0.0
  0
VERTEX
  5
86
330
85
100
AcDbEntity
  8
_U+30EC_U+30A4_U+30E4_U+30FC 1
 62
     7
420
 16777215
370
     9
100
AcDbVertex
100
AcDb2dVertex
 10
79.89760296164233
 20
-121.0179471919676
 30
0.0
  0
VERTEX
  5
87
330
85
100
AcDbEntity
  8
_U+30EC_U+30A4_U+30E4_U+30FC 1
 62
     7
420
 16777215
370
     9
100
AcDbVertex
100
AcDb2dVertex
 10
87.89782664642851
 20
-121.0179471919676
 30
0.0
  0
SEQEND
  5
88
330
85
100
AcDbEntity
  8
_U+30EC_U+30A4_U+30E4_U+30FC 1
 62
     7
420
 16777215
370
     9
  0
POLYLINE
  5
89
330
1F
100
AcDbEntity
  8
_U+30EC_U+30A4_U+30E4_U+30FC 1
 62
     7
420
 16777215
370
     9
100
AcDb2dPolyline
 66
     1
 10
0.0
 20
0.0
 30
0.0
  0
VERTEX
  5
8A
330
89
100
AcDbEntity
  8
_U+30EC_U+30A4_U+30E4_U+30FC 1
 62
     7
420
 16777215
370
     9
100
AcDbVertex
100
AcDb2dVertex
 10
79.89760296164233
 20
-123.17818191365
 30
0.0
  0
VERTEX
  5
8B
330
89
100
AcDbEntity
  8
_U+30EC_U+30A4_U+30E4_U+30FC 1
 62
     7
420
 16777215
370
     9
100
AcDbVertex
100
AcDb2dVertex
 10
79.89760296164233
 20
-120.0181749699954
 30
0.0
  0
SEQEND
  5
8C
330
89
100
AcDbEntity
  8
_U+30EC_U+30A4_U+30E4_U+30FC 1
 62
     7
420
 16777215
370
     9
  0
POLYLINE
  5
8D
330
1F
100
AcDbEntity
  8
_U+30EC_U+30A4_U+30E4_U+30FC 1
 62
     7
420
 16777215
370
     9
100
AcDb2dPolyline
 66
     1
 10
0.0
 20
0.0
 30
0.0
  0
VERTEX
  5
8E
330
8D
100
AcDbEntity
  8
_U+30EC_U+30A4_U+30E4_U+30FC 1
 62
     7
420
 16777215
370
     9
100
AcDbVertex
100
AcDb2dVertex
 10
87.89782664642851
 20
-123.17818191365
 30
0.0
  0
VERTEX
  5
8F
330
8D
100
AcDbEntity
  8
_U+30EC_U+30A4_U+30E4_U+30FC 1
 62
     7
420
 16777215
370
     9
100
AcDbVertex
100
AcDb2dVertex
 10
87.89782664642851
 20
-120.0181749699954
 30
0.0
  0
SEQEND
  5
90
330
8D
100
AcDbEntity
  8
_U+30EC_U+30A4_U+30E4_U+30FC 1
 62
     7
420
 16777215
370
     9
  0
INSERT
  5
92
330
1F
100
AcDbEntity
  8
_U+30EC_U+30A4_U+30E4_U+30FC 1
100
AcDbBlockReference
  2
block 3
 10
0.0
 20
0.0
 30
0.0
  0
POLYLINE
  5
99
330
1F
100
AcDbEntity
  8
_U+30EC_U+30A4_U+30E4_U+30FC 1
 62
     7
420
 16777215
370
     9
100
AcDb2dPolyline
 66
     1
 10
0.0
 20
0.0
 30
0.0
  0
VERTEX
  5
9A
330
99
100
AcDbEntity
  8
_U+30EC_U+30A4_U+30E4_U+30FC 1
 62
     7
420
 16777215
370
     9
100
AcDbVertex
100
AcDb2dVertex
 10
101.7753632368275
 20
-126.1685380240135
 30
0.0
  0
VERTEX
  5
9B
330
99
100
AcDbEntity
  8
_U+30EC_U+30A4_U+30E4_U+30FC 1
 62
     7
420
 16777215
370
     9
100
AcDbVertex
100
AcDb2dVertex
 10
101.7753632368275
 20
-132.6685744112773
 30
0.0
  0
SEQEND
  5
9C
330
99
100
AcDbEntity
  8
_U+30EC_U+30A4_U+30E4_U+30FC 1
 62
     7
420
 16777215
370
     9
  0
POLYLINE
  5
9D
330
1F
100
AcDbEntity
  8
_U+30EC_U+30A4_U+30E4_U+30FC 1
 62
     7
420
 16777215
370
     9
100
AcDb2dPolyline
 66
     1
 10
0.0
 20
0.0
 30
0.0
  0
VERTEX
  5
9E
330
9D
100
AcDbEntity
  8
_U+30EC_U+30A4_U+30E4_U+30FC 1
 62
     7
420
 16777215
370
     9
100
AcDbVertex
100
AcDb2dVertex
 10
100.7797185400063
 20
-126.1685380240135
 30
0.0
  0
VERTEX
  5
9F
330
9D
100
AcDbEntity
  8
_U+30EC_U+30A4_U+30E4_U+30FC 1
 62
     7
420
 16777215
370
     9
100
AcDbVertex
100
AcDb2dVertex
 10
102.7758083076396
 20
-126.1685380240135
 30
0.0
  0
SEQEND
  5
A0
330
9D
100
AcDbEntity
  8
_U+30EC_U+30A4_U+30E4_U+30FC 1
 62
     7
420
 16777215
370
     9
  0
POLYLINE
  5
A1
330
1F
100
AcDbEntity
  8
_U+30EC_U+30A4_U+30E4_U+30FC 1
 62
     7
420
 16777215
370
     9
100
AcDb2dPolyline
 66
     1
 10
0.0
 20
0.0
 30
0.0
  0
VERTEX
  5
A2
330
A1
100
AcDbEntity
  8
_U+30EC_U+30A4_U+30E4_U+30FC 1
 62
     7
420
 16777215
370
     9
100
AcDbVertex
100
AcDb2dVertex
 10
100.7797185400063
 20
-132.6685744112773
 30
0.0
  0
VERTEX
  5
A3
330
A1
100
AcDbEntity
  8
_U+30EC_U+30A4_U+30E4_U+30FC 1
 62
     7
420
 16777215
370
     9
100
AcDbVertex
100
AcDb2dVertex
 10
102.7758083076396
 20
-132.6685744112773
 30
0.0
  0
SEQEND
  5
A4
330
A1
100
AcDbEntity
  8
_U+30EC_U+30A4_U+30E4_U+30FC 1
 62
     7
420
 16777215
370
     9
  0
POLYLINE
  5
A5
330
1F
100
AcDbEntity
  8
_U+30EC_U+30A4_U+30E4_U+30FC 1
  6
AI-Linetype-1
 62
   251
420
  5855577
370
    25
100
AcDb2dPolyline
 66
     1
 10
0.0
 20
0.0
 30
0.0
  0
VERTEX
  5
A6
330
A5
100
AcDbEntity
  8
_U+30EC_U+30A4_U+30E4_U+30FC 1
  6
AI-Linetype-1
 62
   251
420
  5855577
370
    25
100
AcDbVertex
100
AcDb2dVertex
 10
79.23272270082707
 20
-126.2684446906551
 30
0.0
  0
VERTEX
  5
A7
330
A5
100
AcDbEntity
  8
_U+30EC_U+30A4_U+30E4_U+30FC 1
  6
AI-Linetype-1
 62
   251
420
  5855577
370
    25
100
AcDbVertex
100
AcDb2dVertex
 10
79.23272270082707
 20
-124.386728024459
 30
0.0
  0
VERTEX
  5
A8
330
A5
100
AcDbEntity
  8
_U+30EC_U+30A4_U+30E4_U+30FC 1
  6
AI-Linetype-1
 62
   251
420
  5855577
370
    25
100
AcDbVertex
100
AcDb2dVertex
 10
88.4049446890464
 20
-124.386728024459
 30
0.0
  0
VERTEX
  5
A9
330
A5
100
AcDbEntity
  8
_U+30EC_U+30A4_U+30E4_U+30FC 1
  6
AI-Linetype-1
 62
   251
420
  5855577
370
    25
100
AcDbVertex
100
AcDb2dVertex
 10
88.4049446890464
 20
-126.2015933017828
 30
0.0
  0
SEQEND
  5
AB
330
A5
100
AcDbEntity
  8
_U+30EC_U+30A4_U+30E4_U+30FC 1
  6
AI-Linetype-1
 62
   251
420
  5855577
370
    25
  0
SPLINE
  5
AC
330
1F
100
AcDbEntity
  8
_U+30EC_U+30A4_U+30E4_U+30FC 1
 62
   179
420
  2234388
370
     9
100
AcDbSpline
210
0.0
220
0.0
230
1.0
 70
    11
 71
     3
 72
    17
 73
    13
 74
     0
 42
0.0000000001
 43
0.0000000001
 12
1.0
 22
0.0
 32
0.0
 13
1.0
 23
0.0
 33
0.0
 40
0.0
 40
0.0
 40
0.0
 40
0.0
 40
1.0
 40
1.0
 40
1.0
 40
2.0
 40
2.0
 40
2.0
 40
3.0
 40
3.0
 40
3.0
 40
4.0
 40
4.0
 40
4.0
 40
4.0
 10
83.49568925873639
 20
-129.3371527454435
 30
0.0
 10
83.49568925873639
 20
-129.2820488565686
 30
0.0
 10
83.45088648210162
 20
-129.2372460788019
 30
0.0
 10
83.39578259461855
 20
-129.2372460788019
 30
0.0
 10
83.34064342935861
 20
-129.2372460788019
 30
0.0
 10
83.29587593050071
 20
-129.2820488565686
 30
0.0
 10
83.29587593050071
 20
-129.3371527454435
 30
0.0
 10
83.29587593050071
 20
-129.3922919120966
 30
0.0
 10
83.34064342935861
 20
-129.4370594120851
 30
0.0
 10
83.39578259461855
 20
-129.4370594120851
 30
0.0
 10
83.45088648210162
 20
-129.4370594120851
 30
0.0
 10
83.49568925873639
 20
-129.3922919120966
 30
0.0
 10
83.49568925873639
 20
-129.3371527454435
 30
0.0
  0
SPLINE
  5
AD
330
1F
100
AcDbEntity
  8
_U+30EC_U+30A4_U+30E4_U+30FC 1
 62
   179
420
  2234388
370
     9
100
AcDbSpline
210
0.0
220
0.0
230
1.0
 70
    11
 71
     3
 72
    17
 73
    13
 74
     0
 42
0.0000000001
 43
0.0000000001
 12
1.0
 22
0.0
 32
0.0
 13
1.0
 23
0.0
 33
0.0
 40
0.0
 40
0.0
 40
0.0
 40
0.0
 40
1.0
 40
1.0
 40
1.0
 40
2.0
 40
2.0
 40
2.0
 40
3.0
 40
3.0
 40
3.0
 40
4.0
 40
4.0
 40
4.0
 40
4.0
 10
84.49542617767543
 20
-129.3371527454435
 30
0.0
 10
84.49542617767543
 20
-129.2820488565686
 30
0.0
 10
84.45065867881753
 20
-129.2372460788019
 30
0.0
 10
84.39551951355759
 20
-129.2372460788019
 30
0.0
 10
84.34041562607452
 20
-129.2372460788019
 30
0.0
 10
84.29561284943975
 20
-129.2820488565686
 30
0.0
 10
84.29561284943975
 20
-129.3371527454435
 30
0.0
 10
84.29561284943975
 20
-129.3922919120966
 30
0.0
 10
84.34041562607452
 20
-129.4370594120851
 30
0.0
 10
84.39551951355759
 20
-129.4370594120851
 30
0.0
 10
84.45065867881753
 20
-129.4370594120851
 30
0.0
 10
84.49542617767543
 20
-129.3922919120966
 30
0.0
 10
84.49542617767543
 20
-129.3371527454435
 30
0.0
  0
INSERT
  5
AF
330
1F
100
AcDbEntity
  8
_U+30EC_U+30A4_U+30E4_U+30FC 1
100
AcDbBlockReference
  2
block 4
 10
0.0
 20
0.0
 30
0.0
  0
POLYLINE
  5
B4
330
1F
100
AcDbEntity
  8
_U+30EC_U+30A4_U+30E4_U+30FC 1
 62
   179
420
  2234388
370
     9
100
AcDb2dPolyline
 66
     1
 10
0.0
 20
0.0
 30
0.0
  0
VERTEX
  5
B5
330
B4
100
AcDbEntity
  8
_U+30EC_U+30A4_U+30E4_U+30FC 1
 62
   179
420
  2234388
370
     9
100
AcDbVertex
100
AcDb2dVertex
 10
85.25682643602826
 20
-129.3371527454435
 30
0.0
  0
VERTEX
  5
B6
330
B4
100
AcDbEntity
  8
_U+30EC_U+30A4_U+30E4_U+30FC 1
 62
   179
420
  2234388
370
     9
100
AcDbVertex
100
AcDb2dVertex
 10
81.41758331297893
 20
-129.3371527454435
 30
0.0
  0
SEQEND
  5
B7
330
B4
100
AcDbEntity
  8
_U+30EC_U+30A4_U+30E4_U+30FC 1
 62
   179
420
  2234388
370
     9
  0
SPLINE
  5
B8
330
1F
100
AcDbEntity
  8
_U+30EC_U+30A4_U+30E4_U+30FC 1
 62
   179
420
  2234388
370
     9
100
AcDbSpline
210
0.0
220
0.0
230
1.0
 70
    11
 71
     3
 72
    17
 73
    13
 74
     0
 42
0.0000000001
 43
0.0000000001
 12
1.0
 22
0.0
 32
0.0
 13
1.0
 23
0.0
 33
0.0
 40
0.0
 40
0.0
 40
0.0
 40
0.0
 40
1.0
 40
1.0
 40
1.0
 40
2.0
 40
2.0
 40
2.0
 40
3.0
 40
3.0
 40
3.0
 40
4.0
 40
4.0
 40
4.0
 40
4.0
 10
101.8752699009453
 20
-133.6635135776951
 30
0.0
 10
101.8752699009453
 20
-133.6083744110426
 30
0.0
 10
101.8304671243106
 20
-133.5636069110534
 30
0.0
 10
101.7753632368275
 20
-133.5636069110534
 30
0.0
 10
101.7202240715676
 20
-133.5636069110534
 30
0.0
 10
101.6754565727097
 20
-133.6083744110426
 30
0.0
 10
101.6754565727097
 20
-133.6635135776951
 30
0.0
 10
101.6754565727097
 20
-133.7186174665706
 30
0.0
 10
101.7202240715676
 20
-133.7634202443367
 30
0.0
 10
101.7753632368275
 20
-133.7634202443367
 30
0.0
 10
101.8304671243106
 20
-133.7634202443367
 30
0.0
 10
101.8752699009453
 20
-133.7186174665706
 30
0.0
 10
101.8752699009453
 20
-133.6635135776951
 30
0.0
  0
POLYLINE
  5
B9
330
1F
100
AcDbEntity
  8
_U+30EC_U+30A4_U+30E4_U+30FC 1
 62
   179
420
  2234388
370
     9
100
AcDb2dPolyline
 66
     1
 10
0.0
 20
0.0
 30
0.0
  0
VERTEX
  5
BA
330
B9
100
AcDbEntity
  8
_U+30EC_U+30A4_U+30E4_U+30FC 1
 62
   179
420
  2234388
370
     9
100
AcDbVertex
100
AcDb2dVertex
 10
101.7753632368275
 20
-132.0160766336629
 30
0.0
  0
VERTEX
  5
BB
330
B9
100
AcDbEntity
  8
_U+30EC_U+30A4_U+30E4_U+30FC 1
 62
   179
420
  2234388
370
     9
100
AcDbVertex
100
AcDb2dVertex
 10
101.7753632368275
 20
-133.6635135776951
 30
0.0
  0
SEQEND
  5
BC
330
B9
100
AcDbEntity
  8
_U+30EC_U+30A4_U+30E4_U+30FC 1
 62
   179
420
  2234388
370
     9
  0
POLYLINE
  5
BD
330
1F
100
AcDbEntity
  8
_U+30EC_U+30A4_U+30E4_U+30FC 1
 62
   179
420
  2234388
370
     9
100
AcDb2dPolyline
 66
     1
 10
0.0
 20
0.0
 30
0.0
  0
VERTEX
  5
BE
330
BD
100
AcDbEntity
  8
_U+30EC_U+30A4_U+30E4_U+30FC 1
 62
   179
420
  2234388
370
     9
100
AcDbVertex
100
AcDb2dVertex
 10
100.7797185400063
 20
-133.6635135776951
 30
0.0
  0
VERTEX
  5
BF
330
BD
100
AcDbEntity
  8
_U+30EC_U+30A4_U+30E4_U+30FC 1
 62
   179
420
  2234388
370
     9
100
AcDbVertex
100
AcDb2dVertex
 10
102.7758083076396
 20
-133.6635135776951
 30
0.0
  0
SEQEND
  5
C0
330
BD
100
AcDbEntity
  8
_U+30EC_U+30A4_U+30E4_U+30FC 1
 62
   179
420
  2234388
370
     9
  0
INSERT
  5
C2
330
1F
100
AcDbEntity
  8
_U+30EC_U+30A4_U+30E4_U+30FC 1
100
AcDbBlockReference
  2
block 5
 10
0.0
 20
0.0
 30
0.0
  0
POLYLINE
  5
C7
330
1F
100
AcDbEntity
  8
_U+30EC_U+30A4_U+30E4_U+30FC 1
 62
     7
420
 16777215
370
     9
100
AcDb2dPolyline
 66
     1
 10
0.0
 20
0.0
 30
0.0
  0
VERTEX
  5
C8
330
C7
100
AcDbEntity
  8
_U+30EC_U+30A4_U+30E4_U+30FC 1
 62
     7
420
 16777215
370
     9
100
AcDbVertex
100
AcDb2dVertex
 10
101.7756833078893
 20
-126.1685380240135
 30
0.0
  0
VERTEX
  5
C9
330
C7
100
AcDbEntity
  8
_U+30EC_U+30A4_U+30E4_U+30FC 1
 62
     7
420
 16777215
370
     9
100
AcDbVertex
100
AcDb2dVertex
 10
101.7756833078893
 20
-120.9104558031057
 30
0.0
  0
SEQEND
  5
CA
330
C7
100
AcDbEntity
  8
_U+30EC_U+30A4_U+30E4_U+30FC 1
 62
     7
420
 16777215
370
     9
  0
POLYLINE
  5
CB
330
1F
100
AcDbEntity
  8
_U+30EC_U+30A4_U+30E4_U+30FC 1
 62
     7
420
 16777215
370
     9
100
AcDb2dPolyline
 66
     1
 10
0.0
 20
0.0
 30
0.0
  0
VERTEX
  5
CC
330
CB
100
AcDbEntity
  8
_U+30EC_U+30A4_U+30E4_U+30FC 1
 62
     7
420
 16777215
370
     9
100
AcDbVertex
100
AcDb2dVertex
 10
100.7800713177751
 20
-126.1685380240135
 30
0.0
  0
VERTEX
  5
CD
330
CB
100
AcDbEntity
  8
_U+30EC_U+30A4_U+30E4_U+30FC 1
 62
     7
420
 16777215
370
     9
100
AcDbVertex
100
AcDb2dVertex
 10
102.7758083076396
 20
-126.1685380240135
 30
0.0
  0
SEQEND
  5
CE
330
CB
100
AcDbEntity
  8
_U+30EC_U+30A4_U+30E4_U+30FC 1
 62
     7
420
 16777215
370
     9
  0
INSERT
  5
D0
330
1F
100
AcDbEntity
  8
_U+30EC_U+30A4_U+30E4_U+30FC 1
100
AcDbBlockReference
  2
block 6
 10
0.0
 20
0.0
 30
0.0
  0
ENDSEC
  0
SECTION
  2
OBJECTS
  0
DICTIONARY
  5
C
330
0
100
AcDbDictionary
281
     1
  3
ACAD_GROUP
350
D
  3
ACAD_LAYOUT
350
1A
  3
ACAD_MATERIAL
350
3B
  3
ACAD_MLEADERSTYLE
350
E1
  3
ACAD_MLINESTYLE
350
17
  3
ACAD_PLOTSETTINGS
350
19
  3
ACAD_PLOTSTYLENAME
350
E
  3
ACAD_TABLESTYLE
350
E0
  3
ACAD_VISUALSTYLE
350
2A
  0
SUN
  5
3F
330
29
100
AcDbSun
 90
        1
290
     0
 63
     7
421
 16777215
 40
1.0
291
     1
 91
  2455826
 92
 54000000
292
     0
 70
     2
 71
   256
280
     1
  0
DICTIONARY
  5
D
102
{ACAD_REACTORS
330
C
102
}
330
C
100
AcDbDictionary
281
     1
  0
DICTIONARY
  5
1A
102
{ACAD_REACTORS
330
C
102
}
330
C
100
AcDbDictionary
281
     1
  3
Layout1
350
1E
  3
Layout2
350
26
  3
Model
350
22
  0
DICTIONARY
  5
3B
102
{ACAD_REACTORS
330
C
102
}
330
C
100
AcDbDictionary
281
     1
  3
ByBlock
350
3D
  3
ByLayer
350
3C
  3
Global
350
3E
  0
DICTIONARY
  5
E1
102
{ACAD_REACTORS
330
C
102
}
330
C
100
AcDbDictionary
281
     1
  0
DICTIONARY
  5
17
102
{ACAD_REACTORS
330
C
102
}
330
C
100
AcDbDictionary
281
     1
  3
Standard
350
18
  0
DICTIONARY
  5
19
102
{ACAD_REACTORS
330
C
102
}
330
C
100
AcDbDictionary
281
     1
  0
ACDBDICTIONARYWDFLT
  5
E
102
{ACAD_REACTORS
330
C
102
}
330
C
100
AcDbDictionary
281
     1
  3
Normal
350
F
100
AcDbDictionaryWithDefault
340
F
  0
DICTIONARY
  5
E0
102
{ACAD_REACTORS
330
C
102
}
330
C
100
AcDbDictionary
281
     1
  0
DICTIONARY
  5
2A
102
{ACAD_REACTORS
330
C
102
}
330
C
100
AcDbDictionary
281
     1
  3
2dWireframe
350
2F
  3
3D Hidden
350
31
  3
3dWireframe
350
30
  3
Basic
350
32
  3
Brighten
350
36
  3
ColorChange
350
3A
  3
Conceptual
350
34
  3
Dim
350
35
  3
Facepattern
350
39
  3
Flat
350
2B
  3
FlatWithEdges
350
2C
  3
Gouraud
350
2D
  3
GouraudWithEdges
350
2E
  3
Linepattern
350
38
  3
Realistic
350
33
  3
Thicken
350
37
  0
LAYOUT
  5
1E
102
{ACAD_REACTORS
330
1A
102
}
330
1A
100
AcDbPlotSettings
  1

  2
none_device
  4

  6

 40
0.0
 41
0.0
 42
0.0
 43
0.0
 44
0.0
 45
0.0
 46
0.0
 47
0.0
 48
0.0
 49
0.0
140
0.0
141
0.0
142
1.0
143
1.0
 70
   688
 72
     0
 73
     0
 74
     5
  7

 75
    16
 76
     0
 77
     2
 78
   300
147
1.0
148
0.0
149
0.0
100
AcDbLayout
  1
Layout1
 70
     1
 71
     1
 10
0.0
 20
0.0
 11
12.0
 21
9.0
 12
0.0
 22
0.0
 32
0.0
 14
1.000000000000000E+20
 24
1.000000000000000E+20
 34
1.000000000000000E+20
 15
-1.000000000000000E+20
 25
-1.000000000000000E+20
 35
-1.000000000000000E+20
146
0.0
 13
0.0
 23
0.0
 33
0.0
 16
1.0
 26
0.0
 36
0.0
 17
0.0
 27
1.0
 37
0.0
 76
     0
330
1B
  0
LAYOUT
  5
26
102
{ACAD_REACTORS
330
1A
102
}
330
1A
100
AcDbPlotSettings
  1

  2
none_device
  4

  6

 40
0.0
 41
0.0
 42
0.0
 43
0.0
 44
0.0
 45
0.0
 46
0.0
 47
0.0
 48
0.0
 49
0.0
140
0.0
141
0.0
142
1.0
143
1.0
 70
   688
 72
     0
 73
     0
 74
     5
  7

 75
    16
 76
     0
 77
     2
 78
   300
147
1.0
148
0.0
149
0.0
100
AcDbLayout
  1
Layout2
 70
     1
 71
     2
 10
0.0
 20
0.0
 11
0.0
 21
0.0
 12
0.0
 22
0.0
 32
0.0
 14
0.0
 24
0.0
 34
0.0
 15
0.0
 25
0.0
 35
0.0
146
0.0
 13
0.0
 23
0.0
 33
0.0
 16
1.0
 26
0.0
 36
0.0
 17
0.0
 27
1.0
 37
0.0
 76
     0
330
23
  0
LAYOUT
  5
22
102
{ACAD_REACTORS
330
1A
102
}
330
1A
100
AcDbPlotSettings
  1

  2
none_device
  4

  6

 40
0.0
 41
0.0
 42
0.0
 43
0.0
 44
0.0
 45
0.0
 46
0.0
 47
0.0
 48
0.0
 49
0.0
140
0.0
141
0.0
142
1.0
143
1.0
 70
  1712
 72
     0
 73
     0
 74
     0
  7

 75
     0
 76
     0
 77
     2
 78
   300
147
1.0
148
0.0
149
0.0
100
AcDbLayout
  1
Model
 70
     1
 71
     0
 10
0.0
 20
0.0
 11
12.0
 21
9.0
 12
0.0
 22
0.0
 32
0.0
 14
1.000000000000000E+20
 24
1.000000000000000E+20
 34
1.000000000000000E+20
 15
-1.000000000000000E+20
 25
-1.000000000000000E+20
 35
-1.000000000000000E+20
146
0.0
 13
0.0
 23
0.0
 33
0.0
 16
1.0
 26
0.0
 36
0.0
 17
0.0
 27
1.0
 37
0.0
 76
     0
330
1F
331
29
  0
MATERIAL
  5
3D
102
{ACAD_REACTORS
330
3B
102
}
330
3B
100
AcDbMaterial
  1
ByBlock
 72
     1
 94
      127
  0
MATERIAL
  5
3C
102
{ACAD_REACTORS
330
3B
102
}
330
3B
100
AcDbMaterial
  1
ByLayer
 72
     1
 94
      127
  0
MATERIAL
  5
3E
102
{ACAD_REACTORS
330
3B
102
}
330
3B
100
AcDbMaterial
  1
Global
 72
     1
 94
      127
  0
MLINESTYLE
  5
18
102
{ACAD_REACTORS
330
17
102
}
330
17
100
AcDbMlineStyle
  2
Standard
 70
     0
  3

 62
   256
 51
90.0
 52
90.0
 71
     2
 49
0.5
 62
   256
  6
BYLAYER
 49
-0.5
 62
   256
  6
BYLAYER
  0
ACDBPLACEHOLDER
  5
F
102
{ACAD_REACTORS
330
E
102
}
330
E
  0
VISUALSTYLE
  5
2F
102
{ACAD_REACTORS
330
2A
102
}
330
2A
100
AcDbVisualStyle
  2
2dWireframe
 70
     4
177
     2
291
     0
 71
     0
176
     1
 72
     2
176
     1
 73
     0
176
     1
 90
        0
176
     1
 40
-0.6
176
     1
 41
-30.0
176
     1
 62
     5
 63
     7
421
 16777215
176
     1
 74
     1
176
     1
 91
        4
176
     1
 64
     7
176
     1
 65
   257
176
     1
 75
     1
176
     1
175
     1
176
     1
 42
1.0
176
     1
 92
        0
176
     1
 66
   257
176
     1
 43
1.0
176
     1
 76
     1
176
     1
 77
     6
176
     1
 78
     2
176
     1
 67
     7
176
     1
 79
     5
176
     1
170
     0
176
     1
171
     0
176
     1
290
     0
176
     1
 93
        1
176
     1
 44
0.0
176
     1
173
     0
176
     1
  0
VISUALSTYLE
  5
31
102
{ACAD_REACTORS
330
2A
102
}
330
2A
100
AcDbVisualStyle
  2
3D Hidden
 70
     6
177
     2
291
     0
 71
     1
176
     1
 72
     2
176
     1
 73
     2
176
     1
 90
        0
176
     1
 40
-0.6
176
     1
 41
-30.0
176
     1
 62
     5
 63
     7
421
 16777215
176
     1
 74
     2
176
     1
 91
        2
176
     1
 64
     7
176
     1
 65
   257
176
     1
 75
     2
176
     1
175
     1
176
     1
 42
40.0
176
     1
 92
        0
176
     1
 66
   257
176
     1
 43
1.0
176
     1
 76
     1
176
     1
 77
     6
176
     1
 78
     2
176
     1
 67
     7
176
     1
 79
     3
176
     1
170
     0
176
     1
171
     0
176
     1
290
     0
176
     1
 93
        1
176
     1
 44
0.0
176
     1
173
     0
176
     1
  0
VISUALSTYLE
  5
30
102
{ACAD_REACTORS
330
2A
102
}
330
2A
100
AcDbVisualStyle
  2
3dWireframe
 70
     5
177
     2
291
     0
 71
     0
176
     1
 72
     2
176
     1
 73
     0
176
     1
 90
        0
176
     1
 40
-0.6
176
     1
 41
-30.0
176
     1
 62
     5
 63
     7
421
 16777215
176
     1
 74
     1
176
     1
 91
        4
176
     1
 64
     7
176
     1
 65
   257
176
     1
 75
     1
176
     1
175
     1
176
     1
 42
1.0
176
     1
 92
        0
176
     1
 66
   257
176
     1
 43
1.0
176
     1
 76
     1
176
     1
 77
     6
176
     1
 78
     2
176
     1
 67
     7
176
     1
 79
     5
176
     1
170
     0
176
     1
171
     0
176
     1
290
     0
176
     1
 93
        1
176
     1
 44
0.0
176
     1
173
     0
176
     1
  0
VISUALSTYLE
  5
32
102
{ACAD_REACTORS
330
2A
102
}
330
2A
100
AcDbVisualStyle
  2
Basic
 70
     7
177
     2
291
     1
 71
     1
176
     1
 72
     0
176
     1
 73
     1
176
     1
 90
        0
176
     1
 40
-0.6
176
     1
 41
-30.0
176
     1
 62
     5
 63
     7
421
 16777215
176
     1
 74
     0
176
     1
 91
        4
176
     1
 64
     7
176
     1
 65
   257
176
     1
 75
     1
176
     1
175
     1
176
     1
 42
1.0
176
     1
 92
        8
176
     1
 66
     7
176
     1
 43
1.0
176
     1
 76
     1
176
     1
 77
     6
176
     1
 78
     2
176
     1
 67
     7
176
     1
 79
     5
176
     1
170
     0
176
     1
171
     0
176
     1
290
     0
176
     1
 93
        1
176
     1
 44
0.0
176
     1
173
     0
176
     1
  0
VISUALSTYLE
  5
36
102
{ACAD_REACTORS
330
2A
102
}
330
2A
100
AcDbVisualStyle
  2
Brighten
 70
    12
177
     2
291
     1
 71
     2
176
     1
 72
     2
176
     1
 73
     0
176
     1
 90
        0
176
     1
 40
-0.6
176
     1
 41
-30.0
176
     1
 62
     5
 63
     7
421
 16777215
176
     1
 74
     1
176
     1
 91
        4
176
     1
 64
     7
176
     1
 65
   257
176
     1
 75
     1
176
     1
175
     1
176
     1
 42
1.0
176
     1
 92
        8
176
     1
 66
     7
176
     1
 43
1.0
176
     1
 76
     1
176
     1
 77
     6
176
     1
 78
     2
176
     1
 67
     7
176
     1
 79
     5
176
     1
170
     0
176
     1
171
     0
176
     1
290
     0
176
     1
 93
        1
176
     1
 44
50.0
176
     1
173
     0
176
     1
  0
VISUALSTYLE
  5
3A
102
{ACAD_REACTORS
330
2A
102
}
330
2A
100
AcDbVisualStyle
  2
ColorChange
 70
    16
177
     2
291
     1
 71
     2
176
     1
 72
     2
176
     1
 73
     3
176
     1
 90
        0
176
     1
 40
-0.6
176
     1
 41
-30.0
176
     1
 62
     5
 63
     8
421
  8421504
176
     1
 74
     1
176
     1
 91
        4
176
     1
 64
     7
176
     1
 65
   257
176
     1
 75
     1
176
     1
175
     1
176
     1
 42
1.0
176
     1
 92
        8
176
     1
 66
     8
424
  8421504
176
     1
 43
1.0
176
     1
 76
     1
176
     1
 77
     6
176
     1
 78
     2
176
     1
 67
     7
176
     1
 79
     5
176
     1
170
     0
176
     1
171
     0
176
     1
290
     0
176
     1
 93
        1
176
     1
 44
0.0
176
     1
173
     0
176
     1
  0
VISUALSTYLE
  5
34
102
{ACAD_REACTORS
330
2A
102
}
330
2A
100
AcDbVisualStyle
  2
Conceptual
 70
     9
177
     2
291
     0
 71
     3
176
     1
 72
     2
176
     1
 73
     0
176
     1
 90
        0
176
     1
 40
-0.6
176
     1
 41
-30.0
176
     1
 62
     5
 63
     7
421
 16777215
176
     1
 74
     2
176
     1
 91
        2
176
     1
 64
     7
176
     1
 65
   257
176
     1
 75
     1
176
     1
175
     1
176
     1
 42
40.0
176
     1
 92
        8
176
     1
 66
     7
176
     1
 43
1.0
176
     1
 76
     1
176
     1
 77
     6
176
     1
 78
     2
176
     1
 67
     7
176
     1
 79
     3
176
     1
170
     0
176
     1
171
     0
176
     1
290
     0
176
     1
 93
        1
176
     1
 44
0.0
176
     1
173
     0
176
     1
  0
VISUALSTYLE
  5
35
102
{ACAD_REACTORS
330
2A
102
}
330
2A
100
AcDbVisualStyle
  2
Dim
 70
    11
177
     2
291
     1
 71
     2
176
     1
 72
     2
176
     1
 73
     0
176
     1
 90
        0
176
     1
 40
-0.6
176
     1
 41
-30.0
176
     1
 62
     5
 63
     7
421
 16777215
176
     1
 74
     1
176
     1
 91
        4
176
     1
 64
     7
176
     1
 65
   257
176
     1
 75
     1
176
     1
175
     1
176
     1
 42
1.0
176
     1
 92
        8
176
     1
 66
     7
176
     1
 43
1.0
176
     1
 76
     1
176
     1
 77
     6
176
     1
 78
     2
176
     1
 67
     7
176
     1
 79
     5
176
     1
170
     0
176
     1
171
     0
176
     1
290
     0
176
     1
 93
        1
176
     1
 44
-50.0
176
     1
173
     0
176
     1
  0
VISUALSTYLE
  5
39
102
{ACAD_REACTORS
330
2A
102
}
330
2A
100
AcDbVisualStyle
  2
Facepattern
 70
    15
177
     2
291
     1
 71
     2
176
     1
 72
     2
176
     1
 73
     0
176
     1
 90
        0
176
     1
 40
-0.6
176
     1
 41
-30.0
176
     1
 62
     5
 63
     7
421
 16777215
176
     1
 74
     1
176
     1
 91
        4
176
     1
 64
     7
176
     1
 65
   257
176
     1
 75
     1
176
     1
175
     1
176
     1
 42
1.0
176
     1
 92
        8
176
     1
 66
     7
176
     1
 43
1.0
176
     1
 76
     1
176
     1
 77
     6
176
     1
 78
     2
176
     1
 67
     7
176
     1
 79
     5
176
     1
170
     0
176
     1
171
     0
176
     1
290
     0
176
     1
 93
        1
176
     1
 44
0.0
176
     1
173
     0
176
     1
  0
VISUALSTYLE
  5
2B
102
{ACAD_REACTORS
330
2A
102
}
330
2A
100
AcDbVisualStyle
  2
Flat
 70
     0
177
     2
291
     1
 71
     2
176
     1
 72
     1
176
     1
 73
     1
176
     1
 90
        2
176
     1
 40
-0.6
176
     1
 41
30.0
176
     1
 62
     5
 63
     7
421
 16777215
176
     1
 74
     0
176
     1
 91
        4
176
     1
 64
     7
176
     1
 65
   257
176
     1
 75
     1
176
     1
175
     1
176
     1
 42
1.0
176
     1
 92
        8
176
     1
 66
     7
176
     1
 43
1.0
176
     1
 76
     1
176
     1
 77
     6
176
     1
 78
     2
176
     1
 67
     7
176
     1
 79
     5
176
     1
170
     0
176
     1
171
     0
176
     1
290
     0
176
     1
 93
       13
176
     1
 44
0.0
176
     1
173
     0
176
     1
  0
VISUALSTYLE
  5
2C
102
{ACAD_REACTORS
330
2A
102
}
330
2A
100
AcDbVisualStyle
  2
FlatWithEdges
 70
     1
177
     2
291
     1
 71
     2
176
     1
 72
     1
176
     1
 73
     1
176
     1
 90
        2
176
     1
 40
-0.6
176
     1
 41
30.0
176
     1
 62
     5
 63
     7
421
 16777215
176
     1
 74
     1
176
     1
 91
        4
176
     1
 64
     7
176
     1
 65
   257
176
     1
 75
     1
176
     1
175
     1
176
     1
 42
1.0
176
     1
 92
        0
176
     1
 66
   257
176
     1
 43
1.0
176
     1
 76
     1
176
     1
 77
     6
176
     1
 78
     2
176
     1
 67
     7
176
     1
 79
     5
176
     1
170
     0
176
     1
171
     0
176
     1
290
     0
176
     1
 93
       13
176
     1
 44
0.0
176
     1
173
     0
176
     1
  0
VISUALSTYLE
  5
2D
102
{ACAD_REACTORS
330
2A
102
}
330
2A
100
AcDbVisualStyle
  2
Gouraud
 70
     2
177
     2
291
     1
 71
     2
176
     1
 72
     2
176
     1
 73
     1
176
     1
 90
        2
176
     1
 40
-0.6
176
     1
 41
30.0
176
     1
 62
     5
 63
     7
421
 16777215
176
     1
 74
     0
176
     1
 91
        4
176
     1
 64
     7
176
     1
 65
   257
176
     1
 75
     1
176
     1
175
     1
176
     1
 42
1.0
176
     1
 92
        0
176
     1
 66
     7
176
     1
 43
1.0
176
     1
 76
     1
176
     1
 77
     6
176
     1
 78
     2
176
     1
 67
     7
176
     1
 79
     5
176
     1
170
     0
176
     1
171
     0
176
     1
290
     0
176
     1
 93
       13
176
     1
 44
0.0
176
     1
173
     0
176
     1
  0
VISUALSTYLE
  5
2E
102
{ACAD_REACTORS
330
2A
102
}
330
2A
100
AcDbVisualStyle
  2
GouraudWithEdges
 70
     3
177
     2
291
     1
 71
     2
176
     1
 72
     2
176
     1
 73
     1
176
     1
 90
        2
176
     1
 40
-0.6
176
     1
 41
30.0
176
     1
 62
     5
 63
     7
421
 16777215
176
     1
 74
     1
176
     1
 91
        4
176
     1
 64
     7
176
     1
 65
   257
176
     1
 75
     1
176
     1
175
     1
176
     1
 42
1.0
176
     1
 92
        0
176
     1
 66
   257
176
     1
 43
1.0
176
     1
 76
     1
176
     1
 77
     6
176
     1
 78
     2
176
     1
 67
     7
176
     1
 79
     5
176
     1
170
     0
176
     1
171
     0
176
     1
290
     0
176
     1
 93
       13
176
     1
 44
0.0
176
     1
173
     0
176
     1
  0
VISUALSTYLE
  5
38
102
{ACAD_REACTORS
330
2A
102
}
330
2A
100
AcDbVisualStyle
  2
Linepattern
 70
    14
177
     2
291
     1
 71
     2
176
     1
 72
     2
176
     1
 73
     0
176
     1
 90
        0
176
     1
 40
-0.6
176
     1
 41
-30.0
176
     1
 62
     5
 63
     7
421
 16777215
176
     1
 74
     1
176
     1
 91
        4
176
     1
 64
     7
176
     1
 65
   257
176
     1
 75
     7
176
     1
175
     7
176
     1
 42
1.0
176
     1
 92
        8
176
     1
 66
     7
176
     1
 43
1.0
176
     1
 76
     1
176
     1
 77
     6
176
     1
 78
     2
176
     1
 67
     7
176
     1
 79
     5
176
     1
170
     0
176
     1
171
     0
176
     1
290
     0
176
     1
 93
        1
176
     1
 44
0.0
176
     1
173
     0
176
     1
  0
VISUALSTYLE
  5
33
102
{ACAD_REACTORS
330
2A
102
}
330
2A
100
AcDbVisualStyle
  2
Realistic
 70
     8
177
     2
291
     0
 71
     2
176
     1
 72
     2
176
     1
 73
     0
176
     1
 90
        0
176
     1
 40
-0.6
176
     1
 41
-30.0
176
     1
 62
     5
 63
     7
421
 16777215
176
     1
 74
     1
176
     1
 91
        0
176
     1
 64
     7
176
     1
 65
   257
176
     1
 75
     1
176
     1
175
     1
176
     1
 42
1.0
176
     1
 92
        8
176
     1
 66
     8
424
  7895160
176
     1
 43
1.0
176
     1
 76
     1
176
     1
 77
     6
176
     1
 78
     2
176
     1
 67
     7
176
     1
 79
     5
176
     1
170
     0
176
     1
171
     0
176
     1
290
     0
176
     1
 93
       13
176
     1
 44
0.0
176
     1
173
     0
176
     1
  0
VISUALSTYLE
  5
37
102
{ACAD_REACTORS
330
2A
102
}
330
2A
100
AcDbVisualStyle
  2
Thicken
 70
    13
177
     2
291
     1
 71
     2
176
     1
 72
     2
176
     1
 73
     0
176
     1
 90
        0
176
     1
 40
-0.6
176
     1
 41
-30.0
176
     1
 62
     5
 63
     7
421
 16777215
176
     1
 74
     1
176
     1
 91
        4
176
     1
 64
     7
176
     1
 65
   257
176
     1
 75
     1
176
     1
175
     1
176
     1
 42
1.0
176
     1
 92
       12
176
     1
 66
     7
176
     1
 43
1.0
176
     1
 76
     1
176
     1
 77
     6
176
     1
 78
     2
176
     1
 67
     7
176
     1
 79
     5
176
     1
170
     0
176
     1
171
     0
176
     1
290
     0
176
     1
 93
        1
176
     1
 44
0.0
176
     1
173
     0
176
     1
  0
ENDSEC
  0
EOF
