  0
SECTION
  2
HEADER
  9
$ACADVER
  1
AC1024
  9
$ACADMAINTVER
 70
     6
  9
$DWGCODEPAGE
  3
UNDEFINED
  9
$INSBASE
 10
0.0
 20
0.0
 30
0.0
  9
$EXTMIN
 10
1.000000000000000E+20
 20
1.000000000000000E+20
 30
1.000000000000000E+20
  9
$EXTMAX
 10
-1.000000000000000E+20
 20
-1.000000000000000E+20
 30
-1.000000000000000E+20
  9
$LIMMIN
 10
0.0
 20
0.0
  9
$LIMMAX
 10
12.0
 20
9.0
  9
$ORTHOMODE
 70
     0
  9
$REGENMODE
 70
     1
  9
$FILLMODE
 70
     1
  9
$QTEXTMODE
 70
     0
  9
$MIRRTEXT
 70
     1
  9
$LTSCALE
 40
1.0
  9
$ATTMODE
 70
     1
  9
$TEXTSIZE
 40
0.2
  9
$TRACEWID
 40
0.05
  9
$TEXTSTYLE
  7
Standard
  9
$CLAYER
  8
0
  9
$CELTYPE
  6
ByLayer
  9
$CECOLOR
 62
   256
  9
$CELTSCALE
 40
1.0
  9
$DISPSILH
 70
     0
  9
$DIMSCALE
 40
1.0
  9
$DIMASZ
 40
0.18
  9
$DIMEXO
 40
0.0625
  9
$DIMDLI
 40
0.38
  9
$DIMRND
 40
0.0
  9
$DIMDLE
 40
0.0
  9
$DIMEXE
 40
0.18
  9
$DIMTP
 40
0.0
  9
$DIMTM
 40
0.0
  9
$DIMTXT
 40
0.18
  9
$DIMCEN
 40
0.09
  9
$DIMTSZ
 40
0.0
  9
$DIMTOL
 70
     0
  9
$DIMLIM
 70
     0
  9
$DIMTIH
 70
     1
  9
$DIMTOH
 70
     1
  9
$DIMSE1
 70
     0
  9
$DIMSE2
 70
     0
  9
$DIMTAD
 70
     0
  9
$DIMZIN
 70
     0
  9
$DIMBLK
  1

  9
$DIMASO
 70
     1
  9
$DIMSHO
 70
     1
  9
$DIMPOST
  1

  9
$DIMAPOST
  1

  9
$DIMALT
 70
     0
  9
$DIMALTD
 70
     2
  9
$DIMALTF
 40
25.4
  9
$DIMLFAC
 40
1.0
  9
$DIMTOFL
 70
     0
  9
$DIMTVP
 40
0.0
  9
$DIMTIX
 70
     0
  9
$DIMSOXD
 70
     0
  9
$DIMSAH
 70
     0
  9
$DIMBLK1
  1

  9
$DIMBLK2
  1

  9
$DIMSTYLE
  2
Standard
  9
$DIMCLRD
 70
     0
  9
$DIMCLRE
 70
     0
  9
$DIMCLRT
 70
     0
  9
$DIMTFAC
 40
1.0
  9
$DIMGAP
 40
0.09
  9
$DIMJUST
 70
     0
  9
$DIMSD1
 70
     0
  9
$DIMSD2
 70
     0
  9
$DIMTOLJ
 70
     1
  9
$DIMTZIN
 70
     0
  9
$DIMALTZ
 70
     0
  9
$DIMALTTZ
 70
     0
  9
$DIMUPT
 70
     0
  9
$DIMDEC
 70
     4
  9
$DIMTDEC
 70
     4
  9
$DIMALTU
 70
     2
  9
$DIMALTTD
 70
     2
  9
$DIMTXSTY
  7
Standard
  9
$DIMAUNIT
 70
     0
  9
$DIMADEC
 70
     0
  9
$DIMALTRND
 40
0.0
  9
$DIMAZIN
 70
     0
  9
$DIMDSEP
 70
    46
  9
$DIMATFIT
 70
     3
  9
$DIMFRAC
 70
     0
  9
$DIMLDRBLK
  1

  9
$DIMLUNIT
 70
     2
  9
$DIMLWD
 70
    -2
  9
$DIMLWE
 70
    -2
  9
$DIMTMOVE
 70
     0
  9
$DIMFXL
 40
1.0
  9
$DIMFXLON
 70
     0
  9
$DIMJOGANG
 40
0.7853981633974483
  9
$DIMTFILL
 70
     0
  9
$DIMTFILLCLR
 70
     0
  9
$DIMARCSYM
 70
     0
  9
$DIMLTYPE
  6

  9
$DIMLTEX1
  6

  9
$DIMLTEX2
  6

  9
$DIMTXTDIRECTION
 70
     0
  9
$LUNITS
 70
     2
  9
$LUPREC
 70
     4
  9
$SKETCHINC
 40
0.1
  9
$FILLETRAD
 40
0.5
  9
$AUNITS
 70
     0
  9
$AUPREC
 70
     0
  9
$MENU
  1
.
  9
$ELEVATION
 40
0.0
  9
$PELEVATION
 40
0.0
  9
$THICKNESS
 40
0.0
  9
$LIMCHECK
 70
     0
  9
$CHAMFERA
 40
0.5
  9
$CHAMFERB
 40
0.5
  9
$CHAMFERC
 40
1.0
  9
$CHAMFERD
 40
0.0
  9
$SKPOLY
 70
     0
  9
$TDCREATE
 40
2457917.618391192
  9
$TDUCREATE
 40
2457917.243391204
  9
$TDUPDATE
 40
2457917.618391192
  9
$TDUUPDATE
 40
2457917.243391204
  9
$TDINDWG
 40
0.0000000116
  9
$TDUSRTIMER
 40
0.0000000116
  9
$USRTIMER
 70
     1
  9
$ANGBASE
 50
0.0
  9
$ANGDIR
 70
     0
  9
$PDMODE
 70
     0
  9
$PDSIZE
 40
0.0
  9
$PLINEWID
 40
0.0
  9
$SPLFRAME
 70
     0
  9
$SPLINETYPE
 70
     6
  9
$SPLINESEGS
 70
     8
  9
$HANDSEED
  5
D7
  9
$SURFTAB1
 70
     6
  9
$SURFTAB2
 70
     6
  9
$SURFTYPE
 70
     6
  9
$SURFU
 70
     6
  9
$SURFV
 70
     6
  9
$UCSBASE
  2

  9
$UCSNAME
  2

  9
$UCSORG
 10
0.0
 20
0.0
 30
0.0
  9
$UCSXDIR
 10
1.0
 20
0.0
 30
0.0
  9
$UCSYDIR
 10
0.0
 20
1.0
 30
0.0
  9
$UCSORTHOREF
  2

  9
$UCSORTHOVIEW
 70
     0
  9
$UCSORGTOP
 10
0.0
 20
0.0
 30
0.0
  9
$UCSORGBOTTOM
 10
0.0
 20
0.0
 30
0.0
  9
$UCSORGLEFT
 10
0.0
 20
0.0
 30
0.0
  9
$UCSORGRIGHT
 10
0.0
 20
0.0
 30
0.0
  9
$UCSORGFRONT
 10
0.0
 20
0.0
 30
0.0
  9
$UCSORGBACK
 10
0.0
 20
0.0
 30
0.0
  9
$PUCSBASE
  2

  9
$PUCSNAME
  2

  9
$PUCSORG
 10
0.0
 20
0.0
 30
0.0
  9
$PUCSXDIR
 10
1.0
 20
0.0
 30
0.0
  9
$PUCSYDIR
 10
0.0
 20
1.0
 30
0.0
  9
$PUCSORTHOREF
  2

  9
$PUCSORTHOVIEW
 70
     0
  9
$PUCSORGTOP
 10
0.0
 20
0.0
 30
0.0
  9
$PUCSORGBOTTOM
 10
0.0
 20
0.0
 30
0.0
  9
$PUCSORGLEFT
 10
0.0
 20
0.0
 30
0.0
  9
$PUCSORGRIGHT
 10
0.0
 20
0.0
 30
0.0
  9
$PUCSORGFRONT
 10
0.0
 20
0.0
 30
0.0
  9
$PUCSORGBACK
 10
0.0
 20
0.0
 30
0.0
  9
$USERI1
 70
     0
  9
$USERI2
 70
     0
  9
$USERI3
 70
     0
  9
$USERI4
 70
     0
  9
$USERI5
 70
     0
  9
$USERR1
 40
0.0
  9
$USERR2
 40
0.0
  9
$USERR3
 40
0.0
  9
$USERR4
 40
0.0
  9
$USERR5
 40
0.0
  9
$WORLDVIEW
 70
     1
  9
$SHADEDGE
 70
     3
  9
$SHADEDIF
 70
    70
  9
$TILEMODE
 70
     1
  9
$MAXACTVP
 70
    64
  9
$PINSBASE
 10
0.0
 20
0.0
 30
0.0
  9
$PLIMCHECK
 70
     0
  9
$PEXTMIN
 10
1.000000000000000E+20
 20
1.000000000000000E+20
 30
1.000000000000000E+20
  9
$PEXTMAX
 10
-1.000000000000000E+20
 20
-1.000000000000000E+20
 30
-1.000000000000000E+20
  9
$PLIMMIN
 10
0.0
 20
0.0
  9
$PLIMMAX
 10
12.0
 20
9.0
  9
$UNITMODE
 70
     0
  9
$VISRETAIN
 70
     1
  9
$PLINEGEN
 70
     0
  9
$PSLTSCALE
 70
     1
  9
$TREEDEPTH
 70
  3020
  9
$CMLSTYLE
  2
Standard
  9
$CMLJUST
 70
     0
  9
$CMLSCALE
 40
1.0
  9
$PROXYGRAPHICS
 70
     1
  9
$MEASUREMENT
 70
     0
  9
$CELWEIGHT
370
    -1
  9
$ENDCAPS
280
     0
  9
$JOINSTYLE
280
     0
  9
$LWDISPLAY
290
     1
  9
$INSUNITS
 70
     1
  9
$HYPERLINKBASE
  1

  9
$STYLESHEET
  1

  9
$XEDIT
290
     1
  9
$CEPSNTYPE
380
     0
  9
$PSTYLEMODE
290
     1
  9
$FINGERPRINTGUID
  2
{EA47A429-710A-3B1E-56D2-FDB765424CDD}
  9
$VERSIONGUID
  2
{FAEB1C32-E019-11D5-929B-00C0DF256EC4}
  9
$EXTNAMES
290
     1
  9
$PSVPSCALE
 40
0.0
  9
$OLESTARTUP
290
     0
  9
$SORTENTS
280
   127
  9
$INDEXCTL
280
     0
  9
$HIDETEXT
280
     1
  9
$XCLIPFRAME
280
     2
  9
$HALOGAP
280
     0
  9
$OBSCOLOR
 70
   257
  9
$OBSLTYPE
280
     0
  9
$INTERSECTIONDISPLAY
280
     0
  9
$INTERSECTIONCOLOR
 70
   257
  9
$DIMASSOC
280
     2
  9
$PROJECTNAME
  1

  9
$CAMERADISPLAY
290
     0
  9
$LENSLENGTH
 40
50.0
  9
$CAMERAHEIGHT
 40
0.0
  9
$STEPSPERSEC
 40
2.0
  9
$STEPSIZE
 40
6.0
  9
$3DDWFPREC
 40
2.0
  9
$PSOLWIDTH
 40
0.25
  9
$PSOLHEIGHT
 40
4.0
  9
$LOFTANG1
 40
1.570796326794897
  9
$LOFTANG2
 40
1.570796326794897
  9
$LOFTMAG1
 40
0.0
  9
$LOFTMAG2
 40
0.0
  9
$LOFTPARAM
 70
     7
  9
$LOFTNORMALS
280
     1
  9
$LATITUDE
 40
37.795
  9
$LONGITUDE
 40
-122.394
  9
$NORTHDIRECTION
 40
0.0
  9
$TIMEZONE
 70
 -8000
  9
$LIGHTGLYPHDISPLAY
280
     1
  9
$TILEMODELIGHTSYNCH
280
     1
  9
$CMATERIAL
347
3C
  9
$SOLIDHIST
280
     1
  9
$SHOWHIST
280
     1
  9
$DWFFRAME
280
     2
  9
$DGNFRAME
280
     2
  9
$REALWORLDSCALE
290
     1
  9
$INTERFERECOLOR
 62
   256
  9
$CSHADOW
280
     0
  9
$SHADOWPLANELOCATION
 40
0.0
  0
ENDSEC
  0
SECTION
  2
CLASSES
  0
CLASS
  1
ACDBDICTIONARYWDFLT
  2
AcDbDictionaryWithDefault
  3
ObjectDBX Classes
 90
        0
 91
        4
280
     0
281
     0
  0
CLASS
  1
VISUALSTYLE
  2
AcDbVisualStyle
  3
ObjectDBX Classes
 90
     4095
 91
        4
280
     0
281
     0
  0
CLASS
  1
MATERIAL
  2
AcDbMaterial
  3
ObjectDBX Classes
 90
     1153
 91
        4
280
     0
281
     0
  0
CLASS
  1
SUN
  2
AcDbSun
  3
SCENEOE
 90
     1024
 91
        4
280
     0
281
     0
  0
ENDSEC
  0
SECTION
  2
TABLES
  0
TABLE
  2
VPORT
  5
8
330
0
100
AcDbSymbolTable
 70
     1
  0
VPORT
  5
29
330
8
100
AcDbSymbolTableRecord
100
AcDbViewportTableRecord
  2
*Active
 70
     0
 10
0.0
 20
0.0
 11
1.0
 21
1.0
 12
0.0
 22
0.0
 13
0.0
 23
0.0
 14
0.5
 24
0.5
 15
0.5
 25
0.5
 16
0.0
 26
0.0
 36
1.0
 17
91.00082462281999
 27
-128.4993055234307
 37
0.0
 40
256.9986110468615
 41
0.7081814508812795
 42
50.0
 43
0.0
 44
0.0
 50
0.0
 51
0.0
 71
     0
 72
   100
 73
     1
 74
     3
 75
     0
 76
     0
 77
     0
 78
     0
281
     0
 65
     1
110
0.0
120
0.0
130
0.0
111
1.0
121
0.0
131
0.0
112
0.0
122
1.0
132
0.0
 79
     0
146
0.0
 60
     3
 61
     5
292
     1
282
     1
141
0.0
142
0.0
 63
   250
361
3F
  0
ENDTAB
  0
TABLE
  2
LTYPE
  5
5
330
0
100
AcDbSymbolTable
 70
     1
  0
LTYPE
  5
14
330
5
100
AcDbSymbolTableRecord
100
AcDbLinetypeTableRecord
  2
ByBlock
 70
     0
  3

 72
    65
 73
     0
 40
0.0
  0
LTYPE
  5
15
330
5
100
AcDbSymbolTableRecord
100
AcDbLinetypeTableRecord
  2
ByLayer
 70
     0
  3

 72
    65
 73
     0
 40
0.0
  0
LTYPE
  5
16
330
5
100
AcDbSymbolTableRecord
100
AcDbLinetypeTableRecord
  2
Continuous
 70
     0
  3
Solid line
 72
    65
 73
     0
 40
0.0
  0
ENDTAB
  0
TABLE
  2
LAYER
  5
2
330
0
100
AcDbSymbolTable
 70
     2
  0
LAYER
  5
10
330
2
100
AcDbSymbolTableRecord
100
AcDbLayerTableRecord
  2
0
 70
     0
 62
     7
  6
Continuous
370
    -3
390
F
347
3E
  0
LAYER
  5
40
330
2
100
AcDbSymbolTableRecord
100
AcDbLayerTableRecord
  2
_U+30EC_U+30A4_U+30E4_U+30FC 1
 70
     0
 62
     7
  6
Continuous
370
    -3
390
F
347
3E
  0
ENDTAB
  0
TABLE
  2
STYLE
  5
3
330
0
100
AcDbSymbolTable
 70
     1
  0
STYLE
  5
11
330
3
100
AcDbSymbolTableRecord
100
AcDbTextStyleTableRecord
  2
Standard
 70
     0
 40
0.0
 41
1.0
 50
0.0
 71
     0
 42
0.2
  3
txt
  4

  0
ENDTAB
  0
TABLE
  2
VIEW
  5
6
330
0
100
AcDbSymbolTable
 70
     0
  0
ENDTAB
  0
TABLE
  2
UCS
  5
7
330
0
100
AcDbSymbolTable
 70
     0
  0
ENDTAB
  0
TABLE
  2
APPID
  5
9
330
0
100
AcDbSymbolTable
 70
     1
  0
APPID
  5
12
330
9
100
AcDbSymbolTableRecord
100
AcDbRegAppTableRecord
  2
ACAD
 70
     0
  0
ENDTAB
  0
TABLE
  2
DIMSTYLE
  5
A
330
0
100
AcDbSymbolTable
 70
     1
100
AcDbDimStyleTable
  0
DIMSTYLE
105
27
330
A
100
AcDbSymbolTableRecord
100
AcDbDimStyleTableRecord
  2
Standard
 70
     0
178
     0
340
11
  0
ENDTAB
  0
TABLE
  2
BLOCK_RECORD
  5
1
330
0
100
AcDbSymbolTable
 70
     7
  0
BLOCK_RECORD
  5
1F
330
1
100
AcDbSymbolTableRecord
100
AcDbBlockTableRecord
  2
*Model_Space
340
22
 70
     0
280
     1
281
     0
  0
BLOCK_RECORD
  5
1B
330
1
100
AcDbSymbolTableRecord
100
AcDbBlockTableRecord
  2
*Paper_Space
340
1E
 70
     0
280
     1
281
     0
  0
BLOCK_RECORD
  5
23
330
1
100
AcDbSymbolTableRecord
100
AcDbBlockTableRecord
  2
*Paper_Space0
340
26
 70
     0
280
     1
281
     0
  0
BLOCK_RECORD
  5
7B
330
1
100
AcDbSymbolTableRecord
100
AcDbBlockTableRecord
  2
block 2
340
0
102
{BLKREFS
331
7C
102
}
 70
     0
280
     1
281
     0
  0
BLOCK_RECORD
  5
91
330
1
100
AcDbSymbolTableRecord
100
AcDbBlockTableRecord
  2
block 3
340
0
102
{BLKREFS
331
92
102
}
 70
     0
280
     1
281
     0
  0
BLOCK_RECORD
  5
A5
330
1
100
AcDbSymbolTableRecord
100
AcDbBlockTableRecord
  2
block 4
340
0
102
{BLKREFS
331
A6
102
}
 70
     0
280
     1
281
     0
  0
BLOCK_RECORD
  5
B6
330
1
100
AcDbSymbolTableRecord
100
AcDbBlockTableRecord
  2
block 5
340
0
102
{BLKREFS
331
B7
102
}
 70
     0
280
     1
281
     0
  0
BLOCK_RECORD
  5
BC
330
1
100
AcDbSymbolTableRecord
100
AcDbBlockTableRecord
  2
block 6
340
0
102
{BLKREFS
331
BD
102
}
 70
     0
280
     1
281
     0
  0
BLOCK_RECORD
  5
CF
330
1
100
AcDbSymbolTableRecord
100
AcDbBlockTableRecord
  2
block 7
340
0
102
{BLKREFS
331
D0
102
}
 70
     0
280
     1
281
     0
  0
ENDTAB
  0
ENDSEC
  0
SECTION
  2
BLOCKS
  0
BLOCK
  5
20
330
1F
100
AcDbEntity
  8
0
100
AcDbBlockBegin
  2
*Model_Space
 70
     0
 10
0.0
 20
0.0
 30
0.0
  3
*Model_Space
  1

  0
ENDBLK
  5
21
330
1F
100
AcDbEntity
  8
0
100
AcDbBlockEnd
  0
BLOCK
  5
1C
330
1B
100
AcDbEntity
 67
     1
  8
0
100
AcDbBlockBegin
  2
*Paper_Space
 70
     0
 10
0.0
 20
0.0
 30
0.0
  3
*Paper_Space
  1

  0
ENDBLK
  5
1D
330
1B
100
AcDbEntity
 67
     1
  8
0
100
AcDbBlockEnd
  0
BLOCK
  5
24
330
23
100
AcDbEntity
  8
0
100
AcDbBlockBegin
  2
*Paper_Space0
 70
     0
 10
0.0
 20
0.0
 30
0.0
  3
*Paper_Space0
  1

  0
ENDBLK
  5
25
330
23
100
AcDbEntity
  8
0
100
AcDbBlockEnd
  0
BLOCK
  5
7D
330
7B
100
AcDbEntity
  8
0
100
AcDbBlockBegin
  2
block 2
 70
     0
 10
0.0
 20
0.0
 30
0.0
  3
block 2
  1

  0
SPLINE
  5
7F
330
7B
100
AcDbEntity
  8
_U+30EC_U+30A4_U+30E4_U+30FC 1
370
     0
100
AcDbSpline
210
0.0
220
0.0
230
1.0
 70
    11
 71
     3
 72
    26
 73
    22
 74
     0
 42
0.0000000001
 43
0.0000000001
 12
1.0
 22
0.0
 32
0.0
 13
1.0
 23
0.0
 33
0.0
 40
0.0
 40
0.0
 40
0.0
 40
0.0
 40
1.0
 40
1.0
 40
1.0
 40
2.0
 40
2.0
 40
2.0
 40
3.0
 40
3.0
 40
3.0
 40
4.0
 40
4.0
 40
4.0
 40
5.0
 40
5.0
 40
5.0
 40
6.0
 40
6.0
 40
6.0
 40
7.0
 40
7.0
 40
7.0
 40
7.0
 10
87.9429524519726
 20
-137.1554524396695
 30
0.0
 10
87.9429524519726
 20
-137.1554524396695
 30
0.0
 10
87.9429524519726
 20
-136.0512993366469
 30
0.0
 10
87.9429524519726
 20
-136.0512993366469
 30
0.0
 10
87.9429524519726
 20
-136.0512993366469
 30
0.0
 10
87.59051918383155
 20
-136.0512993366469
 30
0.0
 10
87.59051918383155
 20
-136.0512993366469
 30
0.0
 10
87.59051918383155
 20
-136.0512993366469
 30
0.0
 10
87.59051918383155
 20
-135.9031602307812
 30
0.0
 10
87.59051918383155
 20
-135.9031602307812
 30
0.0
 10
87.94536401881227
 20
-135.8883463201946
 30
0.0
 10
87.99497339379987
 20
-135.7253933037423
 30
0.0
 10
88.02666827226417
 20
-135.611016133632
 30
0.0
 10
88.02666827226417
 20
-135.611016133632
 30
0.0
 10
88.18273109774599
 20
-135.611016133632
 30
0.0
 10
88.18273109774599
 20
-135.611016133632
 30
0.0
 10
88.18273109774599
 20
-135.611016133632
 30
0.0
 10
88.18273109774599
 20
-137.1554524396695
 30
0.0
 10
88.18273109774599
 20
-137.1554524396695
 30
0.0
 10
88.18273109774599
 20
-137.1554524396695
 30
0.0
 10
87.9429524519726
 20
-137.1554524396695
 30
0.0
 10
87.9429524519726
 20
-137.1554524396695
 30
0.0
  0
HATCH
  5
80
330
7B
100
AcDbEntity
  8
_U+30EC_U+30A4_U+30E4_U+30FC 1
 62
   179
420
  2234388
100
AcDbHatch
 10
0.0
 20
0.0
 30
0.0
210
0.0
220
0.0
230
1.0
  2
SOLID
 70
     1
 71
     0
 91
        1
 92
        1
 93
        1
 72
     4
 94
        3
 73
     0
 74
     1
 95
       26
 96
       22
 40
0.0
 40
0.0
 40
0.0
 40
0.0
 40
1.0
 40
1.0
 40
1.0
 40
2.0
 40
2.0
 40
2.0
 40
3.0
 40
3.0
 40
3.0
 40
4.0
 40
4.0
 40
4.0
 40
5.0
 40
5.0
 40
5.0
 40
6.0
 40
6.0
 40
6.0
 40
7.0
 40
7.0
 40
7.0
 40
7.0
 10
87.9429524519726
 20
-137.1554524396695
 10
87.9429524519726
 20
-137.1554524396695
 10
87.9429524519726
 20
-136.0512993366469
 10
87.9429524519726
 20
-136.0512993366469
 10
87.9429524519726
 20
-136.0512993366469
 10
87.59051918383155
 20
-136.0512993366469
 10
87.59051918383155
 20
-136.0512993366469
 10
87.59051918383155
 20
-136.0512993366469
 10
87.59051918383155
 20
-135.9031602307812
 10
87.59051918383155
 20
-135.9031602307812
 10
87.94536401881227
 20
-135.8883463201946
 10
87.99497339379987
 20
-135.7253933037423
 10
88.02666827226417
 20
-135.611016133632
 10
88.02666827226417
 20
-135.611016133632
 10
88.18273109774599
 20
-135.611016133632
 10
88.18273109774599
 20
-135.611016133632
 10
88.18273109774599
 20
-135.611016133632
 10
88.18273109774599
 20
-137.1554524396695
 10
88.18273109774599
 20
-137.1554524396695
 10
88.18273109774599
 20
-137.1554524396695
 10
87.9429524519726
 20
-137.1554524396695
 10
87.9429524519726
 20
-137.1554524396695
 97
        0
 97
        0
 75
     2
 76
     1
 98
        0
  0
SPLINE
  5
81
330
7B
100
AcDbEntity
  8
_U+30EC_U+30A4_U+30E4_U+30FC 1
370
     0
100
AcDbSpline
210
0.0
220
0.0
230
1.0
 70
    11
 71
     3
 72
    29
 73
    25
 74
     0
 42
0.0000000001
 43
0.0000000001
 12
1.0
 22
0.0
 32
0.0
 13
1.0
 23
0.0
 33
0.0
 40
0.0
 40
0.0
 40
0.0
 40
0.0
 40
1.0
 40
1.0
 40
1.0
 40
2.0
 40
2.0
 40
2.0
 40
3.0
 40
3.0
 40
3.0
 40
4.0
 40
4.0
 40
4.0
 40
5.0
 40
5.0
 40
5.0
 40
6.0
 40
6.0
 40
6.0
 40
7.0
 40
7.0
 40
7.0
 40
8.0
 40
8.0
 40
8.0
 40
8.0
 10
89.25277775546459
 20
-137.2060953433026
 30
0.0
 10
88.96786835883442
 20
-137.2060953433026
 30
0.0
 10
88.69673934414526
 20
-137.0686360334412
 30
0.0
 10
88.69673934414526
 20
-136.7196478607854
 30
0.0
 10
88.69673934414526
 20
-136.4636772662313
 30
0.0
 10
88.84832354549626
 20
-136.3685926308384
 30
0.0
 10
88.96132267741245
 20
-136.307269931201
 30
0.0
 10
88.82799748213328
 20
-136.2480142888547
 30
0.0
 10
88.74634871913287
 20
-136.1336371187444
 30
0.0
 10
88.74634871913287
 20
-135.9727511595832
 30
0.0
 10
88.74634871913287
 20
-135.6978325398603
 30
0.0
 10
88.95891111057277
 20
-135.5624402872899
 30
0.0
 10
89.25277775546459
 20
-135.5624402872899
 30
0.0
 10
89.55594615816658
 20
-135.5624402872899
 30
0.0
 10
89.75920679179632
 20
-135.7064452785734
 30
0.0
 10
89.75920679179632
 20
-135.9727511595832
 30
0.0
 10
89.75920679179632
 20
-136.1336371187444
 30
0.0
 10
89.67583548105327
 20
-136.2480142888547
 30
0.0
 10
89.54216577622557
 20
-136.307269931201
 30
0.0
 10
89.63725041161847
 20
-136.3579128348341
 30
0.0
 10
89.80674910949276
 20
-136.452997470227
 30
0.0
 10
89.80674910949276
 20
-136.7155137462031
 30
0.0
 10
89.80674910949276
 20
-137.0899956254497
 30
0.0
 10
89.50840384047012
 20
-137.2060953433026
 30
0.0
 10
89.25277775546459
 20
-137.2060953433026
 30
0.0
  0
SPLINE
  5
82
330
7B
100
AcDbEntity
  8
_U+30EC_U+30A4_U+30E4_U+30FC 1
370
     0
100
AcDbSpline
210
0.0
220
0.0
230
1.0
 70
    11
 71
     3
 72
    17
 73
    13
 74
     0
 42
0.0000000001
 43
0.0000000001
 12
1.0
 22
0.0
 32
0.0
 13
1.0
 23
0.0
 33
0.0
 40
0.0
 40
0.0
 40
0.0
 40
0.0
 40
1.0
 40
1.0
 40
1.0
 40
2.0
 40
2.0
 40
2.0
 40
3.0
 40
3.0
 40
3.0
 40
4.0
 40
4.0
 40
4.0
 40
4.0
 10
89.25277775546459
 20
-136.4151014198893
 30
0.0
 10
89.09912649682245
 20
-136.4151014198893
 30
0.0
 10
88.93651798991866
 20
-136.5019178261176
 30
0.0
 10
88.93651798991866
 20
-136.7048339501988
 30
0.0
 10
88.93651798991866
 20
-136.9101616411197
 30
0.0
 10
89.07191024248897
 20
-137.011447448386
 30
0.0
 10
89.25277775546459
 20
-137.011447448386
 30
0.0
 10
89.45190427451203
 20
-137.011447448386
 30
0.0
 10
89.56938203055904
 20
-136.8888020491111
 30
0.0
 10
89.56938203055904
 20
-136.7110351220722
 30
0.0
 10
89.56938203055904
 20
-136.4891709728222
 30
0.0
 10
89.39540470855393
 20
-136.4151014198893
 30
0.0
 10
89.25277775546459
 20
-136.4151014198893
 30
0.0
  0
SPLINE
  5
83
330
7B
100
AcDbEntity
  8
_U+30EC_U+30A4_U+30E4_U+30FC 1
370
     0
100
AcDbSpline
210
0.0
220
0.0
230
1.0
 70
    11
 71
     3
 72
    17
 73
    13
 74
     0
 42
0.0000000001
 43
0.0000000001
 12
1.0
 22
0.0
 32
0.0
 13
1.0
 23
0.0
 33
0.0
 40
0.0
 40
0.0
 40
0.0
 40
0.0
 40
1.0
 40
1.0
 40
1.0
 40
2.0
 40
2.0
 40
2.0
 40
3.0
 40
3.0
 40
3.0
 40
4.0
 40
4.0
 40
4.0
 40
4.0
 10
89.25277775546459
 20
-135.7550211249154
 30
0.0
 10
89.07673337616832
 20
-135.7550211249154
 30
0.0
 10
88.98612736490625
 20
-135.8501057603083
 30
0.0
 10
88.98612736490625
 20
-135.9854980128786
 30
0.0
 10
88.98612736490625
 20
-136.1081434121535
 30
0.0
 10
89.06295299422732
 20
-136.2266546968461
 30
0.0
 10
89.25277775546459
 20
-136.2266546968461
 30
0.0
 10
89.44294702625038
 20
-136.2266546968461
 30
0.0
 10
89.51977265557144
 20
-136.1081434121535
 30
0.0
 10
89.51977265557144
 20
-135.9854980128786
 30
0.0
 10
89.51977265557144
 20
-135.8501057603083
 30
0.0
 10
89.42709958701823
 20
-135.7550211249154
 30
0.0
 10
89.25277775546459
 20
-135.7550211249154
 30
0.0
  0
HATCH
  5
84
330
7B
100
AcDbEntity
  8
_U+30EC_U+30A4_U+30E4_U+30FC 1
 62
   179
420
  2234388
100
AcDbHatch
 10
0.0
 20
0.0
 30
0.0
210
0.0
220
0.0
230
1.0
  2
SOLID
 70
     1
 71
     0
 91
        3
 92
        1
 93
        1
 72
     4
 94
        3
 73
     0
 74
     1
 95
       29
 96
       25
 40
0.0
 40
0.0
 40
0.0
 40
0.0
 40
1.0
 40
1.0
 40
1.0
 40
2.0
 40
2.0
 40
2.0
 40
3.0
 40
3.0
 40
3.0
 40
4.0
 40
4.0
 40
4.0
 40
5.0
 40
5.0
 40
5.0
 40
6.0
 40
6.0
 40
6.0
 40
7.0
 40
7.0
 40
7.0
 40
8.0
 40
8.0
 40
8.0
 40
8.0
 10
89.25277775546459
 20
-137.2060953433026
 10
88.96786835883442
 20
-137.2060953433026
 10
88.69673934414526
 20
-137.0686360334412
 10
88.69673934414526
 20
-136.7196478607854
 10
88.69673934414526
 20
-136.4636772662313
 10
88.84832354549626
 20
-136.3685926308384
 10
88.96132267741245
 20
-136.307269931201
 10
88.82799748213328
 20
-136.2480142888547
 10
88.74634871913287
 20
-136.1336371187444
 10
88.74634871913287
 20
-135.9727511595832
 10
88.74634871913287
 20
-135.6978325398603
 10
88.95891111057277
 20
-135.5624402872899
 10
89.25277775546459
 20
-135.5624402872899
 10
89.55594615816658
 20
-135.5624402872899
 10
89.75920679179632
 20
-135.7064452785734
 10
89.75920679179632
 20
-135.9727511595832
 10
89.75920679179632
 20
-136.1336371187444
 10
89.67583548105327
 20
-136.2480142888547
 10
89.54216577622557
 20
-136.307269931201
 10
89.63725041161847
 20
-136.3579128348341
 10
89.80674910949276
 20
-136.452997470227
 10
89.80674910949276
 20
-136.7155137462031
 10
89.80674910949276
 20
-137.0899956254497
 10
89.50840384047012
 20
-137.2060953433026
 10
89.25277775546459
 20
-137.2060953433026
 97
        0
 97
        0
 92
        1
 93
        1
 72
     4
 94
        3
 73
     0
 74
     1
 95
       17
 96
       13
 40
0.0
 40
0.0
 40
0.0
 40
0.0
 40
1.0
 40
1.0
 40
1.0
 40
2.0
 40
2.0
 40
2.0
 40
3.0
 40
3.0
 40
3.0
 40
4.0
 40
4.0
 40
4.0
 40
4.0
 10
89.25277775546459
 20
-136.4151014198893
 10
89.09912649682245
 20
-136.4151014198893
 10
88.93651798991866
 20
-136.5019178261176
 10
88.93651798991866
 20
-136.7048339501988
 10
88.93651798991866
 20
-136.9101616411197
 10
89.07191024248897
 20
-137.011447448386
 10
89.25277775546459
 20
-137.011447448386
 10
89.45190427451203
 20
-137.011447448386
 10
89.56938203055904
 20
-136.8888020491111
 10
89.56938203055904
 20
-136.7110351220722
 10
89.56938203055904
 20
-136.4891709728222
 10
89.39540470855393
 20
-136.4151014198893
 10
89.25277775546459
 20
-136.4151014198893
 97
        0
 97
        0
 92
        1
 93
        1
 72
     4
 94
        3
 73
     0
 74
     1
 95
       17
 96
       13
 40
0.0
 40
0.0
 40
0.0
 40
0.0
 40
1.0
 40
1.0
 40
1.0
 40
2.0
 40
2.0
 40
2.0
 40
3.0
 40
3.0
 40
3.0
 40
4.0
 40
4.0
 40
4.0
 40
4.0
 10
89.25277775546459
 20
-135.7550211249154
 10
89.07673337616832
 20
-135.7550211249154
 10
88.98612736490625
 20
-135.8501057603083
 10
88.98612736490625
 20
-135.9854980128786
 10
88.98612736490625
 20
-136.1081434121535
 10
89.06295299422732
 20
-136.2266546968461
 10
89.25277775546459
 20
-136.2266546968461
 10
89.44294702625038
 20
-136.2266546968461
 10
89.51977265557144
 20
-136.1081434121535
 10
89.51977265557144
 20
-135.9854980128786
 10
89.51977265557144
 20
-135.8501057603083
 10
89.42709958701823
 20
-135.7550211249154
 10
89.25277775546459
 20
-135.7550211249154
 97
        0
 97
        0
 75
     2
 76
     1
 98
        0
  0
ENDBLK
  5
7E
330
7B
100
AcDbEntity
  8
0
100
AcDbBlockEnd
  0
BLOCK
  5
93
330
91
100
AcDbEntity
  8
0
100
AcDbBlockBegin
  2
block 3
 70
     0
 10
0.0
 20
0.0
 30
0.0
  3
block 3
  1

  0
SPLINE
  5
95
330
91
100
AcDbEntity
  8
_U+30EC_U+30A4_U+30E4_U+30FC 1
370
     0
100
AcDbSpline
210
0.0
220
0.0
230
1.0
 70
    11
 71
     3
 72
    29
 73
    25
 74
     0
 42
0.0000000001
 43
0.0000000001
 12
1.0
 22
0.0
 32
0.0
 13
1.0
 23
0.0
 33
0.0
 40
0.0
 40
0.0
 40
0.0
 40
0.0
 40
1.0
 40
1.0
 40
1.0
 40
2.0
 40
2.0
 40
2.0
 40
3.0
 40
3.0
 40
3.0
 40
4.0
 40
4.0
 40
4.0
 40
5.0
 40
5.0
 40
5.0
 40
6.0
 40
6.0
 40
6.0
 40
7.0
 40
7.0
 40
7.0
 40
8.0
 40
8.0
 40
8.0
 40
8.0
 10
83.66190454722688
 20
-120.5559488630902
 30
0.0
 10
83.37699515059673
 20
-120.5559488630902
 30
0.0
 10
83.1056938811333
 20
-120.4183172984545
 30
0.0
 10
83.1056938811333
 20
-120.0693291257986
 30
0.0
 10
83.1056938811333
 20
-119.8133585312446
 30
0.0
 10
83.25710582771003
 20
-119.7181016410774
 30
0.0
 10
83.37027721440049
 20
-119.65677894144
 30
0.0
 10
83.23677976434706
 20
-119.5975232990937
 30
0.0
 10
83.15547551089516
 20
-119.4833183837576
 30
0.0
 10
83.15547551089516
 20
-119.3226046793707
 30
0.0
 10
83.15547551089516
 20
-119.0475138048735
 30
0.0
 10
83.36786564756082
 20
-118.9121215523032
 30
0.0
 10
83.66190454722688
 20
-118.9121215523032
 30
0.0
 10
83.96490069515461
 20
-118.9121215523032
 30
0.0
 10
84.16833358355862
 20
-119.0559542888124
 30
0.0
 10
84.16833358355862
 20
-119.3226046793707
 30
0.0
 10
84.16833358355862
 20
-119.4833183837576
 30
0.0
 10
84.08461776326705
 20
-119.5975232990937
 30
0.0
 10
83.95129256798788
 20
-119.65677894144
 30
0.0
 10
84.0462049486065
 20
-119.7075940998474
 30
0.0
 10
84.2157036464808
 20
-119.8028509900146
 30
0.0
 10
84.2157036464808
 20
-120.0650227564421
 30
0.0
 10
84.2157036464808
 20
-120.4395046356887
 30
0.0
 10
83.91735837745816
 20
-120.5559488630902
 30
0.0
 10
83.66190454722688
 20
-120.5559488630902
 30
0.0
  0
SPLINE
  5
96
330
91
100
AcDbEntity
  8
_U+30EC_U+30A4_U+30E4_U+30FC 1
370
     0
100
AcDbSpline
210
0.0
220
0.0
230
1.0
 70
    11
 71
     3
 72
    17
 73
    13
 74
     0
 42
0.0000000001
 43
0.0000000001
 12
1.0
 22
0.0
 32
0.0
 13
1.0
 23
0.0
 33
0.0
 40
0.0
 40
0.0
 40
0.0
 40
0.0
 40
1.0
 40
1.0
 40
1.0
 40
2.0
 40
2.0
 40
2.0
 40
3.0
 40
3.0
 40
3.0
 40
4.0
 40
4.0
 40
4.0
 40
4.0
 10
83.66190454722688
 20
-119.7647826849026
 30
0.0
 10
83.50808103381048
 20
-119.7647826849026
 30
0.0
 10
83.34530027213243
 20
-119.8514268363566
 30
0.0
 10
83.34530027213243
 20
-120.0545152152121
 30
0.0
 10
83.34530027213243
 20
-120.2596706513587
 30
0.0
 10
83.48103703425127
 20
-120.3613009681736
 30
0.0
 10
83.66190454722688
 20
-120.3613009681736
 30
0.0
 10
83.86085881150007
 20
-120.3613009681736
 30
0.0
 10
83.97833656754709
 20
-120.2386555688987
 30
0.0
 10
83.97833656754709
 20
-120.0608886418598
 30
0.0
 10
83.97833656754709
 20
-119.8386799830612
 30
0.0
 10
83.80435924554197
 20
-119.7647826849026
 30
0.0
 10
83.66190454722688
 20
-119.7647826849026
 30
0.0
  0
SPLINE
  5
97
330
91
100
AcDbEntity
  8
_U+30EC_U+30A4_U+30E4_U+30FC 1
370
     0
100
AcDbSpline
210
0.0
220
0.0
230
1.0
 70
    11
 71
     3
 72
    17
 73
    13
 74
     0
 42
0.0000000001
 43
0.0000000001
 12
1.0
 22
0.0
 32
0.0
 13
1.0
 23
0.0
 33
0.0
 40
0.0
 40
0.0
 40
0.0
 40
0.0
 40
1.0
 40
1.0
 40
1.0
 40
2.0
 40
2.0
 40
2.0
 40
3.0
 40
3.0
 40
3.0
 40
4.0
 40
4.0
 40
4.0
 40
4.0
 10
83.66190454722688
 20
-119.1047023899287
 30
0.0
 10
83.4855156583821
 20
-119.1047023899287
 30
0.0
 10
83.39508190189429
 20
-119.1997870253216
 30
0.0
 10
83.39508190189429
 20
-119.3351792778919
 30
0.0
 10
83.39508190189429
 20
-119.4579969319411
 30
0.0
 10
83.47190753121536
 20
-119.5765082166337
 30
0.0
 10
83.66190454722688
 20
-119.5765082166337
 30
0.0
 10
83.85172930846416
 20
-119.5765082166337
 30
0.0
 10
83.92872719255949
 20
-119.4579969319411
 30
0.0
 10
83.92872719255949
 20
-119.3351792778919
 30
0.0
 10
83.92872719255949
 20
-119.1997870253216
 30
0.0
 10
83.83588186923201
 20
-119.1047023899287
 30
0.0
 10
83.66190454722688
 20
-119.1047023899287
 30
0.0
  0
HATCH
  5
98
330
91
100
AcDbEntity
  8
_U+30EC_U+30A4_U+30E4_U+30FC 1
 62
   179
420
  2234388
100
AcDbHatch
 10
0.0
 20
0.0
 30
0.0
210
0.0
220
0.0
230
1.0
  2
SOLID
 70
     1
 71
     0
 91
        3
 92
        1
 93
        1
 72
     4
 94
        3
 73
     0
 74
     1
 95
       29
 96
       25
 40
0.0
 40
0.0
 40
0.0
 40
0.0
 40
1.0
 40
1.0
 40
1.0
 40
2.0
 40
2.0
 40
2.0
 40
3.0
 40
3.0
 40
3.0
 40
4.0
 40
4.0
 40
4.0
 40
5.0
 40
5.0
 40
5.0
 40
6.0
 40
6.0
 40
6.0
 40
7.0
 40
7.0
 40
7.0
 40
8.0
 40
8.0
 40
8.0
 40
8.0
 10
83.66190454722688
 20
-120.5559488630902
 10
83.37699515059673
 20
-120.5559488630902
 10
83.1056938811333
 20
-120.4183172984545
 10
83.1056938811333
 20
-120.0693291257986
 10
83.1056938811333
 20
-119.8133585312446
 10
83.25710582771003
 20
-119.7181016410774
 10
83.37027721440049
 20
-119.65677894144
 10
83.23677976434706
 20
-119.5975232990937
 10
83.15547551089516
 20
-119.4833183837576
 10
83.15547551089516
 20
-119.3226046793707
 10
83.15547551089516
 20
-119.0475138048735
 10
83.36786564756082
 20
-118.9121215523032
 10
83.66190454722688
 20
-118.9121215523032
 10
83.96490069515461
 20
-118.9121215523032
 10
84.16833358355862
 20
-119.0559542888124
 10
84.16833358355862
 20
-119.3226046793707
 10
84.16833358355862
 20
-119.4833183837576
 10
84.08461776326705
 20
-119.5975232990937
 10
83.95129256798788
 20
-119.65677894144
 10
84.0462049486065
 20
-119.7075940998474
 10
84.2157036464808
 20
-119.8028509900146
 10
84.2157036464808
 20
-120.0650227564421
 10
84.2157036464808
 20
-120.4395046356887
 10
83.91735837745816
 20
-120.5559488630902
 10
83.66190454722688
 20
-120.5559488630902
 97
        0
 97
        0
 92
        1
 93
        1
 72
     4
 94
        3
 73
     0
 74
     1
 95
       17
 96
       13
 40
0.0
 40
0.0
 40
0.0
 40
0.0
 40
1.0
 40
1.0
 40
1.0
 40
2.0
 40
2.0
 40
2.0
 40
3.0
 40
3.0
 40
3.0
 40
4.0
 40
4.0
 40
4.0
 40
4.0
 10
83.66190454722688
 20
-119.7647826849026
 10
83.50808103381048
 20
-119.7647826849026
 10
83.34530027213243
 20
-119.8514268363566
 10
83.34530027213243
 20
-120.0545152152121
 10
83.34530027213243
 20
-120.2596706513587
 10
83.48103703425127
 20
-120.3613009681736
 10
83.66190454722688
 20
-120.3613009681736
 10
83.86085881150007
 20
-120.3613009681736
 10
83.97833656754709
 20
-120.2386555688987
 10
83.97833656754709
 20
-120.0608886418598
 10
83.97833656754709
 20
-119.8386799830612
 10
83.80435924554197
 20
-119.7647826849026
 10
83.66190454722688
 20
-119.7647826849026
 97
        0
 97
        0
 92
        1
 93
        1
 72
     4
 94
        3
 73
     0
 74
     1
 95
       17
 96
       13
 40
0.0
 40
0.0
 40
0.0
 40
0.0
 40
1.0
 40
1.0
 40
1.0
 40
2.0
 40
2.0
 40
2.0
 40
3.0
 40
3.0
 40
3.0
 40
4.0
 40
4.0
 40
4.0
 40
4.0
 10
83.66190454722688
 20
-119.1047023899287
 10
83.4855156583821
 20
-119.1047023899287
 10
83.39508190189429
 20
-119.1997870253216
 10
83.39508190189429
 20
-119.3351792778919
 10
83.39508190189429
 20
-119.4579969319411
 10
83.47190753121536
 20
-119.5765082166337
 10
83.66190454722688
 20
-119.5765082166337
 10
83.85172930846416
 20
-119.5765082166337
 10
83.92872719255949
 20
-119.4579969319411
 10
83.92872719255949
 20
-119.3351792778919
 10
83.92872719255949
 20
-119.1997870253216
 10
83.83588186923201
 20
-119.1047023899287
 10
83.66190454722688
 20
-119.1047023899287
 97
        0
 97
        0
 75
     2
 76
     1
 98
        0
  0
ENDBLK
  5
94
330
91
100
AcDbEntity
  8
0
100
AcDbBlockEnd
  0
BLOCK
  5
A7
330
A5
100
AcDbEntity
  8
0
100
AcDbBlockBegin
  2
block 4
 70
     0
 10
0.0
 20
0.0
 30
0.0
  3
block 4
  1

  0
SPLINE
  5
A9
330
A5
100
AcDbEntity
  8
_U+30EC_U+30A4_U+30E4_U+30FC 1
370
     0
100
AcDbSpline
210
0.0
220
0.0
230
1.0
 70
    11
 71
     3
 72
    32
 73
    28
 74
     0
 42
0.0000000001
 43
0.0000000001
 12
1.0
 22
0.0
 32
0.0
 13
1.0
 23
0.0
 33
0.0
 40
0.0
 40
0.0
 40
0.0
 40
0.0
 40
1.0
 40
1.0
 40
1.0
 40
2.0
 40
2.0
 40
2.0
 40
3.0
 40
3.0
 40
3.0
 40
4.0
 40
4.0
 40
4.0
 40
5.0
 40
5.0
 40
5.0
 40
6.0
 40
6.0
 40
6.0
 40
7.0
 40
7.0
 40
7.0
 40
8.0
 40
8.0
 40
8.0
 40
9.0
 40
9.0
 40
9.0
 40
9.0
 10
100.4996364766112
 20
-130.2714626410433
 30
0.0
 10
100.4996364766112
 20
-130.8233669377803
 30
0.0
 10
99.94566512258304
 20
-130.8323241860419
 30
0.0
 10
99.73172469294902
 20
-130.8323241860419
 30
0.0
 10
99.50124780498581
 20
-130.8323241860419
 30
0.0
 10
98.85391436330735
 20
-130.8119981226789
 30
0.0
 10
98.85391436330735
 20
-130.2308105143173
 30
0.0
 10
98.85391436330735
 20
-130.0454643772109
 30
0.0
 10
98.92384980165794
 20
-129.7832926107833
 30
0.0
 10
99.25595700643602
 20
-129.7426404840574
 30
0.0
 10
99.25595700643602
 20
-129.7426404840574
 30
0.0
 10
99.25595700643602
 20
-129.9710503147295
 30
0.0
 10
99.25595700643602
 20
-129.9710503147295
 30
0.0
 10
99.19876842138086
 20
-129.9820746202823
 30
0.0
 10
99.05062931551512
 20
-130.0161810655862
 30
0.0
 10
99.05062931551512
 20
-130.233222081157
 30
0.0
 10
99.05062931551512
 20
-130.5453477321206
 30
0.0
 10
99.37860240571091
 20
-130.5880669161377
 30
0.0
 10
99.58358558708328
 20
-130.6018472980787
 30
0.0
 10
99.50538191956811
 20
-130.502284038555
 30
0.0
 10
99.44612627722181
 20
-130.4299370333648
 30
0.0
 10
99.44612627722181
 20
-130.2356336479967
 30
0.0
 10
99.44612627722181
 20
-130.0433973199197
 30
0.0
 10
99.55430227545865
 20
-129.7199028538548
 30
0.0
 10
99.9604790331696
 20
-129.7199028538548
 30
0.0
 10
100.2798393846523
 20
-129.7199028538548
 30
0.0
 10
100.4996364766112
 20
-129.9324652452947
 30
0.0
 10
100.4996364766112
 20
-130.2714626410433
 30
0.0
  0
SPLINE
  5
AA
330
A5
100
AcDbEntity
  8
_U+30EC_U+30A4_U+30E4_U+30FC 1
370
     0
100
AcDbSpline
210
0.0
220
0.0
230
1.0
 70
    11
 71
     3
 72
    17
 73
    13
 74
     0
 42
0.0000000001
 43
0.0000000001
 12
1.0
 22
0.0
 32
0.0
 13
1.0
 23
0.0
 33
0.0
 40
0.0
 40
0.0
 40
0.0
 40
0.0
 40
1.0
 40
1.0
 40
1.0
 40
2.0
 40
2.0
 40
2.0
 40
3.0
 40
3.0
 40
3.0
 40
4.0
 40
4.0
 40
4.0
 40
4.0
 10
99.64077417213842
 20
-130.25354814452
 30
0.0
 10
99.64077417213842
 20
-130.5339789170193
 30
0.0
 10
99.85230303493276
 20
-130.5746310437452
 30
0.0
 10
99.9687472623342
 20
-130.5746310437452
 30
0.0
 10
100.144447132082
 20
-130.5746310437452
 30
0.0
 10
100.3074001485343
 20
-130.4730007269304
 30
0.0
 10
100.3074001485343
 20
-130.2762857747226
 30
0.0
 10
100.3074001485343
 20
-130.1474392035743
 30
0.0
 10
100.248144506188
 20
-129.9596814996281
 30
0.0
 10
99.96254609046076
 20
-129.9596814996281
 30
0.0
 10
99.738270374371
 20
-129.9596814996281
 30
0.0
 10
99.64077417213842
 20
-130.1088541341394
 30
0.0
 10
99.64077417213842
 20
-130.25354814452
 30
0.0
  0
HATCH
  5
AB
330
A5
100
AcDbEntity
  8
_U+30EC_U+30A4_U+30E4_U+30FC 1
 62
   179
420
  2234388
100
AcDbHatch
 10
0.0
 20
0.0
 30
0.0
210
0.0
220
0.0
230
1.0
  2
SOLID
 70
     1
 71
     0
 91
        2
 92
        1
 93
        1
 72
     4
 94
        3
 73
     0
 74
     1
 95
       32
 96
       28
 40
0.0
 40
0.0
 40
0.0
 40
0.0
 40
1.0
 40
1.0
 40
1.0
 40
2.0
 40
2.0
 40
2.0
 40
3.0
 40
3.0
 40
3.0
 40
4.0
 40
4.0
 40
4.0
 40
5.0
 40
5.0
 40
5.0
 40
6.0
 40
6.0
 40
6.0
 40
7.0
 40
7.0
 40
7.0
 40
8.0
 40
8.0
 40
8.0
 40
9.0
 40
9.0
 40
9.0
 40
9.0
 10
100.4996364766112
 20
-130.2714626410433
 10
100.4996364766112
 20
-130.8233669377803
 10
99.94566512258304
 20
-130.8323241860419
 10
99.73172469294902
 20
-130.8323241860419
 10
99.50124780498581
 20
-130.8323241860419
 10
98.85391436330735
 20
-130.8119981226789
 10
98.85391436330735
 20
-130.2308105143173
 10
98.85391436330735
 20
-130.0454643772109
 10
98.92384980165794
 20
-129.7832926107833
 10
99.25595700643602
 20
-129.7426404840574
 10
99.25595700643602
 20
-129.7426404840574
 10
99.25595700643602
 20
-129.9710503147295
 10
99.25595700643602
 20
-129.9710503147295
 10
99.19876842138086
 20
-129.9820746202823
 10
99.05062931551512
 20
-130.0161810655862
 10
99.05062931551512
 20
-130.233222081157
 10
99.05062931551512
 20
-130.5453477321206
 10
99.37860240571091
 20
-130.5880669161377
 10
99.58358558708328
 20
-130.6018472980787
 10
99.50538191956811
 20
-130.502284038555
 10
99.44612627722181
 20
-130.4299370333648
 10
99.44612627722181
 20
-130.2356336479967
 10
99.44612627722181
 20
-130.0433973199197
 10
99.55430227545865
 20
-129.7199028538548
 10
99.9604790331696
 20
-129.7199028538548
 10
100.2798393846523
 20
-129.7199028538548
 10
100.4996364766112
 20
-129.9324652452947
 10
100.4996364766112
 20
-130.2714626410433
 97
        0
 97
        0
 92
        1
 93
        1
 72
     4
 94
        3
 73
     0
 74
     1
 95
       17
 96
       13
 40
0.0
 40
0.0
 40
0.0
 40
0.0
 40
1.0
 40
1.0
 40
1.0
 40
2.0
 40
2.0
 40
2.0
 40
3.0
 40
3.0
 40
3.0
 40
4.0
 40
4.0
 40
4.0
 40
4.0
 10
99.64077417213842
 20
-130.25354814452
 10
99.64077417213842
 20
-130.5339789170193
 10
99.85230303493276
 20
-130.5746310437452
 10
99.9687472623342
 20
-130.5746310437452
 10
100.144447132082
 20
-130.5746310437452
 10
100.3074001485343
 20
-130.4730007269304
 10
100.3074001485343
 20
-130.2762857747226
 10
100.3074001485343
 20
-130.1474392035743
 10
100.248144506188
 20
-129.9596814996281
 10
99.96254609046076
 20
-129.9596814996281
 10
99.738270374371
 20
-129.9596814996281
 10
99.64077417213842
 20
-130.1088541341394
 10
99.64077417213842
 20
-130.25354814452
 97
        0
 97
        0
 75
     2
 76
     1
 98
        0
  0
POLYLINE
  5
AC
330
A5
100
AcDbEntity
  8
_U+30EC_U+30A4_U+30E4_U+30FC 1
370
     0
100
AcDb2dPolyline
 66
     1
 10
0.0
 20
0.0
 30
0.0
  0
VERTEX
  5
AD
330
AC
100
AcDbEntity
  8
_U+30EC_U+30A4_U+30E4_U+30FC 1
370
     0
100
AcDbVertex
100
AcDb2dVertex
 10
100.448993572978
 20
-129.4887369467945
 30
0.0
  0
VERTEX
  5
AE
330
AC
100
AcDbEntity
  8
_U+30EC_U+30A4_U+30E4_U+30FC 1
370
     0
100
AcDbVertex
100
AcDb2dVertex
 10
100.1971570930063
 20
-129.4887369467945
 30
0.0
  0
VERTEX
  5
AF
330
AC
100
AcDbEntity
  8
_U+30EC_U+30A4_U+30E4_U+30FC 1
370
     0
100
AcDbVertex
100
AcDb2dVertex
 10
100.1971570930063
 20
-129.2196749893965
 30
0.0
  0
VERTEX
  5
B0
330
AC
100
AcDbEntity
  8
_U+30EC_U+30A4_U+30E4_U+30FC 1
370
     0
100
AcDbVertex
100
AcDb2dVertex
 10
100.448993572978
 20
-129.2196749893965
 30
0.0
  0
VERTEX
  5
B1
330
AC
100
AcDbEntity
  8
_U+30EC_U+30A4_U+30E4_U+30FC 1
370
     0
100
AcDbVertex
100
AcDb2dVertex
 10
100.448993572978
 20
-129.4887369467945
 30
0.0
  0
SEQEND
  5
B2
330
AC
100
AcDbEntity
  8
_U+30EC_U+30A4_U+30E4_U+30FC 1
370
     0
  0
HATCH
  5
B3
330
A5
100
AcDbEntity
  8
_U+30EC_U+30A4_U+30E4_U+30FC 1
 62
   179
420
  2234388
100
AcDbHatch
 10
0.0
 20
0.0
 30
0.0
210
0.0
220
0.0
230
1.0
  2
SOLID
 70
     1
 71
     0
 91
        1
 92
        1
 93
        4
 72
     1
 10
100.448993572978
 20
-129.4887369467945
 11
100.1971570930063
 21
-129.4887369467945
 72
     1
 10
100.1971570930063
 20
-129.4887369467945
 11
100.1971570930063
 21
-129.2196749893965
 72
     1
 10
100.1971570930063
 20
-129.2196749893965
 11
100.448993572978
 21
-129.2196749893965
 72
     1
 10
100.448993572978
 20
-129.2196749893965
 11
100.448993572978
 21
-129.4887369467945
 97
        0
 75
     2
 76
     1
 98
        0
  0
SPLINE
  5
B4
330
A5
100
AcDbEntity
  8
_U+30EC_U+30A4_U+30E4_U+30FC 1
370
     0
100
AcDbSpline
210
0.0
220
0.0
230
1.0
 70
    11
 71
     3
 72
    53
 73
    49
 74
     0
 42
0.0000000001
 43
0.0000000001
 12
1.0
 22
0.0
 32
0.0
 13
1.0
 23
0.0
 33
0.0
 40
0.0
 40
0.0
 40
0.0
 40
0.0
 40
1.0
 40
1.0
 40
1.0
 40
2.0
 40
2.0
 40
2.0
 40
3.0
 40
3.0
 40
3.0
 40
4.0
 40
4.0
 40
4.0
 40
5.0
 40
5.0
 40
5.0
 40
6.0
 40
6.0
 40
6.0
 40
7.0
 40
7.0
 40
7.0
 40
8.0
 40
8.0
 40
8.0
 40
9.0
 40
9.0
 40
9.0
 40
10.0
 40
10.0
 40
10.0
 40
11.0
 40
11.0
 40
11.0
 40
12.0
 40
12.0
 40
12.0
 40
13.0
 40
13.0
 40
13.0
 40
14.0
 40
14.0
 40
14.0
 40
15.0
 40
15.0
 40
15.0
 40
16.0
 40
16.0
 40
16.0
 40
16.0
 10
100.4996364766112
 20
-128.4527967343799
 30
0.0
 10
100.4996364766112
 20
-128.5365125546714
 30
0.0
 10
100.4827555087335
 20
-128.6446885529083
 30
0.0
 10
100.4193657518049
 20
-128.7535535702422
 30
0.0
 10
100.3094672058254
 20
-128.9388997073486
 30
0.0
 10
100.1782090678374
 20
-128.9612928280027
 30
0.0
 10
100.0703775791491
 20
-128.9816188913657
 30
0.0
 10
100.0703775791491
 20
-128.9816188913657
 30
0.0
 10
100.0703775791491
 20
-128.744251812432
 30
0.0
 10
100.0703775791491
 20
-128.744251812432
 30
0.0
 10
100.269159588648
 20
-128.6856851891827
 30
0.0
 10
100.2987874098211
 20
-128.5499484270639
 30
0.0
 10
100.2987874098211
 20
-128.4503851675402
 30
0.0
 10
100.2987874098211
 20
-128.3012125330289
 30
0.0
 10
100.1992241502974
 20
-128.1382595165765
 30
0.0
 10
99.96668020504306
 20
-128.1382595165765
 30
0.0
 10
99.71070961048899
 20
-128.1382595165765
 30
0.0
 10
99.64077417213842
 20
-128.3304958446535
 30
0.0
 10
99.64077417213842
 20
-128.4593424158018
 30
0.0
 10
99.64077417213842
 20
-128.4934488611058
 30
0.0
 10
99.64077417213842
 20
-128.6446885529083
 30
0.0
 10
99.76996525283529
 20
-128.7397731883012
 30
0.0
 10
99.76996525283529
 20
-128.7397731883012
 30
0.0
 10
99.75101722766642
 20
-128.9275308922473
 30
0.0
 10
99.75101722766642
 20
-128.9275308922473
 30
0.0
 10
99.75101722766642
 20
-128.9275308922473
 30
0.0
 10
98.90455726694053
 20
-128.7986843210989
 30
0.0
 10
98.90455726694053
 20
-128.7986843210989
 30
0.0
 10
98.90455726694053
 20
-128.7986843210989
 30
0.0
 10
98.90455726694053
 20
-127.9666937614111
 30
0.0
 10
98.90455726694053
 20
-127.9666937614111
 30
0.0
 10
98.90455726694053
 20
-127.9666937614111
 30
0.0
 10
99.09920516185714
 20
-127.9666937614111
 30
0.0
 10
99.09920516185714
 20
-127.9666937614111
 30
0.0
 10
99.09920516185714
 20
-127.9666937614111
 30
0.0
 10
99.09920516185714
 20
-128.6243624895453
 30
0.0
 10
99.09920516185714
 20
-128.6243624895453
 30
0.0
 10
99.09920516185714
 20
-128.6243624895453
 30
0.0
 10
99.52226288744583
 20
-128.6946424374444
 30
0.0
 10
99.52226288744583
 20
-128.6946424374444
 30
0.0
 10
99.48850095169038
 20
-128.6291856232247
 30
0.0
 10
99.44819333451295
 20
-128.5409911788022
 30
0.0
 10
99.44819333451295
 20
-128.4142116649451
 30
0.0
 10
99.44819333451295
 20
-128.1430826502559
 30
0.0
 10
99.63457300026498
 20
-127.88986813209
 30
0.0
 10
99.94773217987418
 20
-127.88986813209
 30
0.0
 10
100.2650254740657
 20
-127.88986813209
 30
0.0
 10
100.4996364766112
 20
-128.1293022683149
 30
0.0
 10
100.4996364766112
 20
-128.4527967343799
 30
0.0
  0
HATCH
  5
B5
330
A5
100
AcDbEntity
  8
_U+30EC_U+30A4_U+30E4_U+30FC 1
 62
   179
420
  2234388
100
AcDbHatch
 10
0.0
 20
0.0
 30
0.0
210
0.0
220
0.0
230
1.0
  2
SOLID
 70
     1
 71
     0
 91
        1
 92
        1
 93
        1
 72
     4
 94
        3
 73
     0
 74
     1
 95
       53
 96
       49
 40
0.0
 40
0.0
 40
0.0
 40
0.0
 40
1.0
 40
1.0
 40
1.0
 40
2.0
 40
2.0
 40
2.0
 40
3.0
 40
3.0
 40
3.0
 40
4.0
 40
4.0
 40
4.0
 40
5.0
 40
5.0
 40
5.0
 40
6.0
 40
6.0
 40
6.0
 40
7.0
 40
7.0
 40
7.0
 40
8.0
 40
8.0
 40
8.0
 40
9.0
 40
9.0
 40
9.0
 40
10.0
 40
10.0
 40
10.0
 40
11.0
 40
11.0
 40
11.0
 40
12.0
 40
12.0
 40
12.0
 40
13.0
 40
13.0
 40
13.0
 40
14.0
 40
14.0
 40
14.0
 40
15.0
 40
15.0
 40
15.0
 40
16.0
 40
16.0
 40
16.0
 40
16.0
 10
100.4996364766112
 20
-128.4527967343799
 10
100.4996364766112
 20
-128.5365125546714
 10
100.4827555087335
 20
-128.6446885529083
 10
100.4193657518049
 20
-128.7535535702422
 10
100.3094672058254
 20
-128.9388997073486
 10
100.1782090678374
 20
-128.9612928280027
 10
100.0703775791491
 20
-128.9816188913657
 10
100.0703775791491
 20
-128.9816188913657
 10
100.0703775791491
 20
-128.744251812432
 10
100.0703775791491
 20
-128.744251812432
 10
100.269159588648
 20
-128.6856851891827
 10
100.2987874098211
 20
-128.5499484270639
 10
100.2987874098211
 20
-128.4503851675402
 10
100.2987874098211
 20
-128.3012125330289
 10
100.1992241502974
 20
-128.1382595165765
 10
99.96668020504306
 20
-128.1382595165765
 10
99.71070961048899
 20
-128.1382595165765
 10
99.64077417213842
 20
-128.3304958446535
 10
99.64077417213842
 20
-128.4593424158018
 10
99.64077417213842
 20
-128.4934488611058
 10
99.64077417213842
 20
-128.6446885529083
 10
99.76996525283529
 20
-128.7397731883012
 10
99.76996525283529
 20
-128.7397731883012
 10
99.75101722766642
 20
-128.9275308922473
 10
99.75101722766642
 20
-128.9275308922473
 10
99.75101722766642
 20
-128.9275308922473
 10
98.90455726694053
 20
-128.7986843210989
 10
98.90455726694053
 20
-128.7986843210989
 10
98.90455726694053
 20
-128.7986843210989
 10
98.90455726694053
 20
-127.9666937614111
 10
98.90455726694053
 20
-127.9666937614111
 10
98.90455726694053
 20
-127.9666937614111
 10
99.09920516185714
 20
-127.9666937614111
 10
99.09920516185714
 20
-127.9666937614111
 10
99.09920516185714
 20
-127.9666937614111
 10
99.09920516185714
 20
-128.6243624895453
 10
99.09920516185714
 20
-128.6243624895453
 10
99.09920516185714
 20
-128.6243624895453
 10
99.52226288744583
 20
-128.6946424374444
 10
99.52226288744583
 20
-128.6946424374444
 10
99.48850095169038
 20
-128.6291856232247
 10
99.44819333451295
 20
-128.5409911788022
 10
99.44819333451295
 20
-128.4142116649451
 10
99.44819333451295
 20
-128.1430826502559
 10
99.63457300026498
 20
-127.88986813209
 10
99.94773217987418
 20
-127.88986813209
 10
100.2650254740657
 20
-127.88986813209
 10
100.4996364766112
 20
-128.1293022683149
 10
100.4996364766112
 20
-128.4527967343799
 97
        0
 97
        0
 75
     2
 76
     1
 98
        0
  0
ENDBLK
  5
A8
330
A5
100
AcDbEntity
  8
0
100
AcDbBlockEnd
  0
BLOCK
  5
B8
330
B6
100
AcDbEntity
  8
0
100
AcDbBlockBegin
  2
block 5
 70
     0
 10
0.0
 20
0.0
 30
0.0
  3
block 5
  1

  0
SPLINE
  5
BA
330
B6
100
AcDbEntity
  8
_U+30EC_U+30A4_U+30E4_U+30FC 1
 62
   179
420
  2234388
370
     9
100
AcDbSpline
210
0.0
220
0.0
230
1.0
 70
    11
 71
     3
 72
    17
 73
    13
 74
     0
 42
0.0000000001
 43
0.0000000001
 12
1.0
 22
0.0
 32
0.0
 13
1.0
 23
0.0
 33
0.0
 40
0.0
 40
0.0
 40
0.0
 40
0.0
 40
1.0
 40
1.0
 40
1.0
 40
2.0
 40
2.0
 40
2.0
 40
3.0
 40
3.0
 40
3.0
 40
4.0
 40
4.0
 40
4.0
 40
4.0
 10
83.22281565458687
 20
-129.423971356533
 30
0.0
 10
83.22281565458687
 20
-129.3688321898799
 30
0.0
 10
83.17804815572897
 20
-129.3240646898914
 30
0.0
 10
83.12255831255256
 20
-129.3240646898914
 30
0.0
 10
83.06745232521718
 20
-129.3240646898914
 30
0.0
 10
83.02264954858242
 20
-129.3688321898799
 30
0.0
 10
83.02264954858242
 20
-129.423971356533
 30
0.0
 10
83.02264954858242
 20
-129.4790752454079
 30
0.0
 10
83.06745232521718
 20
-129.5238780231746
 30
0.0
 10
83.12255831255256
 20
-129.5238780231746
 30
0.0
 10
83.17804815572897
 20
-129.5238780231746
 30
0.0
 10
83.22281565458687
 20
-129.4790752454079
 30
0.0
 10
83.22281565458687
 20
-129.423971356533
 30
0.0
  0
SPLINE
  5
BB
330
B6
100
AcDbEntity
  8
_U+30EC_U+30A4_U+30E4_U+30FC 1
 62
   179
420
  2234388
370
     9
100
AcDbSpline
210
0.0
220
0.0
230
1.0
 70
    11
 71
     3
 72
    17
 73
    13
 74
     0
 42
0.0000000001
 43
0.0000000001
 12
1.0
 22
0.0
 32
0.0
 13
1.0
 23
0.0
 33
0.0
 40
0.0
 40
0.0
 40
0.0
 40
0.0
 40
1.0
 40
1.0
 40
1.0
 40
2.0
 40
2.0
 40
2.0
 40
3.0
 40
3.0
 40
3.0
 40
4.0
 40
4.0
 40
4.0
 40
4.0
 10
84.22258785130278
 20
-129.423971356533
 30
0.0
 10
84.22258785130278
 20
-129.3688321898799
 30
0.0
 10
84.17782035244488
 20
-129.3240646898914
 30
0.0
 10
84.12233053452509
 20
-129.3240646898914
 30
0.0
 10
84.06722452193308
 20
-129.3240646898914
 30
0.0
 10
84.02242174529833
 20
-129.3688321898799
 30
0.0
 10
84.02242174529833
 20
-129.423971356533
 30
0.0
 10
84.02242174529833
 20
-129.4790752454079
 30
0.0
 10
84.06722452193308
 20
-129.5238780231746
 30
0.0
 10
84.12233053452509
 20
-129.5238780231746
 30
0.0
 10
84.17782035244488
 20
-129.5238780231746
 30
0.0
 10
84.22258785130278
 20
-129.4790752454079
 30
0.0
 10
84.22258785130278
 20
-129.423971356533
 30
0.0
  0
INSERT
  5
BD
330
B6
100
AcDbEntity
  8
_U+30EC_U+30A4_U+30E4_U+30FC 1
100
AcDbBlockReference
  2
block 6
 10
0.0
 20
0.0
 30
0.0
  0
POLYLINE
  5
C2
330
B6
100
AcDbEntity
  8
_U+30EC_U+30A4_U+30E4_U+30FC 1
 62
   179
420
  2234388
370
     9
100
AcDb2dPolyline
 66
     1
 10
0.0
 20
0.0
 30
0.0
  0
VERTEX
  5
C3
330
C2
100
AcDbEntity
  8
_U+30EC_U+30A4_U+30E4_U+30FC 1
 62
   179
420
  2234388
370
     9
100
AcDbVertex
100
AcDb2dVertex
 10
84.98395283187874
 20
-129.423971356533
 30
0.0
  0
VERTEX
  5
C4
330
C2
100
AcDbEntity
  8
_U+30EC_U+30A4_U+30E4_U+30FC 1
 62
   179
420
  2234388
370
     9
100
AcDbVertex
100
AcDb2dVertex
 10
81.14509570759392
 20
-129.423971356533
 30
0.0
  0
SEQEND
  5
C5
330
C2
100
AcDbEntity
  8
_U+30EC_U+30A4_U+30E4_U+30FC 1
 62
   179
420
  2234388
370
     9
  0
ENDBLK
  5
B9
330
B6
100
AcDbEntity
  8
0
100
AcDbBlockEnd
  0
BLOCK
  5
BE
330
BC
100
AcDbEntity
  8
0
100
AcDbBlockBegin
  2
block 6
 70
     0
 10
0.0
 20
0.0
 30
0.0
  3
block 6
  1

  0
SPLINE
  5
C0
330
BC
100
AcDbEntity
  8
_U+30EC_U+30A4_U+30E4_U+30FC 1
370
     0
100
AcDbSpline
210
0.0
220
0.0
230
1.0
 70
    11
 71
     3
 72
    26
 73
    22
 74
     0
 42
0.0000000001
 43
0.0000000001
 12
1.0
 22
0.0
 32
0.0
 13
1.0
 23
0.0
 33
0.0
 40
0.0
 40
0.0
 40
0.0
 40
0.0
 40
1.0
 40
1.0
 40
1.0
 40
2.0
 40
2.0
 40
2.0
 40
3.0
 40
3.0
 40
3.0
 40
4.0
 40
4.0
 40
4.0
 40
5.0
 40
5.0
 40
5.0
 40
6.0
 40
6.0
 40
6.0
 40
7.0
 40
7.0
 40
7.0
 40
7.0
 10
81.94659150512099
 20
-128.8355468427911
 30
0.0
 10
81.94659150512099
 20
-128.8355468427911
 30
0.0
 10
81.94659150512099
 20
-127.7313937397685
 30
0.0
 10
81.94659150512099
 20
-127.7313937397685
 30
0.0
 10
81.94659150512099
 20
-127.7313937397685
 30
0.0
 10
81.61655135763407
 20
-127.7313937397685
 30
0.0
 10
81.61655135763407
 20
-127.7313937397685
 30
0.0
 10
81.61655135763407
 20
-127.7313937397685
 30
0.0
 10
81.61655135763407
 20
-127.5832546339028
 30
0.0
 10
81.61655135763407
 20
-127.5832546339028
 30
0.0
 10
81.94865856241215
 20
-127.5686129780905
 30
0.0
 10
81.99516735146302
 20
-127.4056599616382
 30
0.0
 10
82.02479517263616
 20
-127.2914550463021
 30
0.0
 10
82.02479517263616
 20
-127.2914550463021
 30
0.0
 10
82.17086722121076
 20
-127.2914550463021
 30
0.0
 10
82.17086722121076
 20
-127.2914550463021
 30
0.0
 10
82.17086722121076
 20
-127.2914550463021
 30
0.0
 10
82.17086722121076
 20
-128.8355468427911
 30
0.0
 10
82.17086722121076
 20
-128.8355468427911
 30
0.0
 10
82.17086722121076
 20
-128.8355468427911
 30
0.0
 10
81.94659150512099
 20
-128.8355468427911
 30
0.0
 10
81.94659150512099
 20
-128.8355468427911
 30
0.0
  0
HATCH
  5
C1
330
BC
100
AcDbEntity
  8
_U+30EC_U+30A4_U+30E4_U+30FC 1
 62
   179
420
  2234388
100
AcDbHatch
 10
0.0
 20
0.0
 30
0.0
210
0.0
220
0.0
230
1.0
  2
SOLID
 70
     1
 71
     0
 91
        1
 92
        1
 93
        1
 72
     4
 94
        3
 73
     0
 74
     1
 95
       26
 96
       22
 40
0.0
 40
0.0
 40
0.0
 40
0.0
 40
1.0
 40
1.0
 40
1.0
 40
2.0
 40
2.0
 40
2.0
 40
3.0
 40
3.0
 40
3.0
 40
4.0
 40
4.0
 40
4.0
 40
5.0
 40
5.0
 40
5.0
 40
6.0
 40
6.0
 40
6.0
 40
7.0
 40
7.0
 40
7.0
 40
7.0
 10
81.94659150512099
 20
-128.8355468427911
 10
81.94659150512099
 20
-128.8355468427911
 10
81.94659150512099
 20
-127.7313937397685
 10
81.94659150512099
 20
-127.7313937397685
 10
81.94659150512099
 20
-127.7313937397685
 10
81.61655135763407
 20
-127.7313937397685
 10
81.61655135763407
 20
-127.7313937397685
 10
81.61655135763407
 20
-127.7313937397685
 10
81.61655135763407
 20
-127.5832546339028
 10
81.61655135763407
 20
-127.5832546339028
 10
81.94865856241215
 20
-127.5686129780905
 10
81.99516735146302
 20
-127.4056599616382
 10
82.02479517263616
 20
-127.2914550463021
 10
82.02479517263616
 20
-127.2914550463021
 10
82.17086722121076
 20
-127.2914550463021
 10
82.17086722121076
 20
-127.2914550463021
 10
82.17086722121076
 20
-127.2914550463021
 10
82.17086722121076
 20
-128.8355468427911
 10
82.17086722121076
 20
-128.8355468427911
 10
82.17086722121076
 20
-128.8355468427911
 10
81.94659150512099
 20
-128.8355468427911
 10
81.94659150512099
 20
-128.8355468427911
 97
        0
 97
        0
 75
     2
 76
     1
 98
        0
  0
ENDBLK
  5
BF
330
BC
100
AcDbEntity
  8
0
100
AcDbBlockEnd
  0
BLOCK
  5
D1
330
CF
100
AcDbEntity
  8
0
100
AcDbBlockBegin
  2
block 7
 70
     0
 10
0.0
 20
0.0
 30
0.0
  3
block 7
  1

  0
SPLINE
  5
D3
330
CF
100
AcDbEntity
  8
_U+30EC_U+30A4_U+30E4_U+30FC 1
370
     0
100
AcDbSpline
210
0.0
220
0.0
230
1.0
 70
    11
 71
     3
 72
    26
 73
    22
 74
     0
 42
0.0000000001
 43
0.0000000001
 12
1.0
 22
0.0
 32
0.0
 13
1.0
 23
0.0
 33
0.0
 40
0.0
 40
0.0
 40
0.0
 40
0.0
 40
1.0
 40
1.0
 40
1.0
 40
2.0
 40
2.0
 40
2.0
 40
3.0
 40
3.0
 40
3.0
 40
4.0
 40
4.0
 40
4.0
 40
5.0
 40
5.0
 40
5.0
 40
6.0
 40
6.0
 40
6.0
 40
7.0
 40
7.0
 40
7.0
 40
7.0
 10
100.448993572978
 20
-133.274896885084
 30
0.0
 10
100.448993572978
 20
-133.274896885084
 30
0.0
 10
99.34484046995546
 20
-133.274896885084
 30
0.0
 10
99.34484046995546
 20
-133.274896885084
 30
0.0
 10
99.34484046995546
 20
-133.274896885084
 30
0.0
 10
99.34484046995546
 20
-133.6273301532251
 30
0.0
 10
99.34484046995546
 20
-133.6273301532251
 30
0.0
 10
99.34484046995546
 20
-133.6273301532251
 30
0.0
 10
99.19670136408972
 20
-133.6273301532251
 30
0.0
 10
99.19670136408972
 20
-133.6273301532251
 30
0.0
 10
99.18188745350314
 20
-133.2724853182444
 30
0.0
 10
99.01893443705083
 20
-133.2228759432568
 30
0.0
 10
98.90455726694053
 20
-133.1911810647925
 30
0.0
 10
98.90455726694053
 20
-133.1911810647925
 30
0.0
 10
98.90455726694053
 20
-133.0351182393107
 30
0.0
 10
98.90455726694053
 20
-133.0351182393107
 30
0.0
 10
98.90455726694053
 20
-133.0351182393107
 30
0.0
 10
100.448993572978
 20
-133.0351182393107
 30
0.0
 10
100.448993572978
 20
-133.0351182393107
 30
0.0
 10
100.448993572978
 20
-133.0351182393107
 30
0.0
 10
100.448993572978
 20
-133.274896885084
 30
0.0
 10
100.448993572978
 20
-133.274896885084
 30
0.0
  0
HATCH
  5
D4
330
CF
100
AcDbEntity
  8
_U+30EC_U+30A4_U+30E4_U+30FC 1
 62
   179
420
  2234388
100
AcDbHatch
 10
0.0
 20
0.0
 30
0.0
210
0.0
220
0.0
230
1.0
  2
SOLID
 70
     1
 71
     0
 91
        1
 92
        1
 93
        1
 72
     4
 94
        3
 73
     0
 74
     1
 95
       26
 96
       22
 40
0.0
 40
0.0
 40
0.0
 40
0.0
 40
1.0
 40
1.0
 40
1.0
 40
2.0
 40
2.0
 40
2.0
 40
3.0
 40
3.0
 40
3.0
 40
4.0
 40
4.0
 40
4.0
 40
5.0
 40
5.0
 40
5.0
 40
6.0
 40
6.0
 40
6.0
 40
7.0
 40
7.0
 40
7.0
 40
7.0
 10
100.448993572978
 20
-133.274896885084
 10
100.448993572978
 20
-133.274896885084
 10
99.34484046995546
 20
-133.274896885084
 10
99.34484046995546
 20
-133.274896885084
 10
99.34484046995546
 20
-133.274896885084
 10
99.34484046995546
 20
-133.6273301532251
 10
99.34484046995546
 20
-133.6273301532251
 10
99.34484046995546
 20
-133.6273301532251
 10
99.19670136408972
 20
-133.6273301532251
 10
99.19670136408972
 20
-133.6273301532251
 10
99.18188745350314
 20
-133.2724853182444
 10
99.01893443705083
 20
-133.2228759432568
 10
98.90455726694053
 20
-133.1911810647925
 10
98.90455726694053
 20
-133.1911810647925
 10
98.90455726694053
 20
-133.0351182393107
 10
98.90455726694053
 20
-133.0351182393107
 10
98.90455726694053
 20
-133.0351182393107
 10
100.448993572978
 20
-133.0351182393107
 10
100.448993572978
 20
-133.0351182393107
 10
100.448993572978
 20
-133.0351182393107
 10
100.448993572978
 20
-133.274896885084
 10
100.448993572978
 20
-133.274896885084
 97
        0
 97
        0
 75
     2
 76
     1
 98
        0
  0
ENDBLK
  5
D2
330
CF
100
AcDbEntity
  8
0
100
AcDbBlockEnd
  0
ENDSEC
  0
SECTION
  2
ENTITIES
  0
SPLINE
  5
41
330
1F
100
AcDbEntity
  8
_U+30EC_U+30A4_U+30E4_U+30FC 1
370
     0
100
AcDbSpline
210
0.0
220
0.0
230
1.0
 70
    11
 71
     3
 72
    53
 73
    49
 74
     0
 42
0.0000000001
 43
0.0000000001
 12
1.0
 22
0.0
 32
0.0
 13
1.0
 23
0.0
 33
0.0
 40
0.0
 40
0.0
 40
0.0
 40
0.0
 40
1.0
 40
1.0
 40
1.0
 40
2.0
 40
2.0
 40
2.0
 40
3.0
 40
3.0
 40
3.0
 40
4.0
 40
4.0
 40
4.0
 40
5.0
 40
5.0
 40
5.0
 40
6.0
 40
6.0
 40
6.0
 40
7.0
 40
7.0
 40
7.0
 40
8.0
 40
8.0
 40
8.0
 40
9.0
 40
9.0
 40
9.0
 40
10.0
 40
10.0
 40
10.0
 40
11.0
 40
11.0
 40
11.0
 40
12.0
 40
12.0
 40
12.0
 40
13.0
 40
13.0
 40
13.0
 40
14.0
 40
14.0
 40
14.0
 40
15.0
 40
15.0
 40
15.0
 40
16.0
 40
16.0
 40
16.0
 40
16.0
 10
97.11929641116922
 20
-133.2514691333538
 30
0.0
 10
97.11929641116922
 20
-133.2514691333538
 30
0.0
 10
87.48511193473551
 20
-133.2514691333538
 30
0.0
 10
87.48511193473551
 20
-133.2514691333538
 30
0.0
 10
87.3066416615109
 20
-132.942118300098
 30
0.0
 10
86.97661805881938
 20
-132.7519358001456
 30
0.0
 10
86.61936001237824
 20
-132.7519358001456
 30
0.0
 10
86.61936001237824
 20
-132.7519358001456
 30
0.0
 10
84.11922396505092
 20
-132.7519358001456
 30
0.0
 10
84.11922396505092
 20
-132.7519358001456
 30
0.0
 10
84.11922396505092
 20
-132.7519358001456
 30
0.0
 10
84.11922396505092
 20
-126.2515466351037
 30
0.0
 10
84.11922396505092
 20
-126.2515466351037
 30
0.0
 10
84.11922396505092
 20
-126.2515466351037
 30
0.0
 10
87.11921083295933
 20
-126.2515466351037
 30
0.0
 10
87.11921083295933
 20
-126.2515466351037
 30
0.0
 10
87.39554165924287
 20
-126.2515466351037
 30
0.0
 10
87.61909693131727
 20
-126.0276385796042
 30
0.0
 10
87.61909693131727
 20
-125.7513077463399
 30
0.0
 10
87.61909693131727
 20
-125.4919102464047
 30
0.0
 10
87.42065943637984
 20
-125.2755516353477
 30
0.0
 10
87.1619322207583
 20
-125.2531502464646
 30
0.0
 10
84.80445950312466
 20
-125.0509380242927
 30
0.0
 10
82.43389873026936
 20
-125.0509380242927
 30
0.0
 10
80.07642601263574
 20
-125.2531502464646
 30
0.0
 10
79.80115553560513
 20
-125.2769274686809
 30
0.0
 10
79.59721269152814
 20
-125.5191094130647
 30
0.0
 10
79.62098991314376
 20
-125.794381912996
 30
0.0
 10
79.64335602368426
 20
-126.0531091351532
 30
0.0
 10
79.85971664670167
 20
-126.2515466351037
 30
0.0
 10
80.11950017820348
 20
-126.2515466351037
 30
0.0
 10
80.11950017820348
 20
-126.2515466351037
 30
0.0
 10
83.11948704611189
 20
-126.2515466351037
 30
0.0
 10
83.11948704611189
 20
-126.2515466351037
 30
0.0
 10
83.11948704611189
 20
-126.2515466351037
 30
0.0
 10
83.11948704611189
 20
-132.7519358001456
 30
0.0
 10
83.11948704611189
 20
-132.7519358001456
 30
0.0
 10
83.11948704611189
 20
-132.7519358001456
 30
0.0
 10
80.61903349879266
 20
-132.7519358001456
 30
0.0
 10
80.61903349879266
 20
-132.7519358001456
 30
0.0
 10
80.06711267954
 20
-132.7519358001456
 30
0.0
 10
79.61926130207675
 20
-133.1991169111446
 30
0.0
 10
79.61926130207675
 20
-133.7517080221175
 30
0.0
 10
79.61926130207675
 20
-133.7517080221175
 30
0.0
 10
97.61918250952716
 20
-133.7517080221175
 30
0.0
 10
97.61918250952716
 20
-133.7517080221175
 30
0.0
 10
97.61918250952716
 20
-133.475412466631
 30
0.0
 10
97.39527445968399
 20
-133.2514691333538
 30
0.0
 10
97.11929641116922
 20
-133.2514691333538
 30
0.0
  0
HATCH
  5
42
330
1F
100
AcDbEntity
  8
_U+30EC_U+30A4_U+30E4_U+30FC 1
 62
   253
420
 11711154
100
AcDbHatch
 10
0.0
 20
0.0
 30
0.0
210
0.0
220
0.0
230
1.0
  2
SOLID
 70
     1
 71
     0
 91
        1
 92
        1
 93
        1
 72
     4
 94
        3
 73
     0
 74
     1
 95
       53
 96
       49
 40
0.0
 40
0.0
 40
0.0
 40
0.0
 40
1.0
 40
1.0
 40
1.0
 40
2.0
 40
2.0
 40
2.0
 40
3.0
 40
3.0
 40
3.0
 40
4.0
 40
4.0
 40
4.0
 40
5.0
 40
5.0
 40
5.0
 40
6.0
 40
6.0
 40
6.0
 40
7.0
 40
7.0
 40
7.0
 40
8.0
 40
8.0
 40
8.0
 40
9.0
 40
9.0
 40
9.0
 40
10.0
 40
10.0
 40
10.0
 40
11.0
 40
11.0
 40
11.0
 40
12.0
 40
12.0
 40
12.0
 40
13.0
 40
13.0
 40
13.0
 40
14.0
 40
14.0
 40
14.0
 40
15.0
 40
15.0
 40
15.0
 40
16.0
 40
16.0
 40
16.0
 40
16.0
 10
97.11929641116922
 20
-133.2514691333538
 10
97.11929641116922
 20
-133.2514691333538
 10
87.48511193473551
 20
-133.2514691333538
 10
87.48511193473551
 20
-133.2514691333538
 10
87.3066416615109
 20
-132.942118300098
 10
86.97661805881938
 20
-132.7519358001456
 10
86.61936001237824
 20
-132.7519358001456
 10
86.61936001237824
 20
-132.7519358001456
 10
84.11922396505092
 20
-132.7519358001456
 10
84.11922396505092
 20
-132.7519358001456
 10
84.11922396505092
 20
-132.7519358001456
 10
84.11922396505092
 20
-126.2515466351037
 10
84.11922396505092
 20
-126.2515466351037
 10
84.11922396505092
 20
-126.2515466351037
 10
87.11921083295933
 20
-126.2515466351037
 10
87.11921083295933
 20
-126.2515466351037
 10
87.39554165924287
 20
-126.2515466351037
 10
87.61909693131727
 20
-126.0276385796042
 10
87.61909693131727
 20
-125.7513077463399
 10
87.61909693131727
 20
-125.4919102464047
 10
87.42065943637984
 20
-125.2755516353477
 10
87.1619322207583
 20
-125.2531502464646
 10
84.80445950312466
 20
-125.0509380242927
 10
82.43389873026936
 20
-125.0509380242927
 10
80.07642601263574
 20
-125.2531502464646
 10
79.80115553560513
 20
-125.2769274686809
 10
79.59721269152814
 20
-125.5191094130647
 10
79.62098991314376
 20
-125.794381912996
 10
79.64335602368426
 20
-126.0531091351532
 10
79.85971664670167
 20
-126.2515466351037
 10
80.11950017820348
 20
-126.2515466351037
 10
80.11950017820348
 20
-126.2515466351037
 10
83.11948704611189
 20
-126.2515466351037
 10
83.11948704611189
 20
-126.2515466351037
 10
83.11948704611189
 20
-126.2515466351037
 10
83.11948704611189
 20
-132.7519358001456
 10
83.11948704611189
 20
-132.7519358001456
 10
83.11948704611189
 20
-132.7519358001456
 10
80.61903349879266
 20
-132.7519358001456
 10
80.61903349879266
 20
-132.7519358001456
 10
80.06711267954
 20
-132.7519358001456
 10
79.61926130207675
 20
-133.1991169111446
 10
79.61926130207675
 20
-133.7517080221175
 10
79.61926130207675
 20
-133.7517080221175
 10
97.61918250952716
 20
-133.7517080221175
 10
97.61918250952716
 20
-133.7517080221175
 10
97.61918250952716
 20
-133.475412466631
 10
97.39527445968399
 20
-133.2514691333538
 10
97.11929641116922
 20
-133.2514691333538
 97
        0
 97
        0
 75
     2
 76
     1
 98
        0
  0
POLYLINE
  5
43
330
1F
100
AcDbEntity
  8
_U+30EC_U+30A4_U+30E4_U+30FC 1
 62
   179
420
  2234388
370
    25
100
AcDb2dPolyline
 66
     1
 10
0.0
 20
0.0
 30
0.0
  0
VERTEX
  5
44
330
43
100
AcDbEntity
  8
_U+30EC_U+30A4_U+30E4_U+30FC 1
 62
   179
420
  2234388
370
    25
100
AcDbVertex
100
AcDb2dVertex
 10
80.61903349879266
 20
-132.7519358001456
 30
0.0
  0
VERTEX
  5
45
330
43
100
AcDbEntity
  8
_U+30EC_U+30A4_U+30E4_U+30FC 1
 62
   179
420
  2234388
370
    25
100
AcDbVertex
100
AcDb2dVertex
 10
83.11948704611189
 20
-132.7519358001456
 30
0.0
  0
SEQEND
  5
46
330
43
100
AcDbEntity
  8
_U+30EC_U+30A4_U+30E4_U+30FC 1
 62
   179
420
  2234388
370
    25
  0
POLYLINE
  5
47
330
1F
100
AcDbEntity
  8
_U+30EC_U+30A4_U+30E4_U+30FC 1
 62
   179
420
  2234388
370
    25
100
AcDb2dPolyline
 66
     1
 10
0.0
 20
0.0
 30
0.0
  0
VERTEX
  5
48
330
47
100
AcDbEntity
  8
_U+30EC_U+30A4_U+30E4_U+30FC 1
 62
   179
420
  2234388
370
    25
100
AcDbVertex
100
AcDb2dVertex
 10
79.61926130207675
 20
-133.7517080221175
 30
0.0
  0
VERTEX
  5
49
330
47
100
AcDbEntity
  8
_U+30EC_U+30A4_U+30E4_U+30FC 1
 62
   179
420
  2234388
370
    25
100
AcDbVertex
100
AcDb2dVertex
 10
97.61918250952716
 20
-133.7517080221175
 30
0.0
  0
SEQEND
  5
4A
330
47
100
AcDbEntity
  8
_U+30EC_U+30A4_U+30E4_U+30FC 1
 62
   179
420
  2234388
370
    25
  0
POLYLINE
  5
4B
330
1F
100
AcDbEntity
  8
_U+30EC_U+30A4_U+30E4_U+30FC 1
 62
   179
420
  2234388
370
    25
100
AcDb2dPolyline
 66
     1
 10
0.0
 20
0.0
 30
0.0
  0
VERTEX
  5
4C
330
4B
100
AcDbEntity
  8
_U+30EC_U+30A4_U+30E4_U+30FC 1
 62
   179
420
  2234388
370
    25
100
AcDbVertex
100
AcDb2dVertex
 10
87.48511193473551
 20
-133.2514691333538
 30
0.0
  0
VERTEX
  5
4D
330
4B
100
AcDbEntity
  8
_U+30EC_U+30A4_U+30E4_U+30FC 1
 62
   179
420
  2234388
370
    25
100
AcDbVertex
100
AcDb2dVertex
 10
97.11929641116922
 20
-133.2514691333538
 30
0.0
  0
SEQEND
  5
4E
330
4B
100
AcDbEntity
  8
_U+30EC_U+30A4_U+30E4_U+30FC 1
 62
   179
420
  2234388
370
    25
  0
POLYLINE
  5
4F
330
1F
100
AcDbEntity
  8
_U+30EC_U+30A4_U+30E4_U+30FC 1
 62
   179
420
  2234388
370
    25
100
AcDb2dPolyline
 66
     1
 10
0.0
 20
0.0
 30
0.0
  0
VERTEX
  5
50
330
4F
100
AcDbEntity
  8
_U+30EC_U+30A4_U+30E4_U+30FC 1
 62
   179
420
  2234388
370
    25
100
AcDbVertex
100
AcDb2dVertex
 10
80.11950017820348
 20
-126.2515466351037
 30
0.0
  0
VERTEX
  5
51
330
4F
100
AcDbEntity
  8
_U+30EC_U+30A4_U+30E4_U+30FC 1
 62
   179
420
  2234388
370
    25
100
AcDbVertex
100
AcDb2dVertex
 10
83.11948704611189
 20
-126.2515466351037
 30
0.0
  0
SEQEND
  5
52
330
4F
100
AcDbEntity
  8
_U+30EC_U+30A4_U+30E4_U+30FC 1
 62
   179
420
  2234388
370
    25
  0
POLYLINE
  5
53
330
1F
100
AcDbEntity
  8
_U+30EC_U+30A4_U+30E4_U+30FC 1
 62
   179
420
  2234388
370
    25
100
AcDb2dPolyline
 66
     1
 10
0.0
 20
0.0
 30
0.0
  0
VERTEX
  5
54
330
53
100
AcDbEntity
  8
_U+30EC_U+30A4_U+30E4_U+30FC 1
 62
   179
420
  2234388
370
    25
100
AcDbVertex
100
AcDb2dVertex
 10
83.11948704611189
 20
-126.2515466351037
 30
0.0
  0
VERTEX
  5
55
330
53
100
AcDbEntity
  8
_U+30EC_U+30A4_U+30E4_U+30FC 1
 62
   179
420
  2234388
370
    25
100
AcDbVertex
100
AcDb2dVertex
 10
83.11948704611189
 20
-132.7519358001456
 30
0.0
  0
SEQEND
  5
56
330
53
100
AcDbEntity
  8
_U+30EC_U+30A4_U+30E4_U+30FC 1
 62
   179
420
  2234388
370
    25
  0
POLYLINE
  5
57
330
1F
100
AcDbEntity
  8
_U+30EC_U+30A4_U+30E4_U+30FC 1
 62
   179
420
  2234388
370
    25
100
AcDb2dPolyline
 66
     1
 10
0.0
 20
0.0
 30
0.0
  0
VERTEX
  5
58
330
57
100
AcDbEntity
  8
_U+30EC_U+30A4_U+30E4_U+30FC 1
 62
   179
420
  2234388
370
    25
100
AcDbVertex
100
AcDb2dVertex
 10
84.11922396505092
 20
-126.2515466351037
 30
0.0
  0
VERTEX
  5
59
330
57
100
AcDbEntity
  8
_U+30EC_U+30A4_U+30E4_U+30FC 1
 62
   179
420
  2234388
370
    25
100
AcDbVertex
100
AcDb2dVertex
 10
84.11922396505092
 20
-132.7519358001456
 30
0.0
  0
SEQEND
  5
5A
330
57
100
AcDbEntity
  8
_U+30EC_U+30A4_U+30E4_U+30FC 1
 62
   179
420
  2234388
370
    25
  0
POLYLINE
  5
5B
330
1F
100
AcDbEntity
  8
_U+30EC_U+30A4_U+30E4_U+30FC 1
 62
   179
420
  2234388
370
    25
100
AcDb2dPolyline
 66
     1
 10
0.0
 20
0.0
 30
0.0
  0
VERTEX
  5
5C
330
5B
100
AcDbEntity
  8
_U+30EC_U+30A4_U+30E4_U+30FC 1
 62
   179
420
  2234388
370
    25
100
AcDbVertex
100
AcDb2dVertex
 10
84.11922396505092
 20
-126.2515466351037
 30
0.0
  0
VERTEX
  5
5D
330
5B
100
AcDbEntity
  8
_U+30EC_U+30A4_U+30E4_U+30FC 1
 62
   179
420
  2234388
370
    25
100
AcDbVertex
100
AcDb2dVertex
 10
87.11921083295933
 20
-126.2515466351037
 30
0.0
  0
SEQEND
  5
5E
330
5B
100
AcDbEntity
  8
_U+30EC_U+30A4_U+30E4_U+30FC 1
 62
   179
420
  2234388
370
    25
  0
POLYLINE
  5
5F
330
1F
100
AcDbEntity
  8
_U+30EC_U+30A4_U+30E4_U+30FC 1
 62
   179
420
  2234388
370
    25
100
AcDb2dPolyline
 66
     1
 10
0.0
 20
0.0
 30
0.0
  0
VERTEX
  5
60
330
5F
100
AcDbEntity
  8
_U+30EC_U+30A4_U+30E4_U+30FC 1
 62
   179
420
  2234388
370
    25
100
AcDbVertex
100
AcDb2dVertex
 10
84.11922396505092
 20
-132.7519358001456
 30
0.0
  0
VERTEX
  5
61
330
5F
100
AcDbEntity
  8
_U+30EC_U+30A4_U+30E4_U+30FC 1
 62
   179
420
  2234388
370
    25
100
AcDbVertex
100
AcDb2dVertex
 10
86.61936001237824
 20
-132.7519358001456
 30
0.0
  0
SEQEND
  5
62
330
5F
100
AcDbEntity
  8
_U+30EC_U+30A4_U+30E4_U+30FC 1
 62
   179
420
  2234388
370
    25
  0
SPLINE
  5
63
330
1F
100
AcDbEntity
  8
_U+30EC_U+30A4_U+30E4_U+30FC 1
 62
   179
420
  2234388
370
    25
100
AcDbSpline
210
0.0
220
0.0
230
1.0
 70
     8
 71
     3
 72
     8
 73
     4
 74
     0
 42
0.0000000001
 43
0.0000000001
 12
1.0
 22
0.0
 32
0.0
 13
1.0
 23
0.0
 33
0.0
 40
0.0
 40
0.0
 40
0.0
 40
0.0
 40
1.0
 40
1.0
 40
1.0
 40
1.0
 10
97.61918250952716
 20
-133.7517080221175
 30
0.0
 10
97.61918250952716
 20
-133.475412466631
 30
0.0
 10
97.39527445968399
 20
-133.2514691333538
 30
0.0
 10
97.11929641116922
 20
-133.2514691333538
 30
0.0
  0
SPLINE
  5
64
330
1F
100
AcDbEntity
  8
_U+30EC_U+30A4_U+30E4_U+30FC 1
 62
   179
420
  2234388
370
     9
100
AcDbSpline
210
0.0
220
0.0
230
1.0
 70
    11
 71
     3
 72
    17
 73
    13
 74
     0
 42
0.0000000001
 43
0.0000000001
 12
1.0
 22
0.0
 32
0.0
 13
1.0
 23
0.0
 33
0.0
 40
0.0
 40
0.0
 40
0.0
 40
0.0
 40
1.0
 40
1.0
 40
1.0
 40
2.0
 40
2.0
 40
2.0
 40
3.0
 40
3.0
 40
3.0
 40
4.0
 40
4.0
 40
4.0
 40
4.0
 10
101.5968929636029
 20
-126.2515466351037
 30
0.0
 10
101.5968929636029
 20
-126.1964427462287
 30
0.0
 10
101.552125464745
 20
-126.151639968462
 30
0.0
 10
101.4969888635148
 20
-126.151639968462
 30
0.0
 10
101.441882412002
 20
-126.151639968462
 30
0.0
 10
101.3970796353672
 20
-126.1964427462287
 30
0.0
 10
101.3970796353672
 20
-126.2515466351037
 30
0.0
 10
101.3970796353672
 20
-126.3066858017567
 30
0.0
 10
101.441882412002
 20
-126.3514533017456
 30
0.0
 10
101.4969888635148
 20
-126.3514533017456
 30
0.0
 10
101.552125464745
 20
-126.3514533017456
 30
0.0
 10
101.5968929636029
 20
-126.3066858017567
 30
0.0
 10
101.5968929636029
 20
-126.2515466351037
 30
0.0
  0
SPLINE
  5
65
330
1F
100
AcDbEntity
  8
_U+30EC_U+30A4_U+30E4_U+30FC 1
 62
   179
420
  2234388
370
     9
100
AcDbSpline
210
0.0
220
0.0
230
1.0
 70
    11
 71
     3
 72
    17
 73
    13
 74
     0
 42
0.0000000001
 43
0.0000000001
 12
1.0
 22
0.0
 32
0.0
 13
1.0
 23
0.0
 33
0.0
 40
0.0
 40
0.0
 40
0.0
 40
0.0
 40
1.0
 40
1.0
 40
1.0
 40
2.0
 40
2.0
 40
2.0
 40
3.0
 40
3.0
 40
3.0
 40
4.0
 40
4.0
 40
4.0
 40
4.0
 10
101.5968929636029
 20
-132.7519358001456
 30
0.0
 10
101.5968929636029
 20
-132.6961263557151
 30
0.0
 10
101.552125464745
 20
-132.6513235779484
 30
0.0
 10
101.4969888635148
 20
-132.6513235779484
 30
0.0
 10
101.441882412002
 20
-132.6513235779484
 30
0.0
 10
101.3970796353672
 20
-132.6961263557151
 30
0.0
 10
101.3970796353672
 20
-132.7519358001456
 30
0.0
 10
101.3970796353672
 20
-132.8070396890205
 30
0.0
 10
101.441882412002
 20
-132.8518424667872
 30
0.0
 10
101.4969888635148
 20
-132.8518424667872
 30
0.0
 10
101.552125464745
 20
-132.8518424667872
 30
0.0
 10
101.5968929636029
 20
-132.8070396890205
 30
0.0
 10
101.5968929636029
 20
-132.7519358001456
 30
0.0
  0
SPLINE
  5
66
330
1F
100
AcDbEntity
  8
_U+30EC_U+30A4_U+30E4_U+30FC 1
 62
   179
420
  2234388
370
     9
100
AcDbSpline
210
0.0
220
0.0
230
1.0
 70
    11
 71
     3
 72
    17
 73
    13
 74
     0
 42
0.0000000001
 43
0.0000000001
 12
1.0
 22
0.0
 32
0.0
 13
1.0
 23
0.0
 33
0.0
 40
0.0
 40
0.0
 40
0.0
 40
0.0
 40
1.0
 40
1.0
 40
1.0
 40
2.0
 40
2.0
 40
2.0
 40
3.0
 40
3.0
 40
3.0
 40
4.0
 40
4.0
 40
4.0
 40
4.0
 10
79.71916796619459
 20
-137.7521374655617
 30
0.0
 10
79.71916796619459
 20
-137.6963280211313
 30
0.0
 10
79.67436518955982
 20
-137.6515605211427
 30
0.0
 10
79.61926130207675
 20
-137.6515605211427
 30
0.0
 10
79.5641221368168
 20
-137.6515605211427
 30
0.0
 10
79.51935463795891
 20
-137.6963280211313
 30
0.0
 10
79.51935463795891
 20
-137.7521374655617
 30
0.0
 10
79.51935463795891
 20
-137.8072766322148
 30
0.0
 10
79.5641221368168
 20
-137.8520441322034
 30
0.0
 10
79.61926130207675
 20
-137.8520441322034
 30
0.0
 10
79.67436518955982
 20
-137.8520441322034
 30
0.0
 10
79.71916796619459
 20
-137.8072766322148
 30
0.0
 10
79.71916796619459
 20
-137.7521374655617
 30
0.0
  0
SPLINE
  5
67
330
1F
100
AcDbEntity
  8
_U+30EC_U+30A4_U+30E4_U+30FC 1
 62
   179
420
  2234388
370
     9
100
AcDbSpline
210
0.0
220
0.0
230
1.0
 70
    11
 71
     3
 72
    17
 73
    13
 74
     0
 42
0.0000000001
 43
0.0000000001
 12
1.0
 22
0.0
 32
0.0
 13
1.0
 23
0.0
 33
0.0
 40
0.0
 40
0.0
 40
0.0
 40
0.0
 40
1.0
 40
1.0
 40
1.0
 40
2.0
 40
2.0
 40
2.0
 40
3.0
 40
3.0
 40
3.0
 40
4.0
 40
4.0
 40
4.0
 40
4.0
 10
97.71909164223683
 20
-137.7521374655617
 30
0.0
 10
97.71909164223683
 20
-137.6963280211313
 30
0.0
 10
97.67432167478712
 20
-137.6515605211427
 30
0.0
 10
97.61918250952716
 20
-137.6515605211427
 30
0.0
 10
97.5640786220441
 20
-137.6515605211427
 30
0.0
 10
97.51927584540934
 20
-137.6963280211313
 30
0.0
 10
97.51927584540934
 20
-137.7521374655617
 30
0.0
 10
97.51927584540934
 20
-137.8072766322148
 30
0.0
 10
97.5640786220441
 20
-137.8520441322034
 30
0.0
 10
97.61918250952716
 20
-137.8520441322034
 30
0.0
 10
97.67432167478712
 20
-137.8520441322034
 30
0.0
 10
97.71909164223683
 20
-137.8072766322148
 30
0.0
 10
97.71909164223683
 20
-137.7521374655617
 30
0.0
  0
SPLINE
  5
68
330
1F
100
AcDbEntity
  8
_U+30EC_U+30A4_U+30E4_U+30FC 1
 62
   179
420
  2234388
370
    25
100
AcDbSpline
210
0.0
220
0.0
230
1.0
 70
     8
 71
     3
 72
     8
 73
     4
 74
     0
 42
0.0000000001
 43
0.0000000001
 12
1.0
 22
0.0
 32
0.0
 13
1.0
 23
0.0
 33
0.0
 40
0.0
 40
0.0
 40
0.0
 40
0.0
 40
1.0
 40
1.0
 40
1.0
 40
1.0
 10
87.48511193473551
 20
-133.2514691333538
 30
0.0
 10
87.3066416615109
 20
-132.942118300098
 30
0.0
 10
86.97661805881938
 20
-132.7519358001456
 30
0.0
 10
86.61936001237824
 20
-132.7519358001456
 30
0.0
  0
SPLINE
  5
69
330
1F
100
AcDbEntity
  8
_U+30EC_U+30A4_U+30E4_U+30FC 1
 62
   179
420
  2234388
370
    25
100
AcDbSpline
210
0.0
220
0.0
230
1.0
 70
     8
 71
     3
 72
    11
 73
     7
 74
     0
 42
0.0000000001
 43
0.0000000001
 12
1.0
 22
0.0
 32
0.0
 13
1.0
 23
0.0
 33
0.0
 40
0.0
 40
0.0
 40
0.0
 40
0.0
 40
1.0
 40
1.0
 40
1.0
 40
2.0
 40
2.0
 40
2.0
 40
2.0
 10
87.11921083295933
 20
-126.2515466351037
 30
0.0
 10
87.39554165924287
 20
-126.2515466351037
 30
0.0
 10
87.61909693131727
 20
-126.0276385796042
 30
0.0
 10
87.61909693131727
 20
-125.7513077463399
 30
0.0
 10
87.61909693131727
 20
-125.4919102464047
 30
0.0
 10
87.42065943637984
 20
-125.2755516353477
 30
0.0
 10
87.1619322207583
 20
-125.2531502464646
 30
0.0
  0
SPLINE
  5
6A
330
1F
100
AcDbEntity
  8
_U+30EC_U+30A4_U+30E4_U+30FC 1
 62
   179
420
  2234388
370
    25
100
AcDbSpline
210
0.0
220
0.0
230
1.0
 70
     8
 71
     3
 72
    11
 73
     7
 74
     0
 42
0.0000000001
 43
0.0000000001
 12
1.0
 22
0.0
 32
0.0
 13
1.0
 23
0.0
 33
0.0
 40
0.0
 40
0.0
 40
0.0
 40
0.0
 40
1.0
 40
1.0
 40
1.0
 40
2.0
 40
2.0
 40
2.0
 40
2.0
 10
80.07642601263574
 20
-125.2531502464646
 30
0.0
 10
79.80115553560513
 20
-125.2769274686809
 30
0.0
 10
79.59721269152814
 20
-125.5191094130647
 30
0.0
 10
79.62098991314376
 20
-125.794381912996
 30
0.0
 10
79.64335602368426
 20
-126.0531091351532
 30
0.0
 10
79.85971664670167
 20
-126.2515466351037
 30
0.0
 10
80.11950017820348
 20
-126.2515466351037
 30
0.0
  0
SPLINE
  5
6B
330
1F
100
AcDbEntity
  8
_U+30EC_U+30A4_U+30E4_U+30FC 1
 62
   179
420
  2234388
370
    25
100
AcDbSpline
210
0.0
220
0.0
230
1.0
 70
     8
 71
     3
 72
     8
 73
     4
 74
     0
 42
0.0000000001
 43
0.0000000001
 12
1.0
 22
0.0
 32
0.0
 13
1.0
 23
0.0
 33
0.0
 40
0.0
 40
0.0
 40
0.0
 40
0.0
 40
1.0
 40
1.0
 40
1.0
 40
1.0
 10
80.61903349879266
 20
-132.7519358001456
 30
0.0
 10
80.06711267954
 20
-132.7519358001456
 30
0.0
 10
79.61926130207675
 20
-133.1991169111446
 30
0.0
 10
79.61926130207675
 20
-133.7517080221175
 30
0.0
  0
SPLINE
  5
6C
330
1F
100
AcDbEntity
  8
_U+30EC_U+30A4_U+30E4_U+30FC 1
 62
   179
420
  2234388
370
     9
100
AcDbSpline
210
0.0
220
0.0
230
1.0
 70
    11
 71
     3
 72
    17
 73
    13
 74
     0
 42
0.0000000001
 43
0.0000000001
 12
1.0
 22
0.0
 32
0.0
 13
1.0
 23
0.0
 33
0.0
 40
0.0
 40
0.0
 40
0.0
 40
0.0
 40
1.0
 40
1.0
 40
1.0
 40
2.0
 40
2.0
 40
2.0
 40
3.0
 40
3.0
 40
3.0
 40
4.0
 40
4.0
 40
4.0
 40
4.0
 10
87.7193563732039
 20
-121.1014849697247
 30
0.0
 10
87.7193563732039
 20
-121.0463458030716
 30
0.0
 10
87.674588874346
 20
-121.0015783030831
 30
0.0
 10
87.61909693131727
 20
-121.0015783030831
 30
0.0
 10
87.5639930438342
 20
-121.0015783030831
 30
0.0
 10
87.51919026719943
 20
-121.0463458030716
 30
0.0
 10
87.51919026719943
 20
-121.1014849697247
 30
0.0
 10
87.51919026719943
 20
-121.1569416363774
 30
0.0
 10
87.5639930438342
 20
-121.2017444141441
 30
0.0
 10
87.61909693131727
 20
-121.2017444141441
 30
0.0
 10
87.674588874346
 20
-121.2017444141441
 30
0.0
 10
87.7193563732039
 20
-121.1569416363774
 30
0.0
 10
87.7193563732039
 20
-121.1014849697247
 30
0.0
  0
SPLINE
  5
6D
330
1F
100
AcDbEntity
  8
_U+30EC_U+30A4_U+30E4_U+30FC 1
 62
   179
420
  2234388
370
     9
100
AcDbSpline
210
0.0
220
0.0
230
1.0
 70
    11
 71
     3
 72
    17
 73
    13
 74
     0
 42
0.0000000001
 43
0.0000000001
 12
1.0
 22
0.0
 32
0.0
 13
1.0
 23
0.0
 33
0.0
 40
0.0
 40
0.0
 40
0.0
 40
0.0
 40
1.0
 40
1.0
 40
1.0
 40
2.0
 40
2.0
 40
2.0
 40
3.0
 40
3.0
 40
3.0
 40
4.0
 40
4.0
 40
4.0
 40
4.0
 10
79.71916796619459
 20
-121.1014849697247
 30
0.0
 10
79.71916796619459
 20
-121.0463458030716
 30
0.0
 10
79.67436518955982
 20
-121.0015783030831
 30
0.0
 10
79.61926130207675
 20
-121.0015783030831
 30
0.0
 10
79.5641221368168
 20
-121.0015783030831
 30
0.0
 10
79.51935463795891
 20
-121.0463458030716
 30
0.0
 10
79.51935463795891
 20
-121.1014849697247
 30
0.0
 10
79.51935463795891
 20
-121.1569416363774
 30
0.0
 10
79.5641221368168
 20
-121.2017444141441
 30
0.0
 10
79.61926130207675
 20
-121.2017444141441
 30
0.0
 10
79.67436518955982
 20
-121.2017444141441
 30
0.0
 10
79.71916796619459
 20
-121.1569416363774
 30
0.0
 10
79.71916796619459
 20
-121.1014849697247
 30
0.0
  0
SPLINE
  5
6E
330
1F
100
AcDbEntity
  8
_U+30EC_U+30A4_U+30E4_U+30FC 1
 62
   179
420
  2234388
370
    25
100
AcDbSpline
210
0.0
220
0.0
230
1.0
 70
     8
 71
     3
 72
     8
 73
     4
 74
     0
 42
0.0000000001
 43
0.0000000001
 12
1.0
 22
0.0
 32
0.0
 13
1.0
 23
0.0
 33
0.0
 40
0.0
 40
0.0
 40
0.0
 40
0.0
 40
1.0
 40
1.0
 40
1.0
 40
1.0
 10
87.1619322207583
 20
-125.2531502464646
 30
0.0
 10
84.80445950312466
 20
-125.0509380242927
 30
0.0
 10
82.43389873026936
 20
-125.0509380242927
 30
0.0
 10
80.07642601263574
 20
-125.2531502464646
 30
0.0
  0
POLYLINE
  5
6F
330
1F
100
AcDbEntity
  8
_U+30EC_U+30A4_U+30E4_U+30FC 1
 62
   179
420
  2234388
370
     9
100
AcDb2dPolyline
 66
     1
 10
0.0
 20
0.0
 30
0.0
  0
VERTEX
  5
70
330
6F
100
AcDbEntity
  8
_U+30EC_U+30A4_U+30E4_U+30FC 1
 62
   179
420
  2234388
370
     9
100
AcDbVertex
100
AcDb2dVertex
 10
79.61926130207675
 20
-137.7521374655617
 30
0.0
  0
VERTEX
  5
71
330
6F
100
AcDbEntity
  8
_U+30EC_U+30A4_U+30E4_U+30FC 1
 62
   179
420
  2234388
370
     9
100
AcDbVertex
100
AcDb2dVertex
 10
97.61918250952716
 20
-137.7521374655617
 30
0.0
  0
SEQEND
  5
72
330
6F
100
AcDbEntity
  8
_U+30EC_U+30A4_U+30E4_U+30FC 1
 62
   179
420
  2234388
370
     9
  0
POLYLINE
  5
73
330
1F
100
AcDbEntity
  8
_U+30EC_U+30A4_U+30E4_U+30FC 1
 62
   179
420
  2234388
370
     9
100
AcDb2dPolyline
 66
     1
 10
0.0
 20
0.0
 30
0.0
  0
VERTEX
  5
74
330
73
100
AcDbEntity
  8
_U+30EC_U+30A4_U+30E4_U+30FC 1
 62
   179
420
  2234388
370
     9
100
AcDbVertex
100
AcDb2dVertex
 10
79.61926130207675
 20
-135.4914669105714
 30
0.0
  0
VERTEX
  5
75
330
73
100
AcDbEntity
  8
_U+30EC_U+30A4_U+30E4_U+30FC 1
 62
   179
420
  2234388
370
     9
100
AcDbVertex
100
AcDb2dVertex
 10
79.61926130207675
 20
-138.7519096875342
 30
0.0
  0
SEQEND
  5
76
330
73
100
AcDbEntity
  8
_U+30EC_U+30A4_U+30E4_U+30FC 1
 62
   179
420
  2234388
370
     9
  0
POLYLINE
  5
77
330
1F
100
AcDbEntity
  8
_U+30EC_U+30A4_U+30E4_U+30FC 1
 62
   179
420
  2234388
370
     9
100
AcDb2dPolyline
 66
     1
 10
0.0
 20
0.0
 30
0.0
  0
VERTEX
  5
78
330
77
100
AcDbEntity
  8
_U+30EC_U+30A4_U+30E4_U+30FC 1
 62
   179
420
  2234388
370
     9
100
AcDbVertex
100
AcDb2dVertex
 10
97.61918250952716
 20
-136.292096077038
 30
0.0
  0
VERTEX
  5
79
330
77
100
AcDbEntity
  8
_U+30EC_U+30A4_U+30E4_U+30FC 1
 62
   179
420
  2234388
370
     9
100
AcDbVertex
100
AcDb2dVertex
 10
97.61918250952716
 20
-138.7519096875342
 30
0.0
  0
SEQEND
  5
7A
330
77
100
AcDbEntity
  8
_U+30EC_U+30A4_U+30E4_U+30FC 1
 62
   179
420
  2234388
370
     9
  0
INSERT
  5
7C
330
1F
100
AcDbEntity
  8
_U+30EC_U+30A4_U+30E4_U+30FC 1
100
AcDbBlockReference
  2
block 2
 10
0.0
 20
0.0
 30
0.0
  0
POLYLINE
  5
85
330
1F
100
AcDbEntity
  8
_U+30EC_U+30A4_U+30E4_U+30FC 1
 62
   179
420
  2234388
370
     9
100
AcDb2dPolyline
 66
     1
 10
0.0
 20
0.0
 30
0.0
  0
VERTEX
  5
86
330
85
100
AcDbEntity
  8
_U+30EC_U+30A4_U+30E4_U+30FC 1
 62
   179
420
  2234388
370
     9
100
AcDbVertex
100
AcDb2dVertex
 10
79.61926130207675
 20
-121.1014849697247
 30
0.0
  0
VERTEX
  5
87
330
85
100
AcDbEntity
  8
_U+30EC_U+30A4_U+30E4_U+30FC 1
 62
   179
420
  2234388
370
     9
100
AcDbVertex
100
AcDb2dVertex
 10
87.61909693131727
 20
-121.1014849697247
 30
0.0
  0
SEQEND
  5
88
330
85
100
AcDbEntity
  8
_U+30EC_U+30A4_U+30E4_U+30FC 1
 62
   179
420
  2234388
370
     9
  0
POLYLINE
  5
89
330
1F
100
AcDbEntity
  8
_U+30EC_U+30A4_U+30E4_U+30FC 1
 62
   179
420
  2234388
370
     9
100
AcDb2dPolyline
 66
     1
 10
0.0
 20
0.0
 30
0.0
  0
VERTEX
  5
8A
330
89
100
AcDbEntity
  8
_U+30EC_U+30A4_U+30E4_U+30FC 1
 62
   179
420
  2234388
370
     9
100
AcDbVertex
100
AcDb2dVertex
 10
79.61926130207675
 20
-123.2615433025179
 30
0.0
  0
VERTEX
  5
8B
330
89
100
AcDbEntity
  8
_U+30EC_U+30A4_U+30E4_U+30FC 1
 62
   179
420
  2234388
370
     9
100
AcDbVertex
100
AcDb2dVertex
 10
79.61926130207675
 20
-120.1013599699747
 30
0.0
  0
SEQEND
  5
8C
330
89
100
AcDbEntity
  8
_U+30EC_U+30A4_U+30E4_U+30FC 1
 62
   179
420
  2234388
370
     9
  0
POLYLINE
  5
8D
330
1F
100
AcDbEntity
  8
_U+30EC_U+30A4_U+30E4_U+30FC 1
 62
   179
420
  2234388
370
     9
100
AcDb2dPolyline
 66
     1
 10
0.0
 20
0.0
 30
0.0
  0
VERTEX
  5
8E
330
8D
100
AcDbEntity
  8
_U+30EC_U+30A4_U+30E4_U+30FC 1
 62
   179
420
  2234388
370
     9
100
AcDbVertex
100
AcDb2dVertex
 10
87.61909693131727
 20
-123.2615433025179
 30
0.0
  0
VERTEX
  5
8F
330
8D
100
AcDbEntity
  8
_U+30EC_U+30A4_U+30E4_U+30FC 1
 62
   179
420
  2234388
370
     9
100
AcDbVertex
100
AcDb2dVertex
 10
87.61909693131727
 20
-120.1013599699747
 30
0.0
  0
SEQEND
  5
90
330
8D
100
AcDbEntity
  8
_U+30EC_U+30A4_U+30E4_U+30FC 1
 62
   179
420
  2234388
370
     9
  0
INSERT
  5
92
330
1F
100
AcDbEntity
  8
_U+30EC_U+30A4_U+30E4_U+30FC 1
100
AcDbBlockReference
  2
block 3
 10
0.0
 20
0.0
 30
0.0
  0
POLYLINE
  5
99
330
1F
100
AcDbEntity
  8
_U+30EC_U+30A4_U+30E4_U+30FC 1
 62
   179
420
  2234388
370
     9
100
AcDb2dPolyline
 66
     1
 10
0.0
 20
0.0
 30
0.0
  0
VERTEX
  5
9A
330
99
100
AcDbEntity
  8
_U+30EC_U+30A4_U+30E4_U+30FC 1
 62
   179
420
  2234388
370
     9
100
AcDbVertex
100
AcDb2dVertex
 10
101.4969888635148
 20
-126.2515466351037
 30
0.0
  0
VERTEX
  5
9B
330
99
100
AcDbEntity
  8
_U+30EC_U+30A4_U+30E4_U+30FC 1
 62
   179
420
  2234388
370
     9
100
AcDbVertex
100
AcDb2dVertex
 10
101.4969888635148
 20
-132.7519358001456
 30
0.0
  0
SEQEND
  5
9C
330
99
100
AcDbEntity
  8
_U+30EC_U+30A4_U+30E4_U+30FC 1
 62
   179
420
  2234388
370
     9
  0
POLYLINE
  5
9D
330
1F
100
AcDbEntity
  8
_U+30EC_U+30A4_U+30E4_U+30FC 1
 62
   179
420
  2234388
370
     9
100
AcDb2dPolyline
 66
     1
 10
0.0
 20
0.0
 30
0.0
  0
VERTEX
  5
9E
330
9D
100
AcDbEntity
  8
_U+30EC_U+30A4_U+30E4_U+30FC 1
 62
   179
420
  2234388
370
     9
100
AcDbVertex
100
AcDb2dVertex
 10
100.5013416026638
 20
-126.2515466351037
 30
0.0
  0
VERTEX
  5
9F
330
9D
100
AcDbEntity
  8
_U+30EC_U+30A4_U+30E4_U+30FC 1
 62
   179
420
  2234388
370
     9
100
AcDbVertex
100
AcDb2dVertex
 10
102.4971138632645
 20
-126.2515466351037
 30
0.0
  0
SEQEND
  5
A0
330
9D
100
AcDbEntity
  8
_U+30EC_U+30A4_U+30E4_U+30FC 1
 62
   179
420
  2234388
370
     9
  0
POLYLINE
  5
A1
330
1F
100
AcDbEntity
  8
_U+30EC_U+30A4_U+30E4_U+30FC 1
 62
   179
420
  2234388
370
     9
100
AcDb2dPolyline
 66
     1
 10
0.0
 20
0.0
 30
0.0
  0
VERTEX
  5
A2
330
A1
100
AcDbEntity
  8
_U+30EC_U+30A4_U+30E4_U+30FC 1
 62
   179
420
  2234388
370
     9
100
AcDbVertex
100
AcDb2dVertex
 10
100.5013416026638
 20
-132.7519358001456
 30
0.0
  0
VERTEX
  5
A3
330
A1
100
AcDbEntity
  8
_U+30EC_U+30A4_U+30E4_U+30FC 1
 62
   179
420
  2234388
370
     9
100
AcDbVertex
100
AcDb2dVertex
 10
102.4971138632645
 20
-132.7519358001456
 30
0.0
  0
SEQEND
  5
A4
330
A1
100
AcDbEntity
  8
_U+30EC_U+30A4_U+30E4_U+30FC 1
 62
   179
420
  2234388
370
     9
  0
INSERT
  5
A6
330
1F
100
AcDbEntity
  8
_U+30EC_U+30A4_U+30E4_U+30FC 1
100
AcDbBlockReference
  2
block 4
 10
0.0
 20
0.0
 30
0.0
  0
INSERT
  5
B7
330
1F
100
AcDbEntity
  8
_U+30EC_U+30A4_U+30E4_U+30FC 1
100
AcDbBlockReference
  2
block 5
 10
0.0
 20
0.0
 30
0.0
  0
SPLINE
  5
C6
330
1F
100
AcDbEntity
  8
_U+30EC_U+30A4_U+30E4_U+30FC 1
 62
   179
420
  2234388
370
     9
100
AcDbSpline
210
0.0
220
0.0
230
1.0
 70
    11
 71
     3
 72
    17
 73
    13
 74
     0
 42
0.0000000001
 43
0.0000000001
 12
1.0
 22
0.0
 32
0.0
 13
1.0
 23
0.0
 33
0.0
 40
0.0
 40
0.0
 40
0.0
 40
0.0
 40
1.0
 40
1.0
 40
1.0
 40
2.0
 40
2.0
 40
2.0
 40
3.0
 40
3.0
 40
3.0
 40
4.0
 40
4.0
 40
4.0
 40
4.0
 10
101.5968929636029
 20
-133.7513552443397
 30
0.0
 10
101.5968929636029
 20
-133.695898577687
 30
0.0
 10
101.552125464745
 20
-133.6510957999203
 30
0.0
 10
101.4969888635148
 20
-133.6510957999203
 30
0.0
 10
101.441882412002
 20
-133.6510957999203
 30
0.0
 10
101.3970796353672
 20
-133.695898577687
 30
0.0
 10
101.3970796353672
 20
-133.7513552443397
 30
0.0
 10
101.3970796353672
 20
-133.8064591332153
 30
0.0
 10
101.441882412002
 20
-133.8512619109813
 30
0.0
 10
101.4969888635148
 20
-133.8512619109813
 30
0.0
 10
101.552125464745
 20
-133.8512619109813
 30
0.0
 10
101.5968929636029
 20
-133.8064591332153
 30
0.0
 10
101.5968929636029
 20
-133.7513552443397
 30
0.0
  0
POLYLINE
  5
C7
330
1F
100
AcDbEntity
  8
_U+30EC_U+30A4_U+30E4_U+30FC 1
 62
   179
420
  2234388
370
     9
100
AcDb2dPolyline
 66
     1
 10
0.0
 20
0.0
 30
0.0
  0
VERTEX
  5
C8
330
C7
100
AcDbEntity
  8
_U+30EC_U+30A4_U+30E4_U+30FC 1
 62
   179
420
  2234388
370
     9
100
AcDbVertex
100
AcDb2dVertex
 10
101.4969888635148
 20
-132.1039183003075
 30
0.0
  0
VERTEX
  5
C9
330
C7
100
AcDbEntity
  8
_U+30EC_U+30A4_U+30E4_U+30FC 1
 62
   179
420
  2234388
370
     9
100
AcDbVertex
100
AcDb2dVertex
 10
101.4969888635148
 20
-133.7510024665619
 30
0.0
  0
SEQEND
  5
CA
330
C7
100
AcDbEntity
  8
_U+30EC_U+30A4_U+30E4_U+30FC 1
 62
   179
420
  2234388
370
     9
  0
POLYLINE
  5
CB
330
1F
100
AcDbEntity
  8
_U+30EC_U+30A4_U+30E4_U+30FC 1
 62
   179
420
  2234388
370
     9
100
AcDb2dPolyline
 66
     1
 10
0.0
 20
0.0
 30
0.0
  0
VERTEX
  5
CC
330
CB
100
AcDbEntity
  8
_U+30EC_U+30A4_U+30E4_U+30FC 1
 62
   179
420
  2234388
370
     9
100
AcDbVertex
100
AcDb2dVertex
 10
100.5013416026638
 20
-133.7510024665619
 30
0.0
  0
VERTEX
  5
CD
330
CB
100
AcDbEntity
  8
_U+30EC_U+30A4_U+30E4_U+30FC 1
 62
   179
420
  2234388
370
     9
100
AcDbVertex
100
AcDb2dVertex
 10
102.4971138632645
 20
-133.7510024665619
 30
0.0
  0
SEQEND
  5
CE
330
CB
100
AcDbEntity
  8
_U+30EC_U+30A4_U+30E4_U+30FC 1
 62
   179
420
  2234388
370
     9
  0
INSERT
  5
D0
330
1F
100
AcDbEntity
  8
_U+30EC_U+30A4_U+30E4_U+30FC 1
100
AcDbBlockReference
  2
block 7
 10
0.0
 20
0.0
 30
0.0
  0
ENDSEC
  0
SECTION
  2
OBJECTS
  0
DICTIONARY
  5
C
330
0
100
AcDbDictionary
281
     1
  3
ACAD_GROUP
350
D
  3
ACAD_LAYOUT
350
1A
  3
ACAD_MATERIAL
350
3B
  3
ACAD_MLEADERSTYLE
350
D6
  3
ACAD_MLINESTYLE
350
17
  3
ACAD_PLOTSETTINGS
350
19
  3
ACAD_PLOTSTYLENAME
350
E
  3
ACAD_TABLESTYLE
350
D5
  3
ACAD_VISUALSTYLE
350
2A
  0
SUN
  5
3F
330
29
100
AcDbSun
 90
        1
290
     0
 63
     7
421
 16777215
 40
1.0
291
     1
 91
  2455826
 92
 54000000
292
     0
 70
     2
 71
   256
280
     1
  0
DICTIONARY
  5
D
102
{ACAD_REACTORS
330
C
102
}
330
C
100
AcDbDictionary
281
     1
  0
DICTIONARY
  5
1A
102
{ACAD_REACTORS
330
C
102
}
330
C
100
AcDbDictionary
281
     1
  3
Layout1
350
1E
  3
Layout2
350
26
  3
Model
350
22
  0
DICTIONARY
  5
3B
102
{ACAD_REACTORS
330
C
102
}
330
C
100
AcDbDictionary
281
     1
  3
ByBlock
350
3D
  3
ByLayer
350
3C
  3
Global
350
3E
  0
DICTIONARY
  5
D6
102
{ACAD_REACTORS
330
C
102
}
330
C
100
AcDbDictionary
281
     1
  0
DICTIONARY
  5
17
102
{ACAD_REACTORS
330
C
102
}
330
C
100
AcDbDictionary
281
     1
  3
Standard
350
18
  0
DICTIONARY
  5
19
102
{ACAD_REACTORS
330
C
102
}
330
C
100
AcDbDictionary
281
     1
  0
ACDBDICTIONARYWDFLT
  5
E
102
{ACAD_REACTORS
330
C
102
}
330
C
100
AcDbDictionary
281
     1
  3
Normal
350
F
100
AcDbDictionaryWithDefault
340
F
  0
DICTIONARY
  5
D5
102
{ACAD_REACTORS
330
C
102
}
330
C
100
AcDbDictionary
281
     1
  0
DICTIONARY
  5
2A
102
{ACAD_REACTORS
330
C
102
}
330
C
100
AcDbDictionary
281
     1
  3
2dWireframe
350
2F
  3
3D Hidden
350
31
  3
3dWireframe
350
30
  3
Basic
350
32
  3
Brighten
350
36
  3
ColorChange
350
3A
  3
Conceptual
350
34
  3
Dim
350
35
  3
Facepattern
350
39
  3
Flat
350
2B
  3
FlatWithEdges
350
2C
  3
Gouraud
350
2D
  3
GouraudWithEdges
350
2E
  3
Linepattern
350
38
  3
Realistic
350
33
  3
Thicken
350
37
  0
LAYOUT
  5
1E
102
{ACAD_REACTORS
330
1A
102
}
330
1A
100
AcDbPlotSettings
  1

  2
none_device
  4

  6

 40
0.0
 41
0.0
 42
0.0
 43
0.0
 44
0.0
 45
0.0
 46
0.0
 47
0.0
 48
0.0
 49
0.0
140
0.0
141
0.0
142
1.0
143
1.0
 70
   688
 72
     0
 73
     0
 74
     5
  7

 75
    16
 76
     0
 77
     2
 78
   300
147
1.0
148
0.0
149
0.0
100
AcDbLayout
  1
Layout1
 70
     1
 71
     1
 10
0.0
 20
0.0
 11
12.0
 21
9.0
 12
0.0
 22
0.0
 32
0.0
 14
1.000000000000000E+20
 24
1.000000000000000E+20
 34
1.000000000000000E+20
 15
-1.000000000000000E+20
 25
-1.000000000000000E+20
 35
-1.000000000000000E+20
146
0.0
 13
0.0
 23
0.0
 33
0.0
 16
1.0
 26
0.0
 36
0.0
 17
0.0
 27
1.0
 37
0.0
 76
     0
330
1B
  0
LAYOUT
  5
26
102
{ACAD_REACTORS
330
1A
102
}
330
1A
100
AcDbPlotSettings
  1

  2
none_device
  4

  6

 40
0.0
 41
0.0
 42
0.0
 43
0.0
 44
0.0
 45
0.0
 46
0.0
 47
0.0
 48
0.0
 49
0.0
140
0.0
141
0.0
142
1.0
143
1.0
 70
   688
 72
     0
 73
     0
 74
     5
  7

 75
    16
 76
     0
 77
     2
 78
   300
147
1.0
148
0.0
149
0.0
100
AcDbLayout
  1
Layout2
 70
     1
 71
     2
 10
0.0
 20
0.0
 11
0.0
 21
0.0
 12
0.0
 22
0.0
 32
0.0
 14
0.0
 24
0.0
 34
0.0
 15
0.0
 25
0.0
 35
0.0
146
0.0
 13
0.0
 23
0.0
 33
0.0
 16
1.0
 26
0.0
 36
0.0
 17
0.0
 27
1.0
 37
0.0
 76
     0
330
23
  0
LAYOUT
  5
22
102
{ACAD_REACTORS
330
1A
102
}
330
1A
100
AcDbPlotSettings
  1

  2
none_device
  4

  6

 40
0.0
 41
0.0
 42
0.0
 43
0.0
 44
0.0
 45
0.0
 46
0.0
 47
0.0
 48
0.0
 49
0.0
140
0.0
141
0.0
142
1.0
143
1.0
 70
  1712
 72
     0
 73
     0
 74
     0
  7

 75
     0
 76
     0
 77
     2
 78
   300
147
1.0
148
0.0
149
0.0
100
AcDbLayout
  1
Model
 70
     1
 71
     0
 10
0.0
 20
0.0
 11
12.0
 21
9.0
 12
0.0
 22
0.0
 32
0.0
 14
1.000000000000000E+20
 24
1.000000000000000E+20
 34
1.000000000000000E+20
 15
-1.000000000000000E+20
 25
-1.000000000000000E+20
 35
-1.000000000000000E+20
146
0.0
 13
0.0
 23
0.0
 33
0.0
 16
1.0
 26
0.0
 36
0.0
 17
0.0
 27
1.0
 37
0.0
 76
     0
330
1F
331
29
  0
MATERIAL
  5
3D
102
{ACAD_REACTORS
330
3B
102
}
330
3B
100
AcDbMaterial
  1
ByBlock
 72
     1
 94
      127
  0
MATERIAL
  5
3C
102
{ACAD_REACTORS
330
3B
102
}
330
3B
100
AcDbMaterial
  1
ByLayer
 72
     1
 94
      127
  0
MATERIAL
  5
3E
102
{ACAD_REACTORS
330
3B
102
}
330
3B
100
AcDbMaterial
  1
Global
 72
     1
 94
      127
  0
MLINESTYLE
  5
18
102
{ACAD_REACTORS
330
17
102
}
330
17
100
AcDbMlineStyle
  2
Standard
 70
     0
  3

 62
   256
 51
90.0
 52
90.0
 71
     2
 49
0.5
 62
   256
  6
BYLAYER
 49
-0.5
 62
   256
  6
BYLAYER
  0
ACDBPLACEHOLDER
  5
F
102
{ACAD_REACTORS
330
E
102
}
330
E
  0
VISUALSTYLE
  5
2F
102
{ACAD_REACTORS
330
2A
102
}
330
2A
100
AcDbVisualStyle
  2
2dWireframe
 70
     4
177
     2
291
     0
 71
     0
176
     1
 72
     2
176
     1
 73
     0
176
     1
 90
        0
176
     1
 40
-0.6
176
     1
 41
-30.0
176
     1
 62
     5
 63
     7
421
 16777215
176
     1
 74
     1
176
     1
 91
        4
176
     1
 64
     7
176
     1
 65
   257
176
     1
 75
     1
176
     1
175
     1
176
     1
 42
1.0
176
     1
 92
        0
176
     1
 66
   257
176
     1
 43
1.0
176
     1
 76
     1
176
     1
 77
     6
176
     1
 78
     2
176
     1
 67
     7
176
     1
 79
     5
176
     1
170
     0
176
     1
171
     0
176
     1
290
     0
176
     1
 93
        1
176
     1
 44
0.0
176
     1
173
     0
176
     1
  0
VISUALSTYLE
  5
31
102
{ACAD_REACTORS
330
2A
102
}
330
2A
100
AcDbVisualStyle
  2
3D Hidden
 70
     6
177
     2
291
     0
 71
     1
176
     1
 72
     2
176
     1
 73
     2
176
     1
 90
        0
176
     1
 40
-0.6
176
     1
 41
-30.0
176
     1
 62
     5
 63
     7
421
 16777215
176
     1
 74
     2
176
     1
 91
        2
176
     1
 64
     7
176
     1
 65
   257
176
     1
 75
     2
176
     1
175
     1
176
     1
 42
40.0
176
     1
 92
        0
176
     1
 66
   257
176
     1
 43
1.0
176
     1
 76
     1
176
     1
 77
     6
176
     1
 78
     2
176
     1
 67
     7
176
     1
 79
     3
176
     1
170
     0
176
     1
171
     0
176
     1
290
     0
176
     1
 93
        1
176
     1
 44
0.0
176
     1
173
     0
176
     1
  0
VISUALSTYLE
  5
30
102
{ACAD_REACTORS
330
2A
102
}
330
2A
100
AcDbVisualStyle
  2
3dWireframe
 70
     5
177
     2
291
     0
 71
     0
176
     1
 72
     2
176
     1
 73
     0
176
     1
 90
        0
176
     1
 40
-0.6
176
     1
 41
-30.0
176
     1
 62
     5
 63
     7
421
 16777215
176
     1
 74
     1
176
     1
 91
        4
176
     1
 64
     7
176
     1
 65
   257
176
     1
 75
     1
176
     1
175
     1
176
     1
 42
1.0
176
     1
 92
        0
176
     1
 66
   257
176
     1
 43
1.0
176
     1
 76
     1
176
     1
 77
     6
176
     1
 78
     2
176
     1
 67
     7
176
     1
 79
     5
176
     1
170
     0
176
     1
171
     0
176
     1
290
     0
176
     1
 93
        1
176
     1
 44
0.0
176
     1
173
     0
176
     1
  0
VISUALSTYLE
  5
32
102
{ACAD_REACTORS
330
2A
102
}
330
2A
100
AcDbVisualStyle
  2
Basic
 70
     7
177
     2
291
     1
 71
     1
176
     1
 72
     0
176
     1
 73
     1
176
     1
 90
        0
176
     1
 40
-0.6
176
     1
 41
-30.0
176
     1
 62
     5
 63
     7
421
 16777215
176
     1
 74
     0
176
     1
 91
        4
176
     1
 64
     7
176
     1
 65
   257
176
     1
 75
     1
176
     1
175
     1
176
     1
 42
1.0
176
     1
 92
        8
176
     1
 66
     7
176
     1
 43
1.0
176
     1
 76
     1
176
     1
 77
     6
176
     1
 78
     2
176
     1
 67
     7
176
     1
 79
     5
176
     1
170
     0
176
     1
171
     0
176
     1
290
     0
176
     1
 93
        1
176
     1
 44
0.0
176
     1
173
     0
176
     1
  0
VISUALSTYLE
  5
36
102
{ACAD_REACTORS
330
2A
102
}
330
2A
100
AcDbVisualStyle
  2
Brighten
 70
    12
177
     2
291
     1
 71
     2
176
     1
 72
     2
176
     1
 73
     0
176
     1
 90
        0
176
     1
 40
-0.6
176
     1
 41
-30.0
176
     1
 62
     5
 63
     7
421
 16777215
176
     1
 74
     1
176
     1
 91
        4
176
     1
 64
     7
176
     1
 65
   257
176
     1
 75
     1
176
     1
175
     1
176
     1
 42
1.0
176
     1
 92
        8
176
     1
 66
     7
176
     1
 43
1.0
176
     1
 76
     1
176
     1
 77
     6
176
     1
 78
     2
176
     1
 67
     7
176
     1
 79
     5
176
     1
170
     0
176
     1
171
     0
176
     1
290
     0
176
     1
 93
        1
176
     1
 44
50.0
176
     1
173
     0
176
     1
  0
VISUALSTYLE
  5
3A
102
{ACAD_REACTORS
330
2A
102
}
330
2A
100
AcDbVisualStyle
  2
ColorChange
 70
    16
177
     2
291
     1
 71
     2
176
     1
 72
     2
176
     1
 73
     3
176
     1
 90
        0
176
     1
 40
-0.6
176
     1
 41
-30.0
176
     1
 62
     5
 63
     8
421
  8421504
176
     1
 74
     1
176
     1
 91
        4
176
     1
 64
     7
176
     1
 65
   257
176
     1
 75
     1
176
     1
175
     1
176
     1
 42
1.0
176
     1
 92
        8
176
     1
 66
     8
424
  8421504
176
     1
 43
1.0
176
     1
 76
     1
176
     1
 77
     6
176
     1
 78
     2
176
     1
 67
     7
176
     1
 79
     5
176
     1
170
     0
176
     1
171
     0
176
     1
290
     0
176
     1
 93
        1
176
     1
 44
0.0
176
     1
173
     0
176
     1
  0
VISUALSTYLE
  5
34
102
{ACAD_REACTORS
330
2A
102
}
330
2A
100
AcDbVisualStyle
  2
Conceptual
 70
     9
177
     2
291
     0
 71
     3
176
     1
 72
     2
176
     1
 73
     0
176
     1
 90
        0
176
     1
 40
-0.6
176
     1
 41
-30.0
176
     1
 62
     5
 63
     7
421
 16777215
176
     1
 74
     2
176
     1
 91
        2
176
     1
 64
     7
176
     1
 65
   257
176
     1
 75
     1
176
     1
175
     1
176
     1
 42
40.0
176
     1
 92
        8
176
     1
 66
     7
176
     1
 43
1.0
176
     1
 76
     1
176
     1
 77
     6
176
     1
 78
     2
176
     1
 67
     7
176
     1
 79
     3
176
     1
170
     0
176
     1
171
     0
176
     1
290
     0
176
     1
 93
        1
176
     1
 44
0.0
176
     1
173
     0
176
     1
  0
VISUALSTYLE
  5
35
102
{ACAD_REACTORS
330
2A
102
}
330
2A
100
AcDbVisualStyle
  2
Dim
 70
    11
177
     2
291
     1
 71
     2
176
     1
 72
     2
176
     1
 73
     0
176
     1
 90
        0
176
     1
 40
-0.6
176
     1
 41
-30.0
176
     1
 62
     5
 63
     7
421
 16777215
176
     1
 74
     1
176
     1
 91
        4
176
     1
 64
     7
176
     1
 65
   257
176
     1
 75
     1
176
     1
175
     1
176
     1
 42
1.0
176
     1
 92
        8
176
     1
 66
     7
176
     1
 43
1.0
176
     1
 76
     1
176
     1
 77
     6
176
     1
 78
     2
176
     1
 67
     7
176
     1
 79
     5
176
     1
170
     0
176
     1
171
     0
176
     1
290
     0
176
     1
 93
        1
176
     1
 44
-50.0
176
     1
173
     0
176
     1
  0
VISUALSTYLE
  5
39
102
{ACAD_REACTORS
330
2A
102
}
330
2A
100
AcDbVisualStyle
  2
Facepattern
 70
    15
177
     2
291
     1
 71
     2
176
     1
 72
     2
176
     1
 73
     0
176
     1
 90
        0
176
     1
 40
-0.6
176
     1
 41
-30.0
176
     1
 62
     5
 63
     7
421
 16777215
176
     1
 74
     1
176
     1
 91
        4
176
     1
 64
     7
176
     1
 65
   257
176
     1
 75
     1
176
     1
175
     1
176
     1
 42
1.0
176
     1
 92
        8
176
     1
 66
     7
176
     1
 43
1.0
176
     1
 76
     1
176
     1
 77
     6
176
     1
 78
     2
176
     1
 67
     7
176
     1
 79
     5
176
     1
170
     0
176
     1
171
     0
176
     1
290
     0
176
     1
 93
        1
176
     1
 44
0.0
176
     1
173
     0
176
     1
  0
VISUALSTYLE
  5
2B
102
{ACAD_REACTORS
330
2A
102
}
330
2A
100
AcDbVisualStyle
  2
Flat
 70
     0
177
     2
291
     1
 71
     2
176
     1
 72
     1
176
     1
 73
     1
176
     1
 90
        2
176
     1
 40
-0.6
176
     1
 41
30.0
176
     1
 62
     5
 63
     7
421
 16777215
176
     1
 74
     0
176
     1
 91
        4
176
     1
 64
     7
176
     1
 65
   257
176
     1
 75
     1
176
     1
175
     1
176
     1
 42
1.0
176
     1
 92
        8
176
     1
 66
     7
176
     1
 43
1.0
176
     1
 76
     1
176
     1
 77
     6
176
     1
 78
     2
176
     1
 67
     7
176
     1
 79
     5
176
     1
170
     0
176
     1
171
     0
176
     1
290
     0
176
     1
 93
       13
176
     1
 44
0.0
176
     1
173
     0
176
     1
  0
VISUALSTYLE
  5
2C
102
{ACAD_REACTORS
330
2A
102
}
330
2A
100
AcDbVisualStyle
  2
FlatWithEdges
 70
     1
177
     2
291
     1
 71
     2
176
     1
 72
     1
176
     1
 73
     1
176
     1
 90
        2
176
     1
 40
-0.6
176
     1
 41
30.0
176
     1
 62
     5
 63
     7
421
 16777215
176
     1
 74
     1
176
     1
 91
        4
176
     1
 64
     7
176
     1
 65
   257
176
     1
 75
     1
176
     1
175
     1
176
     1
 42
1.0
176
     1
 92
        0
176
     1
 66
   257
176
     1
 43
1.0
176
     1
 76
     1
176
     1
 77
     6
176
     1
 78
     2
176
     1
 67
     7
176
     1
 79
     5
176
     1
170
     0
176
     1
171
     0
176
     1
290
     0
176
     1
 93
       13
176
     1
 44
0.0
176
     1
173
     0
176
     1
  0
VISUALSTYLE
  5
2D
102
{ACAD_REACTORS
330
2A
102
}
330
2A
100
AcDbVisualStyle
  2
Gouraud
 70
     2
177
     2
291
     1
 71
     2
176
     1
 72
     2
176
     1
 73
     1
176
     1
 90
        2
176
     1
 40
-0.6
176
     1
 41
30.0
176
     1
 62
     5
 63
     7
421
 16777215
176
     1
 74
     0
176
     1
 91
        4
176
     1
 64
     7
176
     1
 65
   257
176
     1
 75
     1
176
     1
175
     1
176
     1
 42
1.0
176
     1
 92
        0
176
     1
 66
     7
176
     1
 43
1.0
176
     1
 76
     1
176
     1
 77
     6
176
     1
 78
     2
176
     1
 67
     7
176
     1
 79
     5
176
     1
170
     0
176
     1
171
     0
176
     1
290
     0
176
     1
 93
       13
176
     1
 44
0.0
176
     1
173
     0
176
     1
  0
VISUALSTYLE
  5
2E
102
{ACAD_REACTORS
330
2A
102
}
330
2A
100
AcDbVisualStyle
  2
GouraudWithEdges
 70
     3
177
     2
291
     1
 71
     2
176
     1
 72
     2
176
     1
 73
     1
176
     1
 90
        2
176
     1
 40
-0.6
176
     1
 41
30.0
176
     1
 62
     5
 63
     7
421
 16777215
176
     1
 74
     1
176
     1
 91
        4
176
     1
 64
     7
176
     1
 65
   257
176
     1
 75
     1
176
     1
175
     1
176
     1
 42
1.0
176
     1
 92
        0
176
     1
 66
   257
176
     1
 43
1.0
176
     1
 76
     1
176
     1
 77
     6
176
     1
 78
     2
176
     1
 67
     7
176
     1
 79
     5
176
     1
170
     0
176
     1
171
     0
176
     1
290
     0
176
     1
 93
       13
176
     1
 44
0.0
176
     1
173
     0
176
     1
  0
VISUALSTYLE
  5
38
102
{ACAD_REACTORS
330
2A
102
}
330
2A
100
AcDbVisualStyle
  2
Linepattern
 70
    14
177
     2
291
     1
 71
     2
176
     1
 72
     2
176
     1
 73
     0
176
     1
 90
        0
176
     1
 40
-0.6
176
     1
 41
-30.0
176
     1
 62
     5
 63
     7
421
 16777215
176
     1
 74
     1
176
     1
 91
        4
176
     1
 64
     7
176
     1
 65
   257
176
     1
 75
     7
176
     1
175
     7
176
     1
 42
1.0
176
     1
 92
        8
176
     1
 66
     7
176
     1
 43
1.0
176
     1
 76
     1
176
     1
 77
     6
176
     1
 78
     2
176
     1
 67
     7
176
     1
 79
     5
176
     1
170
     0
176
     1
171
     0
176
     1
290
     0
176
     1
 93
        1
176
     1
 44
0.0
176
     1
173
     0
176
     1
  0
VISUALSTYLE
  5
33
102
{ACAD_REACTORS
330
2A
102
}
330
2A
100
AcDbVisualStyle
  2
Realistic
 70
     8
177
     2
291
     0
 71
     2
176
     1
 72
     2
176
     1
 73
     0
176
     1
 90
        0
176
     1
 40
-0.6
176
     1
 41
-30.0
176
     1
 62
     5
 63
     7
421
 16777215
176
     1
 74
     1
176
     1
 91
        0
176
     1
 64
     7
176
     1
 65
   257
176
     1
 75
     1
176
     1
175
     1
176
     1
 42
1.0
176
     1
 92
        8
176
     1
 66
     8
424
  7895160
176
     1
 43
1.0
176
     1
 76
     1
176
     1
 77
     6
176
     1
 78
     2
176
     1
 67
     7
176
     1
 79
     5
176
     1
170
     0
176
     1
171
     0
176
     1
290
     0
176
     1
 93
       13
176
     1
 44
0.0
176
     1
173
     0
176
     1
  0
VISUALSTYLE
  5
37
102
{ACAD_REACTORS
330
2A
102
}
330
2A
100
AcDbVisualStyle
  2
Thicken
 70
    13
177
     2
291
     1
 71
     2
176
     1
 72
     2
176
     1
 73
     0
176
     1
 90
        0
176
     1
 40
-0.6
176
     1
 41
-30.0
176
     1
 62
     5
 63
     7
421
 16777215
176
     1
 74
     1
176
     1
 91
        4
176
     1
 64
     7
176
     1
 65
   257
176
     1
 75
     1
176
     1
175
     1
176
     1
 42
1.0
176
     1
 92
       12
176
     1
 66
     7
176
     1
 43
1.0
176
     1
 76
     1
176
     1
 77
     6
176
     1
 78
     2
176
     1
 67
     7
176
     1
 79
     5
176
     1
170
     0
176
     1
171
     0
176
     1
290
     0
176
     1
 93
        1
176
     1
 44
0.0
176
     1
173
     0
176
     1
  0
ENDSEC
  0
EOF
