  0
SECTION
  2
HEADER
  9
$ACADVER
  1
AC1024
  9
$ACADMAINTVER
 70
     6
  9
$DWGCODEPAGE
  3
UNDEFINED
  9
$INSBASE
 10
0.0
 20
0.0
 30
0.0
  9
$EXTMIN
 10
1.000000000000000E+20
 20
1.000000000000000E+20
 30
1.000000000000000E+20
  9
$EXTMAX
 10
-1.000000000000000E+20
 20
-1.000000000000000E+20
 30
-1.000000000000000E+20
  9
$LIMMIN
 10
0.0
 20
0.0
  9
$LIMMAX
 10
12.0
 20
9.0
  9
$ORTHOMODE
 70
     0
  9
$REGENMODE
 70
     1
  9
$FILLMODE
 70
     1
  9
$QTEXTMODE
 70
     0
  9
$MIRRTEXT
 70
     1
  9
$LTSCALE
 40
1.0
  9
$ATTMODE
 70
     1
  9
$TEXTSIZE
 40
0.2
  9
$TRACEWID
 40
0.05
  9
$TEXTSTYLE
  7
Standard
  9
$CLAYER
  8
0
  9
$CELTYPE
  6
ByLayer
  9
$CECOLOR
 62
   256
  9
$CELTSCALE
 40
1.0
  9
$DISPSILH
 70
     0
  9
$DIMSCALE
 40
1.0
  9
$DIMASZ
 40
0.18
  9
$DIMEXO
 40
0.0625
  9
$DIMDLI
 40
0.38
  9
$DIMRND
 40
0.0
  9
$DIMDLE
 40
0.0
  9
$DIMEXE
 40
0.18
  9
$DIMTP
 40
0.0
  9
$DIMTM
 40
0.0
  9
$DIMTXT
 40
0.18
  9
$DIMCEN
 40
0.09
  9
$DIMTSZ
 40
0.0
  9
$DIMTOL
 70
     0
  9
$DIMLIM
 70
     0
  9
$DIMTIH
 70
     1
  9
$DIMTOH
 70
     1
  9
$DIMSE1
 70
     0
  9
$DIMSE2
 70
     0
  9
$DIMTAD
 70
     0
  9
$DIMZIN
 70
     0
  9
$DIMBLK
  1

  9
$DIMASO
 70
     1
  9
$DIMSHO
 70
     1
  9
$DIMPOST
  1

  9
$DIMAPOST
  1

  9
$DIMALT
 70
     0
  9
$DIMALTD
 70
     2
  9
$DIMALTF
 40
25.4
  9
$DIMLFAC
 40
1.0
  9
$DIMTOFL
 70
     0
  9
$DIMTVP
 40
0.0
  9
$DIMTIX
 70
     0
  9
$DIMSOXD
 70
     0
  9
$DIMSAH
 70
     0
  9
$DIMBLK1
  1

  9
$DIMBLK2
  1

  9
$DIMSTYLE
  2
Standard
  9
$DIMCLRD
 70
     0
  9
$DIMCLRE
 70
     0
  9
$DIMCLRT
 70
     0
  9
$DIMTFAC
 40
1.0
  9
$DIMGAP
 40
0.09
  9
$DIMJUST
 70
     0
  9
$DIMSD1
 70
     0
  9
$DIMSD2
 70
     0
  9
$DIMTOLJ
 70
     1
  9
$DIMTZIN
 70
     0
  9
$DIMALTZ
 70
     0
  9
$DIMALTTZ
 70
     0
  9
$DIMUPT
 70
     0
  9
$DIMDEC
 70
     4
  9
$DIMTDEC
 70
     4
  9
$DIMALTU
 70
     2
  9
$DIMALTTD
 70
     2
  9
$DIMTXSTY
  7
Standard
  9
$DIMAUNIT
 70
     0
  9
$DIMADEC
 70
     0
  9
$DIMALTRND
 40
0.0
  9
$DIMAZIN
 70
     0
  9
$DIMDSEP
 70
    46
  9
$DIMATFIT
 70
     3
  9
$DIMFRAC
 70
     0
  9
$DIMLDRBLK
  1

  9
$DIMLUNIT
 70
     2
  9
$DIMLWD
 70
    -2
  9
$DIMLWE
 70
    -2
  9
$DIMTMOVE
 70
     0
  9
$DIMFXL
 40
1.0
  9
$DIMFXLON
 70
     0
  9
$DIMJOGANG
 40
0.7853981633974483
  9
$DIMTFILL
 70
     0
  9
$DIMTFILLCLR
 70
     0
  9
$DIMARCSYM
 70
     0
  9
$DIMLTYPE
  6

  9
$DIMLTEX1
  6

  9
$DIMLTEX2
  6

  9
$DIMTXTDIRECTION
 70
     0
  9
$LUNITS
 70
     2
  9
$LUPREC
 70
     4
  9
$SKETCHINC
 40
0.1
  9
$FILLETRAD
 40
0.5
  9
$AUNITS
 70
     0
  9
$AUPREC
 70
     0
  9
$MENU
  1
.
  9
$ELEVATION
 40
0.0
  9
$PELEVATION
 40
0.0
  9
$THICKNESS
 40
0.0
  9
$LIMCHECK
 70
     0
  9
$CHAMFERA
 40
0.5
  9
$CHAMFERB
 40
0.5
  9
$CHAMFERC
 40
1.0
  9
$CHAMFERD
 40
0.0
  9
$SKPOLY
 70
     0
  9
$TDCREATE
 40
2457917.618356482
  9
$TDUCREATE
 40
2457917.243356482
  9
$TDUPDATE
 40
2457917.618356482
  9
$TDUUPDATE
 40
2457917.243356482
  9
$TDINDWG
 40
0.0000000116
  9
$TDUSRTIMER
 40
0.0000000116
  9
$USRTIMER
 70
     1
  9
$ANGBASE
 50
0.0
  9
$ANGDIR
 70
     0
  9
$PDMODE
 70
     0
  9
$PDSIZE
 40
0.0
  9
$PLINEWID
 40
0.0
  9
$SPLFRAME
 70
     0
  9
$SPLINETYPE
 70
     6
  9
$SPLINESEGS
 70
     8
  9
$HANDSEED
  5
D6
  9
$SURFTAB1
 70
     6
  9
$SURFTAB2
 70
     6
  9
$SURFTYPE
 70
     6
  9
$SURFU
 70
     6
  9
$SURFV
 70
     6
  9
$UCSBASE
  2

  9
$UCSNAME
  2

  9
$UCSORG
 10
0.0
 20
0.0
 30
0.0
  9
$UCSXDIR
 10
1.0
 20
0.0
 30
0.0
  9
$UCSYDIR
 10
0.0
 20
1.0
 30
0.0
  9
$UCSORTHOREF
  2

  9
$UCSORTHOVIEW
 70
     0
  9
$UCSORGTOP
 10
0.0
 20
0.0
 30
0.0
  9
$UCSORGBOTTOM
 10
0.0
 20
0.0
 30
0.0
  9
$UCSORGLEFT
 10
0.0
 20
0.0
 30
0.0
  9
$UCSORGRIGHT
 10
0.0
 20
0.0
 30
0.0
  9
$UCSORGFRONT
 10
0.0
 20
0.0
 30
0.0
  9
$UCSORGBACK
 10
0.0
 20
0.0
 30
0.0
  9
$PUCSBASE
  2

  9
$PUCSNAME
  2

  9
$PUCSORG
 10
0.0
 20
0.0
 30
0.0
  9
$PUCSXDIR
 10
1.0
 20
0.0
 30
0.0
  9
$PUCSYDIR
 10
0.0
 20
1.0
 30
0.0
  9
$PUCSORTHOREF
  2

  9
$PUCSORTHOVIEW
 70
     0
  9
$PUCSORGTOP
 10
0.0
 20
0.0
 30
0.0
  9
$PUCSORGBOTTOM
 10
0.0
 20
0.0
 30
0.0
  9
$PUCSORGLEFT
 10
0.0
 20
0.0
 30
0.0
  9
$PUCSORGRIGHT
 10
0.0
 20
0.0
 30
0.0
  9
$PUCSORGFRONT
 10
0.0
 20
0.0
 30
0.0
  9
$PUCSORGBACK
 10
0.0
 20
0.0
 30
0.0
  9
$USERI1
 70
     0
  9
$USERI2
 70
     0
  9
$USERI3
 70
     0
  9
$USERI4
 70
     0
  9
$USERI5
 70
     0
  9
$USERR1
 40
0.0
  9
$USERR2
 40
0.0
  9
$USERR3
 40
0.0
  9
$USERR4
 40
0.0
  9
$USERR5
 40
0.0
  9
$WORLDVIEW
 70
     1
  9
$SHADEDGE
 70
     3
  9
$SHADEDIF
 70
    70
  9
$TILEMODE
 70
     1
  9
$MAXACTVP
 70
    64
  9
$PINSBASE
 10
0.0
 20
0.0
 30
0.0
  9
$PLIMCHECK
 70
     0
  9
$PEXTMIN
 10
1.000000000000000E+20
 20
1.000000000000000E+20
 30
1.000000000000000E+20
  9
$PEXTMAX
 10
-1.000000000000000E+20
 20
-1.000000000000000E+20
 30
-1.000000000000000E+20
  9
$PLIMMIN
 10
0.0
 20
0.0
  9
$PLIMMAX
 10
12.0
 20
9.0
  9
$UNITMODE
 70
     0
  9
$VISRETAIN
 70
     1
  9
$PLINEGEN
 70
     0
  9
$PSLTSCALE
 70
     1
  9
$TREEDEPTH
 70
  3020
  9
$CMLSTYLE
  2
Standard
  9
$CMLJUST
 70
     0
  9
$CMLSCALE
 40
1.0
  9
$PROXYGRAPHICS
 70
     1
  9
$MEASUREMENT
 70
     0
  9
$CELWEIGHT
370
    -1
  9
$ENDCAPS
280
     0
  9
$JOINSTYLE
280
     0
  9
$LWDISPLAY
290
     1
  9
$INSUNITS
 70
     1
  9
$HYPERLINKBASE
  1

  9
$STYLESHEET
  1

  9
$XEDIT
290
     1
  9
$CEPSNTYPE
380
     0
  9
$PSTYLEMODE
290
     1
  9
$FINGERPRINTGUID
  2
{F390B0BB-82E5-F16D-21B8-0A8A5CFD4FA2}
  9
$VERSIONGUID
  2
{FAEB1C32-E019-11D5-929B-00C0DF256EC4}
  9
$EXTNAMES
290
     1
  9
$PSVPSCALE
 40
0.0
  9
$OLESTARTUP
290
     0
  9
$SORTENTS
280
   127
  9
$INDEXCTL
280
     0
  9
$HIDETEXT
280
     1
  9
$XCLIPFRAME
280
     2
  9
$HALOGAP
280
     0
  9
$OBSCOLOR
 70
   257
  9
$OBSLTYPE
280
     0
  9
$INTERSECTIONDISPLAY
280
     0
  9
$INTERSECTIONCOLOR
 70
   257
  9
$DIMASSOC
280
     2
  9
$PROJECTNAME
  1

  9
$CAMERADISPLAY
290
     0
  9
$LENSLENGTH
 40
50.0
  9
$CAMERAHEIGHT
 40
0.0
  9
$STEPSPERSEC
 40
2.0
  9
$STEPSIZE
 40
6.0
  9
$3DDWFPREC
 40
2.0
  9
$PSOLWIDTH
 40
0.25
  9
$PSOLHEIGHT
 40
4.0
  9
$LOFTANG1
 40
1.570796326794897
  9
$LOFTANG2
 40
1.570796326794897
  9
$LOFTMAG1
 40
0.0
  9
$LOFTMAG2
 40
0.0
  9
$LOFTPARAM
 70
     7
  9
$LOFTNORMALS
280
     1
  9
$LATITUDE
 40
37.795
  9
$LONGITUDE
 40
-122.394
  9
$NORTHDIRECTION
 40
0.0
  9
$TIMEZONE
 70
 -8000
  9
$LIGHTGLYPHDISPLAY
280
     1
  9
$TILEMODELIGHTSYNCH
280
     1
  9
$CMATERIAL
347
3C
  9
$SOLIDHIST
280
     1
  9
$SHOWHIST
280
     1
  9
$DWFFRAME
280
     2
  9
$DGNFRAME
280
     2
  9
$REALWORLDSCALE
290
     1
  9
$INTERFERECOLOR
 62
   256
  9
$CSHADOW
280
     0
  9
$SHADOWPLANELOCATION
 40
0.0
  0
ENDSEC
  0
SECTION
  2
CLASSES
  0
CLASS
  1
ACDBDICTIONARYWDFLT
  2
AcDbDictionaryWithDefault
  3
ObjectDBX Classes
 90
        0
 91
        4
280
     0
281
     0
  0
CLASS
  1
VISUALSTYLE
  2
AcDbVisualStyle
  3
ObjectDBX Classes
 90
     4095
 91
        4
280
     0
281
     0
  0
CLASS
  1
MATERIAL
  2
AcDbMaterial
  3
ObjectDBX Classes
 90
     1153
 91
        4
280
     0
281
     0
  0
CLASS
  1
SUN
  2
AcDbSun
  3
SCENEOE
 90
     1024
 91
        4
280
     0
281
     0
  0
ENDSEC
  0
SECTION
  2
TABLES
  0
TABLE
  2
VPORT
  5
8
330
0
100
AcDbSymbolTable
 70
     1
  0
VPORT
  5
29
330
8
100
AcDbSymbolTableRecord
100
AcDbViewportTableRecord
  2
*Active
 70
     0
 10
0.0
 20
0.0
 11
1.0
 21
1.0
 12
0.0
 22
0.0
 13
0.0
 23
0.0
 14
0.5
 24
0.5
 15
0.5
 25
0.5
 16
0.0
 26
0.0
 36
1.0
 17
91.00082462281999
 27
-128.4993055234307
 37
0.0
 40
256.9986110468615
 41
0.7081814508812795
 42
50.0
 43
0.0
 44
0.0
 50
0.0
 51
0.0
 71
     0
 72
   100
 73
     1
 74
     3
 75
     0
 76
     0
 77
     0
 78
     0
281
     0
 65
     1
110
0.0
120
0.0
130
0.0
111
1.0
121
0.0
131
0.0
112
0.0
122
1.0
132
0.0
 79
     0
146
0.0
 60
     3
 61
     5
292
     1
282
     1
141
0.0
142
0.0
 63
   250
361
3F
  0
ENDTAB
  0
TABLE
  2
LTYPE
  5
5
330
0
100
AcDbSymbolTable
 70
     1
  0
LTYPE
  5
14
330
5
100
AcDbSymbolTableRecord
100
AcDbLinetypeTableRecord
  2
ByBlock
 70
     0
  3

 72
    65
 73
     0
 40
0.0
  0
LTYPE
  5
15
330
5
100
AcDbSymbolTableRecord
100
AcDbLinetypeTableRecord
  2
ByLayer
 70
     0
  3

 72
    65
 73
     0
 40
0.0
  0
LTYPE
  5
16
330
5
100
AcDbSymbolTableRecord
100
AcDbLinetypeTableRecord
  2
Continuous
 70
     0
  3
Solid line
 72
    65
 73
     0
 40
0.0
  0
ENDTAB
  0
TABLE
  2
LAYER
  5
2
330
0
100
AcDbSymbolTable
 70
     2
  0
LAYER
  5
10
330
2
100
AcDbSymbolTableRecord
100
AcDbLayerTableRecord
  2
0
 70
     0
 62
     7
  6
Continuous
370
    -3
390
F
347
3E
  0
LAYER
  5
40
330
2
100
AcDbSymbolTableRecord
100
AcDbLayerTableRecord
  2
_U+30EC_U+30A4_U+30E4_U+30FC 1
 70
     0
 62
     7
  6
Continuous
370
    -3
390
F
347
3E
  0
ENDTAB
  0
TABLE
  2
STYLE
  5
3
330
0
100
AcDbSymbolTable
 70
     1
  0
STYLE
  5
11
330
3
100
AcDbSymbolTableRecord
100
AcDbTextStyleTableRecord
  2
Standard
 70
     0
 40
0.0
 41
1.0
 50
0.0
 71
     0
 42
0.2
  3
txt
  4

  0
ENDTAB
  0
TABLE
  2
VIEW
  5
6
330
0
100
AcDbSymbolTable
 70
     0
  0
ENDTAB
  0
TABLE
  2
UCS
  5
7
330
0
100
AcDbSymbolTable
 70
     0
  0
ENDTAB
  0
TABLE
  2
APPID
  5
9
330
0
100
AcDbSymbolTable
 70
     1
  0
APPID
  5
12
330
9
100
AcDbSymbolTableRecord
100
AcDbRegAppTableRecord
  2
ACAD
 70
     0
  0
ENDTAB
  0
TABLE
  2
DIMSTYLE
  5
A
330
0
100
AcDbSymbolTable
 70
     1
100
AcDbDimStyleTable
  0
DIMSTYLE
105
27
330
A
100
AcDbSymbolTableRecord
100
AcDbDimStyleTableRecord
  2
Standard
 70
     0
178
     0
340
11
  0
ENDTAB
  0
TABLE
  2
BLOCK_RECORD
  5
1
330
0
100
AcDbSymbolTable
 70
     7
  0
BLOCK_RECORD
  5
1F
330
1
100
AcDbSymbolTableRecord
100
AcDbBlockTableRecord
  2
*Model_Space
340
22
 70
     0
280
     1
281
     0
  0
BLOCK_RECORD
  5
1B
330
1
100
AcDbSymbolTableRecord
100
AcDbBlockTableRecord
  2
*Paper_Space
340
1E
 70
     0
280
     1
281
     0
  0
BLOCK_RECORD
  5
23
330
1
100
AcDbSymbolTableRecord
100
AcDbBlockTableRecord
  2
*Paper_Space0
340
26
 70
     0
280
     1
281
     0
  0
BLOCK_RECORD
  5
7B
330
1
100
AcDbSymbolTableRecord
100
AcDbBlockTableRecord
  2
block 2
340
0
102
{BLKREFS
331
7C
102
}
 70
     0
280
     1
281
     0
  0
BLOCK_RECORD
  5
91
330
1
100
AcDbSymbolTableRecord
100
AcDbBlockTableRecord
  2
block 3
340
0
102
{BLKREFS
331
92
102
}
 70
     0
280
     1
281
     0
  0
BLOCK_RECORD
  5
A5
330
1
100
AcDbSymbolTableRecord
100
AcDbBlockTableRecord
  2
block 4
340
0
102
{BLKREFS
331
A6
102
}
 70
     0
280
     1
281
     0
  0
BLOCK_RECORD
  5
B5
330
1
100
AcDbSymbolTableRecord
100
AcDbBlockTableRecord
  2
block 5
340
0
102
{BLKREFS
331
B6
102
}
 70
     0
280
     1
281
     0
  0
BLOCK_RECORD
  5
BB
330
1
100
AcDbSymbolTableRecord
100
AcDbBlockTableRecord
  2
block 6
340
0
102
{BLKREFS
331
BC
102
}
 70
     0
280
     1
281
     0
  0
BLOCK_RECORD
  5
CE
330
1
100
AcDbSymbolTableRecord
100
AcDbBlockTableRecord
  2
block 7
340
0
102
{BLKREFS
331
CF
102
}
 70
     0
280
     1
281
     0
  0
ENDTAB
  0
ENDSEC
  0
SECTION
  2
BLOCKS
  0
BLOCK
  5
20
330
1F
100
AcDbEntity
  8
0
100
AcDbBlockBegin
  2
*Model_Space
 70
     0
 10
0.0
 20
0.0
 30
0.0
  3
*Model_Space
  1

  0
ENDBLK
  5
21
330
1F
100
AcDbEntity
  8
0
100
AcDbBlockEnd
  0
BLOCK
  5
1C
330
1B
100
AcDbEntity
 67
     1
  8
0
100
AcDbBlockBegin
  2
*Paper_Space
 70
     0
 10
0.0
 20
0.0
 30
0.0
  3
*Paper_Space
  1

  0
ENDBLK
  5
1D
330
1B
100
AcDbEntity
 67
     1
  8
0
100
AcDbBlockEnd
  0
BLOCK
  5
24
330
23
100
AcDbEntity
  8
0
100
AcDbBlockBegin
  2
*Paper_Space0
 70
     0
 10
0.0
 20
0.0
 30
0.0
  3
*Paper_Space0
  1

  0
ENDBLK
  5
25
330
23
100
AcDbEntity
  8
0
100
AcDbBlockEnd
  0
BLOCK
  5
7D
330
7B
100
AcDbEntity
  8
0
100
AcDbBlockBegin
  2
block 2
 70
     0
 10
0.0
 20
0.0
 30
0.0
  3
block 2
  1

  0
SPLINE
  5
7F
330
7B
100
AcDbEntity
  8
_U+30EC_U+30A4_U+30E4_U+30FC 1
370
     0
100
AcDbSpline
210
0.0
220
0.0
230
1.0
 70
    11
 71
     3
 72
    26
 73
    22
 74
     0
 42
0.0000000001
 43
0.0000000001
 12
1.0
 22
0.0
 32
0.0
 13
1.0
 23
0.0
 33
0.0
 40
0.0
 40
0.0
 40
0.0
 40
0.0
 40
1.0
 40
1.0
 40
1.0
 40
2.0
 40
2.0
 40
2.0
 40
3.0
 40
3.0
 40
3.0
 40
4.0
 40
4.0
 40
4.0
 40
5.0
 40
5.0
 40
5.0
 40
6.0
 40
6.0
 40
6.0
 40
7.0
 40
7.0
 40
7.0
 40
7.0
 10
87.86543780355447
 20
-136.4478298269992
 30
0.0
 10
87.86543780355447
 20
-136.4478298269992
 30
0.0
 10
87.86543780355447
 20
-135.3436767239766
 30
0.0
 10
87.86543780355447
 20
-135.3436767239766
 30
0.0
 10
87.86543780355447
 20
-135.3436767239766
 30
0.0
 10
87.51300453541342
 20
-135.3436767239766
 30
0.0
 10
87.51300453541342
 20
-135.3436767239766
 30
0.0
 10
87.51300453541342
 20
-135.3436767239766
 30
0.0
 10
87.51300453541342
 20
-135.1955376181108
 30
0.0
 10
87.51300453541342
 20
-135.1955376181108
 30
0.0
 10
87.86784937039415
 20
-135.1807237075243
 30
0.0
 10
87.91745874538175
 20
-135.0177706910719
 30
0.0
 10
87.94915362384604
 20
-134.9033935209617
 30
0.0
 10
87.94915362384604
 20
-134.9033935209617
 30
0.0
 10
88.10521644932787
 20
-134.9033935209617
 30
0.0
 10
88.10521644932787
 20
-134.9033935209617
 30
0.0
 10
88.10521644932787
 20
-134.9033935209617
 30
0.0
 10
88.10521644932787
 20
-136.4478298269992
 30
0.0
 10
88.10521644932787
 20
-136.4478298269992
 30
0.0
 10
88.10521644932787
 20
-136.4478298269992
 30
0.0
 10
87.86543780355447
 20
-136.4478298269992
 30
0.0
 10
87.86543780355447
 20
-136.4478298269992
 30
0.0
  0
HATCH
  5
80
330
7B
100
AcDbEntity
  8
_U+30EC_U+30A4_U+30E4_U+30FC 1
 62
   179
420
  2234388
100
AcDbHatch
 10
0.0
 20
0.0
 30
0.0
210
0.0
220
0.0
230
1.0
  2
SOLID
 70
     1
 71
     0
 91
        1
 92
        1
 93
        1
 72
     4
 94
        3
 73
     0
 74
     1
 95
       26
 96
       22
 40
0.0
 40
0.0
 40
0.0
 40
0.0
 40
1.0
 40
1.0
 40
1.0
 40
2.0
 40
2.0
 40
2.0
 40
3.0
 40
3.0
 40
3.0
 40
4.0
 40
4.0
 40
4.0
 40
5.0
 40
5.0
 40
5.0
 40
6.0
 40
6.0
 40
6.0
 40
7.0
 40
7.0
 40
7.0
 40
7.0
 10
87.86543780355447
 20
-136.4478298269992
 10
87.86543780355447
 20
-136.4478298269992
 10
87.86543780355447
 20
-135.3436767239766
 10
87.86543780355447
 20
-135.3436767239766
 10
87.86543780355447
 20
-135.3436767239766
 10
87.51300453541342
 20
-135.3436767239766
 10
87.51300453541342
 20
-135.3436767239766
 10
87.51300453541342
 20
-135.3436767239766
 10
87.51300453541342
 20
-135.1955376181108
 10
87.51300453541342
 20
-135.1955376181108
 10
87.86784937039415
 20
-135.1807237075243
 10
87.91745874538175
 20
-135.0177706910719
 10
87.94915362384604
 20
-134.9033935209617
 10
87.94915362384604
 20
-134.9033935209617
 10
88.10521644932787
 20
-134.9033935209617
 10
88.10521644932787
 20
-134.9033935209617
 10
88.10521644932787
 20
-134.9033935209617
 10
88.10521644932787
 20
-136.4478298269992
 10
88.10521644932787
 20
-136.4478298269992
 10
88.10521644932787
 20
-136.4478298269992
 10
87.86543780355447
 20
-136.4478298269992
 10
87.86543780355447
 20
-136.4478298269992
 97
        0
 97
        0
 75
     2
 76
     1
 98
        0
  0
SPLINE
  5
81
330
7B
100
AcDbEntity
  8
_U+30EC_U+30A4_U+30E4_U+30FC 1
370
     0
100
AcDbSpline
210
0.0
220
0.0
230
1.0
 70
    11
 71
     3
 72
    29
 73
    25
 74
     0
 42
0.0000000001
 43
0.0000000001
 12
1.0
 22
0.0
 32
0.0
 13
1.0
 23
0.0
 33
0.0
 40
0.0
 40
0.0
 40
0.0
 40
0.0
 40
1.0
 40
1.0
 40
1.0
 40
2.0
 40
2.0
 40
2.0
 40
3.0
 40
3.0
 40
3.0
 40
4.0
 40
4.0
 40
4.0
 40
5.0
 40
5.0
 40
5.0
 40
6.0
 40
6.0
 40
6.0
 40
7.0
 40
7.0
 40
7.0
 40
8.0
 40
8.0
 40
8.0
 40
8.0
 10
89.17526310704646
 20
-136.4984727306323
 30
0.0
 10
88.8903537104163
 20
-136.4984727306323
 30
0.0
 10
88.61922469572714
 20
-136.3610134207709
 30
0.0
 10
88.61922469572714
 20
-136.0120252481151
 30
0.0
 10
88.61922469572714
 20
-135.756054653561
 30
0.0
 10
88.77080889707814
 20
-135.6609700181681
 30
0.0
 10
88.88380802899432
 20
-135.5996473185307
 30
0.0
 10
88.75048283371517
 20
-135.5403916761844
 30
0.0
 10
88.66883407071474
 20
-135.4260145060741
 30
0.0
 10
88.66883407071474
 20
-135.2651285469129
 30
0.0
 10
88.66883407071474
 20
-134.99020992719
 30
0.0
 10
88.88139646215465
 20
-134.8548176746196
 30
0.0
 10
89.17526310704646
 20
-134.8548176746196
 30
0.0
 10
89.47843150974845
 20
-134.8548176746196
 30
0.0
 10
89.68169214337819
 20
-134.9988226659031
 30
0.0
 10
89.68169214337819
 20
-135.2651285469129
 30
0.0
 10
89.68169214337819
 20
-135.4260145060741
 30
0.0
 10
89.59832083263515
 20
-135.5403916761844
 30
0.0
 10
89.46465112780746
 20
-135.5996473185307
 30
0.0
 10
89.55973576320035
 20
-135.6502902221638
 30
0.0
 10
89.72923446107464
 20
-135.7453748575567
 30
0.0
 10
89.72923446107464
 20
-136.0078911335328
 30
0.0
 10
89.72923446107464
 20
-136.3823730127794
 30
0.0
 10
89.430889192052
 20
-136.4984727306323
 30
0.0
 10
89.17526310704646
 20
-136.4984727306323
 30
0.0
  0
SPLINE
  5
82
330
7B
100
AcDbEntity
  8
_U+30EC_U+30A4_U+30E4_U+30FC 1
370
     0
100
AcDbSpline
210
0.0
220
0.0
230
1.0
 70
    11
 71
     3
 72
    17
 73
    13
 74
     0
 42
0.0000000001
 43
0.0000000001
 12
1.0
 22
0.0
 32
0.0
 13
1.0
 23
0.0
 33
0.0
 40
0.0
 40
0.0
 40
0.0
 40
0.0
 40
1.0
 40
1.0
 40
1.0
 40
2.0
 40
2.0
 40
2.0
 40
3.0
 40
3.0
 40
3.0
 40
4.0
 40
4.0
 40
4.0
 40
4.0
 10
89.17526310704646
 20
-135.707478807219
 30
0.0
 10
89.02161184840432
 20
-135.707478807219
 30
0.0
 10
88.85900334150053
 20
-135.7942952134473
 30
0.0
 10
88.85900334150053
 20
-135.9972113375285
 30
0.0
 10
88.85900334150053
 20
-136.2025390284494
 30
0.0
 10
88.99439559407085
 20
-136.3038248357157
 30
0.0
 10
89.17526310704646
 20
-136.3038248357157
 30
0.0
 10
89.3743896260939
 20
-136.3038248357157
 30
0.0
 10
89.49186738214092
 20
-136.1811794364408
 30
0.0
 10
89.49186738214092
 20
-136.0034125094019
 30
0.0
 10
89.49186738214092
 20
-135.7815483601518
 30
0.0
 10
89.31789006013581
 20
-135.707478807219
 30
0.0
 10
89.17526310704646
 20
-135.707478807219
 30
0.0
  0
SPLINE
  5
83
330
7B
100
AcDbEntity
  8
_U+30EC_U+30A4_U+30E4_U+30FC 1
370
     0
100
AcDbSpline
210
0.0
220
0.0
230
1.0
 70
    11
 71
     3
 72
    17
 73
    13
 74
     0
 42
0.0000000001
 43
0.0000000001
 12
1.0
 22
0.0
 32
0.0
 13
1.0
 23
0.0
 33
0.0
 40
0.0
 40
0.0
 40
0.0
 40
0.0
 40
1.0
 40
1.0
 40
1.0
 40
2.0
 40
2.0
 40
2.0
 40
3.0
 40
3.0
 40
3.0
 40
4.0
 40
4.0
 40
4.0
 40
4.0
 10
89.17526310704646
 20
-135.0473985122451
 30
0.0
 10
88.9992187277502
 20
-135.0473985122451
 30
0.0
 10
88.90861271648812
 20
-135.142483147638
 30
0.0
 10
88.90861271648812
 20
-135.2778754002083
 30
0.0
 10
88.90861271648812
 20
-135.4005207994832
 30
0.0
 10
88.9854383458092
 20
-135.5190320841758
 30
0.0
 10
89.17526310704646
 20
-135.5190320841758
 30
0.0
 10
89.36543237783226
 20
-135.5190320841758
 30
0.0
 10
89.44225800715333
 20
-135.4005207994832
 30
0.0
 10
89.44225800715333
 20
-135.2778754002083
 30
0.0
 10
89.44225800715333
 20
-135.142483147638
 30
0.0
 10
89.3495849386001
 20
-135.0473985122451
 30
0.0
 10
89.17526310704646
 20
-135.0473985122451
 30
0.0
  0
HATCH
  5
84
330
7B
100
AcDbEntity
  8
_U+30EC_U+30A4_U+30E4_U+30FC 1
 62
   179
420
  2234388
100
AcDbHatch
 10
0.0
 20
0.0
 30
0.0
210
0.0
220
0.0
230
1.0
  2
SOLID
 70
     1
 71
     0
 91
        3
 92
        1
 93
        1
 72
     4
 94
        3
 73
     0
 74
     1
 95
       29
 96
       25
 40
0.0
 40
0.0
 40
0.0
 40
0.0
 40
1.0
 40
1.0
 40
1.0
 40
2.0
 40
2.0
 40
2.0
 40
3.0
 40
3.0
 40
3.0
 40
4.0
 40
4.0
 40
4.0
 40
5.0
 40
5.0
 40
5.0
 40
6.0
 40
6.0
 40
6.0
 40
7.0
 40
7.0
 40
7.0
 40
8.0
 40
8.0
 40
8.0
 40
8.0
 10
89.17526310704646
 20
-136.4984727306323
 10
88.8903537104163
 20
-136.4984727306323
 10
88.61922469572714
 20
-136.3610134207709
 10
88.61922469572714
 20
-136.0120252481151
 10
88.61922469572714
 20
-135.756054653561
 10
88.77080889707814
 20
-135.6609700181681
 10
88.88380802899432
 20
-135.5996473185307
 10
88.75048283371517
 20
-135.5403916761844
 10
88.66883407071474
 20
-135.4260145060741
 10
88.66883407071474
 20
-135.2651285469129
 10
88.66883407071474
 20
-134.99020992719
 10
88.88139646215465
 20
-134.8548176746196
 10
89.17526310704646
 20
-134.8548176746196
 10
89.47843150974845
 20
-134.8548176746196
 10
89.68169214337819
 20
-134.9988226659031
 10
89.68169214337819
 20
-135.2651285469129
 10
89.68169214337819
 20
-135.4260145060741
 10
89.59832083263515
 20
-135.5403916761844
 10
89.46465112780746
 20
-135.5996473185307
 10
89.55973576320035
 20
-135.6502902221638
 10
89.72923446107464
 20
-135.7453748575567
 10
89.72923446107464
 20
-136.0078911335328
 10
89.72923446107464
 20
-136.3823730127794
 10
89.430889192052
 20
-136.4984727306323
 10
89.17526310704646
 20
-136.4984727306323
 97
        0
 97
        0
 92
        1
 93
        1
 72
     4
 94
        3
 73
     0
 74
     1
 95
       17
 96
       13
 40
0.0
 40
0.0
 40
0.0
 40
0.0
 40
1.0
 40
1.0
 40
1.0
 40
2.0
 40
2.0
 40
2.0
 40
3.0
 40
3.0
 40
3.0
 40
4.0
 40
4.0
 40
4.0
 40
4.0
 10
89.17526310704646
 20
-135.707478807219
 10
89.02161184840432
 20
-135.707478807219
 10
88.85900334150053
 20
-135.7942952134473
 10
88.85900334150053
 20
-135.9972113375285
 10
88.85900334150053
 20
-136.2025390284494
 10
88.99439559407085
 20
-136.3038248357157
 10
89.17526310704646
 20
-136.3038248357157
 10
89.3743896260939
 20
-136.3038248357157
 10
89.49186738214092
 20
-136.1811794364408
 10
89.49186738214092
 20
-136.0034125094019
 10
89.49186738214092
 20
-135.7815483601518
 10
89.31789006013581
 20
-135.707478807219
 10
89.17526310704646
 20
-135.707478807219
 97
        0
 97
        0
 92
        1
 93
        1
 72
     4
 94
        3
 73
     0
 74
     1
 95
       17
 96
       13
 40
0.0
 40
0.0
 40
0.0
 40
0.0
 40
1.0
 40
1.0
 40
1.0
 40
2.0
 40
2.0
 40
2.0
 40
3.0
 40
3.0
 40
3.0
 40
4.0
 40
4.0
 40
4.0
 40
4.0
 10
89.17526310704646
 20
-135.0473985122451
 10
88.9992187277502
 20
-135.0473985122451
 10
88.90861271648812
 20
-135.142483147638
 10
88.90861271648812
 20
-135.2778754002083
 10
88.90861271648812
 20
-135.4005207994832
 10
88.9854383458092
 20
-135.5190320841758
 10
89.17526310704646
 20
-135.5190320841758
 10
89.36543237783226
 20
-135.5190320841758
 10
89.44225800715333
 20
-135.4005207994832
 10
89.44225800715333
 20
-135.2778754002083
 10
89.44225800715333
 20
-135.142483147638
 10
89.3495849386001
 20
-135.0473985122451
 10
89.17526310704646
 20
-135.0473985122451
 97
        0
 97
        0
 75
     2
 76
     1
 98
        0
  0
ENDBLK
  5
7E
330
7B
100
AcDbEntity
  8
0
100
AcDbBlockEnd
  0
BLOCK
  5
93
330
91
100
AcDbEntity
  8
0
100
AcDbBlockBegin
  2
block 3
 70
     0
 10
0.0
 20
0.0
 30
0.0
  3
block 3
  1

  0
SPLINE
  5
95
330
91
100
AcDbEntity
  8
_U+30EC_U+30A4_U+30E4_U+30FC 1
370
     0
100
AcDbSpline
210
0.0
220
0.0
230
1.0
 70
    11
 71
     3
 72
    29
 73
    25
 74
     0
 42
0.0000000001
 43
0.0000000001
 12
1.0
 22
0.0
 32
0.0
 13
1.0
 23
0.0
 33
0.0
 40
0.0
 40
0.0
 40
0.0
 40
0.0
 40
1.0
 40
1.0
 40
1.0
 40
2.0
 40
2.0
 40
2.0
 40
3.0
 40
3.0
 40
3.0
 40
4.0
 40
4.0
 40
4.0
 40
5.0
 40
5.0
 40
5.0
 40
6.0
 40
6.0
 40
6.0
 40
7.0
 40
7.0
 40
7.0
 40
8.0
 40
8.0
 40
8.0
 40
8.0
 10
83.58456215358304
 20
-120.8480929602394
 30
0.0
 10
83.29965275695287
 20
-120.8480929602394
 30
0.0
 10
83.02835148748945
 20
-120.7104613956036
 30
0.0
 10
83.02835148748945
 20
-120.3614732229478
 30
0.0
 10
83.02835148748945
 20
-120.1055026283938
 30
0.0
 10
83.17976343406617
 20
-120.0102457382266
 30
0.0
 10
83.29293482075663
 20
-119.9489230385892
 30
0.0
 10
83.1594373707032
 20
-119.8896673962429
 30
0.0
 10
83.0781331172513
 20
-119.7754624809068
 30
0.0
 10
83.0781331172513
 20
-119.6147487765199
 30
0.0
 10
83.0781331172513
 20
-119.3396579020227
 30
0.0
 10
83.29069550869121
 20
-119.2042656494524
 30
0.0
 10
83.58456215358304
 20
-119.2042656494524
 30
0.0
 10
83.8873860467365
 20
-119.2042656494524
 30
0.0
 10
84.09099118991476
 20
-119.3480983859616
 30
0.0
 10
84.09099118991476
 20
-119.6147487765199
 30
0.0
 10
84.09099118991476
 20
-119.7754624809068
 30
0.0
 10
84.00727536962319
 20
-119.8896673962429
 30
0.0
 10
83.87395017434402
 20
-119.9489230385892
 30
0.0
 10
83.96886255496266
 20
-119.9997381969966
 30
0.0
 10
84.13836125283694
 20
-120.0949950871638
 30
0.0
 10
84.13836125283694
 20
-120.3571668535913
 30
0.0
 10
84.13836125283694
 20
-120.7316487328379
 30
0.0
 10
83.84001598381431
 20
-120.8480929602394
 30
0.0
 10
83.58456215358304
 20
-120.8480929602394
 30
0.0
  0
SPLINE
  5
96
330
91
100
AcDbEntity
  8
_U+30EC_U+30A4_U+30E4_U+30FC 1
370
     0
100
AcDbSpline
210
0.0
220
0.0
230
1.0
 70
    11
 71
     3
 72
    17
 73
    13
 74
     0
 42
0.0000000001
 43
0.0000000001
 12
1.0
 22
0.0
 32
0.0
 13
1.0
 23
0.0
 33
0.0
 40
0.0
 40
0.0
 40
0.0
 40
0.0
 40
1.0
 40
1.0
 40
1.0
 40
2.0
 40
2.0
 40
2.0
 40
3.0
 40
3.0
 40
3.0
 40
4.0
 40
4.0
 40
4.0
 40
4.0
 10
83.58456215358304
 20
-120.0569267820517
 30
0.0
 10
83.43073864016662
 20
-120.0569267820517
 30
0.0
 10
83.26795787848857
 20
-120.1435709335058
 30
0.0
 10
83.26795787848857
 20
-120.3466593123613
 30
0.0
 10
83.26795787848857
 20
-120.5518147485079
 30
0.0
 10
83.40369464060741
 20
-120.6534450653228
 30
0.0
 10
83.58456215358304
 20
-120.6534450653228
 30
0.0
 10
83.7835164178562
 20
-120.6534450653228
 30
0.0
 10
83.90099417390323
 20
-120.5307996660479
 30
0.0
 10
83.90099417390323
 20
-120.353032739009
 30
0.0
 10
83.90099417390323
 20
-120.1308240802104
 30
0.0
 10
83.72701685189811
 20
-120.0569267820517
 30
0.0
 10
83.58456215358304
 20
-120.0569267820517
 30
0.0
  0
SPLINE
  5
97
330
91
100
AcDbEntity
  8
_U+30EC_U+30A4_U+30E4_U+30FC 1
370
     0
100
AcDbSpline
210
0.0
220
0.0
230
1.0
 70
    11
 71
     3
 72
    17
 73
    13
 74
     0
 42
0.0000000001
 43
0.0000000001
 12
1.0
 22
0.0
 32
0.0
 13
1.0
 23
0.0
 33
0.0
 40
0.0
 40
0.0
 40
0.0
 40
0.0
 40
1.0
 40
1.0
 40
1.0
 40
2.0
 40
2.0
 40
2.0
 40
3.0
 40
3.0
 40
3.0
 40
4.0
 40
4.0
 40
4.0
 40
4.0
 10
83.58456215358304
 20
-119.3968464870779
 30
0.0
 10
83.40817326473824
 20
-119.3968464870779
 30
0.0
 10
83.31773950825043
 20
-119.4919311224708
 30
0.0
 10
83.31773950825043
 20
-119.6273233750411
 30
0.0
 10
83.31773950825043
 20
-119.7501410290902
 30
0.0
 10
83.3945651375715
 20
-119.8686523137828
 30
0.0
 10
83.58456215358304
 20
-119.8686523137828
 30
0.0
 10
83.7743869148203
 20
-119.8686523137828
 30
0.0
 10
83.85121254414136
 20
-119.7501410290902
 30
0.0
 10
83.85121254414136
 20
-119.6273233750411
 30
0.0
 10
83.85121254414136
 20
-119.4919311224708
 30
0.0
 10
83.75853947558815
 20
-119.3968464870779
 30
0.0
 10
83.58456215358304
 20
-119.3968464870779
 30
0.0
  0
HATCH
  5
98
330
91
100
AcDbEntity
  8
_U+30EC_U+30A4_U+30E4_U+30FC 1
 62
   179
420
  2234388
100
AcDbHatch
 10
0.0
 20
0.0
 30
0.0
210
0.0
220
0.0
230
1.0
  2
SOLID
 70
     1
 71
     0
 91
        3
 92
        1
 93
        1
 72
     4
 94
        3
 73
     0
 74
     1
 95
       29
 96
       25
 40
0.0
 40
0.0
 40
0.0
 40
0.0
 40
1.0
 40
1.0
 40
1.0
 40
2.0
 40
2.0
 40
2.0
 40
3.0
 40
3.0
 40
3.0
 40
4.0
 40
4.0
 40
4.0
 40
5.0
 40
5.0
 40
5.0
 40
6.0
 40
6.0
 40
6.0
 40
7.0
 40
7.0
 40
7.0
 40
8.0
 40
8.0
 40
8.0
 40
8.0
 10
83.58456215358304
 20
-120.8480929602394
 10
83.29965275695287
 20
-120.8480929602394
 10
83.02835148748945
 20
-120.7104613956036
 10
83.02835148748945
 20
-120.3614732229478
 10
83.02835148748945
 20
-120.1055026283938
 10
83.17976343406617
 20
-120.0102457382266
 10
83.29293482075663
 20
-119.9489230385892
 10
83.1594373707032
 20
-119.8896673962429
 10
83.0781331172513
 20
-119.7754624809068
 10
83.0781331172513
 20
-119.6147487765199
 10
83.0781331172513
 20
-119.3396579020227
 10
83.29069550869121
 20
-119.2042656494524
 10
83.58456215358304
 20
-119.2042656494524
 10
83.8873860467365
 20
-119.2042656494524
 10
84.09099118991476
 20
-119.3480983859616
 10
84.09099118991476
 20
-119.6147487765199
 10
84.09099118991476
 20
-119.7754624809068
 10
84.00727536962319
 20
-119.8896673962429
 10
83.87395017434402
 20
-119.9489230385892
 10
83.96886255496266
 20
-119.9997381969966
 10
84.13836125283694
 20
-120.0949950871638
 10
84.13836125283694
 20
-120.3571668535913
 10
84.13836125283694
 20
-120.7316487328379
 10
83.84001598381431
 20
-120.8480929602394
 10
83.58456215358304
 20
-120.8480929602394
 97
        0
 97
        0
 92
        1
 93
        1
 72
     4
 94
        3
 73
     0
 74
     1
 95
       17
 96
       13
 40
0.0
 40
0.0
 40
0.0
 40
0.0
 40
1.0
 40
1.0
 40
1.0
 40
2.0
 40
2.0
 40
2.0
 40
3.0
 40
3.0
 40
3.0
 40
4.0
 40
4.0
 40
4.0
 40
4.0
 10
83.58456215358304
 20
-120.0569267820517
 10
83.43073864016662
 20
-120.0569267820517
 10
83.26795787848857
 20
-120.1435709335058
 10
83.26795787848857
 20
-120.3466593123613
 10
83.26795787848857
 20
-120.5518147485079
 10
83.40369464060741
 20
-120.6534450653228
 10
83.58456215358304
 20
-120.6534450653228
 10
83.7835164178562
 20
-120.6534450653228
 10
83.90099417390323
 20
-120.5307996660479
 10
83.90099417390323
 20
-120.353032739009
 10
83.90099417390323
 20
-120.1308240802104
 10
83.72701685189811
 20
-120.0569267820517
 10
83.58456215358304
 20
-120.0569267820517
 97
        0
 97
        0
 92
        1
 93
        1
 72
     4
 94
        3
 73
     0
 74
     1
 95
       17
 96
       13
 40
0.0
 40
0.0
 40
0.0
 40
0.0
 40
1.0
 40
1.0
 40
1.0
 40
2.0
 40
2.0
 40
2.0
 40
3.0
 40
3.0
 40
3.0
 40
4.0
 40
4.0
 40
4.0
 40
4.0
 10
83.58456215358304
 20
-119.3968464870779
 10
83.40817326473824
 20
-119.3968464870779
 10
83.31773950825043
 20
-119.4919311224708
 10
83.31773950825043
 20
-119.6273233750411
 10
83.31773950825043
 20
-119.7501410290902
 10
83.3945651375715
 20
-119.8686523137828
 10
83.58456215358304
 20
-119.8686523137828
 10
83.7743869148203
 20
-119.8686523137828
 10
83.85121254414136
 20
-119.7501410290902
 10
83.85121254414136
 20
-119.6273233750411
 10
83.85121254414136
 20
-119.4919311224708
 10
83.75853947558815
 20
-119.3968464870779
 10
83.58456215358304
 20
-119.3968464870779
 97
        0
 97
        0
 75
     2
 76
     1
 98
        0
  0
ENDBLK
  5
94
330
91
100
AcDbEntity
  8
0
100
AcDbBlockEnd
  0
BLOCK
  5
A7
330
A5
100
AcDbEntity
  8
0
100
AcDbBlockBegin
  2
block 4
 70
     0
 10
0.0
 20
0.0
 30
0.0
  3
block 4
  1

  0
SPLINE
  5
A9
330
A5
100
AcDbEntity
  8
_U+30EC_U+30A4_U+30E4_U+30FC 1
370
     0
100
AcDbSpline
210
0.0
220
0.0
230
1.0
 70
    11
 71
     3
 72
    53
 73
    49
 74
     0
 42
0.0000000001
 43
0.0000000001
 12
1.0
 22
0.0
 32
0.0
 13
1.0
 23
0.0
 33
0.0
 40
0.0
 40
0.0
 40
0.0
 40
0.0
 40
1.0
 40
1.0
 40
1.0
 40
2.0
 40
2.0
 40
2.0
 40
3.0
 40
3.0
 40
3.0
 40
4.0
 40
4.0
 40
4.0
 40
5.0
 40
5.0
 40
5.0
 40
6.0
 40
6.0
 40
6.0
 40
7.0
 40
7.0
 40
7.0
 40
8.0
 40
8.0
 40
8.0
 40
9.0
 40
9.0
 40
9.0
 40
10.0
 40
10.0
 40
10.0
 40
11.0
 40
11.0
 40
11.0
 40
12.0
 40
12.0
 40
12.0
 40
13.0
 40
13.0
 40
13.0
 40
14.0
 40
14.0
 40
14.0
 40
15.0
 40
15.0
 40
15.0
 40
16.0
 40
16.0
 40
16.0
 40
16.0
 10
100.5209960686198
 20
-124.4447726468402
 30
0.0
 10
100.5209960686198
 20
-124.5284884671318
 30
0.0
 10
100.504115100742
 20
-124.6366644653686
 30
0.0
 10
100.4407253438134
 20
-124.7455294827025
 30
0.0
 10
100.330826797834
 20
-124.930875619809
 30
0.0
 10
100.199568659846
 20
-124.9532687404631
 30
0.0
 10
100.0917371711576
 20
-124.973594803826
 30
0.0
 10
100.0917371711576
 20
-124.973594803826
 30
0.0
 10
100.0917371711576
 20
-124.7362277248923
 30
0.0
 10
100.0917371711576
 20
-124.7362277248923
 30
0.0
 10
100.2905191806565
 20
-124.6776611016431
 30
0.0
 10
100.3201470018297
 20
-124.5419243395242
 30
0.0
 10
100.3201470018297
 20
-124.4423610800005
 30
0.0
 10
100.3201470018297
 20
-124.2931884454892
 30
0.0
 10
100.220583742306
 20
-124.1302354290369
 30
0.0
 10
99.98803979705161
 20
-124.1302354290369
 30
0.0
 10
99.73206920249754
 20
-124.1302354290369
 30
0.0
 10
99.66213376414697
 20
-124.3224717571138
 30
0.0
 10
99.66213376414697
 20
-124.4513183282622
 30
0.0
 10
99.66213376414697
 20
-124.4854247735662
 30
0.0
 10
99.66213376414697
 20
-124.6366644653686
 30
0.0
 10
99.79132484484384
 20
-124.7317491007615
 30
0.0
 10
99.79132484484384
 20
-124.7317491007615
 30
0.0
 10
99.77237681967496
 20
-124.9195068047076
 30
0.0
 10
99.77237681967496
 20
-124.9195068047076
 30
0.0
 10
99.77237681967496
 20
-124.9195068047076
 30
0.0
 10
98.92591685894908
 20
-124.7906602335593
 30
0.0
 10
98.92591685894908
 20
-124.7906602335593
 30
0.0
 10
98.92591685894908
 20
-124.7906602335593
 30
0.0
 10
98.92591685894908
 20
-123.9586696738715
 30
0.0
 10
98.92591685894908
 20
-123.9586696738715
 30
0.0
 10
98.92591685894908
 20
-123.9586696738715
 30
0.0
 10
99.1205647538657
 20
-123.9586696738715
 30
0.0
 10
99.1205647538657
 20
-123.9586696738715
 30
0.0
 10
99.1205647538657
 20
-123.9586696738715
 30
0.0
 10
99.1205647538657
 20
-124.6163384020056
 30
0.0
 10
99.1205647538657
 20
-124.6163384020056
 30
0.0
 10
99.1205647538657
 20
-124.6163384020056
 30
0.0
 10
99.54362247945437
 20
-124.6866183499047
 30
0.0
 10
99.54362247945437
 20
-124.6866183499047
 30
0.0
 10
99.50986054369893
 20
-124.621161535685
 30
0.0
 10
99.4695529265215
 20
-124.5329670912626
 30
0.0
 10
99.4695529265215
 20
-124.4061875774054
 30
0.0
 10
99.4695529265215
 20
-124.1350585627162
 30
0.0
 10
99.65593259227352
 20
-123.8818440445504
 30
0.0
 10
99.96909177188273
 20
-123.8818440445504
 30
0.0
 10
100.2863850660742
 20
-123.8818440445504
 30
0.0
 10
100.5209960686198
 20
-124.1212781807752
 30
0.0
 10
100.5209960686198
 20
-124.4447726468402
 30
0.0
  0
HATCH
  5
AA
330
A5
100
AcDbEntity
  8
_U+30EC_U+30A4_U+30E4_U+30FC 1
 62
   179
420
  2234388
100
AcDbHatch
 10
0.0
 20
0.0
 30
0.0
210
0.0
220
0.0
230
1.0
  2
SOLID
 70
     1
 71
     0
 91
        1
 92
        1
 93
        1
 72
     4
 94
        3
 73
     0
 74
     1
 95
       53
 96
       49
 40
0.0
 40
0.0
 40
0.0
 40
0.0
 40
1.0
 40
1.0
 40
1.0
 40
2.0
 40
2.0
 40
2.0
 40
3.0
 40
3.0
 40
3.0
 40
4.0
 40
4.0
 40
4.0
 40
5.0
 40
5.0
 40
5.0
 40
6.0
 40
6.0
 40
6.0
 40
7.0
 40
7.0
 40
7.0
 40
8.0
 40
8.0
 40
8.0
 40
9.0
 40
9.0
 40
9.0
 40
10.0
 40
10.0
 40
10.0
 40
11.0
 40
11.0
 40
11.0
 40
12.0
 40
12.0
 40
12.0
 40
13.0
 40
13.0
 40
13.0
 40
14.0
 40
14.0
 40
14.0
 40
15.0
 40
15.0
 40
15.0
 40
16.0
 40
16.0
 40
16.0
 40
16.0
 10
100.5209960686198
 20
-124.4447726468402
 10
100.5209960686198
 20
-124.5284884671318
 10
100.504115100742
 20
-124.6366644653686
 10
100.4407253438134
 20
-124.7455294827025
 10
100.330826797834
 20
-124.930875619809
 10
100.199568659846
 20
-124.9532687404631
 10
100.0917371711576
 20
-124.973594803826
 10
100.0917371711576
 20
-124.973594803826
 10
100.0917371711576
 20
-124.7362277248923
 10
100.0917371711576
 20
-124.7362277248923
 10
100.2905191806565
 20
-124.6776611016431
 10
100.3201470018297
 20
-124.5419243395242
 10
100.3201470018297
 20
-124.4423610800005
 10
100.3201470018297
 20
-124.2931884454892
 10
100.220583742306
 20
-124.1302354290369
 10
99.98803979705161
 20
-124.1302354290369
 10
99.73206920249754
 20
-124.1302354290369
 10
99.66213376414697
 20
-124.3224717571138
 10
99.66213376414697
 20
-124.4513183282622
 10
99.66213376414697
 20
-124.4854247735662
 10
99.66213376414697
 20
-124.6366644653686
 10
99.79132484484384
 20
-124.7317491007615
 10
99.79132484484384
 20
-124.7317491007615
 10
99.77237681967496
 20
-124.9195068047076
 10
99.77237681967496
 20
-124.9195068047076
 10
99.77237681967496
 20
-124.9195068047076
 10
98.92591685894908
 20
-124.7906602335593
 10
98.92591685894908
 20
-124.7906602335593
 10
98.92591685894908
 20
-124.7906602335593
 10
98.92591685894908
 20
-123.9586696738715
 10
98.92591685894908
 20
-123.9586696738715
 10
98.92591685894908
 20
-123.9586696738715
 10
99.1205647538657
 20
-123.9586696738715
 10
99.1205647538657
 20
-123.9586696738715
 10
99.1205647538657
 20
-123.9586696738715
 10
99.1205647538657
 20
-124.6163384020056
 10
99.1205647538657
 20
-124.6163384020056
 10
99.1205647538657
 20
-124.6163384020056
 10
99.54362247945437
 20
-124.6866183499047
 10
99.54362247945437
 20
-124.6866183499047
 10
99.50986054369893
 20
-124.621161535685
 10
99.4695529265215
 20
-124.5329670912626
 10
99.4695529265215
 20
-124.4061875774054
 10
99.4695529265215
 20
-124.1350585627162
 10
99.65593259227352
 20
-123.8818440445504
 10
99.96909177188273
 20
-123.8818440445504
 10
100.2863850660742
 20
-123.8818440445504
 10
100.5209960686198
 20
-124.1212781807752
 10
100.5209960686198
 20
-124.4447726468402
 97
        0
 97
        0
 75
     2
 76
     1
 98
        0
  0
POLYLINE
  5
AB
330
A5
100
AcDbEntity
  8
_U+30EC_U+30A4_U+30E4_U+30FC 1
370
     0
100
AcDb2dPolyline
 66
     1
 10
0.0
 20
0.0
 30
0.0
  0
VERTEX
  5
AC
330
AB
100
AcDbEntity
  8
_U+30EC_U+30A4_U+30E4_U+30FC 1
370
     0
100
AcDbVertex
100
AcDb2dVertex
 10
100.4703531649866
 20
-123.6368977555491
 30
0.0
  0
VERTEX
  5
AD
330
AB
100
AcDbEntity
  8
_U+30EC_U+30A4_U+30E4_U+30FC 1
370
     0
100
AcDbVertex
100
AcDb2dVertex
 10
100.2185166850148
 20
-123.6368977555491
 30
0.0
  0
VERTEX
  5
AE
330
AB
100
AcDbEntity
  8
_U+30EC_U+30A4_U+30E4_U+30FC 1
370
     0
100
AcDbVertex
100
AcDb2dVertex
 10
100.2185166850148
 20
-123.3678357981511
 30
0.0
  0
VERTEX
  5
AF
330
AB
100
AcDbEntity
  8
_U+30EC_U+30A4_U+30E4_U+30FC 1
370
     0
100
AcDbVertex
100
AcDb2dVertex
 10
100.4703531649866
 20
-123.3678357981511
 30
0.0
  0
VERTEX
  5
B0
330
AB
100
AcDbEntity
  8
_U+30EC_U+30A4_U+30E4_U+30FC 1
370
     0
100
AcDbVertex
100
AcDb2dVertex
 10
100.4703531649866
 20
-123.6368977555491
 30
0.0
  0
SEQEND
  5
B1
330
AB
100
AcDbEntity
  8
_U+30EC_U+30A4_U+30E4_U+30FC 1
370
     0
  0
HATCH
  5
B2
330
A5
100
AcDbEntity
  8
_U+30EC_U+30A4_U+30E4_U+30FC 1
 62
   179
420
  2234388
100
AcDbHatch
 10
0.0
 20
0.0
 30
0.0
210
0.0
220
0.0
230
1.0
  2
SOLID
 70
     1
 71
     0
 91
        1
 92
        1
 93
        4
 72
     1
 10
100.4703531649866
 20
-123.6368977555491
 11
100.2185166850148
 21
-123.6368977555491
 72
     1
 10
100.2185166850148
 20
-123.6368977555491
 11
100.2185166850148
 21
-123.3678357981511
 72
     1
 10
100.2185166850148
 20
-123.3678357981511
 11
100.4703531649866
 21
-123.3678357981511
 72
     1
 10
100.4703531649866
 20
-123.3678357981511
 11
100.4703531649866
 21
-123.6368977555491
 97
        0
 75
     2
 76
     1
 98
        0
  0
SPLINE
  5
B3
330
A5
100
AcDbEntity
  8
_U+30EC_U+30A4_U+30E4_U+30FC 1
370
     0
100
AcDbSpline
210
0.0
220
0.0
230
1.0
 70
    11
 71
     3
 72
    53
 73
    49
 74
     0
 42
0.0000000001
 43
0.0000000001
 12
1.0
 22
0.0
 32
0.0
 13
1.0
 23
0.0
 33
0.0
 40
0.0
 40
0.0
 40
0.0
 40
0.0
 40
1.0
 40
1.0
 40
1.0
 40
2.0
 40
2.0
 40
2.0
 40
3.0
 40
3.0
 40
3.0
 40
4.0
 40
4.0
 40
4.0
 40
5.0
 40
5.0
 40
5.0
 40
6.0
 40
6.0
 40
6.0
 40
7.0
 40
7.0
 40
7.0
 40
8.0
 40
8.0
 40
8.0
 40
9.0
 40
9.0
 40
9.0
 40
10.0
 40
10.0
 40
10.0
 40
11.0
 40
11.0
 40
11.0
 40
12.0
 40
12.0
 40
12.0
 40
13.0
 40
13.0
 40
13.0
 40
14.0
 40
14.0
 40
14.0
 40
15.0
 40
15.0
 40
15.0
 40
16.0
 40
16.0
 40
16.0
 40
16.0
 10
100.5209960686198
 20
-122.6009575431345
 30
0.0
 10
100.5209960686198
 20
-122.6846733634261
 30
0.0
 10
100.504115100742
 20
-122.7928493616629
 30
0.0
 10
100.4407253438134
 20
-122.9017143789968
 30
0.0
 10
100.330826797834
 20
-123.0870605161032
 30
0.0
 10
100.199568659846
 20
-123.1094536367574
 30
0.0
 10
100.0917371711576
 20
-123.1297797001203
 30
0.0
 10
100.0917371711576
 20
-123.1297797001203
 30
0.0
 10
100.0917371711576
 20
-122.8924126211866
 30
0.0
 10
100.0917371711576
 20
-122.8924126211866
 30
0.0
 10
100.2905191806565
 20
-122.8338459979374
 30
0.0
 10
100.3201470018297
 20
-122.6981092358185
 30
0.0
 10
100.3201470018297
 20
-122.5985459762948
 30
0.0
 10
100.3201470018297
 20
-122.4493733417835
 30
0.0
 10
100.220583742306
 20
-122.2864203253312
 30
0.0
 10
99.98803979705161
 20
-122.2864203253312
 30
0.0
 10
99.73206920249754
 20
-122.2864203253312
 30
0.0
 10
99.66213376414697
 20
-122.4786566534081
 30
0.0
 10
99.66213376414697
 20
-122.6075032245565
 30
0.0
 10
99.66213376414697
 20
-122.6416096698604
 30
0.0
 10
99.66213376414697
 20
-122.7928493616629
 30
0.0
 10
99.79132484484384
 20
-122.8879339970558
 30
0.0
 10
99.79132484484384
 20
-122.8879339970558
 30
0.0
 10
99.77237681967496
 20
-123.0756917010019
 30
0.0
 10
99.77237681967496
 20
-123.0756917010019
 30
0.0
 10
99.77237681967496
 20
-123.0756917010019
 30
0.0
 10
98.92591685894908
 20
-122.9468451298536
 30
0.0
 10
98.92591685894908
 20
-122.9468451298536
 30
0.0
 10
98.92591685894908
 20
-122.9468451298536
 30
0.0
 10
98.92591685894908
 20
-122.1148545701657
 30
0.0
 10
98.92591685894908
 20
-122.1148545701657
 30
0.0
 10
98.92591685894908
 20
-122.1148545701657
 30
0.0
 10
99.1205647538657
 20
-122.1148545701657
 30
0.0
 10
99.1205647538657
 20
-122.1148545701657
 30
0.0
 10
99.1205647538657
 20
-122.1148545701657
 30
0.0
 10
99.1205647538657
 20
-122.7725232982999
 30
0.0
 10
99.1205647538657
 20
-122.7725232982999
 30
0.0
 10
99.1205647538657
 20
-122.7725232982999
 30
0.0
 10
99.54362247945437
 20
-122.842803246199
 30
0.0
 10
99.54362247945437
 20
-122.842803246199
 30
0.0
 10
99.50986054369893
 20
-122.7773464319793
 30
0.0
 10
99.4695529265215
 20
-122.6891519875569
 30
0.0
 10
99.4695529265215
 20
-122.5623724736997
 30
0.0
 10
99.4695529265215
 20
-122.2912434590105
 30
0.0
 10
99.65593259227352
 20
-122.0380289408447
 30
0.0
 10
99.96909177188273
 20
-122.0380289408447
 30
0.0
 10
100.2863850660742
 20
-122.0380289408447
 30
0.0
 10
100.5209960686198
 20
-122.2774630770695
 30
0.0
 10
100.5209960686198
 20
-122.6009575431345
 30
0.0
  0
HATCH
  5
B4
330
A5
100
AcDbEntity
  8
_U+30EC_U+30A4_U+30E4_U+30FC 1
 62
   179
420
  2234388
100
AcDbHatch
 10
0.0
 20
0.0
 30
0.0
210
0.0
220
0.0
230
1.0
  2
SOLID
 70
     1
 71
     0
 91
        1
 92
        1
 93
        1
 72
     4
 94
        3
 73
     0
 74
     1
 95
       53
 96
       49
 40
0.0
 40
0.0
 40
0.0
 40
0.0
 40
1.0
 40
1.0
 40
1.0
 40
2.0
 40
2.0
 40
2.0
 40
3.0
 40
3.0
 40
3.0
 40
4.0
 40
4.0
 40
4.0
 40
5.0
 40
5.0
 40
5.0
 40
6.0
 40
6.0
 40
6.0
 40
7.0
 40
7.0
 40
7.0
 40
8.0
 40
8.0
 40
8.0
 40
9.0
 40
9.0
 40
9.0
 40
10.0
 40
10.0
 40
10.0
 40
11.0
 40
11.0
 40
11.0
 40
12.0
 40
12.0
 40
12.0
 40
13.0
 40
13.0
 40
13.0
 40
14.0
 40
14.0
 40
14.0
 40
15.0
 40
15.0
 40
15.0
 40
16.0
 40
16.0
 40
16.0
 40
16.0
 10
100.5209960686198
 20
-122.6009575431345
 10
100.5209960686198
 20
-122.6846733634261
 10
100.504115100742
 20
-122.7928493616629
 10
100.4407253438134
 20
-122.9017143789968
 10
100.330826797834
 20
-123.0870605161032
 10
100.199568659846
 20
-123.1094536367574
 10
100.0917371711576
 20
-123.1297797001203
 10
100.0917371711576
 20
-123.1297797001203
 10
100.0917371711576
 20
-122.8924126211866
 10
100.0917371711576
 20
-122.8924126211866
 10
100.2905191806565
 20
-122.8338459979374
 10
100.3201470018297
 20
-122.6981092358185
 10
100.3201470018297
 20
-122.5985459762948
 10
100.3201470018297
 20
-122.4493733417835
 10
100.220583742306
 20
-122.2864203253312
 10
99.98803979705161
 20
-122.2864203253312
 10
99.73206920249754
 20
-122.2864203253312
 10
99.66213376414697
 20
-122.4786566534081
 10
99.66213376414697
 20
-122.6075032245565
 10
99.66213376414697
 20
-122.6416096698604
 10
99.66213376414697
 20
-122.7928493616629
 10
99.79132484484384
 20
-122.8879339970558
 10
99.79132484484384
 20
-122.8879339970558
 10
99.77237681967496
 20
-123.0756917010019
 10
99.77237681967496
 20
-123.0756917010019
 10
99.77237681967496
 20
-123.0756917010019
 10
98.92591685894908
 20
-122.9468451298536
 10
98.92591685894908
 20
-122.9468451298536
 10
98.92591685894908
 20
-122.9468451298536
 10
98.92591685894908
 20
-122.1148545701657
 10
98.92591685894908
 20
-122.1148545701657
 10
98.92591685894908
 20
-122.1148545701657
 10
99.1205647538657
 20
-122.1148545701657
 10
99.1205647538657
 20
-122.1148545701657
 10
99.1205647538657
 20
-122.1148545701657
 10
99.1205647538657
 20
-122.7725232982999
 10
99.1205647538657
 20
-122.7725232982999
 10
99.1205647538657
 20
-122.7725232982999
 10
99.54362247945437
 20
-122.842803246199
 10
99.54362247945437
 20
-122.842803246199
 10
99.50986054369893
 20
-122.7773464319793
 10
99.4695529265215
 20
-122.6891519875569
 10
99.4695529265215
 20
-122.5623724736997
 10
99.4695529265215
 20
-122.2912434590105
 10
99.65593259227352
 20
-122.0380289408447
 10
99.96909177188273
 20
-122.0380289408447
 10
100.2863850660742
 20
-122.0380289408447
 10
100.5209960686198
 20
-122.2774630770695
 10
100.5209960686198
 20
-122.6009575431345
 97
        0
 97
        0
 75
     2
 76
     1
 98
        0
  0
ENDBLK
  5
A8
330
A5
100
AcDbEntity
  8
0
100
AcDbBlockEnd
  0
BLOCK
  5
B7
330
B5
100
AcDbEntity
  8
0
100
AcDbBlockBegin
  2
block 5
 70
     0
 10
0.0
 20
0.0
 30
0.0
  3
block 5
  1

  0
SPLINE
  5
B9
330
B5
100
AcDbEntity
  8
_U+30EC_U+30A4_U+30E4_U+30FC 1
 62
   179
420
  2234388
370
     9
100
AcDbSpline
210
0.0
220
0.0
230
1.0
 70
    11
 71
     3
 72
    17
 73
    13
 74
     0
 42
0.0000000001
 43
0.0000000001
 12
1.0
 22
0.0
 32
0.0
 13
1.0
 23
0.0
 33
0.0
 40
0.0
 40
0.0
 40
0.0
 40
0.0
 40
1.0
 40
1.0
 40
1.0
 40
2.0
 40
2.0
 40
2.0
 40
3.0
 40
3.0
 40
3.0
 40
4.0
 40
4.0
 40
4.0
 40
4.0
 10
83.14340537883501
 20
-129.2851180232346
 30
0.0
 10
83.14340537883501
 20
-129.230014134359
 30
0.0
 10
83.09863787997713
 20
-129.1852113565923
 30
0.0
 10
83.04349871471717
 20
-129.1852113565923
 30
0.0
 10
82.9883948272341
 20
-129.1852113565923
 30
0.0
 10
82.94359205059934
 20
-129.230014134359
 30
0.0
 10
82.94359205059934
 20
-129.2851180232346
 30
0.0
 10
82.94359205059934
 20
-129.340257189887
 30
0.0
 10
82.9883948272341
 20
-129.3850246898762
 30
0.0
 10
83.04349871471717
 20
-129.3850246898762
 30
0.0
 10
83.09863787997713
 20
-129.3850246898762
 30
0.0
 10
83.14340537883501
 20
-129.340257189887
 30
0.0
 10
83.14340537883501
 20
-129.2851180232346
 30
0.0
  0
SPLINE
  5
BA
330
B5
100
AcDbEntity
  8
_U+30EC_U+30A4_U+30E4_U+30FC 1
 62
   179
420
  2234388
370
     9
100
AcDbSpline
210
0.0
220
0.0
230
1.0
 70
    11
 71
     3
 72
    17
 73
    13
 74
     0
 42
0.0000000001
 43
0.0000000001
 12
1.0
 22
0.0
 32
0.0
 13
1.0
 23
0.0
 33
0.0
 40
0.0
 40
0.0
 40
0.0
 40
0.0
 40
1.0
 40
1.0
 40
1.0
 40
2.0
 40
2.0
 40
2.0
 40
3.0
 40
3.0
 40
3.0
 40
4.0
 40
4.0
 40
4.0
 40
4.0
 10
84.14317757555092
 20
-129.2851180232346
 30
0.0
 10
84.14317757555092
 20
-129.230014134359
 30
0.0
 10
84.09841007669304
 20
-129.1852113565923
 30
0.0
 10
84.04327091143308
 20
-129.1852113565923
 30
0.0
 10
83.98816702395001
 20
-129.1852113565923
 30
0.0
 10
83.94336424731524
 20
-129.230014134359
 30
0.0
 10
83.94336424731524
 20
-129.2851180232346
 30
0.0
 10
83.94336424731524
 20
-129.340257189887
 30
0.0
 10
83.98816702395001
 20
-129.3850246898762
 30
0.0
 10
84.04327091143308
 20
-129.3850246898762
 30
0.0
 10
84.09841007669304
 20
-129.3850246898762
 30
0.0
 10
84.14317757555092
 20
-129.340257189887
 30
0.0
 10
84.14317757555092
 20
-129.2851180232346
 30
0.0
  0
INSERT
  5
BC
330
B5
100
AcDbEntity
  8
_U+30EC_U+30A4_U+30E4_U+30FC 1
100
AcDbBlockReference
  2
block 6
 10
0.0
 20
0.0
 30
0.0
  0
POLYLINE
  5
C1
330
B5
100
AcDbEntity
  8
_U+30EC_U+30A4_U+30E4_U+30FC 1
 62
   179
420
  2234388
370
     9
100
AcDb2dPolyline
 66
     1
 10
0.0
 20
0.0
 30
0.0
  0
VERTEX
  5
C2
330
C1
100
AcDbEntity
  8
_U+30EC_U+30A4_U+30E4_U+30FC 1
 62
   179
420
  2234388
370
     9
100
AcDbVertex
100
AcDb2dVertex
 10
84.90454255612688
 20
-129.2851180232346
 30
0.0
  0
VERTEX
  5
C3
330
C1
100
AcDbEntity
  8
_U+30EC_U+30A4_U+30E4_U+30FC 1
 62
   179
420
  2234388
370
     9
100
AcDbVertex
100
AcDb2dVertex
 10
81.06533265407329
 20
-129.2851180232346
 30
0.0
  0
SEQEND
  5
C4
330
C1
100
AcDbEntity
  8
_U+30EC_U+30A4_U+30E4_U+30FC 1
 62
   179
420
  2234388
370
     9
  0
ENDBLK
  5
B8
330
B5
100
AcDbEntity
  8
0
100
AcDbBlockEnd
  0
BLOCK
  5
BD
330
BB
100
AcDbEntity
  8
0
100
AcDbBlockBegin
  2
block 6
 70
     0
 10
0.0
 20
0.0
 30
0.0
  3
block 6
  1

  0
SPLINE
  5
BF
330
BB
100
AcDbEntity
  8
_U+30EC_U+30A4_U+30E4_U+30FC 1
370
     0
100
AcDbSpline
210
0.0
220
0.0
230
1.0
 70
    11
 71
     3
 72
    26
 73
    22
 74
     0
 42
0.0000000001
 43
0.0000000001
 12
1.0
 22
0.0
 32
0.0
 13
1.0
 23
0.0
 33
0.0
 40
0.0
 40
0.0
 40
0.0
 40
0.0
 40
1.0
 40
1.0
 40
1.0
 40
2.0
 40
2.0
 40
2.0
 40
3.0
 40
3.0
 40
3.0
 40
4.0
 40
4.0
 40
4.0
 40
5.0
 40
5.0
 40
5.0
 40
6.0
 40
6.0
 40
6.0
 40
7.0
 40
7.0
 40
7.0
 40
7.0
 10
81.86838783760582
 20
-129.0498317819737
 30
0.0
 10
81.86838783760582
 20
-129.0498317819737
 30
0.0
 10
81.86838783760582
 20
-127.9453341694026
 30
0.0
 10
81.86838783760582
 20
-127.9453341694026
 30
0.0
 10
81.86838783760582
 20
-127.9453341694026
 30
0.0
 10
81.53834769011888
 20
-127.9453341694026
 30
0.0
 10
81.53834769011888
 20
-127.9453341694026
 30
0.0
 10
81.53834769011888
 20
-127.9453341694026
 30
0.0
 10
81.53834769011888
 20
-127.7971950635368
 30
0.0
 10
81.53834769011888
 20
-127.7971950635368
 30
0.0
 10
81.87045489489698
 20
-127.7825534077245
 30
0.0
 10
81.91696368394784
 20
-127.6196003912722
 30
0.0
 10
81.94659150512099
 20
-127.5053954759362
 30
0.0
 10
81.94659150512099
 20
-127.5053954759362
 30
0.0
 10
82.09266355369559
 20
-127.5053954759362
 30
0.0
 10
82.09266355369559
 20
-127.5053954759362
 30
0.0
 10
82.09266355369559
 20
-127.5053954759362
 30
0.0
 10
82.09266355369559
 20
-129.0498317819737
 30
0.0
 10
82.09266355369559
 20
-129.0498317819737
 30
0.0
 10
82.09266355369559
 20
-129.0498317819737
 30
0.0
 10
81.86838783760582
 20
-129.0498317819737
 30
0.0
 10
81.86838783760582
 20
-129.0498317819737
 30
0.0
  0
HATCH
  5
C0
330
BB
100
AcDbEntity
  8
_U+30EC_U+30A4_U+30E4_U+30FC 1
 62
   179
420
  2234388
100
AcDbHatch
 10
0.0
 20
0.0
 30
0.0
210
0.0
220
0.0
230
1.0
  2
SOLID
 70
     1
 71
     0
 91
        1
 92
        1
 93
        1
 72
     4
 94
        3
 73
     0
 74
     1
 95
       26
 96
       22
 40
0.0
 40
0.0
 40
0.0
 40
0.0
 40
1.0
 40
1.0
 40
1.0
 40
2.0
 40
2.0
 40
2.0
 40
3.0
 40
3.0
 40
3.0
 40
4.0
 40
4.0
 40
4.0
 40
5.0
 40
5.0
 40
5.0
 40
6.0
 40
6.0
 40
6.0
 40
7.0
 40
7.0
 40
7.0
 40
7.0
 10
81.86838783760582
 20
-129.0498317819737
 10
81.86838783760582
 20
-129.0498317819737
 10
81.86838783760582
 20
-127.9453341694026
 10
81.86838783760582
 20
-127.9453341694026
 10
81.86838783760582
 20
-127.9453341694026
 10
81.53834769011888
 20
-127.9453341694026
 10
81.53834769011888
 20
-127.9453341694026
 10
81.53834769011888
 20
-127.9453341694026
 10
81.53834769011888
 20
-127.7971950635368
 10
81.53834769011888
 20
-127.7971950635368
 10
81.87045489489698
 20
-127.7825534077245
 10
81.91696368394784
 20
-127.6196003912722
 10
81.94659150512099
 20
-127.5053954759362
 10
81.94659150512099
 20
-127.5053954759362
 10
82.09266355369559
 20
-127.5053954759362
 10
82.09266355369559
 20
-127.5053954759362
 10
82.09266355369559
 20
-127.5053954759362
 10
82.09266355369559
 20
-129.0498317819737
 10
82.09266355369559
 20
-129.0498317819737
 10
82.09266355369559
 20
-129.0498317819737
 10
81.86838783760582
 20
-129.0498317819737
 10
81.86838783760582
 20
-129.0498317819737
 97
        0
 97
        0
 75
     2
 76
     1
 98
        0
  0
ENDBLK
  5
BE
330
BB
100
AcDbEntity
  8
0
100
AcDbBlockEnd
  0
BLOCK
  5
D0
330
CE
100
AcDbEntity
  8
0
100
AcDbBlockBegin
  2
block 7
 70
     0
 10
0.0
 20
0.0
 30
0.0
  3
block 7
  1

  0
SPLINE
  5
D2
330
CE
100
AcDbEntity
  8
_U+30EC_U+30A4_U+30E4_U+30FC 1
370
     0
100
AcDbSpline
210
0.0
220
0.0
230
1.0
 70
    11
 71
     3
 72
    26
 73
    22
 74
     0
 42
0.0000000001
 43
0.0000000001
 12
1.0
 22
0.0
 32
0.0
 13
1.0
 23
0.0
 33
0.0
 40
0.0
 40
0.0
 40
0.0
 40
0.0
 40
1.0
 40
1.0
 40
1.0
 40
2.0
 40
2.0
 40
2.0
 40
3.0
 40
3.0
 40
3.0
 40
4.0
 40
4.0
 40
4.0
 40
5.0
 40
5.0
 40
5.0
 40
6.0
 40
6.0
 40
6.0
 40
7.0
 40
7.0
 40
7.0
 40
7.0
 10
100.3711344150114
 20
-132.5751979920298
 30
0.0
 10
100.3711344150114
 20
-132.5751979920298
 30
0.0
 10
99.26698131198881
 20
-132.5751979920298
 30
0.0
 10
99.26698131198881
 20
-132.5751979920298
 30
0.0
 10
99.26698131198881
 20
-132.5751979920298
 30
0.0
 10
99.26698131198881
 20
-132.9276312601709
 30
0.0
 10
99.26698131198881
 20
-132.9276312601709
 30
0.0
 10
99.26698131198881
 20
-132.9276312601709
 30
0.0
 10
99.11884220612308
 20
-132.9276312601709
 30
0.0
 10
99.11884220612308
 20
-132.9276312601709
 30
0.0
 10
99.1040282955365
 20
-132.5727864251901
 30
0.0
 10
98.94107527908417
 20
-132.5231770502025
 30
0.0
 10
98.82669810897389
 20
-132.4914821717383
 30
0.0
 10
98.82669810897389
 20
-132.4914821717383
 30
0.0
 10
98.82669810897389
 20
-132.3354193462564
 30
0.0
 10
98.82669810897389
 20
-132.3354193462564
 30
0.0
 10
98.82669810897389
 20
-132.3354193462564
 30
0.0
 10
100.3711344150114
 20
-132.3354193462564
 30
0.0
 10
100.3711344150114
 20
-132.3354193462564
 30
0.0
 10
100.3711344150114
 20
-132.3354193462564
 30
0.0
 10
100.3711344150114
 20
-132.5751979920298
 30
0.0
 10
100.3711344150114
 20
-132.5751979920298
 30
0.0
  0
HATCH
  5
D3
330
CE
100
AcDbEntity
  8
_U+30EC_U+30A4_U+30E4_U+30FC 1
 62
   179
420
  2234388
100
AcDbHatch
 10
0.0
 20
0.0
 30
0.0
210
0.0
220
0.0
230
1.0
  2
SOLID
 70
     1
 71
     0
 91
        1
 92
        1
 93
        1
 72
     4
 94
        3
 73
     0
 74
     1
 95
       26
 96
       22
 40
0.0
 40
0.0
 40
0.0
 40
0.0
 40
1.0
 40
1.0
 40
1.0
 40
2.0
 40
2.0
 40
2.0
 40
3.0
 40
3.0
 40
3.0
 40
4.0
 40
4.0
 40
4.0
 40
5.0
 40
5.0
 40
5.0
 40
6.0
 40
6.0
 40
6.0
 40
7.0
 40
7.0
 40
7.0
 40
7.0
 10
100.3711344150114
 20
-132.5751979920298
 10
100.3711344150114
 20
-132.5751979920298
 10
99.26698131198881
 20
-132.5751979920298
 10
99.26698131198881
 20
-132.5751979920298
 10
99.26698131198881
 20
-132.5751979920298
 10
99.26698131198881
 20
-132.9276312601709
 10
99.26698131198881
 20
-132.9276312601709
 10
99.26698131198881
 20
-132.9276312601709
 10
99.11884220612308
 20
-132.9276312601709
 10
99.11884220612308
 20
-132.9276312601709
 10
99.1040282955365
 20
-132.5727864251901
 10
98.94107527908417
 20
-132.5231770502025
 10
98.82669810897389
 20
-132.4914821717383
 10
98.82669810897389
 20
-132.4914821717383
 10
98.82669810897389
 20
-132.3354193462564
 10
98.82669810897389
 20
-132.3354193462564
 10
98.82669810897389
 20
-132.3354193462564
 10
100.3711344150114
 20
-132.3354193462564
 10
100.3711344150114
 20
-132.3354193462564
 10
100.3711344150114
 20
-132.3354193462564
 10
100.3711344150114
 20
-132.5751979920298
 10
100.3711344150114
 20
-132.5751979920298
 97
        0
 97
        0
 75
     2
 76
     1
 98
        0
  0
ENDBLK
  5
D1
330
CE
100
AcDbEntity
  8
0
100
AcDbBlockEnd
  0
ENDSEC
  0
SECTION
  2
ENTITIES
  0
SPLINE
  5
41
330
1F
100
AcDbEntity
  8
_U+30EC_U+30A4_U+30E4_U+30FC 1
370
     0
100
AcDbSpline
210
0.0
220
0.0
230
1.0
 70
    11
 71
     3
 72
    53
 73
    49
 74
     0
 42
0.0000000001
 43
0.0000000001
 12
1.0
 22
0.0
 32
0.0
 13
1.0
 23
0.0
 33
0.0
 40
0.0
 40
0.0
 40
0.0
 40
0.0
 40
1.0
 40
1.0
 40
1.0
 40
2.0
 40
2.0
 40
2.0
 40
3.0
 40
3.0
 40
3.0
 40
4.0
 40
4.0
 40
4.0
 40
5.0
 40
5.0
 40
5.0
 40
6.0
 40
6.0
 40
6.0
 40
7.0
 40
7.0
 40
7.0
 40
8.0
 40
8.0
 40
8.0
 40
9.0
 40
9.0
 40
9.0
 40
10.0
 40
10.0
 40
10.0
 40
11.0
 40
11.0
 40
11.0
 40
12.0
 40
12.0
 40
12.0
 40
13.0
 40
13.0
 40
13.0
 40
14.0
 40
14.0
 40
14.0
 40
15.0
 40
15.0
 40
15.0
 40
16.0
 40
16.0
 40
16.0
 40
16.0
 10
97.04143835759999
 20
-132.5431619113088
 30
0.0
 10
97.04143835759999
 20
-132.5431619113088
 30
0.0
 10
87.40774997814822
 20
-132.5431619113088
 30
0.0
 10
87.40774997814822
 20
-132.5431619113088
 30
0.0
 10
87.22931277459483
 20
-132.2337758002749
 30
0.0
 10
86.89925389412645
 20
-132.0436285781
 30
0.0
 10
86.54164306991652
 20
-132.0436285781
 30
0.0
 10
86.54164306991652
 20
-132.0436285781
 30
0.0
 10
84.04189720121185
 20
-132.0436285781
 30
0.0
 10
84.04189720121185
 20
-132.0436285781
 30
0.0
 10
84.04189720121185
 20
-132.0436285781
 30
0.0
 10
84.04189720121185
 20
-126.5433644128087
 30
0.0
 10
84.04189720121185
 20
-126.5433644128087
 30
0.0
 10
84.04189720121185
 20
-126.5433644128087
 30
0.0
 10
87.04188194604326
 20
-126.5433644128087
 30
0.0
 10
87.04188194604326
 20
-126.5433644128087
 30
0.0
 10
87.31817749454993
 20
-126.5433644128087
 30
0.0
 10
87.54141526663243
 20
-126.3197738573088
 30
0.0
 10
87.54141526663243
 20
-126.0434783018224
 30
0.0
 10
87.54141526663243
 20
-125.7840455241097
 30
0.0
 10
87.34297777169499
 20
-125.5676869130526
 30
0.0
 10
87.0846055337845
 20
-125.5453208019471
 30
0.0
 10
84.72677783843982
 20
-125.3430733019977
 30
0.0
 10
82.3565698433533
 20
-125.3430733019977
 30
0.0
 10
79.99874434795089
 20
-125.5453208019471
 30
0.0
 10
79.72382463274245
 20
-125.5690627463855
 30
0.0
 10
79.5198485268352
 20
-125.8112799685472
 30
0.0
 10
79.54330824845891
 20
-126.0865171907007
 30
0.0
 10
79.5660271367682
 20
-126.3449269128583
 30
0.0
 10
79.78238574235955
 20
-126.5433644128087
 30
0.0
 10
80.04213601351054
 20
-126.5433644128087
 30
0.0
 10
80.04213601351054
 20
-126.5433644128087
 30
0.0
 10
83.04212497923963
 20
-126.5433644128087
 30
0.0
 10
83.04212497923963
 20
-126.5433644128087
 30
0.0
 10
83.04212497923963
 20
-126.5433644128087
 30
0.0
 10
83.04212497923963
 20
-132.0436285781
 30
0.0
 10
83.04212497923963
 20
-132.0436285781
 30
0.0
 10
83.04212497923963
 20
-132.0436285781
 30
0.0
 10
80.54166933409972
 20
-132.0436285781
 30
0.0
 10
80.54166933409972
 20
-132.0436285781
 30
0.0
 10
79.98978379262394
 20
-132.0436285781
 30
0.0
 10
79.54189713738381
 20
-132.491479966877
 30
0.0
 10
79.54189713738381
 20
-133.0434008000725
 30
0.0
 10
79.54189713738381
 20
-133.0434008000725
 30
0.0
 10
97.54167723372672
 20
-133.0434008000725
 30
0.0
 10
97.54167723372672
 20
-133.0434008000725
 30
0.0
 10
97.54167723372672
 20
-132.7671052445861
 30
0.0
 10
97.31773390610665
 20
-132.5431619113088
 30
0.0
 10
97.04143835759999
 20
-132.5431619113088
 30
0.0
  0
HATCH
  5
42
330
1F
100
AcDbEntity
  8
_U+30EC_U+30A4_U+30E4_U+30FC 1
 62
   253
420
 11711154
100
AcDbHatch
 10
0.0
 20
0.0
 30
0.0
210
0.0
220
0.0
230
1.0
  2
SOLID
 70
     1
 71
     0
 91
        1
 92
        1
 93
        1
 72
     4
 94
        3
 73
     0
 74
     1
 95
       53
 96
       49
 40
0.0
 40
0.0
 40
0.0
 40
0.0
 40
1.0
 40
1.0
 40
1.0
 40
2.0
 40
2.0
 40
2.0
 40
3.0
 40
3.0
 40
3.0
 40
4.0
 40
4.0
 40
4.0
 40
5.0
 40
5.0
 40
5.0
 40
6.0
 40
6.0
 40
6.0
 40
7.0
 40
7.0
 40
7.0
 40
8.0
 40
8.0
 40
8.0
 40
9.0
 40
9.0
 40
9.0
 40
10.0
 40
10.0
 40
10.0
 40
11.0
 40
11.0
 40
11.0
 40
12.0
 40
12.0
 40
12.0
 40
13.0
 40
13.0
 40
13.0
 40
14.0
 40
14.0
 40
14.0
 40
15.0
 40
15.0
 40
15.0
 40
16.0
 40
16.0
 40
16.0
 40
16.0
 10
97.04143835759999
 20
-132.5431619113088
 10
97.04143835759999
 20
-132.5431619113088
 10
87.40774997814822
 20
-132.5431619113088
 10
87.40774997814822
 20
-132.5431619113088
 10
87.22931277459483
 20
-132.2337758002749
 10
86.89925389412645
 20
-132.0436285781
 10
86.54164306991652
 20
-132.0436285781
 10
86.54164306991652
 20
-132.0436285781
 10
84.04189720121185
 20
-132.0436285781
 10
84.04189720121185
 20
-132.0436285781
 10
84.04189720121185
 20
-132.0436285781
 10
84.04189720121185
 20
-126.5433644128087
 10
84.04189720121185
 20
-126.5433644128087
 10
84.04189720121185
 20
-126.5433644128087
 10
87.04188194604326
 20
-126.5433644128087
 10
87.04188194604326
 20
-126.5433644128087
 10
87.31817749454993
 20
-126.5433644128087
 10
87.54141526663243
 20
-126.3197738573088
 10
87.54141526663243
 20
-126.0434783018224
 10
87.54141526663243
 20
-125.7840455241097
 10
87.34297777169499
 20
-125.5676869130526
 10
87.0846055337845
 20
-125.5453208019471
 10
84.72677783843982
 20
-125.3430733019977
 10
82.3565698433533
 20
-125.3430733019977
 10
79.99874434795089
 20
-125.5453208019471
 10
79.72382463274245
 20
-125.5690627463855
 10
79.5198485268352
 20
-125.8112799685472
 10
79.54330824845891
 20
-126.0865171907007
 10
79.5660271367682
 20
-126.3449269128583
 10
79.78238574235955
 20
-126.5433644128087
 10
80.04213601351054
 20
-126.5433644128087
 10
80.04213601351054
 20
-126.5433644128087
 10
83.04212497923963
 20
-126.5433644128087
 10
83.04212497923963
 20
-126.5433644128087
 10
83.04212497923963
 20
-126.5433644128087
 10
83.04212497923963
 20
-132.0436285781
 10
83.04212497923963
 20
-132.0436285781
 10
83.04212497923963
 20
-132.0436285781
 10
80.54166933409972
 20
-132.0436285781
 10
80.54166933409972
 20
-132.0436285781
 10
79.98978379262394
 20
-132.0436285781
 10
79.54189713738381
 20
-132.491479966877
 10
79.54189713738381
 20
-133.0434008000725
 10
79.54189713738381
 20
-133.0434008000725
 10
97.54167723372672
 20
-133.0434008000725
 10
97.54167723372672
 20
-133.0434008000725
 10
97.54167723372672
 20
-132.7671052445861
 10
97.31773390610665
 20
-132.5431619113088
 10
97.04143835759999
 20
-132.5431619113088
 97
        0
 97
        0
 75
     2
 76
     1
 98
        0
  0
POLYLINE
  5
43
330
1F
100
AcDbEntity
  8
_U+30EC_U+30A4_U+30E4_U+30FC 1
 62
   179
420
  2234388
370
    25
100
AcDb2dPolyline
 66
     1
 10
0.0
 20
0.0
 30
0.0
  0
VERTEX
  5
44
330
43
100
AcDbEntity
  8
_U+30EC_U+30A4_U+30E4_U+30FC 1
 62
   179
420
  2234388
370
    25
100
AcDbVertex
100
AcDb2dVertex
 10
80.54166933409972
 20
-132.0436285781
 30
0.0
  0
VERTEX
  5
45
330
43
100
AcDbEntity
  8
_U+30EC_U+30A4_U+30E4_U+30FC 1
 62
   179
420
  2234388
370
    25
100
AcDbVertex
100
AcDb2dVertex
 10
83.04212497923963
 20
-132.0436285781
 30
0.0
  0
SEQEND
  5
46
330
43
100
AcDbEntity
  8
_U+30EC_U+30A4_U+30E4_U+30FC 1
 62
   179
420
  2234388
370
    25
  0
POLYLINE
  5
47
330
1F
100
AcDbEntity
  8
_U+30EC_U+30A4_U+30E4_U+30FC 1
 62
   179
420
  2234388
370
    25
100
AcDb2dPolyline
 66
     1
 10
0.0
 20
0.0
 30
0.0
  0
VERTEX
  5
48
330
47
100
AcDbEntity
  8
_U+30EC_U+30A4_U+30E4_U+30FC 1
 62
   179
420
  2234388
370
    25
100
AcDbVertex
100
AcDb2dVertex
 10
79.54189713738381
 20
-133.0434008000725
 30
0.0
  0
VERTEX
  5
49
330
47
100
AcDbEntity
  8
_U+30EC_U+30A4_U+30E4_U+30FC 1
 62
   179
420
  2234388
370
    25
100
AcDbVertex
100
AcDb2dVertex
 10
97.54167723372672
 20
-133.0434008000725
 30
0.0
  0
SEQEND
  5
4A
330
47
100
AcDbEntity
  8
_U+30EC_U+30A4_U+30E4_U+30FC 1
 62
   179
420
  2234388
370
    25
  0
POLYLINE
  5
4B
330
1F
100
AcDbEntity
  8
_U+30EC_U+30A4_U+30E4_U+30FC 1
 62
   179
420
  2234388
370
    25
100
AcDb2dPolyline
 66
     1
 10
0.0
 20
0.0
 30
0.0
  0
VERTEX
  5
4C
330
4B
100
AcDbEntity
  8
_U+30EC_U+30A4_U+30E4_U+30FC 1
 62
   179
420
  2234388
370
    25
100
AcDbVertex
100
AcDb2dVertex
 10
87.40774997814822
 20
-132.5431619113088
 30
0.0
  0
VERTEX
  5
4D
330
4B
100
AcDbEntity
  8
_U+30EC_U+30A4_U+30E4_U+30FC 1
 62
   179
420
  2234388
370
    25
100
AcDbVertex
100
AcDb2dVertex
 10
97.04143835759999
 20
-132.5431619113088
 30
0.0
  0
SEQEND
  5
4E
330
4B
100
AcDbEntity
  8
_U+30EC_U+30A4_U+30E4_U+30FC 1
 62
   179
420
  2234388
370
    25
  0
POLYLINE
  5
4F
330
1F
100
AcDbEntity
  8
_U+30EC_U+30A4_U+30E4_U+30FC 1
 62
   179
420
  2234388
370
    25
100
AcDb2dPolyline
 66
     1
 10
0.0
 20
0.0
 30
0.0
  0
VERTEX
  5
50
330
4F
100
AcDbEntity
  8
_U+30EC_U+30A4_U+30E4_U+30FC 1
 62
   179
420
  2234388
370
    25
100
AcDbVertex
100
AcDb2dVertex
 10
80.04213601351054
 20
-126.5433644128087
 30
0.0
  0
VERTEX
  5
51
330
4F
100
AcDbEntity
  8
_U+30EC_U+30A4_U+30E4_U+30FC 1
 62
   179
420
  2234388
370
    25
100
AcDbVertex
100
AcDb2dVertex
 10
83.04212497923963
 20
-126.5433644128087
 30
0.0
  0
SEQEND
  5
52
330
4F
100
AcDbEntity
  8
_U+30EC_U+30A4_U+30E4_U+30FC 1
 62
   179
420
  2234388
370
    25
  0
POLYLINE
  5
53
330
1F
100
AcDbEntity
  8
_U+30EC_U+30A4_U+30E4_U+30FC 1
 62
   179
420
  2234388
370
    25
100
AcDb2dPolyline
 66
     1
 10
0.0
 20
0.0
 30
0.0
  0
VERTEX
  5
54
330
53
100
AcDbEntity
  8
_U+30EC_U+30A4_U+30E4_U+30FC 1
 62
   179
420
  2234388
370
    25
100
AcDbVertex
100
AcDb2dVertex
 10
83.04212497923963
 20
-126.5433644128087
 30
0.0
  0
VERTEX
  5
55
330
53
100
AcDbEntity
  8
_U+30EC_U+30A4_U+30E4_U+30FC 1
 62
   179
420
  2234388
370
    25
100
AcDbVertex
100
AcDb2dVertex
 10
83.04212497923963
 20
-132.0436285781
 30
0.0
  0
SEQEND
  5
56
330
53
100
AcDbEntity
  8
_U+30EC_U+30A4_U+30E4_U+30FC 1
 62
   179
420
  2234388
370
    25
  0
POLYLINE
  5
57
330
1F
100
AcDbEntity
  8
_U+30EC_U+30A4_U+30E4_U+30FC 1
 62
   179
420
  2234388
370
    25
100
AcDb2dPolyline
 66
     1
 10
0.0
 20
0.0
 30
0.0
  0
VERTEX
  5
58
330
57
100
AcDbEntity
  8
_U+30EC_U+30A4_U+30E4_U+30FC 1
 62
   179
420
  2234388
370
    25
100
AcDbVertex
100
AcDb2dVertex
 10
84.04189720121185
 20
-126.5433644128087
 30
0.0
  0
VERTEX
  5
59
330
57
100
AcDbEntity
  8
_U+30EC_U+30A4_U+30E4_U+30FC 1
 62
   179
420
  2234388
370
    25
100
AcDbVertex
100
AcDb2dVertex
 10
84.04189720121185
 20
-132.0436285781
 30
0.0
  0
SEQEND
  5
5A
330
57
100
AcDbEntity
  8
_U+30EC_U+30A4_U+30E4_U+30FC 1
 62
   179
420
  2234388
370
    25
  0
POLYLINE
  5
5B
330
1F
100
AcDbEntity
  8
_U+30EC_U+30A4_U+30E4_U+30FC 1
 62
   179
420
  2234388
370
    25
100
AcDb2dPolyline
 66
     1
 10
0.0
 20
0.0
 30
0.0
  0
VERTEX
  5
5C
330
5B
100
AcDbEntity
  8
_U+30EC_U+30A4_U+30E4_U+30FC 1
 62
   179
420
  2234388
370
    25
100
AcDbVertex
100
AcDb2dVertex
 10
84.04189720121185
 20
-126.5433644128087
 30
0.0
  0
VERTEX
  5
5D
330
5B
100
AcDbEntity
  8
_U+30EC_U+30A4_U+30E4_U+30FC 1
 62
   179
420
  2234388
370
    25
100
AcDbVertex
100
AcDb2dVertex
 10
87.04188194604326
 20
-126.5433644128087
 30
0.0
  0
SEQEND
  5
5E
330
5B
100
AcDbEntity
  8
_U+30EC_U+30A4_U+30E4_U+30FC 1
 62
   179
420
  2234388
370
    25
  0
POLYLINE
  5
5F
330
1F
100
AcDbEntity
  8
_U+30EC_U+30A4_U+30E4_U+30FC 1
 62
   179
420
  2234388
370
    25
100
AcDb2dPolyline
 66
     1
 10
0.0
 20
0.0
 30
0.0
  0
VERTEX
  5
60
330
5F
100
AcDbEntity
  8
_U+30EC_U+30A4_U+30E4_U+30FC 1
 62
   179
420
  2234388
370
    25
100
AcDbVertex
100
AcDb2dVertex
 10
84.04189720121185
 20
-132.0436285781
 30
0.0
  0
VERTEX
  5
61
330
5F
100
AcDbEntity
  8
_U+30EC_U+30A4_U+30E4_U+30FC 1
 62
   179
420
  2234388
370
    25
100
AcDbVertex
100
AcDb2dVertex
 10
86.54164306991652
 20
-132.0436285781
 30
0.0
  0
SEQEND
  5
62
330
5F
100
AcDbEntity
  8
_U+30EC_U+30A4_U+30E4_U+30FC 1
 62
   179
420
  2234388
370
    25
  0
SPLINE
  5
63
330
1F
100
AcDbEntity
  8
_U+30EC_U+30A4_U+30E4_U+30FC 1
 62
   179
420
  2234388
370
    25
100
AcDbSpline
210
0.0
220
0.0
230
1.0
 70
     8
 71
     3
 72
     8
 73
     4
 74
     0
 42
0.0000000001
 43
0.0000000001
 12
1.0
 22
0.0
 32
0.0
 13
1.0
 23
0.0
 33
0.0
 40
0.0
 40
0.0
 40
0.0
 40
0.0
 40
1.0
 40
1.0
 40
1.0
 40
1.0
 10
97.54167723372672
 20
-133.0434008000725
 30
0.0
 10
97.54167723372672
 20
-132.7671052445861
 30
0.0
 10
97.31773390610665
 20
-132.5431619113088
 30
0.0
 10
97.04143835759999
 20
-132.5431619113088
 30
0.0
  0
SPLINE
  5
64
330
1F
100
AcDbEntity
  8
_U+30EC_U+30A4_U+30E4_U+30FC 1
 62
   179
420
  2234388
370
     9
100
AcDbSpline
210
0.0
220
0.0
230
1.0
 70
    11
 71
     3
 72
    17
 73
    13
 74
     0
 42
0.0000000001
 43
0.0000000001
 12
1.0
 22
0.0
 32
0.0
 13
1.0
 23
0.0
 33
0.0
 40
0.0
 40
0.0
 40
0.0
 40
0.0
 40
1.0
 40
1.0
 40
1.0
 40
2.0
 40
2.0
 40
2.0
 40
3.0
 40
3.0
 40
3.0
 40
4.0
 40
4.0
 40
4.0
 40
4.0
 10
101.5193876878024
 20
-126.5433644128087
 30
0.0
 10
101.5193876878024
 20
-126.4882252461556
 30
0.0
 10
101.4745849111677
 20
-126.4434577461671
 30
0.0
 10
101.4194810236846
 20
-126.4434577461671
 30
0.0
 10
101.3643444191035
 20
-126.4434577461671
 30
0.0
 10
101.3195743595668
 20
-126.4882252461556
 30
0.0
 10
101.3195743595668
 20
-126.5433644128087
 30
0.0
 10
101.3195743595668
 20
-126.5988210794614
 30
0.0
 10
101.3643444191035
 20
-126.6435885794503
 30
0.0
 10
101.4194810236846
 20
-126.6435885794503
 30
0.0
 10
101.4745849111677
 20
-126.6435885794503
 30
0.0
 10
101.5193876878024
 20
-126.5988210794614
 30
0.0
 10
101.5193876878024
 20
-126.5433644128087
 30
0.0
  0
SPLINE
  5
65
330
1F
100
AcDbEntity
  8
_U+30EC_U+30A4_U+30E4_U+30FC 1
 62
   179
420
  2234388
370
     9
100
AcDbSpline
210
0.0
220
0.0
230
1.0
 70
    11
 71
     3
 72
    17
 73
    13
 74
     0
 42
0.0000000001
 43
0.0000000001
 12
1.0
 22
0.0
 32
0.0
 13
1.0
 23
0.0
 33
0.0
 40
0.0
 40
0.0
 40
0.0
 40
0.0
 40
1.0
 40
1.0
 40
1.0
 40
2.0
 40
2.0
 40
2.0
 40
3.0
 40
3.0
 40
3.0
 40
4.0
 40
4.0
 40
4.0
 40
4.0
 10
101.5193876878024
 20
-132.0436285781
 30
0.0
 10
101.5193876878024
 20
-131.9884894114475
 30
0.0
 10
101.4745849111677
 20
-131.9437219114583
 30
0.0
 10
101.4194810236846
 20
-131.9437219114583
 30
0.0
 10
101.3643444191035
 20
-131.9437219114583
 30
0.0
 10
101.3195743595668
 20
-131.9884894114475
 30
0.0
 10
101.3195743595668
 20
-132.0436285781
 30
0.0
 10
101.3195743595668
 20
-132.0987324669755
 30
0.0
 10
101.3643444191035
 20
-132.1435352447416
 30
0.0
 10
101.4194810236846
 20
-132.1435352447416
 30
0.0
 10
101.4745849111677
 20
-132.1435352447416
 30
0.0
 10
101.5193876878024
 20
-132.0987324669755
 30
0.0
 10
101.5193876878024
 20
-132.0436285781
 30
0.0
  0
SPLINE
  5
66
330
1F
100
AcDbEntity
  8
_U+30EC_U+30A4_U+30E4_U+30FC 1
 62
   179
420
  2234388
370
     9
100
AcDbSpline
210
0.0
220
0.0
230
1.0
 70
    11
 71
     3
 72
    17
 73
    13
 74
     0
 42
0.0000000001
 43
0.0000000001
 12
1.0
 22
0.0
 32
0.0
 13
1.0
 23
0.0
 33
0.0
 40
0.0
 40
0.0
 40
0.0
 40
0.0
 40
1.0
 40
1.0
 40
1.0
 40
2.0
 40
2.0
 40
2.0
 40
3.0
 40
3.0
 40
3.0
 40
4.0
 40
4.0
 40
4.0
 40
4.0
 10
79.64180380150164
 20
-137.0438302435168
 30
0.0
 10
79.64180380150164
 20
-136.9880207990863
 30
0.0
 10
79.59703630264376
 20
-136.9432180213196
 30
0.0
 10
79.54189713738381
 20
-136.9432180213196
 30
0.0
 10
79.48679324990074
 20
-136.9432180213196
 30
0.0
 10
79.44199047326597
 20
-136.9880207990863
 30
0.0
 10
79.44199047326597
 20
-137.0438302435168
 30
0.0
 10
79.44199047326597
 20
-137.0989694101698
 30
0.0
 10
79.48679324990074
 20
-137.1437369101584
 30
0.0
 10
79.54189713738381
 20
-137.1437369101584
 30
0.0
 10
79.59703630264376
 20
-137.1437369101584
 30
0.0
 10
79.64180380150164
 20
-137.0989694101698
 30
0.0
 10
79.64180380150164
 20
-137.0438302435168
 30
0.0
  0
SPLINE
  5
67
330
1F
100
AcDbEntity
  8
_U+30EC_U+30A4_U+30E4_U+30FC 1
 62
   179
420
  2234388
370
     9
100
AcDbSpline
210
0.0
220
0.0
230
1.0
 70
    11
 71
     3
 72
    17
 73
    13
 74
     0
 42
0.0000000001
 43
0.0000000001
 12
1.0
 22
0.0
 32
0.0
 13
1.0
 23
0.0
 33
0.0
 40
0.0
 40
0.0
 40
0.0
 40
0.0
 40
1.0
 40
1.0
 40
1.0
 40
2.0
 40
2.0
 40
2.0
 40
3.0
 40
3.0
 40
3.0
 40
4.0
 40
4.0
 40
4.0
 40
4.0
 10
97.64158389784455
 20
-137.0438302435168
 30
0.0
 10
97.64158389784455
 20
-136.9880207990863
 30
0.0
 10
97.59678112120979
 20
-136.9432180213196
 30
0.0
 10
97.54167723372672
 20
-136.9432180213196
 30
0.0
 10
97.48653806846677
 20
-136.9432180213196
 30
0.0
 10
97.44177056960888
 20
-136.9880207990863
 30
0.0
 10
97.44177056960888
 20
-137.0438302435168
 30
0.0
 10
97.44177056960888
 20
-137.0989694101698
 30
0.0
 10
97.48653806846677
 20
-137.1437369101584
 30
0.0
 10
97.54167723372672
 20
-137.1437369101584
 30
0.0
 10
97.59678112120979
 20
-137.1437369101584
 30
0.0
 10
97.64158389784455
 20
-137.0989694101698
 30
0.0
 10
97.64158389784455
 20
-137.0438302435168
 30
0.0
  0
SPLINE
  5
68
330
1F
100
AcDbEntity
  8
_U+30EC_U+30A4_U+30E4_U+30FC 1
 62
   179
420
  2234388
370
    25
100
AcDbSpline
210
0.0
220
0.0
230
1.0
 70
     8
 71
     3
 72
     8
 73
     4
 74
     0
 42
0.0000000001
 43
0.0000000001
 12
1.0
 22
0.0
 32
0.0
 13
1.0
 23
0.0
 33
0.0
 40
0.0
 40
0.0
 40
0.0
 40
0.0
 40
1.0
 40
1.0
 40
1.0
 40
1.0
 10
87.40774997814822
 20
-132.5431619113088
 30
0.0
 10
87.22931277459483
 20
-132.2337758002749
 30
0.0
 10
86.89925389412645
 20
-132.0436285781
 30
0.0
 10
86.54164306991652
 20
-132.0436285781
 30
0.0
  0
SPLINE
  5
69
330
1F
100
AcDbEntity
  8
_U+30EC_U+30A4_U+30E4_U+30FC 1
 62
   179
420
  2234388
370
    25
100
AcDbSpline
210
0.0
220
0.0
230
1.0
 70
     8
 71
     3
 72
    11
 73
     7
 74
     0
 42
0.0000000001
 43
0.0000000001
 12
1.0
 22
0.0
 32
0.0
 13
1.0
 23
0.0
 33
0.0
 40
0.0
 40
0.0
 40
0.0
 40
0.0
 40
1.0
 40
1.0
 40
1.0
 40
2.0
 40
2.0
 40
2.0
 40
2.0
 10
87.04188194604326
 20
-126.5433644128087
 30
0.0
 10
87.31817749454993
 20
-126.5433644128087
 30
0.0
 10
87.54141526663243
 20
-126.3197738573088
 30
0.0
 10
87.54141526663243
 20
-126.0434783018224
 30
0.0
 10
87.54141526663243
 20
-125.7840455241097
 30
0.0
 10
87.34297777169499
 20
-125.5676869130526
 30
0.0
 10
87.0846055337845
 20
-125.5453208019471
 30
0.0
  0
SPLINE
  5
6A
330
1F
100
AcDbEntity
  8
_U+30EC_U+30A4_U+30E4_U+30FC 1
 62
   179
420
  2234388
370
    25
100
AcDbSpline
210
0.0
220
0.0
230
1.0
 70
     8
 71
     3
 72
    11
 73
     7
 74
     0
 42
0.0000000001
 43
0.0000000001
 12
1.0
 22
0.0
 32
0.0
 13
1.0
 23
0.0
 33
0.0
 40
0.0
 40
0.0
 40
0.0
 40
0.0
 40
1.0
 40
1.0
 40
1.0
 40
2.0
 40
2.0
 40
2.0
 40
2.0
 10
79.99874434795089
 20
-125.5453208019471
 30
0.0
 10
79.72382463274245
 20
-125.5690627463855
 30
0.0
 10
79.5198485268352
 20
-125.8112799685472
 30
0.0
 10
79.54330824845891
 20
-126.0865171907007
 30
0.0
 10
79.5660271367682
 20
-126.3449269128583
 30
0.0
 10
79.78238574235955
 20
-126.5433644128087
 30
0.0
 10
80.04213601351054
 20
-126.5433644128087
 30
0.0
  0
SPLINE
  5
6B
330
1F
100
AcDbEntity
  8
_U+30EC_U+30A4_U+30E4_U+30FC 1
 62
   179
420
  2234388
370
    25
100
AcDbSpline
210
0.0
220
0.0
230
1.0
 70
     8
 71
     3
 72
     8
 73
     4
 74
     0
 42
0.0000000001
 43
0.0000000001
 12
1.0
 22
0.0
 32
0.0
 13
1.0
 23
0.0
 33
0.0
 40
0.0
 40
0.0
 40
0.0
 40
0.0
 40
1.0
 40
1.0
 40
1.0
 40
1.0
 10
80.54166933409972
 20
-132.0436285781
 30
0.0
 10
79.98978379262394
 20
-132.0436285781
 30
0.0
 10
79.54189713738381
 20
-132.491479966877
 30
0.0
 10
79.54189713738381
 20
-133.0434008000725
 30
0.0
  0
SPLINE
  5
6C
330
1F
100
AcDbEntity
  8
_U+30EC_U+30A4_U+30E4_U+30FC 1
 62
   179
420
  2234388
370
     9
100
AcDbSpline
210
0.0
220
0.0
230
1.0
 70
    11
 71
     3
 72
    17
 73
    13
 74
     0
 42
0.0000000001
 43
0.0000000001
 12
1.0
 22
0.0
 32
0.0
 13
1.0
 23
0.0
 33
0.0
 40
0.0
 40
0.0
 40
0.0
 40
0.0
 40
1.0
 40
1.0
 40
1.0
 40
2.0
 40
2.0
 40
2.0
 40
3.0
 40
3.0
 40
3.0
 40
4.0
 40
4.0
 40
4.0
 40
4.0
 10
87.64202748628783
 20
-121.3936202474294
 30
0.0
 10
87.64202748628783
 20
-121.3385163585541
 30
0.0
 10
87.59722470965306
 20
-121.2937135807877
 30
0.0
 10
87.54141526663243
 20
-121.2937135807877
 30
0.0
 10
87.48631137914936
 20
-121.2937135807877
 30
0.0
 10
87.4415086025146
 20
-121.3385163585541
 30
0.0
 10
87.4415086025146
 20
-121.3936202474294
 30
0.0
 10
87.4415086025146
 20
-121.4487594140821
 30
0.0
 10
87.48631137914936
 20
-121.493526914071
 30
0.0
 10
87.54141526663243
 20
-121.493526914071
 30
0.0
 10
87.59722470965306
 20
-121.493526914071
 30
0.0
 10
87.64202748628783
 20
-121.4487594140821
 30
0.0
 10
87.64202748628783
 20
-121.3936202474294
 30
0.0
  0
SPLINE
  5
6D
330
1F
100
AcDbEntity
  8
_U+30EC_U+30A4_U+30E4_U+30FC 1
 62
   179
420
  2234388
370
     9
100
AcDbSpline
210
0.0
220
0.0
230
1.0
 70
    11
 71
     3
 72
    17
 73
    13
 74
     0
 42
0.0000000001
 43
0.0000000001
 12
1.0
 22
0.0
 32
0.0
 13
1.0
 23
0.0
 33
0.0
 40
0.0
 40
0.0
 40
0.0
 40
0.0
 40
1.0
 40
1.0
 40
1.0
 40
2.0
 40
2.0
 40
2.0
 40
3.0
 40
3.0
 40
3.0
 40
4.0
 40
4.0
 40
4.0
 40
4.0
 10
79.64180380150164
 20
-121.3936202474294
 30
0.0
 10
79.64180380150164
 20
-121.3385163585541
 30
0.0
 10
79.59703630264376
 20
-121.2937135807877
 30
0.0
 10
79.54189713738381
 20
-121.2937135807877
 30
0.0
 10
79.48679324990074
 20
-121.2937135807877
 30
0.0
 10
79.44199047326597
 20
-121.3385163585541
 30
0.0
 10
79.44199047326597
 20
-121.3936202474294
 30
0.0
 10
79.44199047326597
 20
-121.4487594140821
 30
0.0
 10
79.48679324990074
 20
-121.493526914071
 30
0.0
 10
79.54189713738381
 20
-121.493526914071
 30
0.0
 10
79.59703630264376
 20
-121.493526914071
 30
0.0
 10
79.64180380150164
 20
-121.4487594140821
 30
0.0
 10
79.64180380150164
 20
-121.3936202474294
 30
0.0
  0
SPLINE
  5
6E
330
1F
100
AcDbEntity
  8
_U+30EC_U+30A4_U+30E4_U+30FC 1
 62
   179
420
  2234388
370
    25
100
AcDbSpline
210
0.0
220
0.0
230
1.0
 70
     8
 71
     3
 72
     8
 73
     4
 74
     0
 42
0.0000000001
 43
0.0000000001
 12
1.0
 22
0.0
 32
0.0
 13
1.0
 23
0.0
 33
0.0
 40
0.0
 40
0.0
 40
0.0
 40
0.0
 40
1.0
 40
1.0
 40
1.0
 40
1.0
 10
87.0846055337845
 20
-125.5453208019471
 30
0.0
 10
84.72677783843982
 20
-125.3430733019977
 30
0.0
 10
82.3565698433533
 20
-125.3430733019977
 30
0.0
 10
79.99874434795089
 20
-125.5453208019471
 30
0.0
  0
POLYLINE
  5
6F
330
1F
100
AcDbEntity
  8
_U+30EC_U+30A4_U+30E4_U+30FC 1
 62
   179
420
  2234388
370
     9
100
AcDb2dPolyline
 66
     1
 10
0.0
 20
0.0
 30
0.0
  0
VERTEX
  5
70
330
6F
100
AcDbEntity
  8
_U+30EC_U+30A4_U+30E4_U+30FC 1
 62
   179
420
  2234388
370
     9
100
AcDbVertex
100
AcDb2dVertex
 10
79.54189713738381
 20
-137.0438302435168
 30
0.0
  0
VERTEX
  5
71
330
6F
100
AcDbEntity
  8
_U+30EC_U+30A4_U+30E4_U+30FC 1
 62
   179
420
  2234388
370
     9
100
AcDbVertex
100
AcDb2dVertex
 10
97.54167723372672
 20
-137.0438302435168
 30
0.0
  0
SEQEND
  5
72
330
6F
100
AcDbEntity
  8
_U+30EC_U+30A4_U+30E4_U+30FC 1
 62
   179
420
  2234388
370
     9
  0
POLYLINE
  5
73
330
1F
100
AcDbEntity
  8
_U+30EC_U+30A4_U+30E4_U+30FC 1
 62
   179
420
  2234388
370
     9
100
AcDb2dPolyline
 66
     1
 10
0.0
 20
0.0
 30
0.0
  0
VERTEX
  5
74
330
73
100
AcDbEntity
  8
_U+30EC_U+30A4_U+30E4_U+30FC 1
 62
   179
420
  2234388
370
     9
100
AcDbVertex
100
AcDb2dVertex
 10
79.54189713738381
 20
-134.7831596885264
 30
0.0
  0
VERTEX
  5
75
330
73
100
AcDbEntity
  8
_U+30EC_U+30A4_U+30E4_U+30FC 1
 62
   179
420
  2234388
370
     9
100
AcDbVertex
100
AcDb2dVertex
 10
79.54189713738381
 20
-138.0436024654893
 30
0.0
  0
SEQEND
  5
76
330
73
100
AcDbEntity
  8
_U+30EC_U+30A4_U+30E4_U+30FC 1
 62
   179
420
  2234388
370
     9
  0
POLYLINE
  5
77
330
1F
100
AcDbEntity
  8
_U+30EC_U+30A4_U+30E4_U+30FC 1
 62
   179
420
  2234388
370
     9
100
AcDb2dPolyline
 66
     1
 10
0.0
 20
0.0
 30
0.0
  0
VERTEX
  5
78
330
77
100
AcDbEntity
  8
_U+30EC_U+30A4_U+30E4_U+30FC 1
 62
   179
420
  2234388
370
     9
100
AcDbVertex
100
AcDb2dVertex
 10
97.54167723372672
 20
-135.5837888549931
 30
0.0
  0
VERTEX
  5
79
330
77
100
AcDbEntity
  8
_U+30EC_U+30A4_U+30E4_U+30FC 1
 62
   179
420
  2234388
370
     9
100
AcDbVertex
100
AcDb2dVertex
 10
97.54167723372672
 20
-138.0436024654893
 30
0.0
  0
SEQEND
  5
7A
330
77
100
AcDbEntity
  8
_U+30EC_U+30A4_U+30E4_U+30FC 1
 62
   179
420
  2234388
370
     9
  0
INSERT
  5
7C
330
1F
100
AcDbEntity
  8
_U+30EC_U+30A4_U+30E4_U+30FC 1
100
AcDbBlockReference
  2
block 2
 10
0.0
 20
0.0
 30
0.0
  0
POLYLINE
  5
85
330
1F
100
AcDbEntity
  8
_U+30EC_U+30A4_U+30E4_U+30FC 1
 62
   179
420
  2234388
370
     9
100
AcDb2dPolyline
 66
     1
 10
0.0
 20
0.0
 30
0.0
  0
VERTEX
  5
86
330
85
100
AcDbEntity
  8
_U+30EC_U+30A4_U+30E4_U+30FC 1
 62
   179
420
  2234388
370
     9
100
AcDbVertex
100
AcDb2dVertex
 10
79.54189713738381
 20
-121.3936202474294
 30
0.0
  0
VERTEX
  5
87
330
85
100
AcDbEntity
  8
_U+30EC_U+30A4_U+30E4_U+30FC 1
 62
   179
420
  2234388
370
     9
100
AcDbVertex
100
AcDb2dVertex
 10
87.54141526663243
 20
-121.3936202474294
 30
0.0
  0
SEQEND
  5
88
330
85
100
AcDbEntity
  8
_U+30EC_U+30A4_U+30E4_U+30FC 1
 62
   179
420
  2234388
370
     9
  0
POLYLINE
  5
89
330
1F
100
AcDbEntity
  8
_U+30EC_U+30A4_U+30E4_U+30FC 1
 62
   179
420
  2234388
370
     9
100
AcDb2dPolyline
 66
     1
 10
0.0
 20
0.0
 30
0.0
  0
VERTEX
  5
8A
330
89
100
AcDbEntity
  8
_U+30EC_U+30A4_U+30E4_U+30FC 1
 62
   179
420
  2234388
370
     9
100
AcDbVertex
100
AcDb2dVertex
 10
79.54189713738381
 20
-123.5537138580004
 30
0.0
  0
VERTEX
  5
8B
330
89
100
AcDbEntity
  8
_U+30EC_U+30A4_U+30E4_U+30FC 1
 62
   179
420
  2234388
370
     9
100
AcDbVertex
100
AcDb2dVertex
 10
79.54189713738381
 20
-120.3934952476794
 30
0.0
  0
SEQEND
  5
8C
330
89
100
AcDbEntity
  8
_U+30EC_U+30A4_U+30E4_U+30FC 1
 62
   179
420
  2234388
370
     9
  0
POLYLINE
  5
8D
330
1F
100
AcDbEntity
  8
_U+30EC_U+30A4_U+30E4_U+30FC 1
 62
   179
420
  2234388
370
     9
100
AcDb2dPolyline
 66
     1
 10
0.0
 20
0.0
 30
0.0
  0
VERTEX
  5
8E
330
8D
100
AcDbEntity
  8
_U+30EC_U+30A4_U+30E4_U+30FC 1
 62
   179
420
  2234388
370
     9
100
AcDbVertex
100
AcDb2dVertex
 10
87.54141526663243
 20
-123.5537138580004
 30
0.0
  0
VERTEX
  5
8F
330
8D
100
AcDbEntity
  8
_U+30EC_U+30A4_U+30E4_U+30FC 1
 62
   179
420
  2234388
370
     9
100
AcDbVertex
100
AcDb2dVertex
 10
87.54141526663243
 20
-120.3934952476794
 30
0.0
  0
SEQEND
  5
90
330
8D
100
AcDbEntity
  8
_U+30EC_U+30A4_U+30E4_U+30FC 1
 62
   179
420
  2234388
370
     9
  0
INSERT
  5
92
330
1F
100
AcDbEntity
  8
_U+30EC_U+30A4_U+30E4_U+30FC 1
100
AcDbBlockReference
  2
block 3
 10
0.0
 20
0.0
 30
0.0
  0
POLYLINE
  5
99
330
1F
100
AcDbEntity
  8
_U+30EC_U+30A4_U+30E4_U+30FC 1
 62
   179
420
  2234388
370
     9
100
AcDb2dPolyline
 66
     1
 10
0.0
 20
0.0
 30
0.0
  0
VERTEX
  5
9A
330
99
100
AcDbEntity
  8
_U+30EC_U+30A4_U+30E4_U+30FC 1
 62
   179
420
  2234388
370
     9
100
AcDbVertex
100
AcDb2dVertex
 10
101.4194810236846
 20
-132.0436285781
 30
0.0
  0
VERTEX
  5
9B
330
99
100
AcDbEntity
  8
_U+30EC_U+30A4_U+30E4_U+30FC 1
 62
   179
420
  2234388
370
     9
100
AcDbVertex
100
AcDb2dVertex
 10
101.4194810236846
 20
-121.6044755251545
 30
0.0
  0
SEQEND
  5
9C
330
99
100
AcDbEntity
  8
_U+30EC_U+30A4_U+30E4_U+30FC 1
 62
   179
420
  2234388
370
     9
  0
POLYLINE
  5
9D
330
1F
100
AcDbEntity
  8
_U+30EC_U+30A4_U+30E4_U+30FC 1
 62
   179
420
  2234388
370
     9
100
AcDb2dPolyline
 66
     1
 10
0.0
 20
0.0
 30
0.0
  0
VERTEX
  5
9E
330
9D
100
AcDbEntity
  8
_U+30EC_U+30A4_U+30E4_U+30FC 1
 62
   179
420
  2234388
370
     9
100
AcDbVertex
100
AcDb2dVertex
 10
100.4238388637827
 20
-132.0436285781
 30
0.0
  0
VERTEX
  5
9F
330
9D
100
AcDbEntity
  8
_U+30EC_U+30A4_U+30E4_U+30FC 1
 62
   179
420
  2234388
370
     9
100
AcDbVertex
100
AcDb2dVertex
 10
102.4192532204005
 20
-132.0436285781
 30
0.0
  0
SEQEND
  5
A0
330
9D
100
AcDbEntity
  8
_U+30EC_U+30A4_U+30E4_U+30FC 1
 62
   179
420
  2234388
370
     9
  0
POLYLINE
  5
A1
330
1F
100
AcDbEntity
  8
_U+30EC_U+30A4_U+30E4_U+30FC 1
 62
   179
420
  2234388
370
     9
100
AcDb2dPolyline
 66
     1
 10
0.0
 20
0.0
 30
0.0
  0
VERTEX
  5
A2
330
A1
100
AcDbEntity
  8
_U+30EC_U+30A4_U+30E4_U+30FC 1
 62
   179
420
  2234388
370
     9
100
AcDbVertex
100
AcDb2dVertex
 10
100.4238388637827
 20
-126.5433644128087
 30
0.0
  0
VERTEX
  5
A3
330
A1
100
AcDbEntity
  8
_U+30EC_U+30A4_U+30E4_U+30FC 1
 62
   179
420
  2234388
370
     9
100
AcDbVertex
100
AcDb2dVertex
 10
102.4192532204005
 20
-126.5433644128087
 30
0.0
  0
SEQEND
  5
A4
330
A1
100
AcDbEntity
  8
_U+30EC_U+30A4_U+30E4_U+30FC 1
 62
   179
420
  2234388
370
     9
  0
INSERT
  5
A6
330
1F
100
AcDbEntity
  8
_U+30EC_U+30A4_U+30E4_U+30FC 1
100
AcDbBlockReference
  2
block 4
 10
0.0
 20
0.0
 30
0.0
  0
INSERT
  5
B6
330
1F
100
AcDbEntity
  8
_U+30EC_U+30A4_U+30E4_U+30FC 1
100
AcDbBlockReference
  2
block 5
 10
0.0
 20
0.0
 30
0.0
  0
SPLINE
  5
C5
330
1F
100
AcDbEntity
  8
_U+30EC_U+30A4_U+30E4_U+30FC 1
 62
   179
420
  2234388
370
     9
100
AcDbSpline
210
0.0
220
0.0
230
1.0
 70
    11
 71
     3
 72
    17
 73
    13
 74
     0
 42
0.0000000001
 43
0.0000000001
 12
1.0
 22
0.0
 32
0.0
 13
1.0
 23
0.0
 33
0.0
 40
0.0
 40
0.0
 40
0.0
 40
0.0
 40
1.0
 40
1.0
 40
1.0
 40
2.0
 40
2.0
 40
2.0
 40
3.0
 40
3.0
 40
3.0
 40
4.0
 40
4.0
 40
4.0
 40
4.0
 10
101.5193876878024
 20
-133.050950244515
 30
0.0
 10
101.5193876878024
 20
-132.99584635564
 30
0.0
 10
101.4745849111677
 20
-132.9510435778733
 30
0.0
 10
101.4194810236846
 20
-132.9510435778733
 30
0.0
 10
101.3643444191035
 20
-132.9510435778733
 30
0.0
 10
101.3195743595668
 20
-132.99584635564
 30
0.0
 10
101.3195743595668
 20
-133.050950244515
 30
0.0
 10
101.3195743595668
 20
-133.106089411168
 30
0.0
 10
101.3643444191035
 20
-133.1508569111566
 30
0.0
 10
101.4194810236846
 20
-133.1508569111566
 30
0.0
 10
101.4745849111677
 20
-133.1508569111566
 30
0.0
 10
101.5193876878024
 20
-133.106089411168
 30
0.0
 10
101.5193876878024
 20
-133.050950244515
 30
0.0
  0
POLYLINE
  5
C6
330
1F
100
AcDbEntity
  8
_U+30EC_U+30A4_U+30E4_U+30FC 1
 62
   179
420
  2234388
370
     9
100
AcDb2dPolyline
 66
     1
 10
0.0
 20
0.0
 30
0.0
  0
VERTEX
  5
C7
330
C6
100
AcDbEntity
  8
_U+30EC_U+30A4_U+30E4_U+30FC 1
 62
   179
420
  2234388
370
     9
100
AcDbVertex
100
AcDb2dVertex
 10
101.4194810236846
 20
-130.1601833007935
 30
0.0
  0
VERTEX
  5
C8
330
C6
100
AcDbEntity
  8
_U+30EC_U+30A4_U+30E4_U+30FC 1
 62
   179
420
  2234388
370
     9
100
AcDbVertex
100
AcDb2dVertex
 10
101.4194810236846
 20
-133.050950244515
 30
0.0
  0
SEQEND
  5
C9
330
C6
100
AcDbEntity
  8
_U+30EC_U+30A4_U+30E4_U+30FC 1
 62
   179
420
  2234388
370
     9
  0
POLYLINE
  5
CA
330
1F
100
AcDbEntity
  8
_U+30EC_U+30A4_U+30E4_U+30FC 1
 62
   179
420
  2234388
370
     9
100
AcDb2dPolyline
 66
     1
 10
0.0
 20
0.0
 30
0.0
  0
VERTEX
  5
CB
330
CA
100
AcDbEntity
  8
_U+30EC_U+30A4_U+30E4_U+30FC 1
 62
   179
420
  2234388
370
     9
100
AcDbVertex
100
AcDb2dVertex
 10
100.4238388637827
 20
-133.050950244515
 30
0.0
  0
VERTEX
  5
CC
330
CA
100
AcDbEntity
  8
_U+30EC_U+30A4_U+30E4_U+30FC 1
 62
   179
420
  2234388
370
     9
100
AcDbVertex
100
AcDb2dVertex
 10
102.4192532204005
 20
-133.050950244515
 30
0.0
  0
SEQEND
  5
CD
330
CA
100
AcDbEntity
  8
_U+30EC_U+30A4_U+30E4_U+30FC 1
 62
   179
420
  2234388
370
     9
  0
INSERT
  5
CF
330
1F
100
AcDbEntity
  8
_U+30EC_U+30A4_U+30E4_U+30FC 1
100
AcDbBlockReference
  2
block 7
 10
0.0
 20
0.0
 30
0.0
  0
ENDSEC
  0
SECTION
  2
OBJECTS
  0
DICTIONARY
  5
C
330
0
100
AcDbDictionary
281
     1
  3
ACAD_GROUP
350
D
  3
ACAD_LAYOUT
350
1A
  3
ACAD_MATERIAL
350
3B
  3
ACAD_MLEADERSTYLE
350
D5
  3
ACAD_MLINESTYLE
350
17
  3
ACAD_PLOTSETTINGS
350
19
  3
ACAD_PLOTSTYLENAME
350
E
  3
ACAD_TABLESTYLE
350
D4
  3
ACAD_VISUALSTYLE
350
2A
  0
SUN
  5
3F
330
29
100
AcDbSun
 90
        1
290
     0
 63
     7
421
 16777215
 40
1.0
291
     1
 91
  2455826
 92
 54000000
292
     0
 70
     2
 71
   256
280
     1
  0
DICTIONARY
  5
D
102
{ACAD_REACTORS
330
C
102
}
330
C
100
AcDbDictionary
281
     1
  0
DICTIONARY
  5
1A
102
{ACAD_REACTORS
330
C
102
}
330
C
100
AcDbDictionary
281
     1
  3
Layout1
350
1E
  3
Layout2
350
26
  3
Model
350
22
  0
DICTIONARY
  5
3B
102
{ACAD_REACTORS
330
C
102
}
330
C
100
AcDbDictionary
281
     1
  3
ByBlock
350
3D
  3
ByLayer
350
3C
  3
Global
350
3E
  0
DICTIONARY
  5
D5
102
{ACAD_REACTORS
330
C
102
}
330
C
100
AcDbDictionary
281
     1
  0
DICTIONARY
  5
17
102
{ACAD_REACTORS
330
C
102
}
330
C
100
AcDbDictionary
281
     1
  3
Standard
350
18
  0
DICTIONARY
  5
19
102
{ACAD_REACTORS
330
C
102
}
330
C
100
AcDbDictionary
281
     1
  0
ACDBDICTIONARYWDFLT
  5
E
102
{ACAD_REACTORS
330
C
102
}
330
C
100
AcDbDictionary
281
     1
  3
Normal
350
F
100
AcDbDictionaryWithDefault
340
F
  0
DICTIONARY
  5
D4
102
{ACAD_REACTORS
330
C
102
}
330
C
100
AcDbDictionary
281
     1
  0
DICTIONARY
  5
2A
102
{ACAD_REACTORS
330
C
102
}
330
C
100
AcDbDictionary
281
     1
  3
2dWireframe
350
2F
  3
3D Hidden
350
31
  3
3dWireframe
350
30
  3
Basic
350
32
  3
Brighten
350
36
  3
ColorChange
350
3A
  3
Conceptual
350
34
  3
Dim
350
35
  3
Facepattern
350
39
  3
Flat
350
2B
  3
FlatWithEdges
350
2C
  3
Gouraud
350
2D
  3
GouraudWithEdges
350
2E
  3
Linepattern
350
38
  3
Realistic
350
33
  3
Thicken
350
37
  0
LAYOUT
  5
1E
102
{ACAD_REACTORS
330
1A
102
}
330
1A
100
AcDbPlotSettings
  1

  2
none_device
  4

  6

 40
0.0
 41
0.0
 42
0.0
 43
0.0
 44
0.0
 45
0.0
 46
0.0
 47
0.0
 48
0.0
 49
0.0
140
0.0
141
0.0
142
1.0
143
1.0
 70
   688
 72
     0
 73
     0
 74
     5
  7

 75
    16
 76
     0
 77
     2
 78
   300
147
1.0
148
0.0
149
0.0
100
AcDbLayout
  1
Layout1
 70
     1
 71
     1
 10
0.0
 20
0.0
 11
12.0
 21
9.0
 12
0.0
 22
0.0
 32
0.0
 14
1.000000000000000E+20
 24
1.000000000000000E+20
 34
1.000000000000000E+20
 15
-1.000000000000000E+20
 25
-1.000000000000000E+20
 35
-1.000000000000000E+20
146
0.0
 13
0.0
 23
0.0
 33
0.0
 16
1.0
 26
0.0
 36
0.0
 17
0.0
 27
1.0
 37
0.0
 76
     0
330
1B
  0
LAYOUT
  5
26
102
{ACAD_REACTORS
330
1A
102
}
330
1A
100
AcDbPlotSettings
  1

  2
none_device
  4

  6

 40
0.0
 41
0.0
 42
0.0
 43
0.0
 44
0.0
 45
0.0
 46
0.0
 47
0.0
 48
0.0
 49
0.0
140
0.0
141
0.0
142
1.0
143
1.0
 70
   688
 72
     0
 73
     0
 74
     5
  7

 75
    16
 76
     0
 77
     2
 78
   300
147
1.0
148
0.0
149
0.0
100
AcDbLayout
  1
Layout2
 70
     1
 71
     2
 10
0.0
 20
0.0
 11
0.0
 21
0.0
 12
0.0
 22
0.0
 32
0.0
 14
0.0
 24
0.0
 34
0.0
 15
0.0
 25
0.0
 35
0.0
146
0.0
 13
0.0
 23
0.0
 33
0.0
 16
1.0
 26
0.0
 36
0.0
 17
0.0
 27
1.0
 37
0.0
 76
     0
330
23
  0
LAYOUT
  5
22
102
{ACAD_REACTORS
330
1A
102
}
330
1A
100
AcDbPlotSettings
  1

  2
none_device
  4

  6

 40
0.0
 41
0.0
 42
0.0
 43
0.0
 44
0.0
 45
0.0
 46
0.0
 47
0.0
 48
0.0
 49
0.0
140
0.0
141
0.0
142
1.0
143
1.0
 70
  1712
 72
     0
 73
     0
 74
     0
  7

 75
     0
 76
     0
 77
     2
 78
   300
147
1.0
148
0.0
149
0.0
100
AcDbLayout
  1
Model
 70
     1
 71
     0
 10
0.0
 20
0.0
 11
12.0
 21
9.0
 12
0.0
 22
0.0
 32
0.0
 14
1.000000000000000E+20
 24
1.000000000000000E+20
 34
1.000000000000000E+20
 15
-1.000000000000000E+20
 25
-1.000000000000000E+20
 35
-1.000000000000000E+20
146
0.0
 13
0.0
 23
0.0
 33
0.0
 16
1.0
 26
0.0
 36
0.0
 17
0.0
 27
1.0
 37
0.0
 76
     0
330
1F
331
29
  0
MATERIAL
  5
3D
102
{ACAD_REACTORS
330
3B
102
}
330
3B
100
AcDbMaterial
  1
ByBlock
 72
     1
 94
      127
  0
MATERIAL
  5
3C
102
{ACAD_REACTORS
330
3B
102
}
330
3B
100
AcDbMaterial
  1
ByLayer
 72
     1
 94
      127
  0
MATERIAL
  5
3E
102
{ACAD_REACTORS
330
3B
102
}
330
3B
100
AcDbMaterial
  1
Global
 72
     1
 94
      127
  0
MLINESTYLE
  5
18
102
{ACAD_REACTORS
330
17
102
}
330
17
100
AcDbMlineStyle
  2
Standard
 70
     0
  3

 62
   256
 51
90.0
 52
90.0
 71
     2
 49
0.5
 62
   256
  6
BYLAYER
 49
-0.5
 62
   256
  6
BYLAYER
  0
ACDBPLACEHOLDER
  5
F
102
{ACAD_REACTORS
330
E
102
}
330
E
  0
VISUALSTYLE
  5
2F
102
{ACAD_REACTORS
330
2A
102
}
330
2A
100
AcDbVisualStyle
  2
2dWireframe
 70
     4
177
     2
291
     0
 71
     0
176
     1
 72
     2
176
     1
 73
     0
176
     1
 90
        0
176
     1
 40
-0.6
176
     1
 41
-30.0
176
     1
 62
     5
 63
     7
421
 16777215
176
     1
 74
     1
176
     1
 91
        4
176
     1
 64
     7
176
     1
 65
   257
176
     1
 75
     1
176
     1
175
     1
176
     1
 42
1.0
176
     1
 92
        0
176
     1
 66
   257
176
     1
 43
1.0
176
     1
 76
     1
176
     1
 77
     6
176
     1
 78
     2
176
     1
 67
     7
176
     1
 79
     5
176
     1
170
     0
176
     1
171
     0
176
     1
290
     0
176
     1
 93
        1
176
     1
 44
0.0
176
     1
173
     0
176
     1
  0
VISUALSTYLE
  5
31
102
{ACAD_REACTORS
330
2A
102
}
330
2A
100
AcDbVisualStyle
  2
3D Hidden
 70
     6
177
     2
291
     0
 71
     1
176
     1
 72
     2
176
     1
 73
     2
176
     1
 90
        0
176
     1
 40
-0.6
176
     1
 41
-30.0
176
     1
 62
     5
 63
     7
421
 16777215
176
     1
 74
     2
176
     1
 91
        2
176
     1
 64
     7
176
     1
 65
   257
176
     1
 75
     2
176
     1
175
     1
176
     1
 42
40.0
176
     1
 92
        0
176
     1
 66
   257
176
     1
 43
1.0
176
     1
 76
     1
176
     1
 77
     6
176
     1
 78
     2
176
     1
 67
     7
176
     1
 79
     3
176
     1
170
     0
176
     1
171
     0
176
     1
290
     0
176
     1
 93
        1
176
     1
 44
0.0
176
     1
173
     0
176
     1
  0
VISUALSTYLE
  5
30
102
{ACAD_REACTORS
330
2A
102
}
330
2A
100
AcDbVisualStyle
  2
3dWireframe
 70
     5
177
     2
291
     0
 71
     0
176
     1
 72
     2
176
     1
 73
     0
176
     1
 90
        0
176
     1
 40
-0.6
176
     1
 41
-30.0
176
     1
 62
     5
 63
     7
421
 16777215
176
     1
 74
     1
176
     1
 91
        4
176
     1
 64
     7
176
     1
 65
   257
176
     1
 75
     1
176
     1
175
     1
176
     1
 42
1.0
176
     1
 92
        0
176
     1
 66
   257
176
     1
 43
1.0
176
     1
 76
     1
176
     1
 77
     6
176
     1
 78
     2
176
     1
 67
     7
176
     1
 79
     5
176
     1
170
     0
176
     1
171
     0
176
     1
290
     0
176
     1
 93
        1
176
     1
 44
0.0
176
     1
173
     0
176
     1
  0
VISUALSTYLE
  5
32
102
{ACAD_REACTORS
330
2A
102
}
330
2A
100
AcDbVisualStyle
  2
Basic
 70
     7
177
     2
291
     1
 71
     1
176
     1
 72
     0
176
     1
 73
     1
176
     1
 90
        0
176
     1
 40
-0.6
176
     1
 41
-30.0
176
     1
 62
     5
 63
     7
421
 16777215
176
     1
 74
     0
176
     1
 91
        4
176
     1
 64
     7
176
     1
 65
   257
176
     1
 75
     1
176
     1
175
     1
176
     1
 42
1.0
176
     1
 92
        8
176
     1
 66
     7
176
     1
 43
1.0
176
     1
 76
     1
176
     1
 77
     6
176
     1
 78
     2
176
     1
 67
     7
176
     1
 79
     5
176
     1
170
     0
176
     1
171
     0
176
     1
290
     0
176
     1
 93
        1
176
     1
 44
0.0
176
     1
173
     0
176
     1
  0
VISUALSTYLE
  5
36
102
{ACAD_REACTORS
330
2A
102
}
330
2A
100
AcDbVisualStyle
  2
Brighten
 70
    12
177
     2
291
     1
 71
     2
176
     1
 72
     2
176
     1
 73
     0
176
     1
 90
        0
176
     1
 40
-0.6
176
     1
 41
-30.0
176
     1
 62
     5
 63
     7
421
 16777215
176
     1
 74
     1
176
     1
 91
        4
176
     1
 64
     7
176
     1
 65
   257
176
     1
 75
     1
176
     1
175
     1
176
     1
 42
1.0
176
     1
 92
        8
176
     1
 66
     7
176
     1
 43
1.0
176
     1
 76
     1
176
     1
 77
     6
176
     1
 78
     2
176
     1
 67
     7
176
     1
 79
     5
176
     1
170
     0
176
     1
171
     0
176
     1
290
     0
176
     1
 93
        1
176
     1
 44
50.0
176
     1
173
     0
176
     1
  0
VISUALSTYLE
  5
3A
102
{ACAD_REACTORS
330
2A
102
}
330
2A
100
AcDbVisualStyle
  2
ColorChange
 70
    16
177
     2
291
     1
 71
     2
176
     1
 72
     2
176
     1
 73
     3
176
     1
 90
        0
176
     1
 40
-0.6
176
     1
 41
-30.0
176
     1
 62
     5
 63
     8
421
  8421504
176
     1
 74
     1
176
     1
 91
        4
176
     1
 64
     7
176
     1
 65
   257
176
     1
 75
     1
176
     1
175
     1
176
     1
 42
1.0
176
     1
 92
        8
176
     1
 66
     8
424
  8421504
176
     1
 43
1.0
176
     1
 76
     1
176
     1
 77
     6
176
     1
 78
     2
176
     1
 67
     7
176
     1
 79
     5
176
     1
170
     0
176
     1
171
     0
176
     1
290
     0
176
     1
 93
        1
176
     1
 44
0.0
176
     1
173
     0
176
     1
  0
VISUALSTYLE
  5
34
102
{ACAD_REACTORS
330
2A
102
}
330
2A
100
AcDbVisualStyle
  2
Conceptual
 70
     9
177
     2
291
     0
 71
     3
176
     1
 72
     2
176
     1
 73
     0
176
     1
 90
        0
176
     1
 40
-0.6
176
     1
 41
-30.0
176
     1
 62
     5
 63
     7
421
 16777215
176
     1
 74
     2
176
     1
 91
        2
176
     1
 64
     7
176
     1
 65
   257
176
     1
 75
     1
176
     1
175
     1
176
     1
 42
40.0
176
     1
 92
        8
176
     1
 66
     7
176
     1
 43
1.0
176
     1
 76
     1
176
     1
 77
     6
176
     1
 78
     2
176
     1
 67
     7
176
     1
 79
     3
176
     1
170
     0
176
     1
171
     0
176
     1
290
     0
176
     1
 93
        1
176
     1
 44
0.0
176
     1
173
     0
176
     1
  0
VISUALSTYLE
  5
35
102
{ACAD_REACTORS
330
2A
102
}
330
2A
100
AcDbVisualStyle
  2
Dim
 70
    11
177
     2
291
     1
 71
     2
176
     1
 72
     2
176
     1
 73
     0
176
     1
 90
        0
176
     1
 40
-0.6
176
     1
 41
-30.0
176
     1
 62
     5
 63
     7
421
 16777215
176
     1
 74
     1
176
     1
 91
        4
176
     1
 64
     7
176
     1
 65
   257
176
     1
 75
     1
176
     1
175
     1
176
     1
 42
1.0
176
     1
 92
        8
176
     1
 66
     7
176
     1
 43
1.0
176
     1
 76
     1
176
     1
 77
     6
176
     1
 78
     2
176
     1
 67
     7
176
     1
 79
     5
176
     1
170
     0
176
     1
171
     0
176
     1
290
     0
176
     1
 93
        1
176
     1
 44
-50.0
176
     1
173
     0
176
     1
  0
VISUALSTYLE
  5
39
102
{ACAD_REACTORS
330
2A
102
}
330
2A
100
AcDbVisualStyle
  2
Facepattern
 70
    15
177
     2
291
     1
 71
     2
176
     1
 72
     2
176
     1
 73
     0
176
     1
 90
        0
176
     1
 40
-0.6
176
     1
 41
-30.0
176
     1
 62
     5
 63
     7
421
 16777215
176
     1
 74
     1
176
     1
 91
        4
176
     1
 64
     7
176
     1
 65
   257
176
     1
 75
     1
176
     1
175
     1
176
     1
 42
1.0
176
     1
 92
        8
176
     1
 66
     7
176
     1
 43
1.0
176
     1
 76
     1
176
     1
 77
     6
176
     1
 78
     2
176
     1
 67
     7
176
     1
 79
     5
176
     1
170
     0
176
     1
171
     0
176
     1
290
     0
176
     1
 93
        1
176
     1
 44
0.0
176
     1
173
     0
176
     1
  0
VISUALSTYLE
  5
2B
102
{ACAD_REACTORS
330
2A
102
}
330
2A
100
AcDbVisualStyle
  2
Flat
 70
     0
177
     2
291
     1
 71
     2
176
     1
 72
     1
176
     1
 73
     1
176
     1
 90
        2
176
     1
 40
-0.6
176
     1
 41
30.0
176
     1
 62
     5
 63
     7
421
 16777215
176
     1
 74
     0
176
     1
 91
        4
176
     1
 64
     7
176
     1
 65
   257
176
     1
 75
     1
176
     1
175
     1
176
     1
 42
1.0
176
     1
 92
        8
176
     1
 66
     7
176
     1
 43
1.0
176
     1
 76
     1
176
     1
 77
     6
176
     1
 78
     2
176
     1
 67
     7
176
     1
 79
     5
176
     1
170
     0
176
     1
171
     0
176
     1
290
     0
176
     1
 93
       13
176
     1
 44
0.0
176
     1
173
     0
176
     1
  0
VISUALSTYLE
  5
2C
102
{ACAD_REACTORS
330
2A
102
}
330
2A
100
AcDbVisualStyle
  2
FlatWithEdges
 70
     1
177
     2
291
     1
 71
     2
176
     1
 72
     1
176
     1
 73
     1
176
     1
 90
        2
176
     1
 40
-0.6
176
     1
 41
30.0
176
     1
 62
     5
 63
     7
421
 16777215
176
     1
 74
     1
176
     1
 91
        4
176
     1
 64
     7
176
     1
 65
   257
176
     1
 75
     1
176
     1
175
     1
176
     1
 42
1.0
176
     1
 92
        0
176
     1
 66
   257
176
     1
 43
1.0
176
     1
 76
     1
176
     1
 77
     6
176
     1
 78
     2
176
     1
 67
     7
176
     1
 79
     5
176
     1
170
     0
176
     1
171
     0
176
     1
290
     0
176
     1
 93
       13
176
     1
 44
0.0
176
     1
173
     0
176
     1
  0
VISUALSTYLE
  5
2D
102
{ACAD_REACTORS
330
2A
102
}
330
2A
100
AcDbVisualStyle
  2
Gouraud
 70
     2
177
     2
291
     1
 71
     2
176
     1
 72
     2
176
     1
 73
     1
176
     1
 90
        2
176
     1
 40
-0.6
176
     1
 41
30.0
176
     1
 62
     5
 63
     7
421
 16777215
176
     1
 74
     0
176
     1
 91
        4
176
     1
 64
     7
176
     1
 65
   257
176
     1
 75
     1
176
     1
175
     1
176
     1
 42
1.0
176
     1
 92
        0
176
     1
 66
     7
176
     1
 43
1.0
176
     1
 76
     1
176
     1
 77
     6
176
     1
 78
     2
176
     1
 67
     7
176
     1
 79
     5
176
     1
170
     0
176
     1
171
     0
176
     1
290
     0
176
     1
 93
       13
176
     1
 44
0.0
176
     1
173
     0
176
     1
  0
VISUALSTYLE
  5
2E
102
{ACAD_REACTORS
330
2A
102
}
330
2A
100
AcDbVisualStyle
  2
GouraudWithEdges
 70
     3
177
     2
291
     1
 71
     2
176
     1
 72
     2
176
     1
 73
     1
176
     1
 90
        2
176
     1
 40
-0.6
176
     1
 41
30.0
176
     1
 62
     5
 63
     7
421
 16777215
176
     1
 74
     1
176
     1
 91
        4
176
     1
 64
     7
176
     1
 65
   257
176
     1
 75
     1
176
     1
175
     1
176
     1
 42
1.0
176
     1
 92
        0
176
     1
 66
   257
176
     1
 43
1.0
176
     1
 76
     1
176
     1
 77
     6
176
     1
 78
     2
176
     1
 67
     7
176
     1
 79
     5
176
     1
170
     0
176
     1
171
     0
176
     1
290
     0
176
     1
 93
       13
176
     1
 44
0.0
176
     1
173
     0
176
     1
  0
VISUALSTYLE
  5
38
102
{ACAD_REACTORS
330
2A
102
}
330
2A
100
AcDbVisualStyle
  2
Linepattern
 70
    14
177
     2
291
     1
 71
     2
176
     1
 72
     2
176
     1
 73
     0
176
     1
 90
        0
176
     1
 40
-0.6
176
     1
 41
-30.0
176
     1
 62
     5
 63
     7
421
 16777215
176
     1
 74
     1
176
     1
 91
        4
176
     1
 64
     7
176
     1
 65
   257
176
     1
 75
     7
176
     1
175
     7
176
     1
 42
1.0
176
     1
 92
        8
176
     1
 66
     7
176
     1
 43
1.0
176
     1
 76
     1
176
     1
 77
     6
176
     1
 78
     2
176
     1
 67
     7
176
     1
 79
     5
176
     1
170
     0
176
     1
171
     0
176
     1
290
     0
176
     1
 93
        1
176
     1
 44
0.0
176
     1
173
     0
176
     1
  0
VISUALSTYLE
  5
33
102
{ACAD_REACTORS
330
2A
102
}
330
2A
100
AcDbVisualStyle
  2
Realistic
 70
     8
177
     2
291
     0
 71
     2
176
     1
 72
     2
176
     1
 73
     0
176
     1
 90
        0
176
     1
 40
-0.6
176
     1
 41
-30.0
176
     1
 62
     5
 63
     7
421
 16777215
176
     1
 74
     1
176
     1
 91
        0
176
     1
 64
     7
176
     1
 65
   257
176
     1
 75
     1
176
     1
175
     1
176
     1
 42
1.0
176
     1
 92
        8
176
     1
 66
     8
424
  7895160
176
     1
 43
1.0
176
     1
 76
     1
176
     1
 77
     6
176
     1
 78
     2
176
     1
 67
     7
176
     1
 79
     5
176
     1
170
     0
176
     1
171
     0
176
     1
290
     0
176
     1
 93
       13
176
     1
 44
0.0
176
     1
173
     0
176
     1
  0
VISUALSTYLE
  5
37
102
{ACAD_REACTORS
330
2A
102
}
330
2A
100
AcDbVisualStyle
  2
Thicken
 70
    13
177
     2
291
     1
 71
     2
176
     1
 72
     2
176
     1
 73
     0
176
     1
 90
        0
176
     1
 40
-0.6
176
     1
 41
-30.0
176
     1
 62
     5
 63
     7
421
 16777215
176
     1
 74
     1
176
     1
 91
        4
176
     1
 64
     7
176
     1
 65
   257
176
     1
 75
     1
176
     1
175
     1
176
     1
 42
1.0
176
     1
 92
       12
176
     1
 66
     7
176
     1
 43
1.0
176
     1
 76
     1
176
     1
 77
     6
176
     1
 78
     2
176
     1
 67
     7
176
     1
 79
     5
176
     1
170
     0
176
     1
171
     0
176
     1
290
     0
176
     1
 93
        1
176
     1
 44
0.0
176
     1
173
     0
176
     1
  0
ENDSEC
  0
EOF
