  0
SECTION
  2
HEADER
  9
$ACADVER
  1
AC1024
  9
$ACADMAINTVER
 70
     6
  9
$DWGCODEPAGE
  3
UNDEFINED
  9
$INSBASE
 10
0.0
 20
0.0
 30
0.0
  9
$EXTMIN
 10
1.000000000000000E+20
 20
1.000000000000000E+20
 30
1.000000000000000E+20
  9
$EXTMAX
 10
-1.000000000000000E+20
 20
-1.000000000000000E+20
 30
-1.000000000000000E+20
  9
$LIMMIN
 10
0.0
 20
0.0
  9
$LIMMAX
 10
12.0
 20
9.0
  9
$ORTHOMODE
 70
     0
  9
$REGENMODE
 70
     1
  9
$FILLMODE
 70
     1
  9
$QTEXTMODE
 70
     0
  9
$MIRRTEXT
 70
     1
  9
$LTSCALE
 40
1.0
  9
$ATTMODE
 70
     1
  9
$TEXTSIZE
 40
0.2
  9
$TRACEWID
 40
0.05
  9
$TEXTSTYLE
  7
Standard
  9
$CLAYER
  8
0
  9
$CELTYPE
  6
ByLayer
  9
$CECOLOR
 62
   256
  9
$CELTSCALE
 40
1.0
  9
$DISPSILH
 70
     0
  9
$DIMSCALE
 40
1.0
  9
$DIMASZ
 40
0.18
  9
$DIMEXO
 40
0.0625
  9
$DIMDLI
 40
0.38
  9
$DIMRND
 40
0.0
  9
$DIMDLE
 40
0.0
  9
$DIMEXE
 40
0.18
  9
$DIMTP
 40
0.0
  9
$DIMTM
 40
0.0
  9
$DIMTXT
 40
0.18
  9
$DIMCEN
 40
0.09
  9
$DIMTSZ
 40
0.0
  9
$DIMTOL
 70
     0
  9
$DIMLIM
 70
     0
  9
$DIMTIH
 70
     1
  9
$DIMTOH
 70
     1
  9
$DIMSE1
 70
     0
  9
$DIMSE2
 70
     0
  9
$DIMTAD
 70
     0
  9
$DIMZIN
 70
     0
  9
$DIMBLK
  1

  9
$DIMASO
 70
     1
  9
$DIMSHO
 70
     1
  9
$DIMPOST
  1

  9
$DIMAPOST
  1

  9
$DIMALT
 70
     0
  9
$DIMALTD
 70
     2
  9
$DIMALTF
 40
25.4
  9
$DIMLFAC
 40
1.0
  9
$DIMTOFL
 70
     0
  9
$DIMTVP
 40
0.0
  9
$DIMTIX
 70
     0
  9
$DIMSOXD
 70
     0
  9
$DIMSAH
 70
     0
  9
$DIMBLK1
  1

  9
$DIMBLK2
  1

  9
$DIMSTYLE
  2
Standard
  9
$DIMCLRD
 70
     0
  9
$DIMCLRE
 70
     0
  9
$DIMCLRT
 70
     0
  9
$DIMTFAC
 40
1.0
  9
$DIMGAP
 40
0.09
  9
$DIMJUST
 70
     0
  9
$DIMSD1
 70
     0
  9
$DIMSD2
 70
     0
  9
$DIMTOLJ
 70
     1
  9
$DIMTZIN
 70
     0
  9
$DIMALTZ
 70
     0
  9
$DIMALTTZ
 70
     0
  9
$DIMUPT
 70
     0
  9
$DIMDEC
 70
     4
  9
$DIMTDEC
 70
     4
  9
$DIMALTU
 70
     2
  9
$DIMALTTD
 70
     2
  9
$DIMTXSTY
  7
Standard
  9
$DIMAUNIT
 70
     0
  9
$DIMADEC
 70
     0
  9
$DIMALTRND
 40
0.0
  9
$DIMAZIN
 70
     0
  9
$DIMDSEP
 70
    46
  9
$DIMATFIT
 70
     3
  9
$DIMFRAC
 70
     0
  9
$DIMLDRBLK
  1

  9
$DIMLUNIT
 70
     2
  9
$DIMLWD
 70
    -2
  9
$DIMLWE
 70
    -2
  9
$DIMTMOVE
 70
     0
  9
$DIMFXL
 40
1.0
  9
$DIMFXLON
 70
     0
  9
$DIMJOGANG
 40
0.7853981633974483
  9
$DIMTFILL
 70
     0
  9
$DIMTFILLCLR
 70
     0
  9
$DIMARCSYM
 70
     0
  9
$DIMLTYPE
  6

  9
$DIMLTEX1
  6

  9
$DIMLTEX2
  6

  9
$DIMTXTDIRECTION
 70
     0
  9
$LUNITS
 70
     2
  9
$LUPREC
 70
     4
  9
$SKETCHINC
 40
0.1
  9
$FILLETRAD
 40
0.5
  9
$AUNITS
 70
     0
  9
$AUPREC
 70
     0
  9
$MENU
  1
.
  9
$ELEVATION
 40
0.0
  9
$PELEVATION
 40
0.0
  9
$THICKNESS
 40
0.0
  9
$LIMCHECK
 70
     0
  9
$CHAMFERA
 40
0.5
  9
$CHAMFERB
 40
0.5
  9
$CHAMFERC
 40
1.0
  9
$CHAMFERD
 40
0.0
  9
$SKPOLY
 70
     0
  9
$TDCREATE
 40
2457917.618333322
  9
$TDUCREATE
 40
2457917.243333333
  9
$TDUPDATE
 40
2457917.618333322
  9
$TDUUPDATE
 40
2457917.243333333
  9
$TDINDWG
 40
0.0000000116
  9
$TDUSRTIMER
 40
0.0000000116
  9
$USRTIMER
 70
     1
  9
$ANGBASE
 50
0.0
  9
$ANGDIR
 70
     0
  9
$PDMODE
 70
     0
  9
$PDSIZE
 40
0.0
  9
$PLINEWID
 40
0.0
  9
$SPLFRAME
 70
     0
  9
$SPLINETYPE
 70
     6
  9
$SPLINESEGS
 70
     8
  9
$HANDSEED
  5
F0
  9
$SURFTAB1
 70
     6
  9
$SURFTAB2
 70
     6
  9
$SURFTYPE
 70
     6
  9
$SURFU
 70
     6
  9
$SURFV
 70
     6
  9
$UCSBASE
  2

  9
$UCSNAME
  2

  9
$UCSORG
 10
0.0
 20
0.0
 30
0.0
  9
$UCSXDIR
 10
1.0
 20
0.0
 30
0.0
  9
$UCSYDIR
 10
0.0
 20
1.0
 30
0.0
  9
$UCSORTHOREF
  2

  9
$UCSORTHOVIEW
 70
     0
  9
$UCSORGTOP
 10
0.0
 20
0.0
 30
0.0
  9
$UCSORGBOTTOM
 10
0.0
 20
0.0
 30
0.0
  9
$UCSORGLEFT
 10
0.0
 20
0.0
 30
0.0
  9
$UCSORGRIGHT
 10
0.0
 20
0.0
 30
0.0
  9
$UCSORGFRONT
 10
0.0
 20
0.0
 30
0.0
  9
$UCSORGBACK
 10
0.0
 20
0.0
 30
0.0
  9
$PUCSBASE
  2

  9
$PUCSNAME
  2

  9
$PUCSORG
 10
0.0
 20
0.0
 30
0.0
  9
$PUCSXDIR
 10
1.0
 20
0.0
 30
0.0
  9
$PUCSYDIR
 10
0.0
 20
1.0
 30
0.0
  9
$PUCSORTHOREF
  2

  9
$PUCSORTHOVIEW
 70
     0
  9
$PUCSORGTOP
 10
0.0
 20
0.0
 30
0.0
  9
$PUCSORGBOTTOM
 10
0.0
 20
0.0
 30
0.0
  9
$PUCSORGLEFT
 10
0.0
 20
0.0
 30
0.0
  9
$PUCSORGRIGHT
 10
0.0
 20
0.0
 30
0.0
  9
$PUCSORGFRONT
 10
0.0
 20
0.0
 30
0.0
  9
$PUCSORGBACK
 10
0.0
 20
0.0
 30
0.0
  9
$USERI1
 70
     0
  9
$USERI2
 70
     0
  9
$USERI3
 70
     0
  9
$USERI4
 70
     0
  9
$USERI5
 70
     0
  9
$USERR1
 40
0.0
  9
$USERR2
 40
0.0
  9
$USERR3
 40
0.0
  9
$USERR4
 40
0.0
  9
$USERR5
 40
0.0
  9
$WORLDVIEW
 70
     1
  9
$SHADEDGE
 70
     3
  9
$SHADEDIF
 70
    70
  9
$TILEMODE
 70
     1
  9
$MAXACTVP
 70
    64
  9
$PINSBASE
 10
0.0
 20
0.0
 30
0.0
  9
$PLIMCHECK
 70
     0
  9
$PEXTMIN
 10
1.000000000000000E+20
 20
1.000000000000000E+20
 30
1.000000000000000E+20
  9
$PEXTMAX
 10
-1.000000000000000E+20
 20
-1.000000000000000E+20
 30
-1.000000000000000E+20
  9
$PLIMMIN
 10
0.0
 20
0.0
  9
$PLIMMAX
 10
12.0
 20
9.0
  9
$UNITMODE
 70
     0
  9
$VISRETAIN
 70
     1
  9
$PLINEGEN
 70
     0
  9
$PSLTSCALE
 70
     1
  9
$TREEDEPTH
 70
  3020
  9
$CMLSTYLE
  2
Standard
  9
$CMLJUST
 70
     0
  9
$CMLSCALE
 40
1.0
  9
$PROXYGRAPHICS
 70
     1
  9
$MEASUREMENT
 70
     0
  9
$CELWEIGHT
370
    -1
  9
$ENDCAPS
280
     0
  9
$JOINSTYLE
280
     0
  9
$LWDISPLAY
290
     1
  9
$INSUNITS
 70
     1
  9
$HYPERLINKBASE
  1

  9
$STYLESHEET
  1

  9
$XEDIT
290
     1
  9
$CEPSNTYPE
380
     0
  9
$PSTYLEMODE
290
     1
  9
$FINGERPRINTGUID
  2
{7FEAA6A7-4DC8-81A7-2692-88A809B29913}
  9
$VERSIONGUID
  2
{FAEB1C32-E019-11D5-929B-00C0DF256EC4}
  9
$EXTNAMES
290
     1
  9
$PSVPSCALE
 40
0.0
  9
$OLESTARTUP
290
     0
  9
$SORTENTS
280
   127
  9
$INDEXCTL
280
     0
  9
$HIDETEXT
280
     1
  9
$XCLIPFRAME
280
     2
  9
$HALOGAP
280
     0
  9
$OBSCOLOR
 70
   257
  9
$OBSLTYPE
280
     0
  9
$INTERSECTIONDISPLAY
280
     0
  9
$INTERSECTIONCOLOR
 70
   257
  9
$DIMASSOC
280
     2
  9
$PROJECTNAME
  1

  9
$CAMERADISPLAY
290
     0
  9
$LENSLENGTH
 40
50.0
  9
$CAMERAHEIGHT
 40
0.0
  9
$STEPSPERSEC
 40
2.0
  9
$STEPSIZE
 40
6.0
  9
$3DDWFPREC
 40
2.0
  9
$PSOLWIDTH
 40
0.25
  9
$PSOLHEIGHT
 40
4.0
  9
$LOFTANG1
 40
1.570796326794897
  9
$LOFTANG2
 40
1.570796326794897
  9
$LOFTMAG1
 40
0.0
  9
$LOFTMAG2
 40
0.0
  9
$LOFTPARAM
 70
     7
  9
$LOFTNORMALS
280
     1
  9
$LATITUDE
 40
37.795
  9
$LONGITUDE
 40
-122.394
  9
$NORTHDIRECTION
 40
0.0
  9
$TIMEZONE
 70
 -8000
  9
$LIGHTGLYPHDISPLAY
280
     1
  9
$TILEMODELIGHTSYNCH
280
     1
  9
$CMATERIAL
347
3C
  9
$SOLIDHIST
280
     1
  9
$SHOWHIST
280
     1
  9
$DWFFRAME
280
     2
  9
$DGNFRAME
280
     2
  9
$REALWORLDSCALE
290
     1
  9
$INTERFERECOLOR
 62
   256
  9
$CSHADOW
280
     0
  9
$SHADOWPLANELOCATION
 40
0.0
  0
ENDSEC
  0
SECTION
  2
CLASSES
  0
CLASS
  1
ACDBDICTIONARYWDFLT
  2
AcDbDictionaryWithDefault
  3
ObjectDBX Classes
 90
        0
 91
        4
280
     0
281
     0
  0
CLASS
  1
VISUALSTYLE
  2
AcDbVisualStyle
  3
ObjectDBX Classes
 90
     4095
 91
        4
280
     0
281
     0
  0
CLASS
  1
MATERIAL
  2
AcDbMaterial
  3
ObjectDBX Classes
 90
     1153
 91
        4
280
     0
281
     0
  0
CLASS
  1
SUN
  2
AcDbSun
  3
SCENEOE
 90
     1024
 91
        4
280
     0
281
     0
  0
ENDSEC
  0
SECTION
  2
TABLES
  0
TABLE
  2
VPORT
  5
8
330
0
100
AcDbSymbolTable
 70
     1
  0
VPORT
  5
29
330
8
100
AcDbSymbolTableRecord
100
AcDbViewportTableRecord
  2
*Active
 70
     0
 10
0.0
 20
0.0
 11
1.0
 21
1.0
 12
0.0
 22
0.0
 13
0.0
 23
0.0
 14
0.5
 24
0.5
 15
0.5
 25
0.5
 16
0.0
 26
0.0
 36
1.0
 17
91.00082462281999
 27
-128.4993055234307
 37
0.0
 40
256.9986110468615
 41
0.7081814508812795
 42
50.0
 43
0.0
 44
0.0
 50
0.0
 51
0.0
 71
     0
 72
   100
 73
     1
 74
     3
 75
     0
 76
     0
 77
     0
 78
     0
281
     0
 65
     1
110
0.0
120
0.0
130
0.0
111
1.0
121
0.0
131
0.0
112
0.0
122
1.0
132
0.0
 79
     0
146
0.0
 60
     3
 61
     5
292
     1
282
     1
141
0.0
142
0.0
 63
   250
361
3F
  0
ENDTAB
  0
TABLE
  2
LTYPE
  5
5
330
0
100
AcDbSymbolTable
 70
     2
  0
LTYPE
  5
14
330
5
100
AcDbSymbolTableRecord
100
AcDbLinetypeTableRecord
  2
ByBlock
 70
     0
  3

 72
    65
 73
     0
 40
0.0
  0
LTYPE
  5
15
330
5
100
AcDbSymbolTableRecord
100
AcDbLinetypeTableRecord
  2
ByLayer
 70
     0
  3

 72
    65
 73
     0
 40
0.0
  0
LTYPE
  5
16
330
5
100
AcDbSymbolTableRecord
100
AcDbLinetypeTableRecord
  2
Continuous
 70
     0
  3
Solid line
 72
    65
 73
     0
 40
0.0
  0
LTYPE
  5
E6
330
5
100
AcDbSymbolTableRecord
100
AcDbLinetypeTableRecord
  2
AI-Linetype-1
 70
     0
  3
Adobe Illustrator Linetype No. 1
 72
    65
 73
     2
 40
1.411111110758333
 49
0.7055555553791667
 74
     0
 49
-0.7055555553791667
 74
     0
  0
ENDTAB
  0
TABLE
  2
LAYER
  5
2
330
0
100
AcDbSymbolTable
 70
     2
  0
LAYER
  5
10
330
2
100
AcDbSymbolTableRecord
100
AcDbLayerTableRecord
  2
0
 70
     0
 62
     7
  6
Continuous
370
    -3
390
F
347
3E
  0
LAYER
  5
40
330
2
100
AcDbSymbolTableRecord
100
AcDbLayerTableRecord
  2
_U+30EC_U+30A4_U+30E4_U+30FC 1
 70
     0
 62
     7
  6
Continuous
370
    -3
390
F
347
3E
  0
ENDTAB
  0
TABLE
  2
STYLE
  5
3
330
0
100
AcDbSymbolTable
 70
     1
  0
STYLE
  5
11
330
3
100
AcDbSymbolTableRecord
100
AcDbTextStyleTableRecord
  2
Standard
 70
     0
 40
0.0
 41
1.0
 50
0.0
 71
     0
 42
0.2
  3
txt
  4

  0
ENDTAB
  0
TABLE
  2
VIEW
  5
6
330
0
100
AcDbSymbolTable
 70
     0
  0
ENDTAB
  0
TABLE
  2
UCS
  5
7
330
0
100
AcDbSymbolTable
 70
     0
  0
ENDTAB
  0
TABLE
  2
APPID
  5
9
330
0
100
AcDbSymbolTable
 70
     1
  0
APPID
  5
12
330
9
100
AcDbSymbolTableRecord
100
AcDbRegAppTableRecord
  2
ACAD
 70
     0
  0
ENDTAB
  0
TABLE
  2
DIMSTYLE
  5
A
330
0
100
AcDbSymbolTable
 70
     1
100
AcDbDimStyleTable
  0
DIMSTYLE
105
27
330
A
100
AcDbSymbolTableRecord
100
AcDbDimStyleTableRecord
  2
Standard
 70
     0
178
     0
340
11
  0
ENDTAB
  0
TABLE
  2
BLOCK_RECORD
  5
1
330
0
100
AcDbSymbolTable
 70
     6
  0
BLOCK_RECORD
  5
1F
330
1
100
AcDbSymbolTableRecord
100
AcDbBlockTableRecord
  2
*Model_Space
340
22
 70
     0
280
     1
281
     0
  0
BLOCK_RECORD
  5
1B
330
1
100
AcDbSymbolTableRecord
100
AcDbBlockTableRecord
  2
*Paper_Space
340
1E
 70
     0
280
     1
281
     0
  0
BLOCK_RECORD
  5
23
330
1
100
AcDbSymbolTableRecord
100
AcDbBlockTableRecord
  2
*Paper_Space0
340
26
 70
     0
280
     1
281
     0
  0
BLOCK_RECORD
  5
53
330
1
100
AcDbSymbolTableRecord
100
AcDbBlockTableRecord
  2
block 2
340
0
102
{BLKREFS
331
54
102
}
 70
     0
280
     1
281
     0
  0
BLOCK_RECORD
  5
7F
330
1
100
AcDbSymbolTableRecord
100
AcDbBlockTableRecord
  2
block 3
340
0
102
{BLKREFS
331
80
102
}
 70
     0
280
     1
281
     0
  0
BLOCK_RECORD
  5
85
330
1
100
AcDbSymbolTableRecord
100
AcDbBlockTableRecord
  2
block 4
340
0
102
{BLKREFS
331
86
102
}
 70
     0
280
     1
281
     0
  0
BLOCK_RECORD
  5
C3
330
1
100
AcDbSymbolTableRecord
100
AcDbBlockTableRecord
  2
block 5
340
0
102
{BLKREFS
331
C4
102
}
 70
     0
280
     1
281
     0
  0
BLOCK_RECORD
  5
D9
330
1
100
AcDbSymbolTableRecord
100
AcDbBlockTableRecord
  2
block 6
340
0
102
{BLKREFS
331
DA
102
}
 70
     0
280
     1
281
     0
  0
ENDTAB
  0
ENDSEC
  0
SECTION
  2
BLOCKS
  0
BLOCK
  5
20
330
1F
100
AcDbEntity
  8
0
100
AcDbBlockBegin
  2
*Model_Space
 70
     0
 10
0.0
 20
0.0
 30
0.0
  3
*Model_Space
  1

  0
ENDBLK
  5
21
330
1F
100
AcDbEntity
  8
0
100
AcDbBlockEnd
  0
BLOCK
  5
1C
330
1B
100
AcDbEntity
 67
     1
  8
0
100
AcDbBlockBegin
  2
*Paper_Space
 70
     0
 10
0.0
 20
0.0
 30
0.0
  3
*Paper_Space
  1

  0
ENDBLK
  5
1D
330
1B
100
AcDbEntity
 67
     1
  8
0
100
AcDbBlockEnd
  0
BLOCK
  5
24
330
23
100
AcDbEntity
  8
0
100
AcDbBlockBegin
  2
*Paper_Space0
 70
     0
 10
0.0
 20
0.0
 30
0.0
  3
*Paper_Space0
  1

  0
ENDBLK
  5
25
330
23
100
AcDbEntity
  8
0
100
AcDbBlockEnd
  0
BLOCK
  5
55
330
53
100
AcDbEntity
  8
0
100
AcDbBlockBegin
  2
block 2
 70
     0
 10
0.0
 20
0.0
 30
0.0
  3
block 2
  1

  0
POLYLINE
  5
57
330
53
100
AcDbEntity
  8
_U+30EC_U+30A4_U+30E4_U+30FC 1
370
     0
100
AcDb2dPolyline
 66
     1
 10
0.0
 20
0.0
 30
0.0
  0
VERTEX
  5
58
330
57
100
AcDbEntity
  8
_U+30EC_U+30A4_U+30E4_U+30FC 1
370
     0
100
AcDbVertex
100
AcDb2dVertex
 10
100.3301377787369
 20
-124.5763752943767
 30
0.0
  0
VERTEX
  5
59
330
57
100
AcDbEntity
  8
_U+30EC_U+30A4_U+30E4_U+30FC 1
370
     0
100
AcDbVertex
100
AcDb2dVertex
 10
100.6770588941016
 20
-124.5763752943767
 30
0.0
  0
VERTEX
  5
5A
330
57
100
AcDbEntity
  8
_U+30EC_U+30A4_U+30E4_U+30FC 1
370
     0
100
AcDbVertex
100
AcDb2dVertex
 10
100.6770588941016
 20
-124.8092637491796
 30
0.0
  0
VERTEX
  5
5B
330
57
100
AcDbEntity
  8
_U+30EC_U+30A4_U+30E4_U+30FC 1
370
     0
100
AcDbVertex
100
AcDb2dVertex
 10
100.3301377787369
 20
-124.8092637491796
 30
0.0
  0
VERTEX
  5
5C
330
57
100
AcDbEntity
  8
_U+30EC_U+30A4_U+30E4_U+30FC 1
370
     0
100
AcDbVertex
100
AcDb2dVertex
 10
100.3301377787369
 20
-125.510340680428
 30
0.0
  0
VERTEX
  5
5D
330
57
100
AcDbEntity
  8
_U+30EC_U+30A4_U+30E4_U+30FC 1
370
     0
100
AcDbVertex
100
AcDb2dVertex
 10
100.1058620626471
 20
-125.510340680428
 30
0.0
  0
VERTEX
  5
5E
330
57
100
AcDbEntity
  8
_U+30EC_U+30A4_U+30E4_U+30FC 1
370
     0
100
AcDbVertex
100
AcDb2dVertex
 10
99.13262258806407
 20
-124.7844590616858
 30
0.0
  0
VERTEX
  5
5F
330
57
100
AcDbEntity
  8
_U+30EC_U+30A4_U+30E4_U+30FC 1
370
     0
100
AcDbVertex
100
AcDb2dVertex
 10
99.13262258806407
 20
-124.5763752943767
 30
0.0
  0
VERTEX
  5
60
330
57
100
AcDbEntity
  8
_U+30EC_U+30A4_U+30E4_U+30FC 1
370
     0
100
AcDbVertex
100
AcDb2dVertex
 10
100.131355769238
 20
-124.5763752943767
 30
0.0
  0
VERTEX
  5
61
330
57
100
AcDbEntity
  8
_U+30EC_U+30A4_U+30E4_U+30FC 1
370
     0
100
AcDbVertex
100
AcDb2dVertex
 10
100.131355769238
 20
-124.3548556546752
 30
0.0
  0
VERTEX
  5
62
330
57
100
AcDbEntity
  8
_U+30EC_U+30A4_U+30E4_U+30FC 1
370
     0
100
AcDbVertex
100
AcDb2dVertex
 10
100.3301377787369
 20
-124.3548556546752
 30
0.0
  0
VERTEX
  5
63
330
57
100
AcDbEntity
  8
_U+30EC_U+30A4_U+30E4_U+30FC 1
370
     0
100
AcDbVertex
100
AcDb2dVertex
 10
100.3301377787369
 20
-124.5763752943767
 30
0.0
  0
SEQEND
  5
64
330
57
100
AcDbEntity
  8
_U+30EC_U+30A4_U+30E4_U+30FC 1
370
     0
  0
POLYLINE
  5
65
330
53
100
AcDbEntity
  8
_U+30EC_U+30A4_U+30E4_U+30FC 1
370
     0
100
AcDb2dPolyline
 66
     1
 10
0.0
 20
0.0
 30
0.0
  0
VERTEX
  5
66
330
65
100
AcDbEntity
  8
_U+30EC_U+30A4_U+30E4_U+30FC 1
370
     0
100
AcDbVertex
100
AcDb2dVertex
 10
99.47540958884643
 20
-124.8092637491796
 30
0.0
  0
VERTEX
  5
67
330
65
100
AcDbEntity
  8
_U+30EC_U+30A4_U+30E4_U+30FC 1
370
     0
100
AcDbVertex
100
AcDb2dVertex
 10
100.131355769238
 20
-125.2977782889881
 30
0.0
  0
VERTEX
  5
68
330
65
100
AcDbEntity
  8
_U+30EC_U+30A4_U+30E4_U+30FC 1
370
     0
100
AcDbVertex
100
AcDb2dVertex
 10
100.131355769238
 20
-124.8092637491796
 30
0.0
  0
VERTEX
  5
69
330
65
100
AcDbEntity
  8
_U+30EC_U+30A4_U+30E4_U+30FC 1
370
     0
100
AcDbVertex
100
AcDb2dVertex
 10
99.47540958884643
 20
-124.8092637491796
 30
0.0
  0
SEQEND
  5
6A
330
65
100
AcDbEntity
  8
_U+30EC_U+30A4_U+30E4_U+30FC 1
370
     0
  0
HATCH
  5
6B
330
53
100
AcDbEntity
  8
_U+30EC_U+30A4_U+30E4_U+30FC 1
 62
     7
420
 16777215
100
AcDbHatch
 10
0.0
 20
0.0
 30
0.0
210
0.0
220
0.0
230
1.0
  2
SOLID
 70
     1
 71
     0
 91
        2
 92
        1
 93
       11
 72
     1
 10
100.3301377787369
 20
-124.5763752943767
 11
100.6770588941016
 21
-124.5763752943767
 72
     1
 10
100.6770588941016
 20
-124.5763752943767
 11
100.6770588941016
 21
-124.8092637491796
 72
     1
 10
100.6770588941016
 20
-124.8092637491796
 11
100.3301377787369
 21
-124.8092637491796
 72
     1
 10
100.3301377787369
 20
-124.8092637491796
 11
100.3301377787369
 21
-125.510340680428
 72
     1
 10
100.3301377787369
 20
-125.510340680428
 11
100.1058620626471
 21
-125.510340680428
 72
     1
 10
100.1058620626471
 20
-125.510340680428
 11
99.13262258806407
 21
-124.7844590616858
 72
     1
 10
99.13262258806407
 20
-124.7844590616858
 11
99.13262258806407
 21
-124.5763752943767
 72
     1
 10
99.13262258806407
 20
-124.5763752943767
 11
100.131355769238
 21
-124.5763752943767
 72
     1
 10
100.131355769238
 20
-124.5763752943767
 11
100.131355769238
 21
-124.3548556546752
 72
     1
 10
100.131355769238
 20
-124.3548556546752
 11
100.3301377787369
 21
-124.3548556546752
 72
     1
 10
100.3301377787369
 20
-124.3548556546752
 11
100.3301377787369
 21
-124.5763752943767
 97
        0
 92
        1
 93
        3
 72
     1
 10
99.47540958884643
 20
-124.8092637491796
 11
100.131355769238
 21
-125.2977782889881
 72
     1
 10
100.131355769238
 20
-125.2977782889881
 11
100.131355769238
 21
-124.8092637491796
 72
     1
 10
100.131355769238
 20
-124.8092637491796
 11
99.47540958884643
 21
-124.8092637491796
 97
        0
 75
     2
 76
     1
 98
        0
  0
POLYLINE
  5
6C
330
53
100
AcDbEntity
  8
_U+30EC_U+30A4_U+30E4_U+30FC 1
370
     0
100
AcDb2dPolyline
 66
     1
 10
0.0
 20
0.0
 30
0.0
  0
VERTEX
  5
6D
330
6C
100
AcDbEntity
  8
_U+30EC_U+30A4_U+30E4_U+30FC 1
370
     0
100
AcDbVertex
100
AcDb2dVertex
 10
100.6770588941016
 20
-124.1440158109779
 30
0.0
  0
VERTEX
  5
6E
330
6C
100
AcDbEntity
  8
_U+30EC_U+30A4_U+30E4_U+30FC 1
370
     0
100
AcDbVertex
100
AcDb2dVertex
 10
100.4252224141298
 20
-124.1440158109779
 30
0.0
  0
VERTEX
  5
6F
330
6C
100
AcDbEntity
  8
_U+30EC_U+30A4_U+30E4_U+30FC 1
370
     0
100
AcDbVertex
100
AcDb2dVertex
 10
100.4252224141298
 20
-123.8749538535799
 30
0.0
  0
VERTEX
  5
70
330
6C
100
AcDbEntity
  8
_U+30EC_U+30A4_U+30E4_U+30FC 1
370
     0
100
AcDbVertex
100
AcDb2dVertex
 10
100.6770588941016
 20
-123.8749538535799
 30
0.0
  0
VERTEX
  5
71
330
6C
100
AcDbEntity
  8
_U+30EC_U+30A4_U+30E4_U+30FC 1
370
     0
100
AcDbVertex
100
AcDb2dVertex
 10
100.6770588941016
 20
-124.1440158109779
 30
0.0
  0
SEQEND
  5
72
330
6C
100
AcDbEntity
  8
_U+30EC_U+30A4_U+30E4_U+30FC 1
370
     0
  0
HATCH
  5
73
330
53
100
AcDbEntity
  8
_U+30EC_U+30A4_U+30E4_U+30FC 1
 62
     7
420
 16777215
100
AcDbHatch
 10
0.0
 20
0.0
 30
0.0
210
0.0
220
0.0
230
1.0
  2
SOLID
 70
     1
 71
     0
 91
        1
 92
        1
 93
        4
 72
     1
 10
100.6770588941016
 20
-124.1440158109779
 11
100.4252224141298
 21
-124.1440158109779
 72
     1
 10
100.4252224141298
 20
-124.1440158109779
 11
100.4252224141298
 21
-123.8749538535799
 72
     1
 10
100.4252224141298
 20
-123.8749538535799
 11
100.6770588941016
 21
-123.8749538535799
 72
     1
 10
100.6770588941016
 20
-123.8749538535799
 11
100.6770588941016
 21
-124.1440158109779
 97
        0
 75
     2
 76
     1
 98
        0
  0
SPLINE
  5
74
330
53
100
AcDbEntity
  8
_U+30EC_U+30A4_U+30E4_U+30FC 1
370
     0
100
AcDbSpline
210
0.0
220
0.0
230
1.0
 70
    11
 71
     3
 72
    53
 73
    49
 74
     0
 42
0.0000000001
 43
0.0000000001
 12
1.0
 22
0.0
 32
0.0
 13
1.0
 23
0.0
 33
0.0
 40
0.0
 40
0.0
 40
0.0
 40
0.0
 40
1.0
 40
1.0
 40
1.0
 40
2.0
 40
2.0
 40
2.0
 40
3.0
 40
3.0
 40
3.0
 40
4.0
 40
4.0
 40
4.0
 40
5.0
 40
5.0
 40
5.0
 40
6.0
 40
6.0
 40
6.0
 40
7.0
 40
7.0
 40
7.0
 40
8.0
 40
8.0
 40
8.0
 40
9.0
 40
9.0
 40
9.0
 40
10.0
 40
10.0
 40
10.0
 40
11.0
 40
11.0
 40
11.0
 40
12.0
 40
12.0
 40
12.0
 40
13.0
 40
13.0
 40
13.0
 40
14.0
 40
14.0
 40
14.0
 40
15.0
 40
15.0
 40
15.0
 40
16.0
 40
16.0
 40
16.0
 40
16.0
 10
100.7277017977348
 20
-123.1080755985633
 30
0.0
 10
100.7277017977348
 20
-123.1917914188548
 30
0.0
 10
100.710820829857
 20
-123.2999674170917
 30
0.0
 10
100.6474310729284
 20
-123.4088324344256
 30
0.0
 10
100.537532526949
 20
-123.594178571532
 30
0.0
 10
100.4062743889609
 20
-123.6165716921861
 30
0.0
 10
100.2984429002726
 20
-123.6368977555491
 30
0.0
 10
100.2984429002726
 20
-123.6368977555491
 30
0.0
 10
100.2984429002726
 20
-123.3995306766154
 30
0.0
 10
100.2984429002726
 20
-123.3995306766154
 30
0.0
 10
100.4972249097715
 20
-123.3409640533662
 30
0.0
 10
100.5268527309447
 20
-123.2052272912473
 30
0.0
 10
100.5268527309447
 20
-123.1056640317236
 30
0.0
 10
100.5268527309447
 20
-122.9564913972123
 30
0.0
 10
100.427289471421
 20
-122.79353838076
 30
0.0
 10
100.1947455261666
 20
-122.79353838076
 30
0.0
 10
99.93877493161253
 20
-122.79353838076
 30
0.0
 10
99.86883949326196
 20
-122.9857747088369
 30
0.0
 10
99.86883949326196
 20
-123.1146212799852
 30
0.0
 10
99.86883949326196
 20
-123.1487277252892
 30
0.0
 10
99.86883949326196
 20
-123.2999674170917
 30
0.0
 10
99.99803057395883
 20
-123.3950520524846
 30
0.0
 10
99.99803057395883
 20
-123.3950520524846
 30
0.0
 10
99.97908254878996
 20
-123.5828097564307
 30
0.0
 10
99.97908254878996
 20
-123.5828097564307
 30
0.0
 10
99.97908254878996
 20
-123.5828097564307
 30
0.0
 10
99.13262258806407
 20
-123.4539631852823
 30
0.0
 10
99.13262258806407
 20
-123.4539631852823
 30
0.0
 10
99.13262258806407
 20
-123.4539631852823
 30
0.0
 10
99.13262258806407
 20
-122.6219726255945
 30
0.0
 10
99.13262258806407
 20
-122.6219726255945
 30
0.0
 10
99.13262258806407
 20
-122.6219726255945
 30
0.0
 10
99.32727048298068
 20
-122.6219726255945
 30
0.0
 10
99.32727048298068
 20
-122.6219726255945
 30
0.0
 10
99.32727048298068
 20
-122.6219726255945
 30
0.0
 10
99.32727048298068
 20
-123.2796413537287
 30
0.0
 10
99.32727048298068
 20
-123.2796413537287
 30
0.0
 10
99.32727048298068
 20
-123.2796413537287
 30
0.0
 10
99.75032820856937
 20
-123.3499213016278
 30
0.0
 10
99.75032820856937
 20
-123.3499213016278
 30
0.0
 10
99.71656627281392
 20
-123.2844644874081
 30
0.0
 10
99.6762586556365
 20
-123.1962700429857
 30
0.0
 10
99.6762586556365
 20
-123.0694905291285
 30
0.0
 10
99.6762586556365
 20
-122.7983615144393
 30
0.0
 10
99.86263832138852
 20
-122.5451469962734
 30
0.0
 10
100.1757975009977
 20
-122.5451469962734
 30
0.0
 10
100.4930907951892
 20
-122.5451469962734
 30
0.0
 10
100.7277017977348
 20
-122.7845811324983
 30
0.0
 10
100.7277017977348
 20
-123.1080755985633
 30
0.0
  0
HATCH
  5
75
330
53
100
AcDbEntity
  8
_U+30EC_U+30A4_U+30E4_U+30FC 1
 62
     7
420
 16777215
100
AcDbHatch
 10
0.0
 20
0.0
 30
0.0
210
0.0
220
0.0
230
1.0
  2
SOLID
 70
     1
 71
     0
 91
        1
 92
        1
 93
        1
 72
     4
 94
        3
 73
     0
 74
     1
 95
       53
 96
       49
 40
0.0
 40
0.0
 40
0.0
 40
0.0
 40
1.0
 40
1.0
 40
1.0
 40
2.0
 40
2.0
 40
2.0
 40
3.0
 40
3.0
 40
3.0
 40
4.0
 40
4.0
 40
4.0
 40
5.0
 40
5.0
 40
5.0
 40
6.0
 40
6.0
 40
6.0
 40
7.0
 40
7.0
 40
7.0
 40
8.0
 40
8.0
 40
8.0
 40
9.0
 40
9.0
 40
9.0
 40
10.0
 40
10.0
 40
10.0
 40
11.0
 40
11.0
 40
11.0
 40
12.0
 40
12.0
 40
12.0
 40
13.0
 40
13.0
 40
13.0
 40
14.0
 40
14.0
 40
14.0
 40
15.0
 40
15.0
 40
15.0
 40
16.0
 40
16.0
 40
16.0
 40
16.0
 10
100.7277017977348
 20
-123.1080755985633
 10
100.7277017977348
 20
-123.1917914188548
 10
100.710820829857
 20
-123.2999674170917
 10
100.6474310729284
 20
-123.4088324344256
 10
100.537532526949
 20
-123.594178571532
 10
100.4062743889609
 20
-123.6165716921861
 10
100.2984429002726
 20
-123.6368977555491
 10
100.2984429002726
 20
-123.6368977555491
 10
100.2984429002726
 20
-123.3995306766154
 10
100.2984429002726
 20
-123.3995306766154
 10
100.4972249097715
 20
-123.3409640533662
 10
100.5268527309447
 20
-123.2052272912473
 10
100.5268527309447
 20
-123.1056640317236
 10
100.5268527309447
 20
-122.9564913972123
 10
100.427289471421
 20
-122.79353838076
 10
100.1947455261666
 20
-122.79353838076
 10
99.93877493161253
 20
-122.79353838076
 10
99.86883949326196
 20
-122.9857747088369
 10
99.86883949326196
 20
-123.1146212799852
 10
99.86883949326196
 20
-123.1487277252892
 10
99.86883949326196
 20
-123.2999674170917
 10
99.99803057395883
 20
-123.3950520524846
 10
99.99803057395883
 20
-123.3950520524846
 10
99.97908254878996
 20
-123.5828097564307
 10
99.97908254878996
 20
-123.5828097564307
 10
99.97908254878996
 20
-123.5828097564307
 10
99.13262258806407
 20
-123.4539631852823
 10
99.13262258806407
 20
-123.4539631852823
 10
99.13262258806407
 20
-123.4539631852823
 10
99.13262258806407
 20
-122.6219726255945
 10
99.13262258806407
 20
-122.6219726255945
 10
99.13262258806407
 20
-122.6219726255945
 10
99.32727048298068
 20
-122.6219726255945
 10
99.32727048298068
 20
-122.6219726255945
 10
99.32727048298068
 20
-122.6219726255945
 10
99.32727048298068
 20
-123.2796413537287
 10
99.32727048298068
 20
-123.2796413537287
 10
99.32727048298068
 20
-123.2796413537287
 10
99.75032820856937
 20
-123.3499213016278
 10
99.75032820856937
 20
-123.3499213016278
 10
99.71656627281392
 20
-123.2844644874081
 10
99.6762586556365
 20
-123.1962700429857
 10
99.6762586556365
 20
-123.0694905291285
 10
99.6762586556365
 20
-122.7983615144393
 10
99.86263832138852
 20
-122.5451469962734
 10
100.1757975009977
 20
-122.5451469962734
 10
100.4930907951892
 20
-122.5451469962734
 10
100.7277017977348
 20
-122.7845811324983
 10
100.7277017977348
 20
-123.1080755985633
 97
        0
 97
        0
 75
     2
 76
     1
 98
        0
  0
ENDBLK
  5
56
330
53
100
AcDbEntity
  8
0
100
AcDbBlockEnd
  0
BLOCK
  5
81
330
7F
100
AcDbEntity
  8
0
100
AcDbBlockBegin
  2
block 3
 70
     0
 10
0.0
 20
0.0
 30
0.0
  3
block 3
  1

  0
SPLINE
  5
83
330
7F
100
AcDbEntity
  8
_U+30EC_U+30A4_U+30E4_U+30FC 1
370
     0
100
AcDbSpline
210
0.0
220
0.0
230
1.0
 70
    11
 71
     3
 72
    26
 73
    22
 74
     0
 42
0.0000000001
 43
0.0000000001
 12
1.0
 22
0.0
 32
0.0
 13
1.0
 23
0.0
 33
0.0
 40
0.0
 40
0.0
 40
0.0
 40
0.0
 40
1.0
 40
1.0
 40
1.0
 40
2.0
 40
2.0
 40
2.0
 40
3.0
 40
3.0
 40
3.0
 40
4.0
 40
4.0
 40
4.0
 40
5.0
 40
5.0
 40
5.0
 40
6.0
 40
6.0
 40
6.0
 40
7.0
 40
7.0
 40
7.0
 40
7.0
 10
100.6770588941016
 20
-132.1752224061923
 30
0.0
 10
100.6770588941016
 20
-132.1752224061923
 30
0.0
 10
99.572905791079
 20
-132.1752224061923
 30
0.0
 10
99.572905791079
 20
-132.1752224061923
 30
0.0
 10
99.572905791079
 20
-132.1752224061923
 30
0.0
 10
99.572905791079
 20
-132.5276556743334
 30
0.0
 10
99.572905791079
 20
-132.5276556743334
 30
0.0
 10
99.572905791079
 20
-132.5276556743334
 30
0.0
 10
99.42476668521326
 20
-132.5276556743334
 30
0.0
 10
99.42476668521326
 20
-132.5276556743334
 30
0.0
 10
99.40995277462669
 20
-132.1728108393526
 30
0.0
 10
99.24699975817437
 20
-132.1232014643651
 30
0.0
 10
99.13262258806407
 20
-132.0915065859007
 30
0.0
 10
99.13262258806407
 20
-132.0915065859007
 30
0.0
 10
99.13262258806407
 20
-131.9354437604189
 30
0.0
 10
99.13262258806407
 20
-131.9354437604189
 30
0.0
 10
99.13262258806407
 20
-131.9354437604189
 30
0.0
 10
100.6770588941016
 20
-131.9354437604189
 30
0.0
 10
100.6770588941016
 20
-131.9354437604189
 30
0.0
 10
100.6770588941016
 20
-131.9354437604189
 30
0.0
 10
100.6770588941016
 20
-132.1752224061923
 30
0.0
 10
100.6770588941016
 20
-132.1752224061923
 30
0.0
  0
HATCH
  5
84
330
7F
100
AcDbEntity
  8
_U+30EC_U+30A4_U+30E4_U+30FC 1
 62
   179
420
  2234388
100
AcDbHatch
 10
0.0
 20
0.0
 30
0.0
210
0.0
220
0.0
230
1.0
  2
SOLID
 70
     1
 71
     0
 91
        1
 92
        1
 93
        1
 72
     4
 94
        3
 73
     0
 74
     1
 95
       26
 96
       22
 40
0.0
 40
0.0
 40
0.0
 40
0.0
 40
1.0
 40
1.0
 40
1.0
 40
2.0
 40
2.0
 40
2.0
 40
3.0
 40
3.0
 40
3.0
 40
4.0
 40
4.0
 40
4.0
 40
5.0
 40
5.0
 40
5.0
 40
6.0
 40
6.0
 40
6.0
 40
7.0
 40
7.0
 40
7.0
 40
7.0
 10
100.6770588941016
 20
-132.1752224061923
 10
100.6770588941016
 20
-132.1752224061923
 10
99.572905791079
 20
-132.1752224061923
 10
99.572905791079
 20
-132.1752224061923
 10
99.572905791079
 20
-132.1752224061923
 10
99.572905791079
 20
-132.5276556743334
 10
99.572905791079
 20
-132.5276556743334
 10
99.572905791079
 20
-132.5276556743334
 10
99.42476668521326
 20
-132.5276556743334
 10
99.42476668521326
 20
-132.5276556743334
 10
99.40995277462669
 20
-132.1728108393526
 10
99.24699975817437
 20
-132.1232014643651
 10
99.13262258806407
 20
-132.0915065859007
 10
99.13262258806407
 20
-132.0915065859007
 10
99.13262258806407
 20
-131.9354437604189
 10
99.13262258806407
 20
-131.9354437604189
 10
99.13262258806407
 20
-131.9354437604189
 10
100.6770588941016
 20
-131.9354437604189
 10
100.6770588941016
 20
-131.9354437604189
 10
100.6770588941016
 20
-131.9354437604189
 10
100.6770588941016
 20
-132.1752224061923
 10
100.6770588941016
 20
-132.1752224061923
 97
        0
 97
        0
 75
     2
 76
     1
 98
        0
  0
ENDBLK
  5
82
330
7F
100
AcDbEntity
  8
0
100
AcDbBlockEnd
  0
BLOCK
  5
87
330
85
100
AcDbEntity
  8
0
100
AcDbBlockBegin
  2
block 4
 70
     0
 10
0.0
 20
0.0
 30
0.0
  3
block 4
  1

  0
SPLINE
  5
89
330
85
100
AcDbEntity
  8
_U+30EC_U+30A4_U+30E4_U+30FC 1
370
     0
100
AcDbSpline
210
0.0
220
0.0
230
1.0
 70
    11
 71
     3
 72
    26
 73
    22
 74
     0
 42
0.0000000001
 43
0.0000000001
 12
1.0
 22
0.0
 32
0.0
 13
1.0
 23
0.0
 33
0.0
 40
0.0
 40
0.0
 40
0.0
 40
0.0
 40
1.0
 40
1.0
 40
1.0
 40
2.0
 40
2.0
 40
2.0
 40
3.0
 40
3.0
 40
3.0
 40
4.0
 40
4.0
 40
4.0
 40
5.0
 40
5.0
 40
5.0
 40
6.0
 40
6.0
 40
6.0
 40
7.0
 40
7.0
 40
7.0
 40
7.0
 10
82.17569035489011
 20
-129.15111758924
 30
0.0
 10
82.17569035489011
 20
-129.15111758924
 30
0.0
 10
82.17569035489011
 20
-128.0466199766689
 30
0.0
 10
82.17569035489011
 20
-128.0466199766689
 30
0.0
 10
82.17569035489011
 20
-128.0466199766689
 30
0.0
 10
81.84565020740317
 20
-128.0466199766689
 30
0.0
 10
81.84565020740317
 20
-128.0466199766689
 30
0.0
 10
81.84565020740317
 20
-128.0466199766689
 30
0.0
 10
81.84565020740317
 20
-127.8984808708032
 30
0.0
 10
81.84565020740317
 20
-127.8984808708032
 30
0.0
 10
82.17775741218126
 20
-127.8838392149909
 30
0.0
 10
82.22426620123213
 20
-127.7208861985385
 30
0.0
 10
82.25389402240528
 20
-127.6066812832025
 30
0.0
 10
82.25389402240528
 20
-127.6066812832025
 30
0.0
 10
82.39996607097987
 20
-127.6066812832025
 30
0.0
 10
82.39996607097987
 20
-127.6066812832025
 30
0.0
 10
82.39996607097987
 20
-127.6066812832025
 30
0.0
 10
82.39996607097987
 20
-129.15111758924
 30
0.0
 10
82.39996607097987
 20
-129.15111758924
 30
0.0
 10
82.39996607097987
 20
-129.15111758924
 30
0.0
 10
82.17569035489011
 20
-129.15111758924
 30
0.0
 10
82.17569035489011
 20
-129.15111758924
 30
0.0
  0
HATCH
  5
8A
330
85
100
AcDbEntity
  8
_U+30EC_U+30A4_U+30E4_U+30FC 1
 62
   179
420
  2234388
100
AcDbHatch
 10
0.0
 20
0.0
 30
0.0
210
0.0
220
0.0
230
1.0
  2
SOLID
 70
     1
 71
     0
 91
        1
 92
        1
 93
        1
 72
     4
 94
        3
 73
     0
 74
     1
 95
       26
 96
       22
 40
0.0
 40
0.0
 40
0.0
 40
0.0
 40
1.0
 40
1.0
 40
1.0
 40
2.0
 40
2.0
 40
2.0
 40
3.0
 40
3.0
 40
3.0
 40
4.0
 40
4.0
 40
4.0
 40
5.0
 40
5.0
 40
5.0
 40
6.0
 40
6.0
 40
6.0
 40
7.0
 40
7.0
 40
7.0
 40
7.0
 10
82.17569035489011
 20
-129.15111758924
 10
82.17569035489011
 20
-129.15111758924
 10
82.17569035489011
 20
-128.0466199766689
 10
82.17569035489011
 20
-128.0466199766689
 10
82.17569035489011
 20
-128.0466199766689
 10
81.84565020740317
 20
-128.0466199766689
 10
81.84565020740317
 20
-128.0466199766689
 10
81.84565020740317
 20
-128.0466199766689
 10
81.84565020740317
 20
-127.8984808708032
 10
81.84565020740317
 20
-127.8984808708032
 10
82.17775741218126
 20
-127.8838392149909
 10
82.22426620123213
 20
-127.7208861985385
 10
82.25389402240528
 20
-127.6066812832025
 10
82.25389402240528
 20
-127.6066812832025
 10
82.39996607097987
 20
-127.6066812832025
 10
82.39996607097987
 20
-127.6066812832025
 10
82.39996607097987
 20
-127.6066812832025
 10
82.39996607097987
 20
-129.15111758924
 10
82.39996607097987
 20
-129.15111758924
 10
82.39996607097987
 20
-129.15111758924
 10
82.17569035489011
 20
-129.15111758924
 10
82.17569035489011
 20
-129.15111758924
 97
        0
 97
        0
 75
     2
 76
     1
 98
        0
  0
ENDBLK
  5
88
330
85
100
AcDbEntity
  8
0
100
AcDbBlockEnd
  0
BLOCK
  5
C5
330
C3
100
AcDbEntity
  8
0
100
AcDbBlockBegin
  2
block 5
 70
     0
 10
0.0
 20
0.0
 30
0.0
  3
block 5
  1

  0
SPLINE
  5
C7
330
C3
100
AcDbEntity
  8
_U+30EC_U+30A4_U+30E4_U+30FC 1
370
     0
100
AcDbSpline
210
0.0
220
0.0
230
1.0
 70
    11
 71
     3
 72
    26
 73
    22
 74
     0
 42
0.0000000001
 43
0.0000000001
 12
1.0
 22
0.0
 32
0.0
 13
1.0
 23
0.0
 33
0.0
 40
0.0
 40
0.0
 40
0.0
 40
0.0
 40
1.0
 40
1.0
 40
1.0
 40
2.0
 40
2.0
 40
2.0
 40
3.0
 40
3.0
 40
3.0
 40
4.0
 40
4.0
 40
4.0
 40
5.0
 40
5.0
 40
5.0
 40
6.0
 40
6.0
 40
6.0
 40
7.0
 40
7.0
 40
7.0
 40
7.0
 10
88.1711900278704
 20
-136.0609456040056
 30
0.0
 10
88.1711900278704
 20
-136.0609456040056
 30
0.0
 10
88.1711900278704
 20
-134.956792500983
 30
0.0
 10
88.1711900278704
 20
-134.956792500983
 30
0.0
 10
88.1711900278704
 20
-134.956792500983
 30
0.0
 10
87.81875675972934
 20
-134.956792500983
 30
0.0
 10
87.81875675972934
 20
-134.956792500983
 30
0.0
 10
87.81875675972934
 20
-134.956792500983
 30
0.0
 10
87.81875675972934
 20
-134.8086533951173
 30
0.0
 10
87.81875675972934
 20
-134.8086533951173
 30
0.0
 10
88.17360159471008
 20
-134.7938394845307
 30
0.0
 10
88.22321096969767
 20
-134.6308864680784
 30
0.0
 10
88.25490584816197
 20
-134.5165092979681
 30
0.0
 10
88.25490584816197
 20
-134.5165092979681
 30
0.0
 10
88.4109686736438
 20
-134.5165092979681
 30
0.0
 10
88.4109686736438
 20
-134.5165092979681
 30
0.0
 10
88.4109686736438
 20
-134.5165092979681
 30
0.0
 10
88.4109686736438
 20
-136.0609456040056
 30
0.0
 10
88.4109686736438
 20
-136.0609456040056
 30
0.0
 10
88.4109686736438
 20
-136.0609456040056
 30
0.0
 10
88.1711900278704
 20
-136.0609456040056
 30
0.0
 10
88.1711900278704
 20
-136.0609456040056
 30
0.0
  0
HATCH
  5
C8
330
C3
100
AcDbEntity
  8
_U+30EC_U+30A4_U+30E4_U+30FC 1
 62
   179
420
  2234388
100
AcDbHatch
 10
0.0
 20
0.0
 30
0.0
210
0.0
220
0.0
230
1.0
  2
SOLID
 70
     1
 71
     0
 91
        1
 92
        1
 93
        1
 72
     4
 94
        3
 73
     0
 74
     1
 95
       26
 96
       22
 40
0.0
 40
0.0
 40
0.0
 40
0.0
 40
1.0
 40
1.0
 40
1.0
 40
2.0
 40
2.0
 40
2.0
 40
3.0
 40
3.0
 40
3.0
 40
4.0
 40
4.0
 40
4.0
 40
5.0
 40
5.0
 40
5.0
 40
6.0
 40
6.0
 40
6.0
 40
7.0
 40
7.0
 40
7.0
 40
7.0
 10
88.1711900278704
 20
-136.0609456040056
 10
88.1711900278704
 20
-136.0609456040056
 10
88.1711900278704
 20
-134.956792500983
 10
88.1711900278704
 20
-134.956792500983
 10
88.1711900278704
 20
-134.956792500983
 10
87.81875675972934
 20
-134.956792500983
 10
87.81875675972934
 20
-134.956792500983
 10
87.81875675972934
 20
-134.956792500983
 10
87.81875675972934
 20
-134.8086533951173
 10
87.81875675972934
 20
-134.8086533951173
 10
88.17360159471008
 20
-134.7938394845307
 10
88.22321096969767
 20
-134.6308864680784
 10
88.25490584816197
 20
-134.5165092979681
 10
88.25490584816197
 20
-134.5165092979681
 10
88.4109686736438
 20
-134.5165092979681
 10
88.4109686736438
 20
-134.5165092979681
 10
88.4109686736438
 20
-134.5165092979681
 10
88.4109686736438
 20
-136.0609456040056
 10
88.4109686736438
 20
-136.0609456040056
 10
88.4109686736438
 20
-136.0609456040056
 10
88.1711900278704
 20
-136.0609456040056
 10
88.1711900278704
 20
-136.0609456040056
 97
        0
 97
        0
 75
     2
 76
     1
 98
        0
  0
SPLINE
  5
C9
330
C3
100
AcDbEntity
  8
_U+30EC_U+30A4_U+30E4_U+30FC 1
370
     0
100
AcDbSpline
210
0.0
220
0.0
230
1.0
 70
    11
 71
     3
 72
    29
 73
    25
 74
     0
 42
0.0000000001
 43
0.0000000001
 12
1.0
 22
0.0
 32
0.0
 13
1.0
 23
0.0
 33
0.0
 40
0.0
 40
0.0
 40
0.0
 40
0.0
 40
1.0
 40
1.0
 40
1.0
 40
2.0
 40
2.0
 40
2.0
 40
3.0
 40
3.0
 40
3.0
 40
4.0
 40
4.0
 40
4.0
 40
5.0
 40
5.0
 40
5.0
 40
6.0
 40
6.0
 40
6.0
 40
7.0
 40
7.0
 40
7.0
 40
8.0
 40
8.0
 40
8.0
 40
8.0
 10
89.48101533136239
 20
-136.1115885076388
 30
0.0
 10
89.19610593473223
 20
-136.1115885076388
 30
0.0
 10
88.92497692004306
 20
-135.9741291977773
 30
0.0
 10
88.92497692004306
 20
-135.6251410251215
 30
0.0
 10
88.92497692004306
 20
-135.3691704305674
 30
0.0
 10
89.07656112139406
 20
-135.2740857951745
 30
0.0
 10
89.18956025331025
 20
-135.2127630955371
 30
0.0
 10
89.05623505803108
 20
-135.1535074531908
 30
0.0
 10
88.97458629503066
 20
-135.0391302830805
 30
0.0
 10
88.97458629503066
 20
-134.8782443239193
 30
0.0
 10
88.97458629503066
 20
-134.6033257041964
 30
0.0
 10
89.18714868647058
 20
-134.4679334516261
 30
0.0
 10
89.48101533136239
 20
-134.4679334516261
 30
0.0
 10
89.78418373406437
 20
-134.4679334516261
 30
0.0
 10
89.98744436769411
 20
-134.6119384429095
 30
0.0
 10
89.98744436769411
 20
-134.8782443239193
 30
0.0
 10
89.98744436769411
 20
-135.0391302830805
 30
0.0
 10
89.90407305695106
 20
-135.1535074531908
 30
0.0
 10
89.77040335212338
 20
-135.2127630955371
 30
0.0
 10
89.86548798751627
 20
-135.2634059991703
 30
0.0
 10
90.03498668539056
 20
-135.3584906345632
 30
0.0
 10
90.03498668539056
 20
-135.6210069105392
 30
0.0
 10
90.03498668539056
 20
-135.9954887897859
 30
0.0
 10
89.73664141636793
 20
-136.1115885076388
 30
0.0
 10
89.48101533136239
 20
-136.1115885076388
 30
0.0
  0
SPLINE
  5
CA
330
C3
100
AcDbEntity
  8
_U+30EC_U+30A4_U+30E4_U+30FC 1
370
     0
100
AcDbSpline
210
0.0
220
0.0
230
1.0
 70
    11
 71
     3
 72
    17
 73
    13
 74
     0
 42
0.0000000001
 43
0.0000000001
 12
1.0
 22
0.0
 32
0.0
 13
1.0
 23
0.0
 33
0.0
 40
0.0
 40
0.0
 40
0.0
 40
0.0
 40
1.0
 40
1.0
 40
1.0
 40
2.0
 40
2.0
 40
2.0
 40
3.0
 40
3.0
 40
3.0
 40
4.0
 40
4.0
 40
4.0
 40
4.0
 10
89.48101533136239
 20
-135.3205945842254
 30
0.0
 10
89.32736407272024
 20
-135.3205945842254
 30
0.0
 10
89.16475556581645
 20
-135.4074109904537
 30
0.0
 10
89.16475556581645
 20
-135.6103271145349
 30
0.0
 10
89.16475556581645
 20
-135.8156548054558
 30
0.0
 10
89.30014781838678
 20
-135.9169406127222
 30
0.0
 10
89.48101533136239
 20
-135.9169406127222
 30
0.0
 10
89.68014185040983
 20
-135.9169406127222
 30
0.0
 10
89.79761960645685
 20
-135.7942952134473
 30
0.0
 10
89.79761960645685
 20
-135.6165282864084
 30
0.0
 10
89.79761960645685
 20
-135.3946641371583
 30
0.0
 10
89.62364228445173
 20
-135.3205945842254
 30
0.0
 10
89.48101533136239
 20
-135.3205945842254
 30
0.0
  0
SPLINE
  5
CB
330
C3
100
AcDbEntity
  8
_U+30EC_U+30A4_U+30E4_U+30FC 1
370
     0
100
AcDbSpline
210
0.0
220
0.0
230
1.0
 70
    11
 71
     3
 72
    17
 73
    13
 74
     0
 42
0.0000000001
 43
0.0000000001
 12
1.0
 22
0.0
 32
0.0
 13
1.0
 23
0.0
 33
0.0
 40
0.0
 40
0.0
 40
0.0
 40
0.0
 40
1.0
 40
1.0
 40
1.0
 40
2.0
 40
2.0
 40
2.0
 40
3.0
 40
3.0
 40
3.0
 40
4.0
 40
4.0
 40
4.0
 40
4.0
 10
89.48101533136239
 20
-134.6605142892516
 30
0.0
 10
89.30497095206613
 20
-134.6605142892516
 30
0.0
 10
89.21436494080405
 20
-134.7555989246444
 30
0.0
 10
89.21436494080405
 20
-134.8909911772148
 30
0.0
 10
89.21436494080405
 20
-135.0136365764897
 30
0.0
 10
89.29119057012512
 20
-135.1321478611822
 30
0.0
 10
89.48101533136239
 20
-135.1321478611822
 30
0.0
 10
89.67118460214817
 20
-135.1321478611822
 30
0.0
 10
89.74801023146925
 20
-135.0136365764897
 30
0.0
 10
89.74801023146925
 20
-134.8909911772148
 30
0.0
 10
89.74801023146925
 20
-134.7555989246444
 30
0.0
 10
89.65533716291603
 20
-134.6605142892516
 30
0.0
 10
89.48101533136239
 20
-134.6605142892516
 30
0.0
  0
HATCH
  5
CC
330
C3
100
AcDbEntity
  8
_U+30EC_U+30A4_U+30E4_U+30FC 1
 62
   179
420
  2234388
100
AcDbHatch
 10
0.0
 20
0.0
 30
0.0
210
0.0
220
0.0
230
1.0
  2
SOLID
 70
     1
 71
     0
 91
        3
 92
        1
 93
        1
 72
     4
 94
        3
 73
     0
 74
     1
 95
       29
 96
       25
 40
0.0
 40
0.0
 40
0.0
 40
0.0
 40
1.0
 40
1.0
 40
1.0
 40
2.0
 40
2.0
 40
2.0
 40
3.0
 40
3.0
 40
3.0
 40
4.0
 40
4.0
 40
4.0
 40
5.0
 40
5.0
 40
5.0
 40
6.0
 40
6.0
 40
6.0
 40
7.0
 40
7.0
 40
7.0
 40
8.0
 40
8.0
 40
8.0
 40
8.0
 10
89.48101533136239
 20
-136.1115885076388
 10
89.19610593473223
 20
-136.1115885076388
 10
88.92497692004306
 20
-135.9741291977773
 10
88.92497692004306
 20
-135.6251410251215
 10
88.92497692004306
 20
-135.3691704305674
 10
89.07656112139406
 20
-135.2740857951745
 10
89.18956025331025
 20
-135.2127630955371
 10
89.05623505803108
 20
-135.1535074531908
 10
88.97458629503066
 20
-135.0391302830805
 10
88.97458629503066
 20
-134.8782443239193
 10
88.97458629503066
 20
-134.6033257041964
 10
89.18714868647058
 20
-134.4679334516261
 10
89.48101533136239
 20
-134.4679334516261
 10
89.78418373406437
 20
-134.4679334516261
 10
89.98744436769411
 20
-134.6119384429095
 10
89.98744436769411
 20
-134.8782443239193
 10
89.98744436769411
 20
-135.0391302830805
 10
89.90407305695106
 20
-135.1535074531908
 10
89.77040335212338
 20
-135.2127630955371
 10
89.86548798751627
 20
-135.2634059991703
 10
90.03498668539056
 20
-135.3584906345632
 10
90.03498668539056
 20
-135.6210069105392
 10
90.03498668539056
 20
-135.9954887897859
 10
89.73664141636793
 20
-136.1115885076388
 10
89.48101533136239
 20
-136.1115885076388
 97
        0
 97
        0
 92
        1
 93
        1
 72
     4
 94
        3
 73
     0
 74
     1
 95
       17
 96
       13
 40
0.0
 40
0.0
 40
0.0
 40
0.0
 40
1.0
 40
1.0
 40
1.0
 40
2.0
 40
2.0
 40
2.0
 40
3.0
 40
3.0
 40
3.0
 40
4.0
 40
4.0
 40
4.0
 40
4.0
 10
89.48101533136239
 20
-135.3205945842254
 10
89.32736407272024
 20
-135.3205945842254
 10
89.16475556581645
 20
-135.4074109904537
 10
89.16475556581645
 20
-135.6103271145349
 10
89.16475556581645
 20
-135.8156548054558
 10
89.30014781838678
 20
-135.9169406127222
 10
89.48101533136239
 20
-135.9169406127222
 10
89.68014185040983
 20
-135.9169406127222
 10
89.79761960645685
 20
-135.7942952134473
 10
89.79761960645685
 20
-135.6165282864084
 10
89.79761960645685
 20
-135.3946641371583
 10
89.62364228445173
 20
-135.3205945842254
 10
89.48101533136239
 20
-135.3205945842254
 97
        0
 97
        0
 92
        1
 93
        1
 72
     4
 94
        3
 73
     0
 74
     1
 95
       17
 96
       13
 40
0.0
 40
0.0
 40
0.0
 40
0.0
 40
1.0
 40
1.0
 40
1.0
 40
2.0
 40
2.0
 40
2.0
 40
3.0
 40
3.0
 40
3.0
 40
4.0
 40
4.0
 40
4.0
 40
4.0
 10
89.48101533136239
 20
-134.6605142892516
 10
89.30497095206613
 20
-134.6605142892516
 10
89.21436494080405
 20
-134.7555989246444
 10
89.21436494080405
 20
-134.8909911772148
 10
89.21436494080405
 20
-135.0136365764897
 10
89.29119057012512
 20
-135.1321478611822
 10
89.48101533136239
 20
-135.1321478611822
 10
89.67118460214817
 20
-135.1321478611822
 10
89.74801023146925
 20
-135.0136365764897
 10
89.74801023146925
 20
-134.8909911772148
 10
89.74801023146925
 20
-134.7555989246444
 10
89.65533716291603
 20
-134.6605142892516
 10
89.48101533136239
 20
-134.6605142892516
 97
        0
 97
        0
 75
     2
 76
     1
 98
        0
  0
ENDBLK
  5
C6
330
C3
100
AcDbEntity
  8
0
100
AcDbBlockEnd
  0
BLOCK
  5
DB
330
D9
100
AcDbEntity
  8
0
100
AcDbBlockBegin
  2
block 6
 70
     0
 10
0.0
 20
0.0
 30
0.0
  3
block 6
  1

  0
SPLINE
  5
DD
330
D9
100
AcDbEntity
  8
_U+30EC_U+30A4_U+30E4_U+30FC 1
370
     0
100
AcDbSpline
210
0.0
220
0.0
230
1.0
 70
    11
 71
     3
 72
    29
 73
    25
 74
     0
 42
0.0000000001
 43
0.0000000001
 12
1.0
 22
0.0
 32
0.0
 13
1.0
 23
0.0
 33
0.0
 40
0.0
 40
0.0
 40
0.0
 40
0.0
 40
1.0
 40
1.0
 40
1.0
 40
2.0
 40
2.0
 40
2.0
 40
3.0
 40
3.0
 40
3.0
 40
4.0
 40
4.0
 40
4.0
 40
5.0
 40
5.0
 40
5.0
 40
6.0
 40
6.0
 40
6.0
 40
7.0
 40
7.0
 40
7.0
 40
8.0
 40
8.0
 40
8.0
 40
8.0
 10
83.88996986835043
 20
-121.4616644661624
 30
0.0
 10
83.60506047172026
 20
-121.4616644661624
 30
0.0
 10
83.33375920225684
 20
-121.3240329015266
 30
0.0
 10
83.33375920225684
 20
-120.9750447288708
 30
0.0
 10
83.33375920225684
 20
-120.7190741343168
 30
0.0
 10
83.48517114883357
 20
-120.6238172441496
 30
0.0
 10
83.59834253552403
 20
-120.5624945445122
 30
0.0
 10
83.4648450854706
 20
-120.5032389021659
 30
0.0
 10
83.3835408320187
 20
-120.3890339868298
 30
0.0
 10
83.3835408320187
 20
-120.2283202824429
 30
0.0
 10
83.3835408320187
 20
-119.9532294079457
 30
0.0
 10
83.59593096868436
 20
-119.8178371553754
 30
0.0
 10
83.88996986835043
 20
-119.8178371553754
 30
0.0
 10
84.19296601627815
 20
-119.8178371553754
 30
0.0
 10
84.39639890468216
 20
-119.9616698918846
 30
0.0
 10
84.39639890468216
 20
-120.2283202824429
 30
0.0
 10
84.39639890468216
 20
-120.3890339868298
 30
0.0
 10
84.31268308439059
 20
-120.5032389021659
 30
0.0
 10
84.17935788911142
 20
-120.5624945445122
 30
0.0
 10
84.27427026973005
 20
-120.6133097029196
 30
0.0
 10
84.44376896760434
 20
-120.7085665930868
 30
0.0
 10
84.44376896760434
 20
-120.9707383595143
 30
0.0
 10
84.44376896760434
 20
-121.3452202387609
 30
0.0
 10
84.14542369858171
 20
-121.4616644661624
 30
0.0
 10
83.88996986835043
 20
-121.4616644661624
 30
0.0
  0
SPLINE
  5
DE
330
D9
100
AcDbEntity
  8
_U+30EC_U+30A4_U+30E4_U+30FC 1
370
     0
100
AcDbSpline
210
0.0
220
0.0
230
1.0
 70
    11
 71
     3
 72
    17
 73
    13
 74
     0
 42
0.0000000001
 43
0.0000000001
 12
1.0
 22
0.0
 32
0.0
 13
1.0
 23
0.0
 33
0.0
 40
0.0
 40
0.0
 40
0.0
 40
0.0
 40
1.0
 40
1.0
 40
1.0
 40
2.0
 40
2.0
 40
2.0
 40
3.0
 40
3.0
 40
3.0
 40
4.0
 40
4.0
 40
4.0
 40
4.0
 10
83.88996986835043
 20
-120.6704982879747
 30
0.0
 10
83.73614635493402
 20
-120.6704982879747
 30
0.0
 10
83.57336559325597
 20
-120.7571424394288
 30
0.0
 10
83.57336559325597
 20
-120.9602308182843
 30
0.0
 10
83.57336559325597
 20
-121.1653862544309
 30
0.0
 10
83.70910235537481
 20
-121.2670165712457
 30
0.0
 10
83.88996986835043
 20
-121.2670165712457
 30
0.0
 10
84.0889241326236
 20
-121.2670165712457
 30
0.0
 10
84.20640188867063
 20
-121.1443711719709
 30
0.0
 10
84.20640188867063
 20
-120.966604244932
 30
0.0
 10
84.20640188867063
 20
-120.7443955861334
 30
0.0
 10
84.03242456666551
 20
-120.6704982879747
 30
0.0
 10
83.88996986835043
 20
-120.6704982879747
 30
0.0
  0
SPLINE
  5
DF
330
D9
100
AcDbEntity
  8
_U+30EC_U+30A4_U+30E4_U+30FC 1
370
     0
100
AcDbSpline
210
0.0
220
0.0
230
1.0
 70
    11
 71
     3
 72
    17
 73
    13
 74
     0
 42
0.0000000001
 43
0.0000000001
 12
1.0
 22
0.0
 32
0.0
 13
1.0
 23
0.0
 33
0.0
 40
0.0
 40
0.0
 40
0.0
 40
0.0
 40
1.0
 40
1.0
 40
1.0
 40
2.0
 40
2.0
 40
2.0
 40
3.0
 40
3.0
 40
3.0
 40
4.0
 40
4.0
 40
4.0
 40
4.0
 10
83.88996986835043
 20
-120.0104179930009
 30
0.0
 10
83.71358097950564
 20
-120.0104179930009
 30
0.0
 10
83.62314722301782
 20
-120.1055026283938
 30
0.0
 10
83.62314722301782
 20
-120.2408948809641
 30
0.0
 10
83.62314722301782
 20
-120.3637125350132
 30
0.0
 10
83.6999728523389
 20
-120.4822238197058
 30
0.0
 10
83.88996986835043
 20
-120.4822238197058
 30
0.0
 10
84.0797946295877
 20
-120.4822238197058
 30
0.0
 10
84.15679251368303
 20
-120.3637125350132
 30
0.0
 10
84.15679251368303
 20
-120.2408948809641
 30
0.0
 10
84.15679251368303
 20
-120.1055026283938
 30
0.0
 10
84.06394719035555
 20
-120.0104179930009
 30
0.0
 10
83.88996986835043
 20
-120.0104179930009
 30
0.0
  0
HATCH
  5
E0
330
D9
100
AcDbEntity
  8
_U+30EC_U+30A4_U+30E4_U+30FC 1
 62
   179
420
  2234388
100
AcDbHatch
 10
0.0
 20
0.0
 30
0.0
210
0.0
220
0.0
230
1.0
  2
SOLID
 70
     1
 71
     0
 91
        3
 92
        1
 93
        1
 72
     4
 94
        3
 73
     0
 74
     1
 95
       29
 96
       25
 40
0.0
 40
0.0
 40
0.0
 40
0.0
 40
1.0
 40
1.0
 40
1.0
 40
2.0
 40
2.0
 40
2.0
 40
3.0
 40
3.0
 40
3.0
 40
4.0
 40
4.0
 40
4.0
 40
5.0
 40
5.0
 40
5.0
 40
6.0
 40
6.0
 40
6.0
 40
7.0
 40
7.0
 40
7.0
 40
8.0
 40
8.0
 40
8.0
 40
8.0
 10
83.88996986835043
 20
-121.4616644661624
 10
83.60506047172026
 20
-121.4616644661624
 10
83.33375920225684
 20
-121.3240329015266
 10
83.33375920225684
 20
-120.9750447288708
 10
83.33375920225684
 20
-120.7190741343168
 10
83.48517114883357
 20
-120.6238172441496
 10
83.59834253552403
 20
-120.5624945445122
 10
83.4648450854706
 20
-120.5032389021659
 10
83.3835408320187
 20
-120.3890339868298
 10
83.3835408320187
 20
-120.2283202824429
 10
83.3835408320187
 20
-119.9532294079457
 10
83.59593096868436
 20
-119.8178371553754
 10
83.88996986835043
 20
-119.8178371553754
 10
84.19296601627815
 20
-119.8178371553754
 10
84.39639890468216
 20
-119.9616698918846
 10
84.39639890468216
 20
-120.2283202824429
 10
84.39639890468216
 20
-120.3890339868298
 10
84.31268308439059
 20
-120.5032389021659
 10
84.17935788911142
 20
-120.5624945445122
 10
84.27427026973005
 20
-120.6133097029196
 10
84.44376896760434
 20
-120.7085665930868
 10
84.44376896760434
 20
-120.9707383595143
 10
84.44376896760434
 20
-121.3452202387609
 10
84.14542369858171
 20
-121.4616644661624
 10
83.88996986835043
 20
-121.4616644661624
 97
        0
 97
        0
 92
        1
 93
        1
 72
     4
 94
        3
 73
     0
 74
     1
 95
       17
 96
       13
 40
0.0
 40
0.0
 40
0.0
 40
0.0
 40
1.0
 40
1.0
 40
1.0
 40
2.0
 40
2.0
 40
2.0
 40
3.0
 40
3.0
 40
3.0
 40
4.0
 40
4.0
 40
4.0
 40
4.0
 10
83.88996986835043
 20
-120.6704982879747
 10
83.73614635493402
 20
-120.6704982879747
 10
83.57336559325597
 20
-120.7571424394288
 10
83.57336559325597
 20
-120.9602308182843
 10
83.57336559325597
 20
-121.1653862544309
 10
83.70910235537481
 20
-121.2670165712457
 10
83.88996986835043
 20
-121.2670165712457
 10
84.0889241326236
 20
-121.2670165712457
 10
84.20640188867063
 20
-121.1443711719709
 10
84.20640188867063
 20
-120.966604244932
 10
84.20640188867063
 20
-120.7443955861334
 10
84.03242456666551
 20
-120.6704982879747
 10
83.88996986835043
 20
-120.6704982879747
 97
        0
 97
        0
 92
        1
 93
        1
 72
     4
 94
        3
 73
     0
 74
     1
 95
       17
 96
       13
 40
0.0
 40
0.0
 40
0.0
 40
0.0
 40
1.0
 40
1.0
 40
1.0
 40
2.0
 40
2.0
 40
2.0
 40
3.0
 40
3.0
 40
3.0
 40
4.0
 40
4.0
 40
4.0
 40
4.0
 10
83.88996986835043
 20
-120.0104179930009
 10
83.71358097950564
 20
-120.0104179930009
 10
83.62314722301782
 20
-120.1055026283938
 10
83.62314722301782
 20
-120.2408948809641
 10
83.62314722301782
 20
-120.3637125350132
 10
83.6999728523389
 20
-120.4822238197058
 10
83.88996986835043
 20
-120.4822238197058
 10
84.0797946295877
 20
-120.4822238197058
 10
84.15679251368303
 20
-120.3637125350132
 10
84.15679251368303
 20
-120.2408948809641
 10
84.15679251368303
 20
-120.1055026283938
 10
84.06394719035555
 20
-120.0104179930009
 10
83.88996986835043
 20
-120.0104179930009
 97
        0
 97
        0
 75
     2
 76
     1
 98
        0
  0
ENDBLK
  5
DC
330
D9
100
AcDbEntity
  8
0
100
AcDbBlockEnd
  0
ENDSEC
  0
SECTION
  2
ENTITIES
  0
SPLINE
  5
41
330
1F
100
AcDbEntity
  8
_U+30EC_U+30A4_U+30E4_U+30FC 1
 62
     7
420
 16777215
370
     9
100
AcDbSpline
210
0.0
220
0.0
230
1.0
 70
    11
 71
     3
 72
    17
 73
    13
 74
     0
 42
0.0000000001
 43
0.0000000001
 12
1.0
 22
0.0
 32
0.0
 13
1.0
 23
0.0
 33
0.0
 40
0.0
 40
0.0
 40
0.0
 40
0.0
 40
1.0
 40
1.0
 40
1.0
 40
2.0
 40
2.0
 40
2.0
 40
3.0
 40
3.0
 40
3.0
 40
4.0
 40
4.0
 40
4.0
 40
4.0
 10
101.8249637911176
 20
-127.1570919126553
 30
0.0
 10
101.8249637911176
 20
-127.1019880237801
 30
0.0
 10
101.7801610144829
 20
-127.0571852460133
 30
0.0
 10
101.7250571269998
 20
-127.0571852460133
 30
0.0
 10
101.6699179617399
 20
-127.0571852460133
 30
0.0
 10
101.625150462882
 20
-127.1019880237801
 30
0.0
 10
101.625150462882
 20
-127.1570919126553
 30
0.0
 10
101.625150462882
 20
-127.212231079308
 30
0.0
 10
101.6699179617399
 20
-127.2569985792969
 30
0.0
 10
101.7250571269998
 20
-127.2569985792969
 30
0.0
 10
101.7801610144829
 20
-127.2569985792969
 30
0.0
 10
101.8249637911176
 20
-127.212231079308
 30
0.0
 10
101.8249637911176
 20
-127.1570919126553
 30
0.0
  0
SPLINE
  5
42
330
1F
100
AcDbEntity
  8
_U+30EC_U+30A4_U+30E4_U+30FC 1
 62
     7
420
 16777215
370
     9
100
AcDbSpline
210
0.0
220
0.0
230
1.0
 70
    11
 71
     3
 72
    17
 73
    13
 74
     0
 42
0.0000000001
 43
0.0000000001
 12
1.0
 22
0.0
 32
0.0
 13
1.0
 23
0.0
 33
0.0
 40
0.0
 40
0.0
 40
0.0
 40
0.0
 40
1.0
 40
1.0
 40
1.0
 40
2.0
 40
2.0
 40
2.0
 40
3.0
 40
3.0
 40
3.0
 40
4.0
 40
4.0
 40
4.0
 40
4.0
 10
101.8249637911176
 20
-131.6574074670858
 30
0.0
 10
101.8249637911176
 20
-131.6019508004331
 30
0.0
 10
101.7801610144829
 20
-131.5571833004439
 30
0.0
 10
101.7250571269998
 20
-131.5571833004439
 30
0.0
 10
101.6699179617399
 20
-131.5571833004439
 30
0.0
 10
101.625150462882
 20
-131.6019508004331
 30
0.0
 10
101.625150462882
 20
-131.6574074670858
 30
0.0
 10
101.625150462882
 20
-131.7125466337382
 30
0.0
 10
101.6699179617399
 20
-131.757349411505
 30
0.0
 10
101.7250571269998
 20
-131.757349411505
 30
0.0
 10
101.7801610144829
 20
-131.757349411505
 30
0.0
 10
101.8249637911176
 20
-131.7125466337382
 30
0.0
 10
101.8249637911176
 20
-131.6574074670858
 30
0.0
  0
POLYLINE
  5
43
330
1F
100
AcDbEntity
  8
_U+30EC_U+30A4_U+30E4_U+30FC 1
 62
     7
420
 16777215
370
     9
100
AcDb2dPolyline
 66
     1
 10
0.0
 20
0.0
 30
0.0
  0
VERTEX
  5
44
330
43
100
AcDbEntity
  8
_U+30EC_U+30A4_U+30E4_U+30FC 1
 62
     7
420
 16777215
370
     9
100
AcDbVertex
100
AcDb2dVertex
 10
101.7250571269998
 20
-127.1570919126553
 30
0.0
  0
VERTEX
  5
45
330
43
100
AcDbEntity
  8
_U+30EC_U+30A4_U+30E4_U+30FC 1
 62
     7
420
 16777215
370
     9
100
AcDbVertex
100
AcDb2dVertex
 10
101.7250571269998
 20
-121.8991860806364
 30
0.0
  0
SEQEND
  5
46
330
43
100
AcDbEntity
  8
_U+30EC_U+30A4_U+30E4_U+30FC 1
 62
     7
420
 16777215
370
     9
  0
POLYLINE
  5
47
330
1F
100
AcDbEntity
  8
_U+30EC_U+30A4_U+30E4_U+30FC 1
 62
     7
420
 16777215
370
     9
100
AcDb2dPolyline
 66
     1
 10
0.0
 20
0.0
 30
0.0
  0
VERTEX
  5
48
330
47
100
AcDbEntity
  8
_U+30EC_U+30A4_U+30E4_U+30FC 1
 62
     7
420
 16777215
370
     9
100
AcDbVertex
100
AcDb2dVertex
 10
101.7250571269998
 20
-127.1570919126553
 30
0.0
  0
VERTEX
  5
49
330
47
100
AcDbEntity
  8
_U+30EC_U+30A4_U+30E4_U+30FC 1
 62
     7
420
 16777215
370
     9
100
AcDbVertex
100
AcDb2dVertex
 10
101.7250571269998
 20
-131.6574074670858
 30
0.0
  0
SEQEND
  5
4A
330
47
100
AcDbEntity
  8
_U+30EC_U+30A4_U+30E4_U+30FC 1
 62
     7
420
 16777215
370
     9
  0
POLYLINE
  5
4B
330
1F
100
AcDbEntity
  8
_U+30EC_U+30A4_U+30E4_U+30FC 1
 62
     7
420
 16777215
370
     9
100
AcDb2dPolyline
 66
     1
 10
0.0
 20
0.0
 30
0.0
  0
VERTEX
  5
4C
330
4B
100
AcDbEntity
  8
_U+30EC_U+30A4_U+30E4_U+30FC 1
 62
     7
420
 16777215
370
     9
100
AcDbVertex
100
AcDb2dVertex
 10
100.7294124301786
 20
-127.1570919126553
 30
0.0
  0
VERTEX
  5
4D
330
4B
100
AcDbEntity
  8
_U+30EC_U+30A4_U+30E4_U+30FC 1
 62
     7
420
 16777215
370
     9
100
AcDbVertex
100
AcDb2dVertex
 10
102.7251821014845
 20
-127.1570919126553
 30
0.0
  0
SEQEND
  5
4E
330
4B
100
AcDbEntity
  8
_U+30EC_U+30A4_U+30E4_U+30FC 1
 62
     7
420
 16777215
370
     9
  0
POLYLINE
  5
4F
330
1F
100
AcDbEntity
  8
_U+30EC_U+30A4_U+30E4_U+30FC 1
 62
     7
420
 16777215
370
     9
100
AcDb2dPolyline
 66
     1
 10
0.0
 20
0.0
 30
0.0
  0
VERTEX
  5
50
330
4F
100
AcDbEntity
  8
_U+30EC_U+30A4_U+30E4_U+30FC 1
 62
     7
420
 16777215
370
     9
100
AcDbVertex
100
AcDb2dVertex
 10
100.7294124301786
 20
-131.6574074670858
 30
0.0
  0
VERTEX
  5
51
330
4F
100
AcDbEntity
  8
_U+30EC_U+30A4_U+30E4_U+30FC 1
 62
     7
420
 16777215
370
     9
100
AcDbVertex
100
AcDb2dVertex
 10
102.7251821014845
 20
-131.6574074670858
 30
0.0
  0
SEQEND
  5
52
330
4F
100
AcDbEntity
  8
_U+30EC_U+30A4_U+30E4_U+30FC 1
 62
     7
420
 16777215
370
     9
  0
INSERT
  5
54
330
1F
100
AcDbEntity
  8
_U+30EC_U+30A4_U+30E4_U+30FC 1
100
AcDbBlockReference
  2
block 2
 10
0.0
 20
0.0
 30
0.0
  0
SPLINE
  5
76
330
1F
100
AcDbEntity
  8
_U+30EC_U+30A4_U+30E4_U+30FC 1
 62
   179
420
  2234388
370
     9
100
AcDbSpline
210
0.0
220
0.0
230
1.0
 70
    11
 71
     3
 72
    17
 73
    13
 74
     0
 42
0.0000000001
 43
0.0000000001
 12
1.0
 22
0.0
 32
0.0
 13
1.0
 23
0.0
 33
0.0
 40
0.0
 40
0.0
 40
0.0
 40
0.0
 40
1.0
 40
1.0
 40
1.0
 40
2.0
 40
2.0
 40
2.0
 40
3.0
 40
3.0
 40
3.0
 40
4.0
 40
4.0
 40
4.0
 40
4.0
 10
101.8249637911176
 20
-132.6516763557262
 30
0.0
 10
101.8249637911176
 20
-132.5962196890735
 30
0.0
 10
101.7801610144829
 20
-132.5514169113068
 30
0.0
 10
101.7250571269998
 20
-132.5514169113068
 30
0.0
 10
101.6699179617399
 20
-132.5514169113068
 30
0.0
 10
101.625150462882
 20
-132.5962196890735
 30
0.0
 10
101.625150462882
 20
-132.6516763557262
 30
0.0
 10
101.625150462882
 20
-132.7068155223786
 30
0.0
 10
101.6699179617399
 20
-132.7515830223678
 30
0.0
 10
101.7250571269998
 20
-132.7515830223678
 30
0.0
 10
101.7801610144829
 20
-132.7515830223678
 30
0.0
 10
101.8249637911176
 20
-132.7068155223786
 30
0.0
 10
101.8249637911176
 20
-132.6516763557262
 30
0.0
  0
POLYLINE
  5
77
330
1F
100
AcDbEntity
  8
_U+30EC_U+30A4_U+30E4_U+30FC 1
 62
   179
420
  2234388
370
     9
100
AcDb2dPolyline
 66
     1
 10
0.0
 20
0.0
 30
0.0
  0
VERTEX
  5
78
330
77
100
AcDbEntity
  8
_U+30EC_U+30A4_U+30E4_U+30FC 1
 62
   179
420
  2234388
370
     9
100
AcDbVertex
100
AcDb2dVertex
 10
101.7250571269998
 20
-131.0042394116933
 30
0.0
  0
VERTEX
  5
79
330
77
100
AcDbEntity
  8
_U+30EC_U+30A4_U+30E4_U+30FC 1
 62
   179
420
  2234388
370
     9
100
AcDbVertex
100
AcDb2dVertex
 10
101.7250571269998
 20
-132.6516763557262
 30
0.0
  0
SEQEND
  5
7A
330
77
100
AcDbEntity
  8
_U+30EC_U+30A4_U+30E4_U+30FC 1
 62
   179
420
  2234388
370
     9
  0
POLYLINE
  5
7B
330
1F
100
AcDbEntity
  8
_U+30EC_U+30A4_U+30E4_U+30FC 1
 62
   179
420
  2234388
370
     9
100
AcDb2dPolyline
 66
     1
 10
0.0
 20
0.0
 30
0.0
  0
VERTEX
  5
7C
330
7B
100
AcDbEntity
  8
_U+30EC_U+30A4_U+30E4_U+30FC 1
 62
   179
420
  2234388
370
     9
100
AcDbVertex
100
AcDb2dVertex
 10
100.7294124301786
 20
-132.6516763557262
 30
0.0
  0
VERTEX
  5
7D
330
7B
100
AcDbEntity
  8
_U+30EC_U+30A4_U+30E4_U+30FC 1
 62
   179
420
  2234388
370
     9
100
AcDbVertex
100
AcDb2dVertex
 10
102.7251821014845
 20
-132.6516763557262
 30
0.0
  0
SEQEND
  5
7E
330
7B
100
AcDbEntity
  8
_U+30EC_U+30A4_U+30E4_U+30FC 1
 62
   179
420
  2234388
370
     9
  0
INSERT
  5
80
330
1F
100
AcDbEntity
  8
_U+30EC_U+30A4_U+30E4_U+30FC 1
100
AcDbBlockReference
  2
block 3
 10
0.0
 20
0.0
 30
0.0
  0
INSERT
  5
86
330
1F
100
AcDbEntity
  8
_U+30EC_U+30A4_U+30E4_U+30FC 1
100
AcDbBlockReference
  2
block 4
 10
0.0
 20
0.0
 30
0.0
  0
SPLINE
  5
8B
330
1F
100
AcDbEntity
  8
_U+30EC_U+30A4_U+30E4_U+30FC 1
370
     0
100
AcDbSpline
210
0.0
220
0.0
230
1.0
 70
    11
 71
     3
 72
    53
 73
    49
 74
     0
 42
0.0000000001
 43
0.0000000001
 12
1.0
 22
0.0
 32
0.0
 13
1.0
 23
0.0
 33
0.0
 40
0.0
 40
0.0
 40
0.0
 40
0.0
 40
1.0
 40
1.0
 40
1.0
 40
2.0
 40
2.0
 40
2.0
 40
3.0
 40
3.0
 40
3.0
 40
4.0
 40
4.0
 40
4.0
 40
5.0
 40
5.0
 40
5.0
 40
6.0
 40
6.0
 40
6.0
 40
7.0
 40
7.0
 40
7.0
 40
8.0
 40
8.0
 40
8.0
 40
9.0
 40
9.0
 40
9.0
 40
10.0
 40
10.0
 40
10.0
 40
11.0
 40
11.0
 40
11.0
 40
12.0
 40
12.0
 40
12.0
 40
13.0
 40
13.0
 40
13.0
 40
14.0
 40
14.0
 40
14.0
 40
15.0
 40
15.0
 40
15.0
 40
16.0
 40
16.0
 40
16.0
 40
16.0
 10
97.34772001645275
 20
-132.1569760780721
 30
0.0
 10
97.34772001645275
 20
-132.1569760780721
 30
0.0
 10
87.7131474844734
 20
-132.1569760780721
 30
0.0
 10
87.7131474844734
 20
-132.1569760780721
 30
0.0
 10
87.53471248902565
 20
-131.8475899670383
 30
0.0
 10
87.20465360855727
 20
-131.6574074670858
 30
0.0
 10
86.8477483398849
 20
-131.6574074670858
 30
0.0
 10
86.8477483398849
 20
-131.6574074670858
 30
0.0
 10
84.34729479256568
 20
-131.6574074670858
 30
0.0
 10
84.34729479256568
 20
-131.6574074670858
 30
0.0
 10
84.34729479256568
 20
-131.6574074670858
 30
0.0
 10
84.34729479256568
 20
-127.1574446904327
 30
0.0
 10
84.34729479256568
 20
-127.1574446904327
 30
0.0
 10
84.34729479256568
 20
-127.1574446904327
 30
0.0
 10
87.34728166047408
 20
-127.1574446904327
 30
0.0
 10
87.34728166047408
 20
-127.1574446904327
 30
0.0
 10
87.62357720898075
 20
-127.1574446904327
 30
0.0
 10
87.84752053660081
 20
-126.9335013571554
 30
0.0
 10
87.84752053660081
 20
-126.657205801669
 30
0.0
 10
87.84752053660081
 20
-126.3974555239563
 30
0.0
 10
87.64908304166337
 20
-126.1810969128993
 30
0.0
 10
87.39000304827306
 20
-126.1590483017937
 30
0.0
 10
85.0328831084082
 20
-125.9564833018443
 30
0.0
 10
82.66196955778413
 20
-125.9564833018443
 30
0.0
 10
80.30481434014239
 20
-126.1590483017937
 30
0.0
 10
80.02922434717328
 20
-126.1824727462322
 30
0.0
 10
79.82528351904291
 20
-126.4250074683938
 30
0.0
 10
79.84937824065042
 20
-126.6999271905473
 30
0.0
 10
79.87142685119903
 20
-126.9586544127049
 30
0.0
 10
80.08778545679037
 20
-127.1574446904327
 30
0.0
 10
80.34753572794136
 20
-127.1574446904327
 30
0.0
 10
80.34753572794136
 20
-127.1574446904327
 30
0.0
 10
83.34752259584977
 20
-127.1574446904327
 30
0.0
 10
83.34752259584977
 20
-127.1574446904327
 30
0.0
 10
83.34752259584977
 20
-127.1574446904327
 30
0.0
 10
83.34752259584977
 20
-131.6574074670858
 30
0.0
 10
83.34752259584977
 20
-131.6574074670858
 30
0.0
 10
83.34752259584977
 20
-131.6574074670858
 30
0.0
 10
80.84710432630742
 20
-131.6574074670858
 30
0.0
 10
80.84710432630742
 20
-131.6574074670858
 30
0.0
 10
80.29518350705476
 20
-131.6574074670858
 30
0.0
 10
79.8473321295915
 20
-132.1049413558626
 30
0.0
 10
79.8473321295915
 20
-132.6571796890577
 30
0.0
 10
79.8473321295915
 20
-132.6571796890577
 30
0.0
 10
97.84725333704193
 20
-132.6571796890577
 30
0.0
 10
97.84725333704193
 20
-132.6571796890577
 30
0.0
 10
97.84725333704193
 20
-132.3808841335713
 30
0.0
 10
97.62331000942187
 20
-132.1569760780721
 30
0.0
 10
97.34772001645275
 20
-132.1569760780721
 30
0.0
  0
HATCH
  5
8C
330
1F
100
AcDbEntity
  8
_U+30EC_U+30A4_U+30E4_U+30FC 1
 62
   253
420
 11711154
100
AcDbHatch
 10
0.0
 20
0.0
 30
0.0
210
0.0
220
0.0
230
1.0
  2
SOLID
 70
     1
 71
     0
 91
        1
 92
        1
 93
        1
 72
     4
 94
        3
 73
     0
 74
     1
 95
       53
 96
       49
 40
0.0
 40
0.0
 40
0.0
 40
0.0
 40
1.0
 40
1.0
 40
1.0
 40
2.0
 40
2.0
 40
2.0
 40
3.0
 40
3.0
 40
3.0
 40
4.0
 40
4.0
 40
4.0
 40
5.0
 40
5.0
 40
5.0
 40
6.0
 40
6.0
 40
6.0
 40
7.0
 40
7.0
 40
7.0
 40
8.0
 40
8.0
 40
8.0
 40
9.0
 40
9.0
 40
9.0
 40
10.0
 40
10.0
 40
10.0
 40
11.0
 40
11.0
 40
11.0
 40
12.0
 40
12.0
 40
12.0
 40
13.0
 40
13.0
 40
13.0
 40
14.0
 40
14.0
 40
14.0
 40
15.0
 40
15.0
 40
15.0
 40
16.0
 40
16.0
 40
16.0
 40
16.0
 10
97.34772001645275
 20
-132.1569760780721
 10
97.34772001645275
 20
-132.1569760780721
 10
87.7131474844734
 20
-132.1569760780721
 10
87.7131474844734
 20
-132.1569760780721
 10
87.53471248902565
 20
-131.8475899670383
 10
87.20465360855727
 20
-131.6574074670858
 10
86.8477483398849
 20
-131.6574074670858
 10
86.8477483398849
 20
-131.6574074670858
 10
84.34729479256568
 20
-131.6574074670858
 10
84.34729479256568
 20
-131.6574074670858
 10
84.34729479256568
 20
-131.6574074670858
 10
84.34729479256568
 20
-127.1574446904327
 10
84.34729479256568
 20
-127.1574446904327
 10
84.34729479256568
 20
-127.1574446904327
 10
87.34728166047408
 20
-127.1574446904327
 10
87.34728166047408
 20
-127.1574446904327
 10
87.62357720898075
 20
-127.1574446904327
 10
87.84752053660081
 20
-126.9335013571554
 10
87.84752053660081
 20
-126.657205801669
 10
87.84752053660081
 20
-126.3974555239563
 10
87.64908304166337
 20
-126.1810969128993
 10
87.39000304827306
 20
-126.1590483017937
 10
85.0328831084082
 20
-125.9564833018443
 10
82.66196955778413
 20
-125.9564833018443
 10
80.30481434014239
 20
-126.1590483017937
 10
80.02922434717328
 20
-126.1824727462322
 10
79.82528351904291
 20
-126.4250074683938
 10
79.84937824065042
 20
-126.6999271905473
 10
79.87142685119903
 20
-126.9586544127049
 10
80.08778545679037
 20
-127.1574446904327
 10
80.34753572794136
 20
-127.1574446904327
 10
80.34753572794136
 20
-127.1574446904327
 10
83.34752259584977
 20
-127.1574446904327
 10
83.34752259584977
 20
-127.1574446904327
 10
83.34752259584977
 20
-127.1574446904327
 10
83.34752259584977
 20
-131.6574074670858
 10
83.34752259584977
 20
-131.6574074670858
 10
83.34752259584977
 20
-131.6574074670858
 10
80.84710432630742
 20
-131.6574074670858
 10
80.84710432630742
 20
-131.6574074670858
 10
80.29518350705476
 20
-131.6574074670858
 10
79.8473321295915
 20
-132.1049413558626
 10
79.8473321295915
 20
-132.6571796890577
 10
79.8473321295915
 20
-132.6571796890577
 10
97.84725333704193
 20
-132.6571796890577
 10
97.84725333704193
 20
-132.6571796890577
 10
97.84725333704193
 20
-132.3808841335713
 10
97.62331000942187
 20
-132.1569760780721
 10
97.34772001645275
 20
-132.1569760780721
 97
        0
 97
        0
 75
     2
 76
     1
 98
        0
  0
POLYLINE
  5
8D
330
1F
100
AcDbEntity
  8
_U+30EC_U+30A4_U+30E4_U+30FC 1
 62
   179
420
  2234388
370
    25
100
AcDb2dPolyline
 66
     1
 10
0.0
 20
0.0
 30
0.0
  0
VERTEX
  5
8E
330
8D
100
AcDbEntity
  8
_U+30EC_U+30A4_U+30E4_U+30FC 1
 62
   179
420
  2234388
370
    25
100
AcDbVertex
100
AcDb2dVertex
 10
80.84710432630742
 20
-131.6574074670858
 30
0.0
  0
VERTEX
  5
8F
330
8D
100
AcDbEntity
  8
_U+30EC_U+30A4_U+30E4_U+30FC 1
 62
   179
420
  2234388
370
    25
100
AcDbVertex
100
AcDb2dVertex
 10
83.34752259584977
 20
-131.6574074670858
 30
0.0
  0
SEQEND
  5
90
330
8D
100
AcDbEntity
  8
_U+30EC_U+30A4_U+30E4_U+30FC 1
 62
   179
420
  2234388
370
    25
  0
POLYLINE
  5
91
330
1F
100
AcDbEntity
  8
_U+30EC_U+30A4_U+30E4_U+30FC 1
 62
   179
420
  2234388
370
    25
100
AcDb2dPolyline
 66
     1
 10
0.0
 20
0.0
 30
0.0
  0
VERTEX
  5
92
330
91
100
AcDbEntity
  8
_U+30EC_U+30A4_U+30E4_U+30FC 1
 62
   179
420
  2234388
370
    25
100
AcDbVertex
100
AcDb2dVertex
 10
79.8473321295915
 20
-132.6571796890577
 30
0.0
  0
VERTEX
  5
93
330
91
100
AcDbEntity
  8
_U+30EC_U+30A4_U+30E4_U+30FC 1
 62
   179
420
  2234388
370
    25
100
AcDbVertex
100
AcDb2dVertex
 10
97.84725333704193
 20
-132.6571796890577
 30
0.0
  0
SEQEND
  5
94
330
91
100
AcDbEntity
  8
_U+30EC_U+30A4_U+30E4_U+30FC 1
 62
   179
420
  2234388
370
    25
  0
POLYLINE
  5
95
330
1F
100
AcDbEntity
  8
_U+30EC_U+30A4_U+30E4_U+30FC 1
 62
   179
420
  2234388
370
    25
100
AcDb2dPolyline
 66
     1
 10
0.0
 20
0.0
 30
0.0
  0
VERTEX
  5
96
330
95
100
AcDbEntity
  8
_U+30EC_U+30A4_U+30E4_U+30FC 1
 62
   179
420
  2234388
370
    25
100
AcDbVertex
100
AcDb2dVertex
 10
87.7131474844734
 20
-132.1569760780721
 30
0.0
  0
VERTEX
  5
97
330
95
100
AcDbEntity
  8
_U+30EC_U+30A4_U+30E4_U+30FC 1
 62
   179
420
  2234388
370
    25
100
AcDbVertex
100
AcDb2dVertex
 10
97.34772001645275
 20
-132.1569760780721
 30
0.0
  0
SEQEND
  5
98
330
95
100
AcDbEntity
  8
_U+30EC_U+30A4_U+30E4_U+30FC 1
 62
   179
420
  2234388
370
    25
  0
POLYLINE
  5
99
330
1F
100
AcDbEntity
  8
_U+30EC_U+30A4_U+30E4_U+30FC 1
 62
   179
420
  2234388
370
    25
100
AcDb2dPolyline
 66
     1
 10
0.0
 20
0.0
 30
0.0
  0
VERTEX
  5
9A
330
99
100
AcDbEntity
  8
_U+30EC_U+30A4_U+30E4_U+30FC 1
 62
   179
420
  2234388
370
    25
100
AcDbVertex
100
AcDb2dVertex
 10
80.34753572794136
 20
-127.1574446904327
 30
0.0
  0
VERTEX
  5
9B
330
99
100
AcDbEntity
  8
_U+30EC_U+30A4_U+30E4_U+30FC 1
 62
   179
420
  2234388
370
    25
100
AcDbVertex
100
AcDb2dVertex
 10
83.34752259584977
 20
-127.1574446904327
 30
0.0
  0
SEQEND
  5
9C
330
99
100
AcDbEntity
  8
_U+30EC_U+30A4_U+30E4_U+30FC 1
 62
   179
420
  2234388
370
    25
  0
POLYLINE
  5
9D
330
1F
100
AcDbEntity
  8
_U+30EC_U+30A4_U+30E4_U+30FC 1
 62
   179
420
  2234388
370
    25
100
AcDb2dPolyline
 66
     1
 10
0.0
 20
0.0
 30
0.0
  0
VERTEX
  5
9E
330
9D
100
AcDbEntity
  8
_U+30EC_U+30A4_U+30E4_U+30FC 1
 62
   179
420
  2234388
370
    25
100
AcDbVertex
100
AcDb2dVertex
 10
83.34752259584977
 20
-127.1574446904327
 30
0.0
  0
VERTEX
  5
9F
330
9D
100
AcDbEntity
  8
_U+30EC_U+30A4_U+30E4_U+30FC 1
 62
   179
420
  2234388
370
    25
100
AcDbVertex
100
AcDb2dVertex
 10
83.34752259584977
 20
-131.6574074670858
 30
0.0
  0
SEQEND
  5
A0
330
9D
100
AcDbEntity
  8
_U+30EC_U+30A4_U+30E4_U+30FC 1
 62
   179
420
  2234388
370
    25
  0
POLYLINE
  5
A1
330
1F
100
AcDbEntity
  8
_U+30EC_U+30A4_U+30E4_U+30FC 1
 62
   179
420
  2234388
370
    25
100
AcDb2dPolyline
 66
     1
 10
0.0
 20
0.0
 30
0.0
  0
VERTEX
  5
A2
330
A1
100
AcDbEntity
  8
_U+30EC_U+30A4_U+30E4_U+30FC 1
 62
   179
420
  2234388
370
    25
100
AcDbVertex
100
AcDb2dVertex
 10
84.34729479256568
 20
-127.1574446904327
 30
0.0
  0
VERTEX
  5
A3
330
A1
100
AcDbEntity
  8
_U+30EC_U+30A4_U+30E4_U+30FC 1
 62
   179
420
  2234388
370
    25
100
AcDbVertex
100
AcDb2dVertex
 10
84.34729479256568
 20
-131.6574074670858
 30
0.0
  0
SEQEND
  5
A4
330
A1
100
AcDbEntity
  8
_U+30EC_U+30A4_U+30E4_U+30FC 1
 62
   179
420
  2234388
370
    25
  0
POLYLINE
  5
A5
330
1F
100
AcDbEntity
  8
_U+30EC_U+30A4_U+30E4_U+30FC 1
 62
   179
420
  2234388
370
    25
100
AcDb2dPolyline
 66
     1
 10
0.0
 20
0.0
 30
0.0
  0
VERTEX
  5
A6
330
A5
100
AcDbEntity
  8
_U+30EC_U+30A4_U+30E4_U+30FC 1
 62
   179
420
  2234388
370
    25
100
AcDbVertex
100
AcDb2dVertex
 10
84.34729479256568
 20
-127.1574446904327
 30
0.0
  0
VERTEX
  5
A7
330
A5
100
AcDbEntity
  8
_U+30EC_U+30A4_U+30E4_U+30FC 1
 62
   179
420
  2234388
370
    25
100
AcDbVertex
100
AcDb2dVertex
 10
87.34728166047408
 20
-127.1574446904327
 30
0.0
  0
SEQEND
  5
A8
330
A5
100
AcDbEntity
  8
_U+30EC_U+30A4_U+30E4_U+30FC 1
 62
   179
420
  2234388
370
    25
  0
POLYLINE
  5
A9
330
1F
100
AcDbEntity
  8
_U+30EC_U+30A4_U+30E4_U+30FC 1
 62
   179
420
  2234388
370
    25
100
AcDb2dPolyline
 66
     1
 10
0.0
 20
0.0
 30
0.0
  0
VERTEX
  5
AA
330
A9
100
AcDbEntity
  8
_U+30EC_U+30A4_U+30E4_U+30FC 1
 62
   179
420
  2234388
370
    25
100
AcDbVertex
100
AcDb2dVertex
 10
84.34729479256568
 20
-131.6574074670858
 30
0.0
  0
VERTEX
  5
AB
330
A9
100
AcDbEntity
  8
_U+30EC_U+30A4_U+30E4_U+30FC 1
 62
   179
420
  2234388
370
    25
100
AcDbVertex
100
AcDb2dVertex
 10
86.8477483398849
 20
-131.6574074670858
 30
0.0
  0
SEQEND
  5
AC
330
A9
100
AcDbEntity
  8
_U+30EC_U+30A4_U+30E4_U+30FC 1
 62
   179
420
  2234388
370
    25
  0
SPLINE
  5
AD
330
1F
100
AcDbEntity
  8
_U+30EC_U+30A4_U+30E4_U+30FC 1
 62
   179
420
  2234388
370
    25
100
AcDbSpline
210
0.0
220
0.0
230
1.0
 70
     8
 71
     3
 72
     8
 73
     4
 74
     0
 42
0.0000000001
 43
0.0000000001
 12
1.0
 22
0.0
 32
0.0
 13
1.0
 23
0.0
 33
0.0
 40
0.0
 40
0.0
 40
0.0
 40
0.0
 40
1.0
 40
1.0
 40
1.0
 40
1.0
 10
97.84725333704193
 20
-132.6571796890577
 30
0.0
 10
97.84725333704193
 20
-132.3808841335713
 30
0.0
 10
97.62331000942187
 20
-132.1569760780721
 30
0.0
 10
97.34772001645275
 20
-132.1569760780721
 30
0.0
  0
SPLINE
  5
AE
330
1F
100
AcDbEntity
  8
_U+30EC_U+30A4_U+30E4_U+30FC 1
 62
   179
420
  2234388
370
     9
100
AcDbSpline
210
0.0
220
0.0
230
1.0
 70
    11
 71
     3
 72
    17
 73
    13
 74
     0
 42
0.0000000001
 43
0.0000000001
 12
1.0
 22
0.0
 32
0.0
 13
1.0
 23
0.0
 33
0.0
 40
0.0
 40
0.0
 40
0.0
 40
0.0
 40
1.0
 40
1.0
 40
1.0
 40
2.0
 40
2.0
 40
2.0
 40
3.0
 40
3.0
 40
3.0
 40
4.0
 40
4.0
 40
4.0
 40
4.0
 10
79.94723879370935
 20
-136.6565860769468
 30
0.0
 10
79.94723879370935
 20
-136.6014821880719
 30
0.0
 10
79.90243601707459
 20
-136.5566794103052
 30
0.0
 10
79.8473321295915
 20
-136.5566794103052
 30
0.0
 10
79.79219296433156
 20
-136.5566794103052
 30
0.0
 10
79.74742546547368
 20
-136.6014821880719
 30
0.0
 10
79.74742546547368
 20
-136.6565860769468
 30
0.0
 10
79.74742546547368
 20
-136.7117252435999
 30
0.0
 10
79.79219296433156
 20
-136.7565280213666
 30
0.0
 10
79.8473321295915
 20
-136.7565280213666
 30
0.0
 10
79.90243601707459
 20
-136.7565280213666
 30
0.0
 10
79.94723879370935
 20
-136.7117252435999
 30
0.0
 10
79.94723879370935
 20
-136.6565860769468
 30
0.0
  0
SPLINE
  5
AF
330
1F
100
AcDbEntity
  8
_U+30EC_U+30A4_U+30E4_U+30FC 1
 62
   179
420
  2234388
370
     9
100
AcDbSpline
210
0.0
220
0.0
230
1.0
 70
    11
 71
     3
 72
    17
 73
    13
 74
     0
 42
0.0000000001
 43
0.0000000001
 12
1.0
 22
0.0
 32
0.0
 13
1.0
 23
0.0
 33
0.0
 40
0.0
 40
0.0
 40
0.0
 40
0.0
 40
1.0
 40
1.0
 40
1.0
 40
2.0
 40
2.0
 40
2.0
 40
3.0
 40
3.0
 40
3.0
 40
4.0
 40
4.0
 40
4.0
 40
4.0
 10
97.94716000115977
 20
-136.6565860769468
 30
0.0
 10
97.94716000115977
 20
-136.6014821880719
 30
0.0
 10
97.90239250230188
 20
-136.5566794103052
 30
0.0
 10
97.84725333704193
 20
-136.5566794103052
 30
0.0
 10
97.79214944955886
 20
-136.5566794103052
 30
0.0
 10
97.7473466729241
 20
-136.6014821880719
 30
0.0
 10
97.7473466729241
 20
-136.6565860769468
 30
0.0
 10
97.7473466729241
 20
-136.7117252435999
 30
0.0
 10
97.79214944955886
 20
-136.7565280213666
 30
0.0
 10
97.84725333704193
 20
-136.7565280213666
 30
0.0
 10
97.90239250230188
 20
-136.7565280213666
 30
0.0
 10
97.94716000115977
 20
-136.7117252435999
 30
0.0
 10
97.94716000115977
 20
-136.6565860769468
 30
0.0
  0
SPLINE
  5
B0
330
1F
100
AcDbEntity
  8
_U+30EC_U+30A4_U+30E4_U+30FC 1
 62
   179
420
  2234388
370
    25
100
AcDbSpline
210
0.0
220
0.0
230
1.0
 70
     8
 71
     3
 72
     8
 73
     4
 74
     0
 42
0.0000000001
 43
0.0000000001
 12
1.0
 22
0.0
 32
0.0
 13
1.0
 23
0.0
 33
0.0
 40
0.0
 40
0.0
 40
0.0
 40
0.0
 40
1.0
 40
1.0
 40
1.0
 40
1.0
 10
87.7131474844734
 20
-132.1569760780721
 30
0.0
 10
87.53471248902565
 20
-131.8475899670383
 30
0.0
 10
87.20465360855727
 20
-131.6574074670858
 30
0.0
 10
86.8477483398849
 20
-131.6574074670858
 30
0.0
  0
SPLINE
  5
B1
330
1F
100
AcDbEntity
  8
_U+30EC_U+30A4_U+30E4_U+30FC 1
 62
   179
420
  2234388
370
    25
100
AcDbSpline
210
0.0
220
0.0
230
1.0
 70
     8
 71
     3
 72
    11
 73
     7
 74
     0
 42
0.0000000001
 43
0.0000000001
 12
1.0
 22
0.0
 32
0.0
 13
1.0
 23
0.0
 33
0.0
 40
0.0
 40
0.0
 40
0.0
 40
0.0
 40
1.0
 40
1.0
 40
1.0
 40
2.0
 40
2.0
 40
2.0
 40
2.0
 10
87.34728166047408
 20
-127.1574446904327
 30
0.0
 10
87.62357720898075
 20
-127.1574446904327
 30
0.0
 10
87.84752053660081
 20
-126.9335013571554
 30
0.0
 10
87.84752053660081
 20
-126.657205801669
 30
0.0
 10
87.84752053660081
 20
-126.3974555239563
 30
0.0
 10
87.64908304166337
 20
-126.1810969128993
 30
0.0
 10
87.39000304827306
 20
-126.1590483017937
 30
0.0
  0
SPLINE
  5
B2
330
1F
100
AcDbEntity
  8
_U+30EC_U+30A4_U+30E4_U+30FC 1
 62
   179
420
  2234388
370
    25
100
AcDbSpline
210
0.0
220
0.0
230
1.0
 70
     8
 71
     3
 72
    11
 73
     7
 74
     0
 42
0.0000000001
 43
0.0000000001
 12
1.0
 22
0.0
 32
0.0
 13
1.0
 23
0.0
 33
0.0
 40
0.0
 40
0.0
 40
0.0
 40
0.0
 40
1.0
 40
1.0
 40
1.0
 40
2.0
 40
2.0
 40
2.0
 40
2.0
 10
80.30481434014239
 20
-126.1590483017937
 30
0.0
 10
80.02922434717328
 20
-126.1824727462322
 30
0.0
 10
79.82528351904291
 20
-126.4250074683938
 30
0.0
 10
79.84937824065042
 20
-126.6999271905473
 30
0.0
 10
79.87142685119903
 20
-126.9586544127049
 30
0.0
 10
80.08778545679037
 20
-127.1574446904327
 30
0.0
 10
80.34753572794136
 20
-127.1574446904327
 30
0.0
  0
SPLINE
  5
B3
330
1F
100
AcDbEntity
  8
_U+30EC_U+30A4_U+30E4_U+30FC 1
 62
   179
420
  2234388
370
    25
100
AcDbSpline
210
0.0
220
0.0
230
1.0
 70
     8
 71
     3
 72
     8
 73
     4
 74
     0
 42
0.0000000001
 43
0.0000000001
 12
1.0
 22
0.0
 32
0.0
 13
1.0
 23
0.0
 33
0.0
 40
0.0
 40
0.0
 40
0.0
 40
0.0
 40
1.0
 40
1.0
 40
1.0
 40
1.0
 10
80.84710432630742
 20
-131.6574074670858
 30
0.0
 10
80.29518350705476
 20
-131.6574074670858
 30
0.0
 10
79.8473321295915
 20
-132.1049413558626
 30
0.0
 10
79.8473321295915
 20
-132.6571796890577
 30
0.0
  0
SPLINE
  5
B4
330
1F
100
AcDbEntity
  8
_U+30EC_U+30A4_U+30E4_U+30FC 1
 62
   179
420
  2234388
370
     9
100
AcDbSpline
210
0.0
220
0.0
230
1.0
 70
    11
 71
     3
 72
    17
 73
    13
 74
     0
 42
0.0000000001
 43
0.0000000001
 12
1.0
 22
0.0
 32
0.0
 13
1.0
 23
0.0
 33
0.0
 40
0.0
 40
0.0
 40
0.0
 40
0.0
 40
1.0
 40
1.0
 40
1.0
 40
2.0
 40
2.0
 40
2.0
 40
3.0
 40
3.0
 40
3.0
 40
4.0
 40
4.0
 40
4.0
 40
4.0
 10
87.94742720071865
 20
-122.007030247276
 30
0.0
 10
87.94742720071865
 20
-121.9518910806233
 30
0.0
 10
87.90265970186077
 20
-121.9071235806344
 30
0.0
 10
87.84752053660081
 20
-121.9071235806344
 30
0.0
 10
87.79241664911774
 20
-121.9071235806344
 30
0.0
 10
87.74761387248297
 20
-121.9518910806233
 30
0.0
 10
87.74761387248297
 20
-122.007030247276
 30
0.0
 10
87.74761387248297
 20
-122.0624869139287
 30
0.0
 10
87.79241664911774
 20
-122.1072896916954
 30
0.0
 10
87.84752053660081
 20
-122.1072896916954
 30
0.0
 10
87.90265970186077
 20
-122.1072896916954
 30
0.0
 10
87.94742720071865
 20
-122.0624869139287
 30
0.0
 10
87.94742720071865
 20
-122.007030247276
 30
0.0
  0
SPLINE
  5
B5
330
1F
100
AcDbEntity
  8
_U+30EC_U+30A4_U+30E4_U+30FC 1
 62
   179
420
  2234388
370
     9
100
AcDbSpline
210
0.0
220
0.0
230
1.0
 70
    11
 71
     3
 72
    17
 73
    13
 74
     0
 42
0.0000000001
 43
0.0000000001
 12
1.0
 22
0.0
 32
0.0
 13
1.0
 23
0.0
 33
0.0
 40
0.0
 40
0.0
 40
0.0
 40
0.0
 40
1.0
 40
1.0
 40
1.0
 40
2.0
 40
2.0
 40
2.0
 40
3.0
 40
3.0
 40
3.0
 40
4.0
 40
4.0
 40
4.0
 40
4.0
 10
79.94723879370935
 20
-122.007030247276
 30
0.0
 10
79.94723879370935
 20
-121.9518910806233
 30
0.0
 10
79.90243601707459
 20
-121.9071235806344
 30
0.0
 10
79.8473321295915
 20
-121.9071235806344
 30
0.0
 10
79.79219296433156
 20
-121.9071235806344
 30
0.0
 10
79.74742546547368
 20
-121.9518910806233
 30
0.0
 10
79.74742546547368
 20
-122.007030247276
 30
0.0
 10
79.74742546547368
 20
-122.0624869139287
 30
0.0
 10
79.79219296433156
 20
-122.1072896916954
 30
0.0
 10
79.8473321295915
 20
-122.1072896916954
 30
0.0
 10
79.90243601707459
 20
-122.1072896916954
 30
0.0
 10
79.94723879370935
 20
-122.0624869139287
 30
0.0
 10
79.94723879370935
 20
-122.007030247276
 30
0.0
  0
SPLINE
  5
B6
330
1F
100
AcDbEntity
  8
_U+30EC_U+30A4_U+30E4_U+30FC 1
 62
   179
420
  2234388
370
    25
100
AcDbSpline
210
0.0
220
0.0
230
1.0
 70
     8
 71
     3
 72
     8
 73
     4
 74
     0
 42
0.0000000001
 43
0.0000000001
 12
1.0
 22
0.0
 32
0.0
 13
1.0
 23
0.0
 33
0.0
 40
0.0
 40
0.0
 40
0.0
 40
0.0
 40
1.0
 40
1.0
 40
1.0
 40
1.0
 10
87.39000304827306
 20
-126.1590483017937
 30
0.0
 10
85.0328831084082
 20
-125.9564833018443
 30
0.0
 10
82.66196955778413
 20
-125.9564833018443
 30
0.0
 10
80.30481434014239
 20
-126.1590483017937
 30
0.0
  0
POLYLINE
  5
B7
330
1F
100
AcDbEntity
  8
_U+30EC_U+30A4_U+30E4_U+30FC 1
 62
   179
420
  2234388
370
     9
100
AcDb2dPolyline
 66
     1
 10
0.0
 20
0.0
 30
0.0
  0
VERTEX
  5
B8
330
B7
100
AcDbEntity
  8
_U+30EC_U+30A4_U+30E4_U+30FC 1
 62
   179
420
  2234388
370
     9
100
AcDbVertex
100
AcDb2dVertex
 10
79.8473321295915
 20
-136.6565860769468
 30
0.0
  0
VERTEX
  5
B9
330
B7
100
AcDbEntity
  8
_U+30EC_U+30A4_U+30E4_U+30FC 1
 62
   179
420
  2234388
370
     9
100
AcDbVertex
100
AcDb2dVertex
 10
97.84725333704193
 20
-136.6565860769468
 30
0.0
  0
SEQEND
  5
BA
330
B7
100
AcDbEntity
  8
_U+30EC_U+30A4_U+30E4_U+30FC 1
 62
   179
420
  2234388
370
     9
  0
POLYLINE
  5
BB
330
1F
100
AcDbEntity
  8
_U+30EC_U+30A4_U+30E4_U+30FC 1
 62
   179
420
  2234388
370
     9
100
AcDb2dPolyline
 66
     1
 10
0.0
 20
0.0
 30
0.0
  0
VERTEX
  5
BC
330
BB
100
AcDbEntity
  8
_U+30EC_U+30A4_U+30E4_U+30FC 1
 62
   179
420
  2234388
370
     9
100
AcDbVertex
100
AcDb2dVertex
 10
79.8473321295915
 20
-134.3969738552898
 30
0.0
  0
VERTEX
  5
BD
330
BB
100
AcDbEntity
  8
_U+30EC_U+30A4_U+30E4_U+30FC 1
 62
   179
420
  2234388
370
     9
100
AcDbVertex
100
AcDb2dVertex
 10
79.8473321295915
 20
-137.6563582989194
 30
0.0
  0
SEQEND
  5
BE
330
BB
100
AcDbEntity
  8
_U+30EC_U+30A4_U+30E4_U+30FC 1
 62
   179
420
  2234388
370
     9
  0
POLYLINE
  5
BF
330
1F
100
AcDbEntity
  8
_U+30EC_U+30A4_U+30E4_U+30FC 1
 62
   179
420
  2234388
370
     9
100
AcDb2dPolyline
 66
     1
 10
0.0
 20
0.0
 30
0.0
  0
VERTEX
  5
C0
330
BF
100
AcDbEntity
  8
_U+30EC_U+30A4_U+30E4_U+30FC 1
 62
   179
420
  2234388
370
     9
100
AcDbVertex
100
AcDb2dVertex
 10
97.84725333704193
 20
-135.1969327439784
 30
0.0
  0
VERTEX
  5
C1
330
BF
100
AcDbEntity
  8
_U+30EC_U+30A4_U+30E4_U+30FC 1
 62
   179
420
  2234388
370
     9
100
AcDbVertex
100
AcDb2dVertex
 10
97.84725333704193
 20
-137.6563582989194
 30
0.0
  0
SEQEND
  5
C2
330
BF
100
AcDbEntity
  8
_U+30EC_U+30A4_U+30E4_U+30FC 1
 62
   179
420
  2234388
370
     9
  0
INSERT
  5
C4
330
1F
100
AcDbEntity
  8
_U+30EC_U+30A4_U+30E4_U+30FC 1
100
AcDbBlockReference
  2
block 5
 10
0.0
 20
0.0
 30
0.0
  0
POLYLINE
  5
CD
330
1F
100
AcDbEntity
  8
_U+30EC_U+30A4_U+30E4_U+30FC 1
 62
   179
420
  2234388
370
     9
100
AcDb2dPolyline
 66
     1
 10
0.0
 20
0.0
 30
0.0
  0
VERTEX
  5
CE
330
CD
100
AcDbEntity
  8
_U+30EC_U+30A4_U+30E4_U+30FC 1
 62
   179
420
  2234388
370
     9
100
AcDbVertex
100
AcDb2dVertex
 10
79.8473321295915
 20
-122.007030247276
 30
0.0
  0
VERTEX
  5
CF
330
CD
100
AcDbEntity
  8
_U+30EC_U+30A4_U+30E4_U+30FC 1
 62
   179
420
  2234388
370
     9
100
AcDbVertex
100
AcDb2dVertex
 10
87.84752053660081
 20
-122.007030247276
 30
0.0
  0
SEQEND
  5
D0
330
CD
100
AcDbEntity
  8
_U+30EC_U+30A4_U+30E4_U+30FC 1
 62
   179
420
  2234388
370
     9
  0
POLYLINE
  5
D1
330
1F
100
AcDbEntity
  8
_U+30EC_U+30A4_U+30E4_U+30FC 1
 62
   179
420
  2234388
370
     9
100
AcDb2dPolyline
 66
     1
 10
0.0
 20
0.0
 30
0.0
  0
VERTEX
  5
D2
330
D1
100
AcDbEntity
  8
_U+30EC_U+30A4_U+30E4_U+30FC 1
 62
   179
420
  2234388
370
     9
100
AcDbVertex
100
AcDb2dVertex
 10
79.8473321295915
 20
-124.1670885800692
 30
0.0
  0
VERTEX
  5
D3
330
D1
100
AcDbEntity
  8
_U+30EC_U+30A4_U+30E4_U+30FC 1
 62
   179
420
  2234388
370
     9
100
AcDbVertex
100
AcDb2dVertex
 10
79.8473321295915
 20
-121.0072580253038
 30
0.0
  0
SEQEND
  5
D4
330
D1
100
AcDbEntity
  8
_U+30EC_U+30A4_U+30E4_U+30FC 1
 62
   179
420
  2234388
370
     9
  0
POLYLINE
  5
D5
330
1F
100
AcDbEntity
  8
_U+30EC_U+30A4_U+30E4_U+30FC 1
 62
   179
420
  2234388
370
     9
100
AcDb2dPolyline
 66
     1
 10
0.0
 20
0.0
 30
0.0
  0
VERTEX
  5
D6
330
D5
100
AcDbEntity
  8
_U+30EC_U+30A4_U+30E4_U+30FC 1
 62
   179
420
  2234388
370
     9
100
AcDbVertex
100
AcDb2dVertex
 10
87.84752053660081
 20
-124.1670885800692
 30
0.0
  0
VERTEX
  5
D7
330
D5
100
AcDbEntity
  8
_U+30EC_U+30A4_U+30E4_U+30FC 1
 62
   179
420
  2234388
370
     9
100
AcDbVertex
100
AcDb2dVertex
 10
87.84752053660081
 20
-121.0072580253038
 30
0.0
  0
SEQEND
  5
D8
330
D5
100
AcDbEntity
  8
_U+30EC_U+30A4_U+30E4_U+30FC 1
 62
   179
420
  2234388
370
     9
  0
INSERT
  5
DA
330
1F
100
AcDbEntity
  8
_U+30EC_U+30A4_U+30E4_U+30FC 1
100
AcDbBlockReference
  2
block 6
 10
0.0
 20
0.0
 30
0.0
  0
POLYLINE
  5
E1
330
1F
100
AcDbEntity
  8
_U+30EC_U+30A4_U+30E4_U+30FC 1
  6
AI-Linetype-1
 62
   251
420
  5855577
370
    25
100
AcDb2dPolyline
 66
     1
 10
0.0
 20
0.0
 30
0.0
  0
VERTEX
  5
E2
330
E1
100
AcDbEntity
  8
_U+30EC_U+30A4_U+30E4_U+30FC 1
  6
AI-Linetype-1
 62
   251
420
  5855577
370
    25
100
AcDbVertex
100
AcDb2dVertex
 10
79.28609998017834
 20
-127.31972246817
 30
0.0
  0
VERTEX
  5
E3
330
E1
100
AcDbEntity
  8
_U+30EC_U+30A4_U+30E4_U+30FC 1
  6
AI-Linetype-1
 62
   251
420
  5855577
370
    25
100
AcDbVertex
100
AcDb2dVertex
 10
79.28609998017834
 20
-125.4380058019738
 30
0.0
  0
VERTEX
  5
E4
330
E1
100
AcDbEntity
  8
_U+30EC_U+30A4_U+30E4_U+30FC 1
  6
AI-Linetype-1
 62
   251
420
  5855577
370
    25
100
AcDbVertex
100
AcDb2dVertex
 10
88.4583222001075
 20
-125.4380058019738
 30
0.0
  0
VERTEX
  5
E5
330
E1
100
AcDbEntity
  8
_U+30EC_U+30A4_U+30E4_U+30FC 1
  6
AI-Linetype-1
 62
   251
420
  5855577
370
    25
100
AcDbVertex
100
AcDb2dVertex
 10
88.4583222001075
 20
-127.2528710792979
 30
0.0
  0
SEQEND
  5
E7
330
E1
100
AcDbEntity
  8
_U+30EC_U+30A4_U+30E4_U+30FC 1
  6
AI-Linetype-1
 62
   251
420
  5855577
370
    25
  0
SPLINE
  5
E8
330
1F
100
AcDbEntity
  8
_U+30EC_U+30A4_U+30E4_U+30FC 1
 62
   179
420
  2234388
370
     9
100
AcDbSpline
210
0.0
220
0.0
230
1.0
 70
    11
 71
     3
 72
    17
 73
    13
 74
     0
 42
0.0000000001
 43
0.0000000001
 12
1.0
 22
0.0
 32
0.0
 13
1.0
 23
0.0
 33
0.0
 40
0.0
 40
0.0
 40
0.0
 40
0.0
 40
1.0
 40
1.0
 40
1.0
 40
2.0
 40
2.0
 40
2.0
 40
3.0
 40
3.0
 40
3.0
 40
4.0
 40
4.0
 40
4.0
 40
4.0
 10
83.45088648210162
 20
-129.3867533009869
 30
0.0
 10
83.45088648210162
 20
-129.3316494121113
 30
0.0
 10
83.40611898324374
 20
-129.2868466343452
 30
0.0
 10
83.350805534718
 20
-129.2868466343452
 30
0.0
 10
83.29569954161633
 20
-129.2868466343452
 30
0.0
 10
83.25089676498156
 20
-129.3316494121113
 30
0.0
 10
83.25089676498156
 20
-129.3867533009869
 30
0.0
 10
83.25089676498156
 20
-129.4418924676393
 30
0.0
 10
83.29569954161633
 20
-129.4866599676285
 30
0.0
 10
83.350805534718
 20
-129.4866599676285
 30
0.0
 10
83.40611898324374
 20
-129.4866599676285
 30
0.0
 10
83.45088648210162
 20
-129.4418924676393
 30
0.0
 10
83.45088648210162
 20
-129.3867533009869
 30
0.0
  0
SPLINE
  5
E9
330
1F
100
AcDbEntity
  8
_U+30EC_U+30A4_U+30E4_U+30FC 1
 62
   179
420
  2234388
370
     9
100
AcDbSpline
210
0.0
220
0.0
230
1.0
 70
    11
 71
     3
 72
    17
 73
    13
 74
     0
 42
0.0000000001
 43
0.0000000001
 12
1.0
 22
0.0
 32
0.0
 13
1.0
 23
0.0
 33
0.0
 40
0.0
 40
0.0
 40
0.0
 40
0.0
 40
1.0
 40
1.0
 40
1.0
 40
2.0
 40
2.0
 40
2.0
 40
3.0
 40
3.0
 40
3.0
 40
4.0
 40
4.0
 40
4.0
 40
4.0
 10
84.45065867881753
 20
-129.3867533009869
 30
0.0
 10
84.45065867881753
 20
-129.3316494121113
 30
0.0
 10
84.40585590218278
 20
-129.2868466343452
 30
0.0
 10
84.35057775669023
 20
-129.2868466343452
 30
0.0
 10
84.29547173833224
 20
-129.2868466343452
 30
0.0
 10
84.25066896169747
 20
-129.3316494121113
 30
0.0
 10
84.25066896169747
 20
-129.3867533009869
 30
0.0
 10
84.25066896169747
 20
-129.4418924676393
 30
0.0
 10
84.29547173833224
 20
-129.4866599676285
 30
0.0
 10
84.35057775669023
 20
-129.4866599676285
 30
0.0
 10
84.40585590218278
 20
-129.4866599676285
 30
0.0
 10
84.45065867881753
 20
-129.4418924676393
 30
0.0
 10
84.45065867881753
 20
-129.3867533009869
 30
0.0
  0
POLYLINE
  5
EA
330
1F
100
AcDbEntity
  8
_U+30EC_U+30A4_U+30E4_U+30FC 1
 62
   179
420
  2234388
370
     9
100
AcDb2dPolyline
 66
     1
 10
0.0
 20
0.0
 30
0.0
  0
VERTEX
  5
EB
330
EA
100
AcDbEntity
  8
_U+30EC_U+30A4_U+30E4_U+30FC 1
 62
   179
420
  2234388
370
     9
100
AcDbVertex
100
AcDb2dVertex
 10
85.2120236593935
 20
-129.3867533009869
 30
0.0
  0
VERTEX
  5
EC
330
EA
100
AcDbEntity
  8
_U+30EC_U+30A4_U+30E4_U+30FC 1
 62
   179
420
  2234388
370
     9
100
AcDbVertex
100
AcDb2dVertex
 10
81.3729901462243
 20
-129.3867533009869
 30
0.0
  0
SEQEND
  5
ED
330
EA
100
AcDbEntity
  8
_U+30EC_U+30A4_U+30E4_U+30FC 1
 62
   179
420
  2234388
370
     9
  0
ENDSEC
  0
SECTION
  2
OBJECTS
  0
DICTIONARY
  5
C
330
0
100
AcDbDictionary
281
     1
  3
ACAD_GROUP
350
D
  3
ACAD_LAYOUT
350
1A
  3
ACAD_MATERIAL
350
3B
  3
ACAD_MLEADERSTYLE
350
EF
  3
ACAD_MLINESTYLE
350
17
  3
ACAD_PLOTSETTINGS
350
19
  3
ACAD_PLOTSTYLENAME
350
E
  3
ACAD_TABLESTYLE
350
EE
  3
ACAD_VISUALSTYLE
350
2A
  0
SUN
  5
3F
330
29
100
AcDbSun
 90
        1
290
     0
 63
     7
421
 16777215
 40
1.0
291
     1
 91
  2455826
 92
 54000000
292
     0
 70
     2
 71
   256
280
     1
  0
DICTIONARY
  5
D
102
{ACAD_REACTORS
330
C
102
}
330
C
100
AcDbDictionary
281
     1
  0
DICTIONARY
  5
1A
102
{ACAD_REACTORS
330
C
102
}
330
C
100
AcDbDictionary
281
     1
  3
Layout1
350
1E
  3
Layout2
350
26
  3
Model
350
22
  0
DICTIONARY
  5
3B
102
{ACAD_REACTORS
330
C
102
}
330
C
100
AcDbDictionary
281
     1
  3
ByBlock
350
3D
  3
ByLayer
350
3C
  3
Global
350
3E
  0
DICTIONARY
  5
EF
102
{ACAD_REACTORS
330
C
102
}
330
C
100
AcDbDictionary
281
     1
  0
DICTIONARY
  5
17
102
{ACAD_REACTORS
330
C
102
}
330
C
100
AcDbDictionary
281
     1
  3
Standard
350
18
  0
DICTIONARY
  5
19
102
{ACAD_REACTORS
330
C
102
}
330
C
100
AcDbDictionary
281
     1
  0
ACDBDICTIONARYWDFLT
  5
E
102
{ACAD_REACTORS
330
C
102
}
330
C
100
AcDbDictionary
281
     1
  3
Normal
350
F
100
AcDbDictionaryWithDefault
340
F
  0
DICTIONARY
  5
EE
102
{ACAD_REACTORS
330
C
102
}
330
C
100
AcDbDictionary
281
     1
  0
DICTIONARY
  5
2A
102
{ACAD_REACTORS
330
C
102
}
330
C
100
AcDbDictionary
281
     1
  3
2dWireframe
350
2F
  3
3D Hidden
350
31
  3
3dWireframe
350
30
  3
Basic
350
32
  3
Brighten
350
36
  3
ColorChange
350
3A
  3
Conceptual
350
34
  3
Dim
350
35
  3
Facepattern
350
39
  3
Flat
350
2B
  3
FlatWithEdges
350
2C
  3
Gouraud
350
2D
  3
GouraudWithEdges
350
2E
  3
Linepattern
350
38
  3
Realistic
350
33
  3
Thicken
350
37
  0
LAYOUT
  5
1E
102
{ACAD_REACTORS
330
1A
102
}
330
1A
100
AcDbPlotSettings
  1

  2
none_device
  4

  6

 40
0.0
 41
0.0
 42
0.0
 43
0.0
 44
0.0
 45
0.0
 46
0.0
 47
0.0
 48
0.0
 49
0.0
140
0.0
141
0.0
142
1.0
143
1.0
 70
   688
 72
     0
 73
     0
 74
     5
  7

 75
    16
 76
     0
 77
     2
 78
   300
147
1.0
148
0.0
149
0.0
100
AcDbLayout
  1
Layout1
 70
     1
 71
     1
 10
0.0
 20
0.0
 11
12.0
 21
9.0
 12
0.0
 22
0.0
 32
0.0
 14
1.000000000000000E+20
 24
1.000000000000000E+20
 34
1.000000000000000E+20
 15
-1.000000000000000E+20
 25
-1.000000000000000E+20
 35
-1.000000000000000E+20
146
0.0
 13
0.0
 23
0.0
 33
0.0
 16
1.0
 26
0.0
 36
0.0
 17
0.0
 27
1.0
 37
0.0
 76
     0
330
1B
  0
LAYOUT
  5
26
102
{ACAD_REACTORS
330
1A
102
}
330
1A
100
AcDbPlotSettings
  1

  2
none_device
  4

  6

 40
0.0
 41
0.0
 42
0.0
 43
0.0
 44
0.0
 45
0.0
 46
0.0
 47
0.0
 48
0.0
 49
0.0
140
0.0
141
0.0
142
1.0
143
1.0
 70
   688
 72
     0
 73
     0
 74
     5
  7

 75
    16
 76
     0
 77
     2
 78
   300
147
1.0
148
0.0
149
0.0
100
AcDbLayout
  1
Layout2
 70
     1
 71
     2
 10
0.0
 20
0.0
 11
0.0
 21
0.0
 12
0.0
 22
0.0
 32
0.0
 14
0.0
 24
0.0
 34
0.0
 15
0.0
 25
0.0
 35
0.0
146
0.0
 13
0.0
 23
0.0
 33
0.0
 16
1.0
 26
0.0
 36
0.0
 17
0.0
 27
1.0
 37
0.0
 76
     0
330
23
  0
LAYOUT
  5
22
102
{ACAD_REACTORS
330
1A
102
}
330
1A
100
AcDbPlotSettings
  1

  2
none_device
  4

  6

 40
0.0
 41
0.0
 42
0.0
 43
0.0
 44
0.0
 45
0.0
 46
0.0
 47
0.0
 48
0.0
 49
0.0
140
0.0
141
0.0
142
1.0
143
1.0
 70
  1712
 72
     0
 73
     0
 74
     0
  7

 75
     0
 76
     0
 77
     2
 78
   300
147
1.0
148
0.0
149
0.0
100
AcDbLayout
  1
Model
 70
     1
 71
     0
 10
0.0
 20
0.0
 11
12.0
 21
9.0
 12
0.0
 22
0.0
 32
0.0
 14
1.000000000000000E+20
 24
1.000000000000000E+20
 34
1.000000000000000E+20
 15
-1.000000000000000E+20
 25
-1.000000000000000E+20
 35
-1.000000000000000E+20
146
0.0
 13
0.0
 23
0.0
 33
0.0
 16
1.0
 26
0.0
 36
0.0
 17
0.0
 27
1.0
 37
0.0
 76
     0
330
1F
331
29
  0
MATERIAL
  5
3D
102
{ACAD_REACTORS
330
3B
102
}
330
3B
100
AcDbMaterial
  1
ByBlock
 72
     1
 94
      127
  0
MATERIAL
  5
3C
102
{ACAD_REACTORS
330
3B
102
}
330
3B
100
AcDbMaterial
  1
ByLayer
 72
     1
 94
      127
  0
MATERIAL
  5
3E
102
{ACAD_REACTORS
330
3B
102
}
330
3B
100
AcDbMaterial
  1
Global
 72
     1
 94
      127
  0
MLINESTYLE
  5
18
102
{ACAD_REACTORS
330
17
102
}
330
17
100
AcDbMlineStyle
  2
Standard
 70
     0
  3

 62
   256
 51
90.0
 52
90.0
 71
     2
 49
0.5
 62
   256
  6
BYLAYER
 49
-0.5
 62
   256
  6
BYLAYER
  0
ACDBPLACEHOLDER
  5
F
102
{ACAD_REACTORS
330
E
102
}
330
E
  0
VISUALSTYLE
  5
2F
102
{ACAD_REACTORS
330
2A
102
}
330
2A
100
AcDbVisualStyle
  2
2dWireframe
 70
     4
177
     2
291
     0
 71
     0
176
     1
 72
     2
176
     1
 73
     0
176
     1
 90
        0
176
     1
 40
-0.6
176
     1
 41
-30.0
176
     1
 62
     5
 63
     7
421
 16777215
176
     1
 74
     1
176
     1
 91
        4
176
     1
 64
     7
176
     1
 65
   257
176
     1
 75
     1
176
     1
175
     1
176
     1
 42
1.0
176
     1
 92
        0
176
     1
 66
   257
176
     1
 43
1.0
176
     1
 76
     1
176
     1
 77
     6
176
     1
 78
     2
176
     1
 67
     7
176
     1
 79
     5
176
     1
170
     0
176
     1
171
     0
176
     1
290
     0
176
     1
 93
        1
176
     1
 44
0.0
176
     1
173
     0
176
     1
  0
VISUALSTYLE
  5
31
102
{ACAD_REACTORS
330
2A
102
}
330
2A
100
AcDbVisualStyle
  2
3D Hidden
 70
     6
177
     2
291
     0
 71
     1
176
     1
 72
     2
176
     1
 73
     2
176
     1
 90
        0
176
     1
 40
-0.6
176
     1
 41
-30.0
176
     1
 62
     5
 63
     7
421
 16777215
176
     1
 74
     2
176
     1
 91
        2
176
     1
 64
     7
176
     1
 65
   257
176
     1
 75
     2
176
     1
175
     1
176
     1
 42
40.0
176
     1
 92
        0
176
     1
 66
   257
176
     1
 43
1.0
176
     1
 76
     1
176
     1
 77
     6
176
     1
 78
     2
176
     1
 67
     7
176
     1
 79
     3
176
     1
170
     0
176
     1
171
     0
176
     1
290
     0
176
     1
 93
        1
176
     1
 44
0.0
176
     1
173
     0
176
     1
  0
VISUALSTYLE
  5
30
102
{ACAD_REACTORS
330
2A
102
}
330
2A
100
AcDbVisualStyle
  2
3dWireframe
 70
     5
177
     2
291
     0
 71
     0
176
     1
 72
     2
176
     1
 73
     0
176
     1
 90
        0
176
     1
 40
-0.6
176
     1
 41
-30.0
176
     1
 62
     5
 63
     7
421
 16777215
176
     1
 74
     1
176
     1
 91
        4
176
     1
 64
     7
176
     1
 65
   257
176
     1
 75
     1
176
     1
175
     1
176
     1
 42
1.0
176
     1
 92
        0
176
     1
 66
   257
176
     1
 43
1.0
176
     1
 76
     1
176
     1
 77
     6
176
     1
 78
     2
176
     1
 67
     7
176
     1
 79
     5
176
     1
170
     0
176
     1
171
     0
176
     1
290
     0
176
     1
 93
        1
176
     1
 44
0.0
176
     1
173
     0
176
     1
  0
VISUALSTYLE
  5
32
102
{ACAD_REACTORS
330
2A
102
}
330
2A
100
AcDbVisualStyle
  2
Basic
 70
     7
177
     2
291
     1
 71
     1
176
     1
 72
     0
176
     1
 73
     1
176
     1
 90
        0
176
     1
 40
-0.6
176
     1
 41
-30.0
176
     1
 62
     5
 63
     7
421
 16777215
176
     1
 74
     0
176
     1
 91
        4
176
     1
 64
     7
176
     1
 65
   257
176
     1
 75
     1
176
     1
175
     1
176
     1
 42
1.0
176
     1
 92
        8
176
     1
 66
     7
176
     1
 43
1.0
176
     1
 76
     1
176
     1
 77
     6
176
     1
 78
     2
176
     1
 67
     7
176
     1
 79
     5
176
     1
170
     0
176
     1
171
     0
176
     1
290
     0
176
     1
 93
        1
176
     1
 44
0.0
176
     1
173
     0
176
     1
  0
VISUALSTYLE
  5
36
102
{ACAD_REACTORS
330
2A
102
}
330
2A
100
AcDbVisualStyle
  2
Brighten
 70
    12
177
     2
291
     1
 71
     2
176
     1
 72
     2
176
     1
 73
     0
176
     1
 90
        0
176
     1
 40
-0.6
176
     1
 41
-30.0
176
     1
 62
     5
 63
     7
421
 16777215
176
     1
 74
     1
176
     1
 91
        4
176
     1
 64
     7
176
     1
 65
   257
176
     1
 75
     1
176
     1
175
     1
176
     1
 42
1.0
176
     1
 92
        8
176
     1
 66
     7
176
     1
 43
1.0
176
     1
 76
     1
176
     1
 77
     6
176
     1
 78
     2
176
     1
 67
     7
176
     1
 79
     5
176
     1
170
     0
176
     1
171
     0
176
     1
290
     0
176
     1
 93
        1
176
     1
 44
50.0
176
     1
173
     0
176
     1
  0
VISUALSTYLE
  5
3A
102
{ACAD_REACTORS
330
2A
102
}
330
2A
100
AcDbVisualStyle
  2
ColorChange
 70
    16
177
     2
291
     1
 71
     2
176
     1
 72
     2
176
     1
 73
     3
176
     1
 90
        0
176
     1
 40
-0.6
176
     1
 41
-30.0
176
     1
 62
     5
 63
     8
421
  8421504
176
     1
 74
     1
176
     1
 91
        4
176
     1
 64
     7
176
     1
 65
   257
176
     1
 75
     1
176
     1
175
     1
176
     1
 42
1.0
176
     1
 92
        8
176
     1
 66
     8
424
  8421504
176
     1
 43
1.0
176
     1
 76
     1
176
     1
 77
     6
176
     1
 78
     2
176
     1
 67
     7
176
     1
 79
     5
176
     1
170
     0
176
     1
171
     0
176
     1
290
     0
176
     1
 93
        1
176
     1
 44
0.0
176
     1
173
     0
176
     1
  0
VISUALSTYLE
  5
34
102
{ACAD_REACTORS
330
2A
102
}
330
2A
100
AcDbVisualStyle
  2
Conceptual
 70
     9
177
     2
291
     0
 71
     3
176
     1
 72
     2
176
     1
 73
     0
176
     1
 90
        0
176
     1
 40
-0.6
176
     1
 41
-30.0
176
     1
 62
     5
 63
     7
421
 16777215
176
     1
 74
     2
176
     1
 91
        2
176
     1
 64
     7
176
     1
 65
   257
176
     1
 75
     1
176
     1
175
     1
176
     1
 42
40.0
176
     1
 92
        8
176
     1
 66
     7
176
     1
 43
1.0
176
     1
 76
     1
176
     1
 77
     6
176
     1
 78
     2
176
     1
 67
     7
176
     1
 79
     3
176
     1
170
     0
176
     1
171
     0
176
     1
290
     0
176
     1
 93
        1
176
     1
 44
0.0
176
     1
173
     0
176
     1
  0
VISUALSTYLE
  5
35
102
{ACAD_REACTORS
330
2A
102
}
330
2A
100
AcDbVisualStyle
  2
Dim
 70
    11
177
     2
291
     1
 71
     2
176
     1
 72
     2
176
     1
 73
     0
176
     1
 90
        0
176
     1
 40
-0.6
176
     1
 41
-30.0
176
     1
 62
     5
 63
     7
421
 16777215
176
     1
 74
     1
176
     1
 91
        4
176
     1
 64
     7
176
     1
 65
   257
176
     1
 75
     1
176
     1
175
     1
176
     1
 42
1.0
176
     1
 92
        8
176
     1
 66
     7
176
     1
 43
1.0
176
     1
 76
     1
176
     1
 77
     6
176
     1
 78
     2
176
     1
 67
     7
176
     1
 79
     5
176
     1
170
     0
176
     1
171
     0
176
     1
290
     0
176
     1
 93
        1
176
     1
 44
-50.0
176
     1
173
     0
176
     1
  0
VISUALSTYLE
  5
39
102
{ACAD_REACTORS
330
2A
102
}
330
2A
100
AcDbVisualStyle
  2
Facepattern
 70
    15
177
     2
291
     1
 71
     2
176
     1
 72
     2
176
     1
 73
     0
176
     1
 90
        0
176
     1
 40
-0.6
176
     1
 41
-30.0
176
     1
 62
     5
 63
     7
421
 16777215
176
     1
 74
     1
176
     1
 91
        4
176
     1
 64
     7
176
     1
 65
   257
176
     1
 75
     1
176
     1
175
     1
176
     1
 42
1.0
176
     1
 92
        8
176
     1
 66
     7
176
     1
 43
1.0
176
     1
 76
     1
176
     1
 77
     6
176
     1
 78
     2
176
     1
 67
     7
176
     1
 79
     5
176
     1
170
     0
176
     1
171
     0
176
     1
290
     0
176
     1
 93
        1
176
     1
 44
0.0
176
     1
173
     0
176
     1
  0
VISUALSTYLE
  5
2B
102
{ACAD_REACTORS
330
2A
102
}
330
2A
100
AcDbVisualStyle
  2
Flat
 70
     0
177
     2
291
     1
 71
     2
176
     1
 72
     1
176
     1
 73
     1
176
     1
 90
        2
176
     1
 40
-0.6
176
     1
 41
30.0
176
     1
 62
     5
 63
     7
421
 16777215
176
     1
 74
     0
176
     1
 91
        4
176
     1
 64
     7
176
     1
 65
   257
176
     1
 75
     1
176
     1
175
     1
176
     1
 42
1.0
176
     1
 92
        8
176
     1
 66
     7
176
     1
 43
1.0
176
     1
 76
     1
176
     1
 77
     6
176
     1
 78
     2
176
     1
 67
     7
176
     1
 79
     5
176
     1
170
     0
176
     1
171
     0
176
     1
290
     0
176
     1
 93
       13
176
     1
 44
0.0
176
     1
173
     0
176
     1
  0
VISUALSTYLE
  5
2C
102
{ACAD_REACTORS
330
2A
102
}
330
2A
100
AcDbVisualStyle
  2
FlatWithEdges
 70
     1
177
     2
291
     1
 71
     2
176
     1
 72
     1
176
     1
 73
     1
176
     1
 90
        2
176
     1
 40
-0.6
176
     1
 41
30.0
176
     1
 62
     5
 63
     7
421
 16777215
176
     1
 74
     1
176
     1
 91
        4
176
     1
 64
     7
176
     1
 65
   257
176
     1
 75
     1
176
     1
175
     1
176
     1
 42
1.0
176
     1
 92
        0
176
     1
 66
   257
176
     1
 43
1.0
176
     1
 76
     1
176
     1
 77
     6
176
     1
 78
     2
176
     1
 67
     7
176
     1
 79
     5
176
     1
170
     0
176
     1
171
     0
176
     1
290
     0
176
     1
 93
       13
176
     1
 44
0.0
176
     1
173
     0
176
     1
  0
VISUALSTYLE
  5
2D
102
{ACAD_REACTORS
330
2A
102
}
330
2A
100
AcDbVisualStyle
  2
Gouraud
 70
     2
177
     2
291
     1
 71
     2
176
     1
 72
     2
176
     1
 73
     1
176
     1
 90
        2
176
     1
 40
-0.6
176
     1
 41
30.0
176
     1
 62
     5
 63
     7
421
 16777215
176
     1
 74
     0
176
     1
 91
        4
176
     1
 64
     7
176
     1
 65
   257
176
     1
 75
     1
176
     1
175
     1
176
     1
 42
1.0
176
     1
 92
        0
176
     1
 66
     7
176
     1
 43
1.0
176
     1
 76
     1
176
     1
 77
     6
176
     1
 78
     2
176
     1
 67
     7
176
     1
 79
     5
176
     1
170
     0
176
     1
171
     0
176
     1
290
     0
176
     1
 93
       13
176
     1
 44
0.0
176
     1
173
     0
176
     1
  0
VISUALSTYLE
  5
2E
102
{ACAD_REACTORS
330
2A
102
}
330
2A
100
AcDbVisualStyle
  2
GouraudWithEdges
 70
     3
177
     2
291
     1
 71
     2
176
     1
 72
     2
176
     1
 73
     1
176
     1
 90
        2
176
     1
 40
-0.6
176
     1
 41
30.0
176
     1
 62
     5
 63
     7
421
 16777215
176
     1
 74
     1
176
     1
 91
        4
176
     1
 64
     7
176
     1
 65
   257
176
     1
 75
     1
176
     1
175
     1
176
     1
 42
1.0
176
     1
 92
        0
176
     1
 66
   257
176
     1
 43
1.0
176
     1
 76
     1
176
     1
 77
     6
176
     1
 78
     2
176
     1
 67
     7
176
     1
 79
     5
176
     1
170
     0
176
     1
171
     0
176
     1
290
     0
176
     1
 93
       13
176
     1
 44
0.0
176
     1
173
     0
176
     1
  0
VISUALSTYLE
  5
38
102
{ACAD_REACTORS
330
2A
102
}
330
2A
100
AcDbVisualStyle
  2
Linepattern
 70
    14
177
     2
291
     1
 71
     2
176
     1
 72
     2
176
     1
 73
     0
176
     1
 90
        0
176
     1
 40
-0.6
176
     1
 41
-30.0
176
     1
 62
     5
 63
     7
421
 16777215
176
     1
 74
     1
176
     1
 91
        4
176
     1
 64
     7
176
     1
 65
   257
176
     1
 75
     7
176
     1
175
     7
176
     1
 42
1.0
176
     1
 92
        8
176
     1
 66
     7
176
     1
 43
1.0
176
     1
 76
     1
176
     1
 77
     6
176
     1
 78
     2
176
     1
 67
     7
176
     1
 79
     5
176
     1
170
     0
176
     1
171
     0
176
     1
290
     0
176
     1
 93
        1
176
     1
 44
0.0
176
     1
173
     0
176
     1
  0
VISUALSTYLE
  5
33
102
{ACAD_REACTORS
330
2A
102
}
330
2A
100
AcDbVisualStyle
  2
Realistic
 70
     8
177
     2
291
     0
 71
     2
176
     1
 72
     2
176
     1
 73
     0
176
     1
 90
        0
176
     1
 40
-0.6
176
     1
 41
-30.0
176
     1
 62
     5
 63
     7
421
 16777215
176
     1
 74
     1
176
     1
 91
        0
176
     1
 64
     7
176
     1
 65
   257
176
     1
 75
     1
176
     1
175
     1
176
     1
 42
1.0
176
     1
 92
        8
176
     1
 66
     8
424
  7895160
176
     1
 43
1.0
176
     1
 76
     1
176
     1
 77
     6
176
     1
 78
     2
176
     1
 67
     7
176
     1
 79
     5
176
     1
170
     0
176
     1
171
     0
176
     1
290
     0
176
     1
 93
       13
176
     1
 44
0.0
176
     1
173
     0
176
     1
  0
VISUALSTYLE
  5
37
102
{ACAD_REACTORS
330
2A
102
}
330
2A
100
AcDbVisualStyle
  2
Thicken
 70
    13
177
     2
291
     1
 71
     2
176
     1
 72
     2
176
     1
 73
     0
176
     1
 90
        0
176
     1
 40
-0.6
176
     1
 41
-30.0
176
     1
 62
     5
 63
     7
421
 16777215
176
     1
 74
     1
176
     1
 91
        4
176
     1
 64
     7
176
     1
 65
   257
176
     1
 75
     1
176
     1
175
     1
176
     1
 42
1.0
176
     1
 92
       12
176
     1
 66
     7
176
     1
 43
1.0
176
     1
 76
     1
176
     1
 77
     6
176
     1
 78
     2
176
     1
 67
     7
176
     1
 79
     5
176
     1
170
     0
176
     1
171
     0
176
     1
290
     0
176
     1
 93
        1
176
     1
 44
0.0
176
     1
173
     0
176
     1
  0
ENDSEC
  0
EOF
