  0
SECTION
  2
HEADER
  9
$ACADVER
  1
AC1024
  9
$ACADMAINTVER
 70
     6
  9
$DWGCODEPAGE
  3
UNDEFINED
  9
$INSBASE
 10
0.0
 20
0.0
 30
0.0
  9
$EXTMIN
 10
1.000000000000000E+20
 20
1.000000000000000E+20
 30
1.000000000000000E+20
  9
$EXTMAX
 10
-1.000000000000000E+20
 20
-1.000000000000000E+20
 30
-1.000000000000000E+20
  9
$LIMMIN
 10
0.0
 20
0.0
  9
$LIMMAX
 10
12.0
 20
9.0
  9
$ORTHOMODE
 70
     0
  9
$REGENMODE
 70
     1
  9
$FILLMODE
 70
     1
  9
$QTEXTMODE
 70
     0
  9
$MIRRTEXT
 70
     1
  9
$LTSCALE
 40
1.0
  9
$ATTMODE
 70
     1
  9
$TEXTSIZE
 40
0.2
  9
$TRACEWID
 40
0.05
  9
$TEXTSTYLE
  7
Standard
  9
$CLAYER
  8
0
  9
$CELTYPE
  6
ByLayer
  9
$CECOLOR
 62
   256
  9
$CELTSCALE
 40
1.0
  9
$DISPSILH
 70
     0
  9
$DIMSCALE
 40
1.0
  9
$DIMASZ
 40
0.18
  9
$DIMEXO
 40
0.0625
  9
$DIMDLI
 40
0.38
  9
$DIMRND
 40
0.0
  9
$DIMDLE
 40
0.0
  9
$DIMEXE
 40
0.18
  9
$DIMTP
 40
0.0
  9
$DIMTM
 40
0.0
  9
$DIMTXT
 40
0.18
  9
$DIMCEN
 40
0.09
  9
$DIMTSZ
 40
0.0
  9
$DIMTOL
 70
     0
  9
$DIMLIM
 70
     0
  9
$DIMTIH
 70
     1
  9
$DIMTOH
 70
     1
  9
$DIMSE1
 70
     0
  9
$DIMSE2
 70
     0
  9
$DIMTAD
 70
     0
  9
$DIMZIN
 70
     0
  9
$DIMBLK
  1

  9
$DIMASO
 70
     1
  9
$DIMSHO
 70
     1
  9
$DIMPOST
  1

  9
$DIMAPOST
  1

  9
$DIMALT
 70
     0
  9
$DIMALTD
 70
     2
  9
$DIMALTF
 40
25.4
  9
$DIMLFAC
 40
1.0
  9
$DIMTOFL
 70
     0
  9
$DIMTVP
 40
0.0
  9
$DIMTIX
 70
     0
  9
$DIMSOXD
 70
     0
  9
$DIMSAH
 70
     0
  9
$DIMBLK1
  1

  9
$DIMBLK2
  1

  9
$DIMSTYLE
  2
Standard
  9
$DIMCLRD
 70
     0
  9
$DIMCLRE
 70
     0
  9
$DIMCLRT
 70
     0
  9
$DIMTFAC
 40
1.0
  9
$DIMGAP
 40
0.09
  9
$DIMJUST
 70
     0
  9
$DIMSD1
 70
     0
  9
$DIMSD2
 70
     0
  9
$DIMTOLJ
 70
     1
  9
$DIMTZIN
 70
     0
  9
$DIMALTZ
 70
     0
  9
$DIMALTTZ
 70
     0
  9
$DIMUPT
 70
     0
  9
$DIMDEC
 70
     4
  9
$DIMTDEC
 70
     4
  9
$DIMALTU
 70
     2
  9
$DIMALTTD
 70
     2
  9
$DIMTXSTY
  7
Standard
  9
$DIMAUNIT
 70
     0
  9
$DIMADEC
 70
     0
  9
$DIMALTRND
 40
0.0
  9
$DIMAZIN
 70
     0
  9
$DIMDSEP
 70
    46
  9
$DIMATFIT
 70
     3
  9
$DIMFRAC
 70
     0
  9
$DIMLDRBLK
  1

  9
$DIMLUNIT
 70
     2
  9
$DIMLWD
 70
    -2
  9
$DIMLWE
 70
    -2
  9
$DIMTMOVE
 70
     0
  9
$DIMFXL
 40
1.0
  9
$DIMFXLON
 70
     0
  9
$DIMJOGANG
 40
0.7853981633974483
  9
$DIMTFILL
 70
     0
  9
$DIMTFILLCLR
 70
     0
  9
$DIMARCSYM
 70
     0
  9
$DIMLTYPE
  6

  9
$DIMLTEX1
  6

  9
$DIMLTEX2
  6

  9
$DIMTXTDIRECTION
 70
     0
  9
$LUNITS
 70
     2
  9
$LUPREC
 70
     4
  9
$SKETCHINC
 40
0.1
  9
$FILLETRAD
 40
0.5
  9
$AUNITS
 70
     0
  9
$AUPREC
 70
     0
  9
$MENU
  1
.
  9
$ELEVATION
 40
0.0
  9
$PELEVATION
 40
0.0
  9
$THICKNESS
 40
0.0
  9
$LIMCHECK
 70
     0
  9
$CHAMFERA
 40
0.5
  9
$CHAMFERB
 40
0.5
  9
$CHAMFERC
 40
1.0
  9
$CHAMFERD
 40
0.0
  9
$SKPOLY
 70
     0
  9
$TDCREATE
 40
2457917.618310174
  9
$TDUCREATE
 40
2457917.243310185
  9
$TDUPDATE
 40
2457917.618310174
  9
$TDUUPDATE
 40
2457917.243310185
  9
$TDINDWG
 40
0.0000000116
  9
$TDUSRTIMER
 40
0.0000000116
  9
$USRTIMER
 70
     1
  9
$ANGBASE
 50
0.0
  9
$ANGDIR
 70
     0
  9
$PDMODE
 70
     0
  9
$PDSIZE
 40
0.0
  9
$PLINEWID
 40
0.0
  9
$SPLFRAME
 70
     0
  9
$SPLINETYPE
 70
     6
  9
$SPLINESEGS
 70
     8
  9
$HANDSEED
  5
ED
  9
$SURFTAB1
 70
     6
  9
$SURFTAB2
 70
     6
  9
$SURFTYPE
 70
     6
  9
$SURFU
 70
     6
  9
$SURFV
 70
     6
  9
$UCSBASE
  2

  9
$UCSNAME
  2

  9
$UCSORG
 10
0.0
 20
0.0
 30
0.0
  9
$UCSXDIR
 10
1.0
 20
0.0
 30
0.0
  9
$UCSYDIR
 10
0.0
 20
1.0
 30
0.0
  9
$UCSORTHOREF
  2

  9
$UCSORTHOVIEW
 70
     0
  9
$UCSORGTOP
 10
0.0
 20
0.0
 30
0.0
  9
$UCSORGBOTTOM
 10
0.0
 20
0.0
 30
0.0
  9
$UCSORGLEFT
 10
0.0
 20
0.0
 30
0.0
  9
$UCSORGRIGHT
 10
0.0
 20
0.0
 30
0.0
  9
$UCSORGFRONT
 10
0.0
 20
0.0
 30
0.0
  9
$UCSORGBACK
 10
0.0
 20
0.0
 30
0.0
  9
$PUCSBASE
  2

  9
$PUCSNAME
  2

  9
$PUCSORG
 10
0.0
 20
0.0
 30
0.0
  9
$PUCSXDIR
 10
1.0
 20
0.0
 30
0.0
  9
$PUCSYDIR
 10
0.0
 20
1.0
 30
0.0
  9
$PUCSORTHOREF
  2

  9
$PUCSORTHOVIEW
 70
     0
  9
$PUCSORGTOP
 10
0.0
 20
0.0
 30
0.0
  9
$PUCSORGBOTTOM
 10
0.0
 20
0.0
 30
0.0
  9
$PUCSORGLEFT
 10
0.0
 20
0.0
 30
0.0
  9
$PUCSORGRIGHT
 10
0.0
 20
0.0
 30
0.0
  9
$PUCSORGFRONT
 10
0.0
 20
0.0
 30
0.0
  9
$PUCSORGBACK
 10
0.0
 20
0.0
 30
0.0
  9
$USERI1
 70
     0
  9
$USERI2
 70
     0
  9
$USERI3
 70
     0
  9
$USERI4
 70
     0
  9
$USERI5
 70
     0
  9
$USERR1
 40
0.0
  9
$USERR2
 40
0.0
  9
$USERR3
 40
0.0
  9
$USERR4
 40
0.0
  9
$USERR5
 40
0.0
  9
$WORLDVIEW
 70
     1
  9
$SHADEDGE
 70
     3
  9
$SHADEDIF
 70
    70
  9
$TILEMODE
 70
     1
  9
$MAXACTVP
 70
    64
  9
$PINSBASE
 10
0.0
 20
0.0
 30
0.0
  9
$PLIMCHECK
 70
     0
  9
$PEXTMIN
 10
1.000000000000000E+20
 20
1.000000000000000E+20
 30
1.000000000000000E+20
  9
$PEXTMAX
 10
-1.000000000000000E+20
 20
-1.000000000000000E+20
 30
-1.000000000000000E+20
  9
$PLIMMIN
 10
0.0
 20
0.0
  9
$PLIMMAX
 10
12.0
 20
9.0
  9
$UNITMODE
 70
     0
  9
$VISRETAIN
 70
     1
  9
$PLINEGEN
 70
     0
  9
$PSLTSCALE
 70
     1
  9
$TREEDEPTH
 70
  3020
  9
$CMLSTYLE
  2
Standard
  9
$CMLJUST
 70
     0
  9
$CMLSCALE
 40
1.0
  9
$PROXYGRAPHICS
 70
     1
  9
$MEASUREMENT
 70
     0
  9
$CELWEIGHT
370
    -1
  9
$ENDCAPS
280
     0
  9
$JOINSTYLE
280
     0
  9
$LWDISPLAY
290
     1
  9
$INSUNITS
 70
     1
  9
$HYPERLINKBASE
  1

  9
$STYLESHEET
  1

  9
$XEDIT
290
     1
  9
$CEPSNTYPE
380
     0
  9
$PSTYLEMODE
290
     1
  9
$FINGERPRINTGUID
  2
{98E6FE60-D20A-5B4B-FA32-2A9637C77937}
  9
$VERSIONGUID
  2
{FAEB1C32-E019-11D5-929B-00C0DF256EC4}
  9
$EXTNAMES
290
     1
  9
$PSVPSCALE
 40
0.0
  9
$OLESTARTUP
290
     0
  9
$SORTENTS
280
   127
  9
$INDEXCTL
280
     0
  9
$HIDETEXT
280
     1
  9
$XCLIPFRAME
280
     2
  9
$HALOGAP
280
     0
  9
$OBSCOLOR
 70
   257
  9
$OBSLTYPE
280
     0
  9
$INTERSECTIONDISPLAY
280
     0
  9
$INTERSECTIONCOLOR
 70
   257
  9
$DIMASSOC
280
     2
  9
$PROJECTNAME
  1

  9
$CAMERADISPLAY
290
     0
  9
$LENSLENGTH
 40
50.0
  9
$CAMERAHEIGHT
 40
0.0
  9
$STEPSPERSEC
 40
2.0
  9
$STEPSIZE
 40
6.0
  9
$3DDWFPREC
 40
2.0
  9
$PSOLWIDTH
 40
0.25
  9
$PSOLHEIGHT
 40
4.0
  9
$LOFTANG1
 40
1.570796326794897
  9
$LOFTANG2
 40
1.570796326794897
  9
$LOFTMAG1
 40
0.0
  9
$LOFTMAG2
 40
0.0
  9
$LOFTPARAM
 70
     7
  9
$LOFTNORMALS
280
     1
  9
$LATITUDE
 40
37.795
  9
$LONGITUDE
 40
-122.394
  9
$NORTHDIRECTION
 40
0.0
  9
$TIMEZONE
 70
 -8000
  9
$LIGHTGLYPHDISPLAY
280
     1
  9
$TILEMODELIGHTSYNCH
280
     1
  9
$CMATERIAL
347
3C
  9
$SOLIDHIST
280
     1
  9
$SHOWHIST
280
     1
  9
$DWFFRAME
280
     2
  9
$DGNFRAME
280
     2
  9
$REALWORLDSCALE
290
     1
  9
$INTERFERECOLOR
 62
   256
  9
$CSHADOW
280
     0
  9
$SHADOWPLANELOCATION
 40
0.0
  0
ENDSEC
  0
SECTION
  2
CLASSES
  0
CLASS
  1
ACDBDICTIONARYWDFLT
  2
AcDbDictionaryWithDefault
  3
ObjectDBX Classes
 90
        0
 91
        4
280
     0
281
     0
  0
CLASS
  1
VISUALSTYLE
  2
AcDbVisualStyle
  3
ObjectDBX Classes
 90
     4095
 91
        4
280
     0
281
     0
  0
CLASS
  1
MATERIAL
  2
AcDbMaterial
  3
ObjectDBX Classes
 90
     1153
 91
        4
280
     0
281
     0
  0
CLASS
  1
SUN
  2
AcDbSun
  3
SCENEOE
 90
     1024
 91
        4
280
     0
281
     0
  0
ENDSEC
  0
SECTION
  2
TABLES
  0
TABLE
  2
VPORT
  5
8
330
0
100
AcDbSymbolTable
 70
     1
  0
VPORT
  5
29
330
8
100
AcDbSymbolTableRecord
100
AcDbViewportTableRecord
  2
*Active
 70
     0
 10
0.0
 20
0.0
 11
1.0
 21
1.0
 12
0.0
 22
0.0
 13
0.0
 23
0.0
 14
0.5
 24
0.5
 15
0.5
 25
0.5
 16
0.0
 26
0.0
 36
1.0
 17
91.00082462281999
 27
-128.4993055234307
 37
0.0
 40
256.9986110468615
 41
0.7081814508812795
 42
50.0
 43
0.0
 44
0.0
 50
0.0
 51
0.0
 71
     0
 72
   100
 73
     1
 74
     3
 75
     0
 76
     0
 77
     0
 78
     0
281
     0
 65
     1
110
0.0
120
0.0
130
0.0
111
1.0
121
0.0
131
0.0
112
0.0
122
1.0
132
0.0
 79
     0
146
0.0
 60
     3
 61
     5
292
     1
282
     1
141
0.0
142
0.0
 63
   250
361
3F
  0
ENDTAB
  0
TABLE
  2
LTYPE
  5
5
330
0
100
AcDbSymbolTable
 70
     1
  0
LTYPE
  5
14
330
5
100
AcDbSymbolTableRecord
100
AcDbLinetypeTableRecord
  2
ByBlock
 70
     0
  3

 72
    65
 73
     0
 40
0.0
  0
LTYPE
  5
15
330
5
100
AcDbSymbolTableRecord
100
AcDbLinetypeTableRecord
  2
ByLayer
 70
     0
  3

 72
    65
 73
     0
 40
0.0
  0
LTYPE
  5
16
330
5
100
AcDbSymbolTableRecord
100
AcDbLinetypeTableRecord
  2
Continuous
 70
     0
  3
Solid line
 72
    65
 73
     0
 40
0.0
  0
ENDTAB
  0
TABLE
  2
LAYER
  5
2
330
0
100
AcDbSymbolTable
 70
     2
  0
LAYER
  5
10
330
2
100
AcDbSymbolTableRecord
100
AcDbLayerTableRecord
  2
0
 70
     0
 62
     7
  6
Continuous
370
    -3
390
F
347
3E
  0
LAYER
  5
40
330
2
100
AcDbSymbolTableRecord
100
AcDbLayerTableRecord
  2
_U+30EC_U+30A4_U+30E4_U+30FC 1
 70
     0
 62
     7
  6
Continuous
370
    -3
390
F
347
3E
  0
ENDTAB
  0
TABLE
  2
STYLE
  5
3
330
0
100
AcDbSymbolTable
 70
     1
  0
STYLE
  5
11
330
3
100
AcDbSymbolTableRecord
100
AcDbTextStyleTableRecord
  2
Standard
 70
     0
 40
0.0
 41
1.0
 50
0.0
 71
     0
 42
0.2
  3
txt
  4

  0
ENDTAB
  0
TABLE
  2
VIEW
  5
6
330
0
100
AcDbSymbolTable
 70
     0
  0
ENDTAB
  0
TABLE
  2
UCS
  5
7
330
0
100
AcDbSymbolTable
 70
     0
  0
ENDTAB
  0
TABLE
  2
APPID
  5
9
330
0
100
AcDbSymbolTable
 70
     1
  0
APPID
  5
12
330
9
100
AcDbSymbolTableRecord
100
AcDbRegAppTableRecord
  2
ACAD
 70
     0
  0
ENDTAB
  0
TABLE
  2
DIMSTYLE
  5
A
330
0
100
AcDbSymbolTable
 70
     1
100
AcDbDimStyleTable
  0
DIMSTYLE
105
27
330
A
100
AcDbSymbolTableRecord
100
AcDbDimStyleTableRecord
  2
Standard
 70
     0
178
     0
340
11
  0
ENDTAB
  0
TABLE
  2
BLOCK_RECORD
  5
1
330
0
100
AcDbSymbolTable
 70
     7
  0
BLOCK_RECORD
  5
1F
330
1
100
AcDbSymbolTableRecord
100
AcDbBlockTableRecord
  2
*Model_Space
340
22
 70
     0
280
     1
281
     0
  0
BLOCK_RECORD
  5
1B
330
1
100
AcDbSymbolTableRecord
100
AcDbBlockTableRecord
  2
*Paper_Space
340
1E
 70
     0
280
     1
281
     0
  0
BLOCK_RECORD
  5
23
330
1
100
AcDbSymbolTableRecord
100
AcDbBlockTableRecord
  2
*Paper_Space0
340
26
 70
     0
280
     1
281
     0
  0
BLOCK_RECORD
  5
7B
330
1
100
AcDbSymbolTableRecord
100
AcDbBlockTableRecord
  2
block 2
340
0
102
{BLKREFS
331
7C
102
}
 70
     0
280
     1
281
     0
  0
BLOCK_RECORD
  5
91
330
1
100
AcDbSymbolTableRecord
100
AcDbBlockTableRecord
  2
block 3
340
0
102
{BLKREFS
331
92
102
}
 70
     0
280
     1
281
     0
  0
BLOCK_RECORD
  5
A9
330
1
100
AcDbSymbolTableRecord
100
AcDbBlockTableRecord
  2
block 4
340
0
102
{BLKREFS
331
AA
102
}
 70
     0
280
     1
281
     0
  0
BLOCK_RECORD
  5
CC
330
1
100
AcDbSymbolTableRecord
100
AcDbBlockTableRecord
  2
block 5
340
0
102
{BLKREFS
331
CD
102
}
 70
     0
280
     1
281
     0
  0
BLOCK_RECORD
  5
D2
330
1
100
AcDbSymbolTableRecord
100
AcDbBlockTableRecord
  2
block 6
340
0
102
{BLKREFS
331
D3
102
}
 70
     0
280
     1
281
     0
  0
BLOCK_RECORD
  5
E5
330
1
100
AcDbSymbolTableRecord
100
AcDbBlockTableRecord
  2
block 7
340
0
102
{BLKREFS
331
E6
102
}
 70
     0
280
     1
281
     0
  0
ENDTAB
  0
ENDSEC
  0
SECTION
  2
BLOCKS
  0
BLOCK
  5
20
330
1F
100
AcDbEntity
  8
0
100
AcDbBlockBegin
  2
*Model_Space
 70
     0
 10
0.0
 20
0.0
 30
0.0
  3
*Model_Space
  1

  0
ENDBLK
  5
21
330
1F
100
AcDbEntity
  8
0
100
AcDbBlockEnd
  0
BLOCK
  5
1C
330
1B
100
AcDbEntity
 67
     1
  8
0
100
AcDbBlockBegin
  2
*Paper_Space
 70
     0
 10
0.0
 20
0.0
 30
0.0
  3
*Paper_Space
  1

  0
ENDBLK
  5
1D
330
1B
100
AcDbEntity
 67
     1
  8
0
100
AcDbBlockEnd
  0
BLOCK
  5
24
330
23
100
AcDbEntity
  8
0
100
AcDbBlockBegin
  2
*Paper_Space0
 70
     0
 10
0.0
 20
0.0
 30
0.0
  3
*Paper_Space0
  1

  0
ENDBLK
  5
25
330
23
100
AcDbEntity
  8
0
100
AcDbBlockEnd
  0
BLOCK
  5
7D
330
7B
100
AcDbEntity
  8
0
100
AcDbBlockBegin
  2
block 2
 70
     0
 10
0.0
 20
0.0
 30
0.0
  3
block 2
  1

  0
SPLINE
  5
7F
330
7B
100
AcDbEntity
  8
_U+30EC_U+30A4_U+30E4_U+30FC 1
370
     0
100
AcDbSpline
210
0.0
220
0.0
230
1.0
 70
    11
 71
     3
 72
    26
 73
    22
 74
     0
 42
0.0000000001
 43
0.0000000001
 12
1.0
 22
0.0
 32
0.0
 13
1.0
 23
0.0
 33
0.0
 40
0.0
 40
0.0
 40
0.0
 40
0.0
 40
1.0
 40
1.0
 40
1.0
 40
2.0
 40
2.0
 40
2.0
 40
3.0
 40
3.0
 40
3.0
 40
4.0
 40
4.0
 40
4.0
 40
5.0
 40
5.0
 40
5.0
 40
6.0
 40
6.0
 40
6.0
 40
7.0
 40
7.0
 40
7.0
 40
7.0
 10
87.86078692464939
 20
-136.0950520493096
 30
0.0
 10
87.86078692464939
 20
-136.0950520493096
 30
0.0
 10
87.86078692464939
 20
-134.990898946287
 30
0.0
 10
87.86078692464939
 20
-134.990898946287
 30
0.0
 10
87.86078692464939
 20
-134.990898946287
 30
0.0
 10
87.50835365650833
 20
-134.990898946287
 30
0.0
 10
87.50835365650833
 20
-134.990898946287
 30
0.0
 10
87.50835365650833
 20
-134.990898946287
 30
0.0
 10
87.50835365650833
 20
-134.8427598404213
 30
0.0
 10
87.50835365650833
 20
-134.8427598404213
 30
0.0
 10
87.86319849148907
 20
-134.8279459298347
 30
0.0
 10
87.91280786647667
 20
-134.6649929133824
 30
0.0
 10
87.94450274494096
 20
-134.5506157432721
 30
0.0
 10
87.94450274494096
 20
-134.5506157432721
 30
0.0
 10
88.10056557042277
 20
-134.5506157432721
 30
0.0
 10
88.10056557042277
 20
-134.5506157432721
 30
0.0
 10
88.10056557042277
 20
-134.5506157432721
 30
0.0
 10
88.10056557042277
 20
-136.0950520493096
 30
0.0
 10
88.10056557042277
 20
-136.0950520493096
 30
0.0
 10
88.10056557042277
 20
-136.0950520493096
 30
0.0
 10
87.86078692464939
 20
-136.0950520493096
 30
0.0
 10
87.86078692464939
 20
-136.0950520493096
 30
0.0
  0
HATCH
  5
80
330
7B
100
AcDbEntity
  8
_U+30EC_U+30A4_U+30E4_U+30FC 1
 62
   179
420
  2234388
100
AcDbHatch
 10
0.0
 20
0.0
 30
0.0
210
0.0
220
0.0
230
1.0
  2
SOLID
 70
     1
 71
     0
 91
        1
 92
        1
 93
        1
 72
     4
 94
        3
 73
     0
 74
     1
 95
       26
 96
       22
 40
0.0
 40
0.0
 40
0.0
 40
0.0
 40
1.0
 40
1.0
 40
1.0
 40
2.0
 40
2.0
 40
2.0
 40
3.0
 40
3.0
 40
3.0
 40
4.0
 40
4.0
 40
4.0
 40
5.0
 40
5.0
 40
5.0
 40
6.0
 40
6.0
 40
6.0
 40
7.0
 40
7.0
 40
7.0
 40
7.0
 10
87.86078692464939
 20
-136.0950520493096
 10
87.86078692464939
 20
-136.0950520493096
 10
87.86078692464939
 20
-134.990898946287
 10
87.86078692464939
 20
-134.990898946287
 10
87.86078692464939
 20
-134.990898946287
 10
87.50835365650833
 20
-134.990898946287
 10
87.50835365650833
 20
-134.990898946287
 10
87.50835365650833
 20
-134.990898946287
 10
87.50835365650833
 20
-134.8427598404213
 10
87.50835365650833
 20
-134.8427598404213
 10
87.86319849148907
 20
-134.8279459298347
 10
87.91280786647667
 20
-134.6649929133824
 10
87.94450274494096
 20
-134.5506157432721
 10
87.94450274494096
 20
-134.5506157432721
 10
88.10056557042277
 20
-134.5506157432721
 10
88.10056557042277
 20
-134.5506157432721
 10
88.10056557042277
 20
-134.5506157432721
 10
88.10056557042277
 20
-136.0950520493096
 10
88.10056557042277
 20
-136.0950520493096
 10
88.10056557042277
 20
-136.0950520493096
 10
87.86078692464939
 20
-136.0950520493096
 10
87.86078692464939
 20
-136.0950520493096
 97
        0
 97
        0
 75
     2
 76
     1
 98
        0
  0
SPLINE
  5
81
330
7B
100
AcDbEntity
  8
_U+30EC_U+30A4_U+30E4_U+30FC 1
370
     0
100
AcDbSpline
210
0.0
220
0.0
230
1.0
 70
    11
 71
     3
 72
    29
 73
    25
 74
     0
 42
0.0000000001
 43
0.0000000001
 12
1.0
 22
0.0
 32
0.0
 13
1.0
 23
0.0
 33
0.0
 40
0.0
 40
0.0
 40
0.0
 40
0.0
 40
1.0
 40
1.0
 40
1.0
 40
2.0
 40
2.0
 40
2.0
 40
3.0
 40
3.0
 40
3.0
 40
4.0
 40
4.0
 40
4.0
 40
5.0
 40
5.0
 40
5.0
 40
6.0
 40
6.0
 40
6.0
 40
7.0
 40
7.0
 40
7.0
 40
8.0
 40
8.0
 40
8.0
 40
8.0
 10
89.17061222814138
 20
-136.1456949529428
 30
0.0
 10
88.88570283151121
 20
-136.1456949529428
 30
0.0
 10
88.61457381682206
 20
-136.0082356430813
 30
0.0
 10
88.61457381682206
 20
-135.6592474704255
 30
0.0
 10
88.61457381682206
 20
-135.4032768758714
 30
0.0
 10
88.76615801817304
 20
-135.3081922404785
 30
0.0
 10
88.87915715008924
 20
-135.2468695408411
 30
0.0
 10
88.74583195481007
 20
-135.1876138984948
 30
0.0
 10
88.66418319180966
 20
-135.0732367283845
 30
0.0
 10
88.66418319180966
 20
-134.9123507692233
 30
0.0
 10
88.66418319180966
 20
-134.6374321495004
 30
0.0
 10
88.87674558324957
 20
-134.5020398969301
 30
0.0
 10
89.17061222814138
 20
-134.5020398969301
 30
0.0
 10
89.47378063084336
 20
-134.5020398969301
 30
0.0
 10
89.6770412644731
 20
-134.6460448882135
 30
0.0
 10
89.6770412644731
 20
-134.9123507692233
 30
0.0
 10
89.6770412644731
 20
-135.0732367283845
 30
0.0
 10
89.59366995373006
 20
-135.1876138984948
 30
0.0
 10
89.46000024890236
 20
-135.2468695408411
 30
0.0
 10
89.55508488429525
 20
-135.2975124444743
 30
0.0
 10
89.72458358216956
 20
-135.3925970798671
 30
0.0
 10
89.72458358216956
 20
-135.6551133558432
 30
0.0
 10
89.72458358216956
 20
-136.0295952350898
 30
0.0
 10
89.42623831314691
 20
-136.1456949529428
 30
0.0
 10
89.17061222814138
 20
-136.1456949529428
 30
0.0
  0
SPLINE
  5
82
330
7B
100
AcDbEntity
  8
_U+30EC_U+30A4_U+30E4_U+30FC 1
370
     0
100
AcDbSpline
210
0.0
220
0.0
230
1.0
 70
    11
 71
     3
 72
    17
 73
    13
 74
     0
 42
0.0000000001
 43
0.0000000001
 12
1.0
 22
0.0
 32
0.0
 13
1.0
 23
0.0
 33
0.0
 40
0.0
 40
0.0
 40
0.0
 40
0.0
 40
1.0
 40
1.0
 40
1.0
 40
2.0
 40
2.0
 40
2.0
 40
3.0
 40
3.0
 40
3.0
 40
4.0
 40
4.0
 40
4.0
 40
4.0
 10
89.17061222814138
 20
-135.3547010295294
 30
0.0
 10
89.01696096949924
 20
-135.3547010295294
 30
0.0
 10
88.85435246259544
 20
-135.4415174357577
 30
0.0
 10
88.85435246259544
 20
-135.6444335598389
 30
0.0
 10
88.85435246259544
 20
-135.8497612507598
 30
0.0
 10
88.98974471516576
 20
-135.9510470580261
 30
0.0
 10
89.17061222814138
 20
-135.9510470580261
 30
0.0
 10
89.36973874718882
 20
-135.9510470580261
 30
0.0
 10
89.48721650323584
 20
-135.8284016587512
 30
0.0
 10
89.48721650323584
 20
-135.6506347317124
 30
0.0
 10
89.48721650323584
 20
-135.4287705824622
 30
0.0
 10
89.31323918123073
 20
-135.3547010295294
 30
0.0
 10
89.17061222814138
 20
-135.3547010295294
 30
0.0
  0
SPLINE
  5
83
330
7B
100
AcDbEntity
  8
_U+30EC_U+30A4_U+30E4_U+30FC 1
370
     0
100
AcDbSpline
210
0.0
220
0.0
230
1.0
 70
    11
 71
     3
 72
    17
 73
    13
 74
     0
 42
0.0000000001
 43
0.0000000001
 12
1.0
 22
0.0
 32
0.0
 13
1.0
 23
0.0
 33
0.0
 40
0.0
 40
0.0
 40
0.0
 40
0.0
 40
1.0
 40
1.0
 40
1.0
 40
2.0
 40
2.0
 40
2.0
 40
3.0
 40
3.0
 40
3.0
 40
4.0
 40
4.0
 40
4.0
 40
4.0
 10
89.17061222814138
 20
-134.6946207345555
 30
0.0
 10
88.99456784884511
 20
-134.6946207345555
 30
0.0
 10
88.90396183758304
 20
-134.7897053699484
 30
0.0
 10
88.90396183758304
 20
-134.9250976225187
 30
0.0
 10
88.90396183758304
 20
-135.0477430217936
 30
0.0
 10
88.98078746690412
 20
-135.1662543064862
 30
0.0
 10
89.17061222814138
 20
-135.1662543064862
 30
0.0
 10
89.36078149892717
 20
-135.1662543064862
 30
0.0
 10
89.43760712824825
 20
-135.0477430217936
 30
0.0
 10
89.43760712824825
 20
-134.9250976225187
 30
0.0
 10
89.43760712824825
 20
-134.7897053699484
 30
0.0
 10
89.34493405969502
 20
-134.6946207345555
 30
0.0
 10
89.17061222814138
 20
-134.6946207345555
 30
0.0
  0
HATCH
  5
84
330
7B
100
AcDbEntity
  8
_U+30EC_U+30A4_U+30E4_U+30FC 1
 62
   179
420
  2234388
100
AcDbHatch
 10
0.0
 20
0.0
 30
0.0
210
0.0
220
0.0
230
1.0
  2
SOLID
 70
     1
 71
     0
 91
        3
 92
        1
 93
        1
 72
     4
 94
        3
 73
     0
 74
     1
 95
       29
 96
       25
 40
0.0
 40
0.0
 40
0.0
 40
0.0
 40
1.0
 40
1.0
 40
1.0
 40
2.0
 40
2.0
 40
2.0
 40
3.0
 40
3.0
 40
3.0
 40
4.0
 40
4.0
 40
4.0
 40
5.0
 40
5.0
 40
5.0
 40
6.0
 40
6.0
 40
6.0
 40
7.0
 40
7.0
 40
7.0
 40
8.0
 40
8.0
 40
8.0
 40
8.0
 10
89.17061222814138
 20
-136.1456949529428
 10
88.88570283151121
 20
-136.1456949529428
 10
88.61457381682206
 20
-136.0082356430813
 10
88.61457381682206
 20
-135.6592474704255
 10
88.61457381682206
 20
-135.4032768758714
 10
88.76615801817304
 20
-135.3081922404785
 10
88.87915715008924
 20
-135.2468695408411
 10
88.74583195481007
 20
-135.1876138984948
 10
88.66418319180966
 20
-135.0732367283845
 10
88.66418319180966
 20
-134.9123507692233
 10
88.66418319180966
 20
-134.6374321495004
 10
88.87674558324957
 20
-134.5020398969301
 10
89.17061222814138
 20
-134.5020398969301
 10
89.47378063084336
 20
-134.5020398969301
 10
89.6770412644731
 20
-134.6460448882135
 10
89.6770412644731
 20
-134.9123507692233
 10
89.6770412644731
 20
-135.0732367283845
 10
89.59366995373006
 20
-135.1876138984948
 10
89.46000024890236
 20
-135.2468695408411
 10
89.55508488429525
 20
-135.2975124444743
 10
89.72458358216956
 20
-135.3925970798671
 10
89.72458358216956
 20
-135.6551133558432
 10
89.72458358216956
 20
-136.0295952350898
 10
89.42623831314691
 20
-136.1456949529428
 10
89.17061222814138
 20
-136.1456949529428
 97
        0
 97
        0
 92
        1
 93
        1
 72
     4
 94
        3
 73
     0
 74
     1
 95
       17
 96
       13
 40
0.0
 40
0.0
 40
0.0
 40
0.0
 40
1.0
 40
1.0
 40
1.0
 40
2.0
 40
2.0
 40
2.0
 40
3.0
 40
3.0
 40
3.0
 40
4.0
 40
4.0
 40
4.0
 40
4.0
 10
89.17061222814138
 20
-135.3547010295294
 10
89.01696096949924
 20
-135.3547010295294
 10
88.85435246259544
 20
-135.4415174357577
 10
88.85435246259544
 20
-135.6444335598389
 10
88.85435246259544
 20
-135.8497612507598
 10
88.98974471516576
 20
-135.9510470580261
 10
89.17061222814138
 20
-135.9510470580261
 10
89.36973874718882
 20
-135.9510470580261
 10
89.48721650323584
 20
-135.8284016587512
 10
89.48721650323584
 20
-135.6506347317124
 10
89.48721650323584
 20
-135.4287705824622
 10
89.31323918123073
 20
-135.3547010295294
 10
89.17061222814138
 20
-135.3547010295294
 97
        0
 97
        0
 92
        1
 93
        1
 72
     4
 94
        3
 73
     0
 74
     1
 95
       17
 96
       13
 40
0.0
 40
0.0
 40
0.0
 40
0.0
 40
1.0
 40
1.0
 40
1.0
 40
2.0
 40
2.0
 40
2.0
 40
3.0
 40
3.0
 40
3.0
 40
4.0
 40
4.0
 40
4.0
 40
4.0
 10
89.17061222814138
 20
-134.6946207345555
 10
88.99456784884511
 20
-134.6946207345555
 10
88.90396183758304
 20
-134.7897053699484
 10
88.90396183758304
 20
-134.9250976225187
 10
88.90396183758304
 20
-135.0477430217936
 10
88.98078746690412
 20
-135.1662543064862
 10
89.17061222814138
 20
-135.1662543064862
 10
89.36078149892717
 20
-135.1662543064862
 10
89.43760712824825
 20
-135.0477430217936
 10
89.43760712824825
 20
-134.9250976225187
 10
89.43760712824825
 20
-134.7897053699484
 10
89.34493405969502
 20
-134.6946207345555
 10
89.17061222814138
 20
-134.6946207345555
 97
        0
 97
        0
 75
     2
 76
     1
 98
        0
  0
ENDBLK
  5
7E
330
7B
100
AcDbEntity
  8
0
100
AcDbBlockEnd
  0
BLOCK
  5
93
330
91
100
AcDbEntity
  8
0
100
AcDbBlockBegin
  2
block 3
 70
     0
 10
0.0
 20
0.0
 30
0.0
  3
block 3
  1

  0
SPLINE
  5
95
330
91
100
AcDbEntity
  8
_U+30EC_U+30A4_U+30E4_U+30FC 1
370
     0
100
AcDbSpline
210
0.0
220
0.0
230
1.0
 70
    11
 71
     3
 72
    29
 73
    25
 74
     0
 42
0.0000000001
 43
0.0000000001
 12
1.0
 22
0.0
 32
0.0
 13
1.0
 23
0.0
 33
0.0
 40
0.0
 40
0.0
 40
0.0
 40
0.0
 40
1.0
 40
1.0
 40
1.0
 40
2.0
 40
2.0
 40
2.0
 40
3.0
 40
3.0
 40
3.0
 40
4.0
 40
4.0
 40
4.0
 40
5.0
 40
5.0
 40
5.0
 40
6.0
 40
6.0
 40
6.0
 40
7.0
 40
7.0
 40
7.0
 40
8.0
 40
8.0
 40
8.0
 40
8.0
 10
83.57956676512941
 20
-121.4954264019178
 30
0.0
 10
83.29465736849926
 20
-121.4954264019178
 30
0.0
 10
83.02335609903584
 20
-121.3577948372821
 30
0.0
 10
83.02335609903584
 20
-121.0088066646263
 30
0.0
 10
83.02335609903584
 20
-120.7528360700722
 30
0.0
 10
83.17476804561257
 20
-120.6575791799051
 30
0.0
 10
83.28793943230302
 20
-120.5962564802676
 30
0.0
 10
83.1544419822496
 20
-120.5370008379213
 30
0.0
 10
83.07313772879769
 20
-120.4227959225853
 30
0.0
 10
83.07313772879769
 20
-120.2620822181984
 30
0.0
 10
83.07313772879769
 20
-119.9869913437012
 30
0.0
 10
83.28552786546335
 20
-119.8515990911309
 30
0.0
 10
83.57956676512941
 20
-119.8515990911309
 30
0.0
 10
83.88256291305714
 20
-119.8515990911309
 30
0.0
 10
84.08599580146114
 20
-119.99543182764
 30
0.0
 10
84.08599580146114
 20
-120.2620822181984
 30
0.0
 10
84.08599580146114
 20
-120.4227959225853
 30
0.0
 10
84.00227998116958
 20
-120.5370008379213
 30
0.0
 10
83.86895478589041
 20
-120.5962564802676
 30
0.0
 10
83.96386716650903
 20
-120.647071638675
 30
0.0
 10
84.13336586438334
 20
-120.7423285288422
 30
0.0
 10
84.13336586438334
 20
-121.0045002952697
 30
0.0
 10
84.13336586438334
 20
-121.3789821745164
 30
0.0
 10
83.83502059536069
 20
-121.4954264019178
 30
0.0
 10
83.57956676512941
 20
-121.4954264019178
 30
0.0
  0
SPLINE
  5
96
330
91
100
AcDbEntity
  8
_U+30EC_U+30A4_U+30E4_U+30FC 1
370
     0
100
AcDbSpline
210
0.0
220
0.0
230
1.0
 70
    11
 71
     3
 72
    17
 73
    13
 74
     0
 42
0.0000000001
 43
0.0000000001
 12
1.0
 22
0.0
 32
0.0
 13
1.0
 23
0.0
 33
0.0
 40
0.0
 40
0.0
 40
0.0
 40
0.0
 40
1.0
 40
1.0
 40
1.0
 40
2.0
 40
2.0
 40
2.0
 40
3.0
 40
3.0
 40
3.0
 40
4.0
 40
4.0
 40
4.0
 40
4.0
 10
83.57956676512941
 20
-120.7042602237302
 30
0.0
 10
83.42574325171302
 20
-120.7042602237302
 30
0.0
 10
83.26296249003495
 20
-120.7909043751842
 30
0.0
 10
83.26296249003495
 20
-120.9939927540397
 30
0.0
 10
83.26296249003495
 20
-121.1991481901863
 30
0.0
 10
83.3986992521538
 20
-121.3007785070012
 30
0.0
 10
83.57956676512941
 20
-121.3007785070012
 30
0.0
 10
83.7785210294026
 20
-121.3007785070012
 30
0.0
 10
83.89599878544962
 20
-121.1781331077263
 30
0.0
 10
83.89599878544962
 20
-121.0003661806874
 30
0.0
 10
83.89599878544962
 20
-120.7781575218888
 30
0.0
 10
83.72202146344449
 20
-120.7042602237302
 30
0.0
 10
83.57956676512941
 20
-120.7042602237302
 30
0.0
  0
SPLINE
  5
97
330
91
100
AcDbEntity
  8
_U+30EC_U+30A4_U+30E4_U+30FC 1
370
     0
100
AcDbSpline
210
0.0
220
0.0
230
1.0
 70
    11
 71
     3
 72
    17
 73
    13
 74
     0
 42
0.0000000001
 43
0.0000000001
 12
1.0
 22
0.0
 32
0.0
 13
1.0
 23
0.0
 33
0.0
 40
0.0
 40
0.0
 40
0.0
 40
0.0
 40
1.0
 40
1.0
 40
1.0
 40
2.0
 40
2.0
 40
2.0
 40
3.0
 40
3.0
 40
3.0
 40
4.0
 40
4.0
 40
4.0
 40
4.0
 10
83.57956676512941
 20
-120.0441799287563
 30
0.0
 10
83.40317787628463
 20
-120.0441799287563
 30
0.0
 10
83.31274411979682
 20
-120.1392645641492
 30
0.0
 10
83.31274411979682
 20
-120.2746568167195
 30
0.0
 10
83.31274411979682
 20
-120.3974744707687
 30
0.0
 10
83.38956974911788
 20
-120.5159857554613
 30
0.0
 10
83.57956676512941
 20
-120.5159857554613
 30
0.0
 10
83.76939152636669
 20
-120.5159857554613
 30
0.0
 10
83.84638941046202
 20
-120.3974744707687
 30
0.0
 10
83.84638941046202
 20
-120.2746568167195
 30
0.0
 10
83.84638941046202
 20
-120.1392645641492
 30
0.0
 10
83.75354408713453
 20
-120.0441799287563
 30
0.0
 10
83.57956676512941
 20
-120.0441799287563
 30
0.0
  0
HATCH
  5
98
330
91
100
AcDbEntity
  8
_U+30EC_U+30A4_U+30E4_U+30FC 1
 62
   179
420
  2234388
100
AcDbHatch
 10
0.0
 20
0.0
 30
0.0
210
0.0
220
0.0
230
1.0
  2
SOLID
 70
     1
 71
     0
 91
        3
 92
        1
 93
        1
 72
     4
 94
        3
 73
     0
 74
     1
 95
       29
 96
       25
 40
0.0
 40
0.0
 40
0.0
 40
0.0
 40
1.0
 40
1.0
 40
1.0
 40
2.0
 40
2.0
 40
2.0
 40
3.0
 40
3.0
 40
3.0
 40
4.0
 40
4.0
 40
4.0
 40
5.0
 40
5.0
 40
5.0
 40
6.0
 40
6.0
 40
6.0
 40
7.0
 40
7.0
 40
7.0
 40
8.0
 40
8.0
 40
8.0
 40
8.0
 10
83.57956676512941
 20
-121.4954264019178
 10
83.29465736849926
 20
-121.4954264019178
 10
83.02335609903584
 20
-121.3577948372821
 10
83.02335609903584
 20
-121.0088066646263
 10
83.02335609903584
 20
-120.7528360700722
 10
83.17476804561257
 20
-120.6575791799051
 10
83.28793943230302
 20
-120.5962564802676
 10
83.1544419822496
 20
-120.5370008379213
 10
83.07313772879769
 20
-120.4227959225853
 10
83.07313772879769
 20
-120.2620822181984
 10
83.07313772879769
 20
-119.9869913437012
 10
83.28552786546335
 20
-119.8515990911309
 10
83.57956676512941
 20
-119.8515990911309
 10
83.88256291305714
 20
-119.8515990911309
 10
84.08599580146114
 20
-119.99543182764
 10
84.08599580146114
 20
-120.2620822181984
 10
84.08599580146114
 20
-120.4227959225853
 10
84.00227998116958
 20
-120.5370008379213
 10
83.86895478589041
 20
-120.5962564802676
 10
83.96386716650903
 20
-120.647071638675
 10
84.13336586438334
 20
-120.7423285288422
 10
84.13336586438334
 20
-121.0045002952697
 10
84.13336586438334
 20
-121.3789821745164
 10
83.83502059536069
 20
-121.4954264019178
 10
83.57956676512941
 20
-121.4954264019178
 97
        0
 97
        0
 92
        1
 93
        1
 72
     4
 94
        3
 73
     0
 74
     1
 95
       17
 96
       13
 40
0.0
 40
0.0
 40
0.0
 40
0.0
 40
1.0
 40
1.0
 40
1.0
 40
2.0
 40
2.0
 40
2.0
 40
3.0
 40
3.0
 40
3.0
 40
4.0
 40
4.0
 40
4.0
 40
4.0
 10
83.57956676512941
 20
-120.7042602237302
 10
83.42574325171302
 20
-120.7042602237302
 10
83.26296249003495
 20
-120.7909043751842
 10
83.26296249003495
 20
-120.9939927540397
 10
83.26296249003495
 20
-121.1991481901863
 10
83.3986992521538
 20
-121.3007785070012
 10
83.57956676512941
 20
-121.3007785070012
 10
83.7785210294026
 20
-121.3007785070012
 10
83.89599878544962
 20
-121.1781331077263
 10
83.89599878544962
 20
-121.0003661806874
 10
83.89599878544962
 20
-120.7781575218888
 10
83.72202146344449
 20
-120.7042602237302
 10
83.57956676512941
 20
-120.7042602237302
 97
        0
 97
        0
 92
        1
 93
        1
 72
     4
 94
        3
 73
     0
 74
     1
 95
       17
 96
       13
 40
0.0
 40
0.0
 40
0.0
 40
0.0
 40
1.0
 40
1.0
 40
1.0
 40
2.0
 40
2.0
 40
2.0
 40
3.0
 40
3.0
 40
3.0
 40
4.0
 40
4.0
 40
4.0
 40
4.0
 10
83.57956676512941
 20
-120.0441799287563
 10
83.40317787628463
 20
-120.0441799287563
 10
83.31274411979682
 20
-120.1392645641492
 10
83.31274411979682
 20
-120.2746568167195
 10
83.31274411979682
 20
-120.3974744707687
 10
83.38956974911788
 20
-120.5159857554613
 10
83.57956676512941
 20
-120.5159857554613
 10
83.76939152636669
 20
-120.5159857554613
 10
83.84638941046202
 20
-120.3974744707687
 10
83.84638941046202
 20
-120.2746568167195
 10
83.84638941046202
 20
-120.1392645641492
 10
83.75354408713453
 20
-120.0441799287563
 10
83.57956676512941
 20
-120.0441799287563
 97
        0
 97
        0
 75
     2
 76
     1
 98
        0
  0
ENDBLK
  5
94
330
91
100
AcDbEntity
  8
0
100
AcDbBlockEnd
  0
BLOCK
  5
AB
330
A9
100
AcDbEntity
  8
0
100
AcDbBlockBegin
  2
block 4
 70
     0
 10
0.0
 20
0.0
 30
0.0
  3
block 4
  1

  0
POLYLINE
  5
AD
330
A9
100
AcDbEntity
  8
_U+30EC_U+30A4_U+30E4_U+30FC 1
370
     0
100
AcDb2dPolyline
 66
     1
 10
0.0
 20
0.0
 30
0.0
  0
VERTEX
  5
AE
330
AD
100
AcDbEntity
  8
_U+30EC_U+30A4_U+30E4_U+30FC 1
370
     0
100
AcDbVertex
100
AcDb2dVertex
 10
99.95737844723288
 20
-124.6108262492292
 30
0.0
  0
VERTEX
  5
AF
330
AD
100
AcDbEntity
  8
_U+30EC_U+30A4_U+30E4_U+30FC 1
370
     0
100
AcDbVertex
100
AcDb2dVertex
 10
100.3042995625975
 20
-124.6108262492292
 30
0.0
  0
VERTEX
  5
B0
330
AD
100
AcDbEntity
  8
_U+30EC_U+30A4_U+30E4_U+30FC 1
370
     0
100
AcDbVertex
100
AcDb2dVertex
 10
100.3042995625975
 20
-124.8437147040321
 30
0.0
  0
VERTEX
  5
B1
330
AD
100
AcDbEntity
  8
_U+30EC_U+30A4_U+30E4_U+30FC 1
370
     0
100
AcDbVertex
100
AcDb2dVertex
 10
99.95737844723288
 20
-124.8437147040321
 30
0.0
  0
VERTEX
  5
B2
330
AD
100
AcDbEntity
  8
_U+30EC_U+30A4_U+30E4_U+30FC 1
370
     0
100
AcDbVertex
100
AcDb2dVertex
 10
99.95737844723288
 20
-125.5447916352805
 30
0.0
  0
VERTEX
  5
B3
330
AD
100
AcDbEntity
  8
_U+30EC_U+30A4_U+30E4_U+30FC 1
370
     0
100
AcDbVertex
100
AcDb2dVertex
 10
99.73310273114312
 20
-125.5447916352805
 30
0.0
  0
VERTEX
  5
B4
330
AD
100
AcDbEntity
  8
_U+30EC_U+30A4_U+30E4_U+30FC 1
370
     0
100
AcDbVertex
100
AcDb2dVertex
 10
98.75986325656004
 20
-124.8189100165383
 30
0.0
  0
VERTEX
  5
B5
330
AD
100
AcDbEntity
  8
_U+30EC_U+30A4_U+30E4_U+30FC 1
370
     0
100
AcDbVertex
100
AcDb2dVertex
 10
98.75986325656004
 20
-124.6108262492292
 30
0.0
  0
VERTEX
  5
B6
330
AD
100
AcDbEntity
  8
_U+30EC_U+30A4_U+30E4_U+30FC 1
370
     0
100
AcDbVertex
100
AcDb2dVertex
 10
99.75859643773397
 20
-124.6108262492292
 30
0.0
  0
VERTEX
  5
B7
330
AD
100
AcDbEntity
  8
_U+30EC_U+30A4_U+30E4_U+30FC 1
370
     0
100
AcDbVertex
100
AcDb2dVertex
 10
99.75859643773397
 20
-124.3893066095277
 30
0.0
  0
VERTEX
  5
B8
330
AD
100
AcDbEntity
  8
_U+30EC_U+30A4_U+30E4_U+30FC 1
370
     0
100
AcDbVertex
100
AcDb2dVertex
 10
99.95737844723288
 20
-124.3893066095277
 30
0.0
  0
VERTEX
  5
B9
330
AD
100
AcDbEntity
  8
_U+30EC_U+30A4_U+30E4_U+30FC 1
370
     0
100
AcDbVertex
100
AcDb2dVertex
 10
99.95737844723288
 20
-124.6108262492292
 30
0.0
  0
SEQEND
  5
BA
330
AD
100
AcDbEntity
  8
_U+30EC_U+30A4_U+30E4_U+30FC 1
370
     0
  0
POLYLINE
  5
BB
330
A9
100
AcDbEntity
  8
_U+30EC_U+30A4_U+30E4_U+30FC 1
370
     0
100
AcDb2dPolyline
 66
     1
 10
0.0
 20
0.0
 30
0.0
  0
VERTEX
  5
BC
330
BB
100
AcDbEntity
  8
_U+30EC_U+30A4_U+30E4_U+30FC 1
370
     0
100
AcDbVertex
100
AcDb2dVertex
 10
99.1026502573424
 20
-124.8437147040321
 30
0.0
  0
VERTEX
  5
BD
330
BB
100
AcDbEntity
  8
_U+30EC_U+30A4_U+30E4_U+30FC 1
370
     0
100
AcDbVertex
100
AcDb2dVertex
 10
99.75859643773397
 20
-125.3322292438406
 30
0.0
  0
VERTEX
  5
BE
330
BB
100
AcDbEntity
  8
_U+30EC_U+30A4_U+30E4_U+30FC 1
370
     0
100
AcDbVertex
100
AcDb2dVertex
 10
99.75859643773397
 20
-124.8437147040321
 30
0.0
  0
VERTEX
  5
BF
330
BB
100
AcDbEntity
  8
_U+30EC_U+30A4_U+30E4_U+30FC 1
370
     0
100
AcDbVertex
100
AcDb2dVertex
 10
99.1026502573424
 20
-124.8437147040321
 30
0.0
  0
SEQEND
  5
C0
330
BB
100
AcDbEntity
  8
_U+30EC_U+30A4_U+30E4_U+30FC 1
370
     0
  0
HATCH
  5
C1
330
A9
100
AcDbEntity
  8
_U+30EC_U+30A4_U+30E4_U+30FC 1
 62
   179
420
  2234388
100
AcDbHatch
 10
0.0
 20
0.0
 30
0.0
210
0.0
220
0.0
230
1.0
  2
SOLID
 70
     1
 71
     0
 91
        2
 92
        1
 93
       11
 72
     1
 10
99.95737844723288
 20
-124.6108262492292
 11
100.3042995625975
 21
-124.6108262492292
 72
     1
 10
100.3042995625975
 20
-124.6108262492292
 11
100.3042995625975
 21
-124.8437147040321
 72
     1
 10
100.3042995625975
 20
-124.8437147040321
 11
99.95737844723288
 21
-124.8437147040321
 72
     1
 10
99.95737844723288
 20
-124.8437147040321
 11
99.95737844723288
 21
-125.5447916352805
 72
     1
 10
99.95737844723288
 20
-125.5447916352805
 11
99.73310273114312
 21
-125.5447916352805
 72
     1
 10
99.73310273114312
 20
-125.5447916352805
 11
98.75986325656004
 21
-124.8189100165383
 72
     1
 10
98.75986325656004
 20
-124.8189100165383
 11
98.75986325656004
 21
-124.6108262492292
 72
     1
 10
98.75986325656004
 20
-124.6108262492292
 11
99.75859643773397
 21
-124.6108262492292
 72
     1
 10
99.75859643773397
 20
-124.6108262492292
 11
99.75859643773397
 21
-124.3893066095277
 72
     1
 10
99.75859643773397
 20
-124.3893066095277
 11
99.95737844723288
 21
-124.3893066095277
 72
     1
 10
99.95737844723288
 20
-124.3893066095277
 11
99.95737844723288
 21
-124.6108262492292
 97
        0
 92
        1
 93
        3
 72
     1
 10
99.1026502573424
 20
-124.8437147040321
 11
99.75859643773397
 21
-125.3322292438406
 72
     1
 10
99.75859643773397
 20
-125.3322292438406
 11
99.75859643773397
 21
-124.8437147040321
 72
     1
 10
99.75859643773397
 20
-124.8437147040321
 11
99.1026502573424
 21
-124.8437147040321
 97
        0
 75
     2
 76
     1
 98
        0
  0
POLYLINE
  5
C2
330
A9
100
AcDbEntity
  8
_U+30EC_U+30A4_U+30E4_U+30FC 1
370
     0
100
AcDb2dPolyline
 66
     1
 10
0.0
 20
0.0
 30
0.0
  0
VERTEX
  5
C3
330
C2
100
AcDbEntity
  8
_U+30EC_U+30A4_U+30E4_U+30FC 1
370
     0
100
AcDbVertex
100
AcDb2dVertex
 10
100.3042995625975
 20
-124.1784667658304
 30
0.0
  0
VERTEX
  5
C4
330
C2
100
AcDbEntity
  8
_U+30EC_U+30A4_U+30E4_U+30FC 1
370
     0
100
AcDbVertex
100
AcDb2dVertex
 10
100.0524630826258
 20
-124.1784667658304
 30
0.0
  0
VERTEX
  5
C5
330
C2
100
AcDbEntity
  8
_U+30EC_U+30A4_U+30E4_U+30FC 1
370
     0
100
AcDbVertex
100
AcDb2dVertex
 10
100.0524630826258
 20
-123.9094048084324
 30
0.0
  0
VERTEX
  5
C6
330
C2
100
AcDbEntity
  8
_U+30EC_U+30A4_U+30E4_U+30FC 1
370
     0
100
AcDbVertex
100
AcDb2dVertex
 10
100.3042995625975
 20
-123.9094048084324
 30
0.0
  0
VERTEX
  5
C7
330
C2
100
AcDbEntity
  8
_U+30EC_U+30A4_U+30E4_U+30FC 1
370
     0
100
AcDbVertex
100
AcDb2dVertex
 10
100.3042995625975
 20
-124.1784667658304
 30
0.0
  0
SEQEND
  5
C8
330
C2
100
AcDbEntity
  8
_U+30EC_U+30A4_U+30E4_U+30FC 1
370
     0
  0
HATCH
  5
C9
330
A9
100
AcDbEntity
  8
_U+30EC_U+30A4_U+30E4_U+30FC 1
 62
   179
420
  2234388
100
AcDbHatch
 10
0.0
 20
0.0
 30
0.0
210
0.0
220
0.0
230
1.0
  2
SOLID
 70
     1
 71
     0
 91
        1
 92
        1
 93
        4
 72
     1
 10
100.3042995625975
 20
-124.1784667658304
 11
100.0524630826258
 21
-124.1784667658304
 72
     1
 10
100.0524630826258
 20
-124.1784667658304
 11
100.0524630826258
 21
-123.9094048084324
 72
     1
 10
100.0524630826258
 20
-123.9094048084324
 11
100.3042995625975
 21
-123.9094048084324
 72
     1
 10
100.3042995625975
 20
-123.9094048084324
 11
100.3042995625975
 21
-124.1784667658304
 97
        0
 75
     2
 76
     1
 98
        0
  0
SPLINE
  5
CA
330
A9
100
AcDbEntity
  8
_U+30EC_U+30A4_U+30E4_U+30FC 1
370
     0
100
AcDbSpline
210
0.0
220
0.0
230
1.0
 70
    11
 71
     3
 72
    53
 73
    49
 74
     0
 42
0.0000000001
 43
0.0000000001
 12
1.0
 22
0.0
 32
0.0
 13
1.0
 23
0.0
 33
0.0
 40
0.0
 40
0.0
 40
0.0
 40
0.0
 40
1.0
 40
1.0
 40
1.0
 40
2.0
 40
2.0
 40
2.0
 40
3.0
 40
3.0
 40
3.0
 40
4.0
 40
4.0
 40
4.0
 40
5.0
 40
5.0
 40
5.0
 40
6.0
 40
6.0
 40
6.0
 40
7.0
 40
7.0
 40
7.0
 40
8.0
 40
8.0
 40
8.0
 40
9.0
 40
9.0
 40
9.0
 40
10.0
 40
10.0
 40
10.0
 40
11.0
 40
11.0
 40
11.0
 40
12.0
 40
12.0
 40
12.0
 40
13.0
 40
13.0
 40
13.0
 40
14.0
 40
14.0
 40
14.0
 40
15.0
 40
15.0
 40
15.0
 40
16.0
 40
16.0
 40
16.0
 40
16.0
 10
100.3549424662307
 20
-123.1425265534158
 30
0.0
 10
100.3549424662307
 20
-123.2262423737073
 30
0.0
 10
100.338061498353
 20
-123.3344183719442
 30
0.0
 10
100.2746717414244
 20
-123.4432833892781
 30
0.0
 10
100.1647731954449
 20
-123.6286295263845
 30
0.0
 10
100.0335150574569
 20
-123.6510226470386
 30
0.0
 10
99.92568356876859
 20
-123.6713487104016
 30
0.0
 10
99.92568356876859
 20
-123.6713487104016
 30
0.0
 10
99.92568356876859
 20
-123.4339816314679
 30
0.0
 10
99.92568356876859
 20
-123.4339816314679
 30
0.0
 10
100.1244655782675
 20
-123.3754150082187
 30
0.0
 10
100.1540933994407
 20
-123.2396782460998
 30
0.0
 10
100.1540933994407
 20
-123.1401149865761
 30
0.0
 10
100.1540933994407
 20
-122.9909423520648
 30
0.0
 10
100.0545301399169
 20
-122.8279893356125
 30
0.0
 10
99.82198619466256
 20
-122.8279893356125
 30
0.0
 10
99.5660156001085
 20
-122.8279893356125
 30
0.0
 10
99.49608016175793
 20
-123.0202256636894
 30
0.0
 10
99.49608016175793
 20
-123.1490722348377
 30
0.0
 10
99.49608016175793
 20
-123.1831786801417
 30
0.0
 10
99.49608016175793
 20
-123.3344183719442
 30
0.0
 10
99.6252712424548
 20
-123.4295030073371
 30
0.0
 10
99.6252712424548
 20
-123.4295030073371
 30
0.0
 10
99.60632321728592
 20
-123.6172607112832
 30
0.0
 10
99.60632321728592
 20
-123.6172607112832
 30
0.0
 10
99.60632321728592
 20
-123.6172607112832
 30
0.0
 10
98.75986325656004
 20
-123.4884141401349
 30
0.0
 10
98.75986325656004
 20
-123.4884141401349
 30
0.0
 10
98.75986325656004
 20
-123.4884141401349
 30
0.0
 10
98.75986325656004
 20
-122.656423580447
 30
0.0
 10
98.75986325656004
 20
-122.656423580447
 30
0.0
 10
98.75986325656004
 20
-122.656423580447
 30
0.0
 10
98.95451115147665
 20
-122.656423580447
 30
0.0
 10
98.95451115147665
 20
-122.656423580447
 30
0.0
 10
98.95451115147665
 20
-122.656423580447
 30
0.0
 10
98.95451115147665
 20
-123.3140923085812
 30
0.0
 10
98.95451115147665
 20
-123.3140923085812
 30
0.0
 10
98.95451115147665
 20
-123.3140923085812
 30
0.0
 10
99.37756887706533
 20
-123.3843722564803
 30
0.0
 10
99.37756887706533
 20
-123.3843722564803
 30
0.0
 10
99.3438069413099
 20
-123.3189154422606
 30
0.0
 10
99.30349932413246
 20
-123.2307209978382
 30
0.0
 10
99.30349932413246
 20
-123.103941483981
 30
0.0
 10
99.30349932413246
 20
-122.8328124692918
 30
0.0
 10
99.48987898988447
 20
-122.5795979511259
 30
0.0
 10
99.80303816949369
 20
-122.5795979511259
 30
0.0
 10
100.1203314636852
 20
-122.5795979511259
 30
0.0
 10
100.3549424662307
 20
-122.8190320873508
 30
0.0
 10
100.3549424662307
 20
-123.1425265534158
 30
0.0
  0
HATCH
  5
CB
330
A9
100
AcDbEntity
  8
_U+30EC_U+30A4_U+30E4_U+30FC 1
 62
   179
420
  2234388
100
AcDbHatch
 10
0.0
 20
0.0
 30
0.0
210
0.0
220
0.0
230
1.0
  2
SOLID
 70
     1
 71
     0
 91
        1
 92
        1
 93
        1
 72
     4
 94
        3
 73
     0
 74
     1
 95
       53
 96
       49
 40
0.0
 40
0.0
 40
0.0
 40
0.0
 40
1.0
 40
1.0
 40
1.0
 40
2.0
 40
2.0
 40
2.0
 40
3.0
 40
3.0
 40
3.0
 40
4.0
 40
4.0
 40
4.0
 40
5.0
 40
5.0
 40
5.0
 40
6.0
 40
6.0
 40
6.0
 40
7.0
 40
7.0
 40
7.0
 40
8.0
 40
8.0
 40
8.0
 40
9.0
 40
9.0
 40
9.0
 40
10.0
 40
10.0
 40
10.0
 40
11.0
 40
11.0
 40
11.0
 40
12.0
 40
12.0
 40
12.0
 40
13.0
 40
13.0
 40
13.0
 40
14.0
 40
14.0
 40
14.0
 40
15.0
 40
15.0
 40
15.0
 40
16.0
 40
16.0
 40
16.0
 40
16.0
 10
100.3549424662307
 20
-123.1425265534158
 10
100.3549424662307
 20
-123.2262423737073
 10
100.338061498353
 20
-123.3344183719442
 10
100.2746717414244
 20
-123.4432833892781
 10
100.1647731954449
 20
-123.6286295263845
 10
100.0335150574569
 20
-123.6510226470386
 10
99.92568356876859
 20
-123.6713487104016
 10
99.92568356876859
 20
-123.6713487104016
 10
99.92568356876859
 20
-123.4339816314679
 10
99.92568356876859
 20
-123.4339816314679
 10
100.1244655782675
 20
-123.3754150082187
 10
100.1540933994407
 20
-123.2396782460998
 10
100.1540933994407
 20
-123.1401149865761
 10
100.1540933994407
 20
-122.9909423520648
 10
100.0545301399169
 20
-122.8279893356125
 10
99.82198619466256
 20
-122.8279893356125
 10
99.5660156001085
 20
-122.8279893356125
 10
99.49608016175793
 20
-123.0202256636894
 10
99.49608016175793
 20
-123.1490722348377
 10
99.49608016175793
 20
-123.1831786801417
 10
99.49608016175793
 20
-123.3344183719442
 10
99.6252712424548
 20
-123.4295030073371
 10
99.6252712424548
 20
-123.4295030073371
 10
99.60632321728592
 20
-123.6172607112832
 10
99.60632321728592
 20
-123.6172607112832
 10
99.60632321728592
 20
-123.6172607112832
 10
98.75986325656004
 20
-123.4884141401349
 10
98.75986325656004
 20
-123.4884141401349
 10
98.75986325656004
 20
-123.4884141401349
 10
98.75986325656004
 20
-122.656423580447
 10
98.75986325656004
 20
-122.656423580447
 10
98.75986325656004
 20
-122.656423580447
 10
98.95451115147665
 20
-122.656423580447
 10
98.95451115147665
 20
-122.656423580447
 10
98.95451115147665
 20
-122.656423580447
 10
98.95451115147665
 20
-123.3140923085812
 10
98.95451115147665
 20
-123.3140923085812
 10
98.95451115147665
 20
-123.3140923085812
 10
99.37756887706533
 20
-123.3843722564803
 10
99.37756887706533
 20
-123.3843722564803
 10
99.3438069413099
 20
-123.3189154422606
 10
99.30349932413246
 20
-123.2307209978382
 10
99.30349932413246
 20
-123.103941483981
 10
99.30349932413246
 20
-122.8328124692918
 10
99.48987898988447
 20
-122.5795979511259
 10
99.80303816949369
 20
-122.5795979511259
 10
100.1203314636852
 20
-122.5795979511259
 10
100.3549424662307
 20
-122.8190320873508
 10
100.3549424662307
 20
-123.1425265534158
 97
        0
 97
        0
 75
     2
 76
     1
 98
        0
  0
ENDBLK
  5
AC
330
A9
100
AcDbEntity
  8
0
100
AcDbBlockEnd
  0
BLOCK
  5
CE
330
CC
100
AcDbEntity
  8
0
100
AcDbBlockBegin
  2
block 5
 70
     0
 10
0.0
 20
0.0
 30
0.0
  3
block 5
  1

  0
SPLINE
  5
D0
330
CC
100
AcDbEntity
  8
_U+30EC_U+30A4_U+30E4_U+30FC 1
 62
   179
420
  2234388
370
     9
100
AcDbSpline
210
0.0
220
0.0
230
1.0
 70
    11
 71
     3
 72
    17
 73
    13
 74
     0
 42
0.0000000001
 43
0.0000000001
 12
1.0
 22
0.0
 32
0.0
 13
1.0
 23
0.0
 33
0.0
 40
0.0
 40
0.0
 40
0.0
 40
0.0
 40
1.0
 40
1.0
 40
1.0
 40
2.0
 40
2.0
 40
2.0
 40
3.0
 40
3.0
 40
3.0
 40
4.0
 40
4.0
 40
4.0
 40
4.0
 10
83.13617343457507
 20
-129.4336021898638
 30
0.0
 10
83.13617343457507
 20
-129.3784983009889
 30
0.0
 10
83.09140593571719
 20
-129.3336955232222
 30
0.0
 10
83.03609038157285
 20
-129.3336955232222
 30
0.0
 10
82.98098649408978
 20
-129.3336955232222
 30
0.0
 10
82.93618371745501
 20
-129.3784983009889
 30
0.0
 10
82.93618371745501
 20
-129.4336021898638
 30
0.0
 10
82.93618371745501
 20
-129.4887413565169
 30
0.0
 10
82.98098649408978
 20
-129.5335088565055
 30
0.0
 10
83.03609038157285
 20
-129.5335088565055
 30
0.0
 10
83.09140593571719
 20
-129.5335088565055
 30
0.0
 10
83.13617343457507
 20
-129.4887413565169
 30
0.0
 10
83.13617343457507
 20
-129.4336021898638
 30
0.0
  0
SPLINE
  5
D1
330
CC
100
AcDbEntity
  8
_U+30EC_U+30A4_U+30E4_U+30FC 1
 62
   179
420
  2234388
370
     9
100
AcDbSpline
210
0.0
220
0.0
230
1.0
 70
    11
 71
     3
 72
    17
 73
    13
 74
     0
 42
0.0000000001
 43
0.0000000001
 12
1.0
 22
0.0
 32
0.0
 13
1.0
 23
0.0
 33
0.0
 40
0.0
 40
0.0
 40
0.0
 40
0.0
 40
1.0
 40
1.0
 40
1.0
 40
2.0
 40
2.0
 40
2.0
 40
3.0
 40
3.0
 40
3.0
 40
4.0
 40
4.0
 40
4.0
 40
4.0
 10
84.13594563129098
 20
-129.4336021898638
 30
0.0
 10
84.13594563129098
 20
-129.3784983009889
 30
0.0
 10
84.0911781324331
 20
-129.3336955232222
 30
0.0
 10
84.03586257828876
 20
-129.3336955232222
 30
0.0
 10
83.98075869080569
 20
-129.3336955232222
 30
0.0
 10
83.93595591417092
 20
-129.3784983009889
 30
0.0
 10
83.93595591417092
 20
-129.4336021898638
 30
0.0
 10
83.93595591417092
 20
-129.4887413565169
 30
0.0
 10
83.98075869080569
 20
-129.5335088565055
 30
0.0
 10
84.03586257828876
 20
-129.5335088565055
 30
0.0
 10
84.0911781324331
 20
-129.5335088565055
 30
0.0
 10
84.13594563129098
 20
-129.4887413565169
 30
0.0
 10
84.13594563129098
 20
-129.4336021898638
 30
0.0
  0
INSERT
  5
D3
330
CC
100
AcDbEntity
  8
_U+30EC_U+30A4_U+30E4_U+30FC 1
100
AcDbBlockReference
  2
block 6
 10
0.0
 20
0.0
 30
0.0
  0
POLYLINE
  5
D8
330
CC
100
AcDbEntity
  8
_U+30EC_U+30A4_U+30E4_U+30FC 1
 62
   179
420
  2234388
370
     9
100
AcDb2dPolyline
 66
     1
 10
0.0
 20
0.0
 30
0.0
  0
VERTEX
  5
D9
330
D8
100
AcDbEntity
  8
_U+30EC_U+30A4_U+30E4_U+30FC 1
 62
   179
420
  2234388
370
     9
100
AcDbVertex
100
AcDb2dVertex
 10
84.89731061186694
 20
-129.4336021898638
 30
0.0
  0
VERTEX
  5
DA
330
D8
100
AcDbEntity
  8
_U+30EC_U+30A4_U+30E4_U+30FC 1
 62
   179
420
  2234388
370
     9
100
AcDbVertex
100
AcDb2dVertex
 10
81.05827709869773
 20
-129.4336021898638
 30
0.0
  0
SEQEND
  5
DB
330
D8
100
AcDbEntity
  8
_U+30EC_U+30A4_U+30E4_U+30FC 1
 62
   179
420
  2234388
370
     9
  0
ENDBLK
  5
CF
330
CC
100
AcDbEntity
  8
0
100
AcDbBlockEnd
  0
BLOCK
  5
D4
330
D2
100
AcDbEntity
  8
0
100
AcDbBlockBegin
  2
block 6
 70
     0
 10
0.0
 20
0.0
 30
0.0
  3
block 6
  1

  0
SPLINE
  5
D6
330
D2
100
AcDbEntity
  8
_U+30EC_U+30A4_U+30E4_U+30FC 1
370
     0
100
AcDbSpline
210
0.0
220
0.0
230
1.0
 70
    11
 71
     3
 72
    26
 73
    22
 74
     0
 42
0.0000000001
 43
0.0000000001
 12
1.0
 22
0.0
 32
0.0
 13
1.0
 23
0.0
 33
0.0
 40
0.0
 40
0.0
 40
0.0
 40
0.0
 40
1.0
 40
1.0
 40
1.0
 40
2.0
 40
2.0
 40
2.0
 40
3.0
 40
3.0
 40
3.0
 40
4.0
 40
4.0
 40
4.0
 40
5.0
 40
5.0
 40
5.0
 40
6.0
 40
6.0
 40
6.0
 40
7.0
 40
7.0
 40
7.0
 40
7.0
 10
81.86046411798975
 20
-129.1979708878394
 30
0.0
 10
81.86046411798975
 20
-129.1979708878394
 30
0.0
 10
81.86046411798975
 20
-128.0934732752683
 30
0.0
 10
81.86046411798975
 20
-128.0934732752683
 30
0.0
 10
81.86046411798975
 20
-128.0934732752683
 30
0.0
 10
81.53042397050281
 20
-128.0934732752683
 30
0.0
 10
81.53042397050281
 20
-128.0934732752683
 30
0.0
 10
81.53042397050281
 20
-128.0934732752683
 30
0.0
 10
81.53042397050281
 20
-127.9453341694026
 30
0.0
 10
81.53042397050281
 20
-127.9453341694026
 30
0.0
 10
81.86253117528089
 20
-127.9306925135902
 30
0.0
 10
81.90903996433177
 20
-127.7677394971379
 30
0.0
 10
81.93866778550492
 20
-127.6535345818019
 30
0.0
 10
81.93866778550492
 20
-127.6535345818019
 30
0.0
 10
82.08473983407951
 20
-127.6535345818019
 30
0.0
 10
82.08473983407951
 20
-127.6535345818019
 30
0.0
 10
82.08473983407951
 20
-127.6535345818019
 30
0.0
 10
82.08473983407951
 20
-129.1979708878394
 30
0.0
 10
82.08473983407951
 20
-129.1979708878394
 30
0.0
 10
82.08473983407951
 20
-129.1979708878394
 30
0.0
 10
81.86046411798975
 20
-129.1979708878394
 30
0.0
 10
81.86046411798975
 20
-129.1979708878394
 30
0.0
  0
HATCH
  5
D7
330
D2
100
AcDbEntity
  8
_U+30EC_U+30A4_U+30E4_U+30FC 1
 62
   179
420
  2234388
100
AcDbHatch
 10
0.0
 20
0.0
 30
0.0
210
0.0
220
0.0
230
1.0
  2
SOLID
 70
     1
 71
     0
 91
        1
 92
        1
 93
        1
 72
     4
 94
        3
 73
     0
 74
     1
 95
       26
 96
       22
 40
0.0
 40
0.0
 40
0.0
 40
0.0
 40
1.0
 40
1.0
 40
1.0
 40
2.0
 40
2.0
 40
2.0
 40
3.0
 40
3.0
 40
3.0
 40
4.0
 40
4.0
 40
4.0
 40
5.0
 40
5.0
 40
5.0
 40
6.0
 40
6.0
 40
6.0
 40
7.0
 40
7.0
 40
7.0
 40
7.0
 10
81.86046411798975
 20
-129.1979708878394
 10
81.86046411798975
 20
-129.1979708878394
 10
81.86046411798975
 20
-128.0934732752683
 10
81.86046411798975
 20
-128.0934732752683
 10
81.86046411798975
 20
-128.0934732752683
 10
81.53042397050281
 20
-128.0934732752683
 10
81.53042397050281
 20
-128.0934732752683
 10
81.53042397050281
 20
-128.0934732752683
 10
81.53042397050281
 20
-127.9453341694026
 10
81.53042397050281
 20
-127.9453341694026
 10
81.86253117528089
 20
-127.9306925135902
 10
81.90903996433177
 20
-127.7677394971379
 10
81.93866778550492
 20
-127.6535345818019
 10
81.93866778550492
 20
-127.6535345818019
 10
82.08473983407951
 20
-127.6535345818019
 10
82.08473983407951
 20
-127.6535345818019
 10
82.08473983407951
 20
-127.6535345818019
 10
82.08473983407951
 20
-129.1979708878394
 10
82.08473983407951
 20
-129.1979708878394
 10
82.08473983407951
 20
-129.1979708878394
 10
81.86046411798975
 20
-129.1979708878394
 10
81.86046411798975
 20
-129.1979708878394
 97
        0
 97
        0
 75
     2
 76
     1
 98
        0
  0
ENDBLK
  5
D5
330
D2
100
AcDbEntity
  8
0
100
AcDbBlockEnd
  0
BLOCK
  5
E7
330
E5
100
AcDbEntity
  8
0
100
AcDbBlockBegin
  2
block 7
 70
     0
 10
0.0
 20
0.0
 30
0.0
  3
block 7
  1

  0
SPLINE
  5
E9
330
E5
100
AcDbEntity
  8
_U+30EC_U+30A4_U+30E4_U+30FC 1
370
     0
100
AcDbSpline
210
0.0
220
0.0
230
1.0
 70
    11
 71
     3
 72
    26
 73
    22
 74
     0
 42
0.0000000001
 43
0.0000000001
 12
1.0
 22
0.0
 32
0.0
 13
1.0
 23
0.0
 33
0.0
 40
0.0
 40
0.0
 40
0.0
 40
0.0
 40
1.0
 40
1.0
 40
1.0
 40
2.0
 40
2.0
 40
2.0
 40
3.0
 40
3.0
 40
3.0
 40
4.0
 40
4.0
 40
4.0
 40
5.0
 40
5.0
 40
5.0
 40
6.0
 40
6.0
 40
6.0
 40
7.0
 40
7.0
 40
7.0
 40
7.0
 10
100.179242596483
 20
-132.2210421761461
 30
0.0
 10
100.179242596483
 20
-132.2210421761461
 30
0.0
 10
99.0750894934604
 20
-132.2210421761461
 30
0.0
 10
99.0750894934604
 20
-132.2210421761461
 30
0.0
 10
99.0750894934604
 20
-132.2210421761461
 30
0.0
 10
99.0750894934604
 20
-132.5734754442872
 30
0.0
 10
99.0750894934604
 20
-132.5734754442872
 30
0.0
 10
99.0750894934604
 20
-132.5734754442872
 30
0.0
 10
98.92695038759466
 20
-132.5734754442872
 30
0.0
 10
98.92695038759466
 20
-132.5734754442872
 30
0.0
 10
98.91213647700808
 20
-132.2186306093065
 30
0.0
 10
98.74918346055577
 20
-132.1690212343188
 30
0.0
 10
98.63480629044547
 20
-132.1373263558546
 30
0.0
 10
98.63480629044547
 20
-132.1373263558546
 30
0.0
 10
98.63480629044547
 20
-131.9812635303728
 30
0.0
 10
98.63480629044547
 20
-131.9812635303728
 30
0.0
 10
98.63480629044547
 20
-131.9812635303728
 30
0.0
 10
100.179242596483
 20
-131.9812635303728
 30
0.0
 10
100.179242596483
 20
-131.9812635303728
 30
0.0
 10
100.179242596483
 20
-131.9812635303728
 30
0.0
 10
100.179242596483
 20
-132.2210421761461
 30
0.0
 10
100.179242596483
 20
-132.2210421761461
 30
0.0
  0
HATCH
  5
EA
330
E5
100
AcDbEntity
  8
_U+30EC_U+30A4_U+30E4_U+30FC 1
 62
   179
420
  2234388
100
AcDbHatch
 10
0.0
 20
0.0
 30
0.0
210
0.0
220
0.0
230
1.0
  2
SOLID
 70
     1
 71
     0
 91
        1
 92
        1
 93
        1
 72
     4
 94
        3
 73
     0
 74
     1
 95
       26
 96
       22
 40
0.0
 40
0.0
 40
0.0
 40
0.0
 40
1.0
 40
1.0
 40
1.0
 40
2.0
 40
2.0
 40
2.0
 40
3.0
 40
3.0
 40
3.0
 40
4.0
 40
4.0
 40
4.0
 40
5.0
 40
5.0
 40
5.0
 40
6.0
 40
6.0
 40
6.0
 40
7.0
 40
7.0
 40
7.0
 40
7.0
 10
100.179242596483
 20
-132.2210421761461
 10
100.179242596483
 20
-132.2210421761461
 10
99.0750894934604
 20
-132.2210421761461
 10
99.0750894934604
 20
-132.2210421761461
 10
99.0750894934604
 20
-132.2210421761461
 10
99.0750894934604
 20
-132.5734754442872
 10
99.0750894934604
 20
-132.5734754442872
 10
99.0750894934604
 20
-132.5734754442872
 10
98.92695038759466
 20
-132.5734754442872
 10
98.92695038759466
 20
-132.5734754442872
 10
98.91213647700808
 20
-132.2186306093065
 10
98.74918346055577
 20
-132.1690212343188
 10
98.63480629044547
 20
-132.1373263558546
 10
98.63480629044547
 20
-132.1373263558546
 10
98.63480629044547
 20
-131.9812635303728
 10
98.63480629044547
 20
-131.9812635303728
 10
98.63480629044547
 20
-131.9812635303728
 10
100.179242596483
 20
-131.9812635303728
 10
100.179242596483
 20
-131.9812635303728
 10
100.179242596483
 20
-131.9812635303728
 10
100.179242596483
 20
-132.2210421761461
 10
100.179242596483
 20
-132.2210421761461
 97
        0
 97
        0
 75
     2
 76
     1
 98
        0
  0
ENDBLK
  5
E8
330
E5
100
AcDbEntity
  8
0
100
AcDbBlockEnd
  0
ENDSEC
  0
SECTION
  2
ENTITIES
  0
SPLINE
  5
41
330
1F
100
AcDbEntity
  8
_U+30EC_U+30A4_U+30E4_U+30FC 1
370
     0
100
AcDbSpline
210
0.0
220
0.0
230
1.0
 70
    11
 71
     3
 72
    53
 73
    49
 74
     0
 42
0.0000000001
 43
0.0000000001
 12
1.0
 22
0.0
 32
0.0
 13
1.0
 23
0.0
 33
0.0
 40
0.0
 40
0.0
 40
0.0
 40
0.0
 40
1.0
 40
1.0
 40
1.0
 40
2.0
 40
2.0
 40
2.0
 40
3.0
 40
3.0
 40
3.0
 40
4.0
 40
4.0
 40
4.0
 40
5.0
 40
5.0
 40
5.0
 40
6.0
 40
6.0
 40
6.0
 40
7.0
 40
7.0
 40
7.0
 40
8.0
 40
8.0
 40
8.0
 40
9.0
 40
9.0
 40
9.0
 40
10.0
 40
10.0
 40
10.0
 40
11.0
 40
11.0
 40
11.0
 40
12.0
 40
12.0
 40
12.0
 40
13.0
 40
13.0
 40
13.0
 40
14.0
 40
14.0
 40
14.0
 40
15.0
 40
15.0
 40
15.0
 40
16.0
 40
16.0
 40
16.0
 40
16.0
 10
97.0373108577053
 20
-132.1903841336192
 30
0.0
 10
97.0373108577053
 20
-132.1903841336192
 30
0.0
 10
87.40277360350281
 20
-132.1903841336192
 30
0.0
 10
87.40277360350281
 20
-132.1903841336192
 30
0.0
 10
87.22430553374949
 20
-131.8809980225853
 30
0.0
 10
86.89427972758668
 20
-131.6908508004104
 30
0.0
 10
86.53733918113744
 20
-131.6908508004104
 30
0.0
 10
86.53733918113744
 20
-131.6908508004104
 30
0.0
 10
84.03688563381822
 20
-131.6908508004104
 30
0.0
 10
84.03688563381822
 20
-131.6908508004104
 30
0.0
 10
84.03688563381822
 20
-131.6908508004104
 30
0.0
 10
84.03688563381822
 20
-127.191029134869
 30
0.0
 10
84.03688563381822
 20
-127.191029134869
 30
0.0
 10
84.03688563381822
 20
-127.191029134869
 30
0.0
 10
87.0369077795035
 20
-127.191029134869
 30
0.0
 10
87.0369077795035
 20
-127.191029134869
 30
0.0
 10
87.3132055337274
 20
-127.191029134869
 30
0.0
 10
87.53711137785335
 20
-126.9670858015914
 30
0.0
 10
87.53711137785335
 20
-126.690790246105
 30
0.0
 10
87.53711137785335
 20
-126.4310399683923
 30
0.0
 10
87.33867388291591
 20
-126.2146813573353
 30
0.0
 10
87.07959388952558
 20
-126.1926327462297
 30
0.0
 10
84.72247394966072
 20
-125.9900677462803
 30
0.0
 10
82.35156039903666
 20
-125.9900677462803
 30
0.0
 10
79.9944404591718
 20
-126.1926327462297
 30
0.0
 10
79.71881518842581
 20
-126.2160571906682
 30
0.0
 10
79.51487436029544
 20
-126.4585919128297
 30
0.0
 10
79.53896908190295
 20
-126.7335116349833
 30
0.0
 10
79.56101769245156
 20
-126.9922388571409
 30
0.0
 10
79.7773762980429
 20
-127.191029134869
 30
0.0
 10
80.03716386887974
 20
-127.191029134869
 30
0.0
 10
80.03716386887974
 20
-127.191029134869
 30
0.0
 10
83.03714871487918
 20
-127.191029134869
 30
0.0
 10
83.03714871487918
 20
-127.191029134869
 30
0.0
 10
83.03714871487918
 20
-127.191029134869
 30
0.0
 10
83.03714871487918
 20
-131.6908508004104
 30
0.0
 10
83.03714871487918
 20
-131.6908508004104
 30
0.0
 10
83.03714871487918
 20
-131.6908508004104
 30
0.0
 10
80.53669720208794
 20
-131.6908508004104
 30
0.0
 10
80.53669720208794
 20
-131.6908508004104
 30
0.0
 10
79.9847743483073
 20
-131.6908508004104
 30
0.0
 10
79.53692498011571
 20
-132.1387021891875
 30
0.0
 10
79.53692498011571
 20
-132.6906230223829
 30
0.0
 10
79.53692498011571
 20
-132.6906230223829
 30
0.0
 10
97.53684417829446
 20
-132.6906230223829
 30
0.0
 10
97.53684417829446
 20
-132.6906230223829
 30
0.0
 10
97.53684417829446
 20
-132.4143274668965
 30
0.0
 10
97.31293612845128
 20
-132.1903841336192
 30
0.0
 10
97.0373108577053
 20
-132.1903841336192
 30
0.0
  0
HATCH
  5
42
330
1F
100
AcDbEntity
  8
_U+30EC_U+30A4_U+30E4_U+30FC 1
 62
   253
420
 11711154
100
AcDbHatch
 10
0.0
 20
0.0
 30
0.0
210
0.0
220
0.0
230
1.0
  2
SOLID
 70
     1
 71
     0
 91
        1
 92
        1
 93
        1
 72
     4
 94
        3
 73
     0
 74
     1
 95
       53
 96
       49
 40
0.0
 40
0.0
 40
0.0
 40
0.0
 40
1.0
 40
1.0
 40
1.0
 40
2.0
 40
2.0
 40
2.0
 40
3.0
 40
3.0
 40
3.0
 40
4.0
 40
4.0
 40
4.0
 40
5.0
 40
5.0
 40
5.0
 40
6.0
 40
6.0
 40
6.0
 40
7.0
 40
7.0
 40
7.0
 40
8.0
 40
8.0
 40
8.0
 40
9.0
 40
9.0
 40
9.0
 40
10.0
 40
10.0
 40
10.0
 40
11.0
 40
11.0
 40
11.0
 40
12.0
 40
12.0
 40
12.0
 40
13.0
 40
13.0
 40
13.0
 40
14.0
 40
14.0
 40
14.0
 40
15.0
 40
15.0
 40
15.0
 40
16.0
 40
16.0
 40
16.0
 40
16.0
 10
97.0373108577053
 20
-132.1903841336192
 10
97.0373108577053
 20
-132.1903841336192
 10
87.40277360350281
 20
-132.1903841336192
 10
87.40277360350281
 20
-132.1903841336192
 10
87.22430553374949
 20
-131.8809980225853
 10
86.89427972758668
 20
-131.6908508004104
 10
86.53733918113744
 20
-131.6908508004104
 10
86.53733918113744
 20
-131.6908508004104
 10
84.03688563381822
 20
-131.6908508004104
 10
84.03688563381822
 20
-131.6908508004104
 10
84.03688563381822
 20
-131.6908508004104
 10
84.03688563381822
 20
-127.191029134869
 10
84.03688563381822
 20
-127.191029134869
 10
84.03688563381822
 20
-127.191029134869
 10
87.0369077795035
 20
-127.191029134869
 10
87.0369077795035
 20
-127.191029134869
 10
87.3132055337274
 20
-127.191029134869
 10
87.53711137785335
 20
-126.9670858015914
 10
87.53711137785335
 20
-126.690790246105
 10
87.53711137785335
 20
-126.4310399683923
 10
87.33867388291591
 20
-126.2146813573353
 10
87.07959388952558
 20
-126.1926327462297
 10
84.72247394966072
 20
-125.9900677462803
 10
82.35156039903666
 20
-125.9900677462803
 10
79.9944404591718
 20
-126.1926327462297
 10
79.71881518842581
 20
-126.2160571906682
 10
79.51487436029544
 20
-126.4585919128297
 10
79.53896908190295
 20
-126.7335116349833
 10
79.56101769245156
 20
-126.9922388571409
 10
79.7773762980429
 20
-127.191029134869
 10
80.03716386887974
 20
-127.191029134869
 10
80.03716386887974
 20
-127.191029134869
 10
83.03714871487918
 20
-127.191029134869
 10
83.03714871487918
 20
-127.191029134869
 10
83.03714871487918
 20
-127.191029134869
 10
83.03714871487918
 20
-131.6908508004104
 10
83.03714871487918
 20
-131.6908508004104
 10
83.03714871487918
 20
-131.6908508004104
 10
80.53669720208794
 20
-131.6908508004104
 10
80.53669720208794
 20
-131.6908508004104
 10
79.9847743483073
 20
-131.6908508004104
 10
79.53692498011571
 20
-132.1387021891875
 10
79.53692498011571
 20
-132.6906230223829
 10
79.53692498011571
 20
-132.6906230223829
 10
97.53684417829446
 20
-132.6906230223829
 10
97.53684417829446
 20
-132.6906230223829
 10
97.53684417829446
 20
-132.4143274668965
 10
97.31293612845128
 20
-132.1903841336192
 10
97.0373108577053
 20
-132.1903841336192
 97
        0
 97
        0
 75
     2
 76
     1
 98
        0
  0
POLYLINE
  5
43
330
1F
100
AcDbEntity
  8
_U+30EC_U+30A4_U+30E4_U+30FC 1
 62
   179
420
  2234388
370
    25
100
AcDb2dPolyline
 66
     1
 10
0.0
 20
0.0
 30
0.0
  0
VERTEX
  5
44
330
43
100
AcDbEntity
  8
_U+30EC_U+30A4_U+30E4_U+30FC 1
 62
   179
420
  2234388
370
    25
100
AcDbVertex
100
AcDb2dVertex
 10
80.53669720208794
 20
-131.6908508004104
 30
0.0
  0
VERTEX
  5
45
330
43
100
AcDbEntity
  8
_U+30EC_U+30A4_U+30E4_U+30FC 1
 62
   179
420
  2234388
370
    25
100
AcDbVertex
100
AcDb2dVertex
 10
83.03714871487918
 20
-131.6908508004104
 30
0.0
  0
SEQEND
  5
46
330
43
100
AcDbEntity
  8
_U+30EC_U+30A4_U+30E4_U+30FC 1
 62
   179
420
  2234388
370
    25
  0
POLYLINE
  5
47
330
1F
100
AcDbEntity
  8
_U+30EC_U+30A4_U+30E4_U+30FC 1
 62
   179
420
  2234388
370
    25
100
AcDb2dPolyline
 66
     1
 10
0.0
 20
0.0
 30
0.0
  0
VERTEX
  5
48
330
47
100
AcDbEntity
  8
_U+30EC_U+30A4_U+30E4_U+30FC 1
 62
   179
420
  2234388
370
    25
100
AcDbVertex
100
AcDb2dVertex
 10
79.53692498011571
 20
-132.6906230223829
 30
0.0
  0
VERTEX
  5
49
330
47
100
AcDbEntity
  8
_U+30EC_U+30A4_U+30E4_U+30FC 1
 62
   179
420
  2234388
370
    25
100
AcDbVertex
100
AcDb2dVertex
 10
97.53684417829446
 20
-132.6906230223829
 30
0.0
  0
SEQEND
  5
4A
330
47
100
AcDbEntity
  8
_U+30EC_U+30A4_U+30E4_U+30FC 1
 62
   179
420
  2234388
370
    25
  0
POLYLINE
  5
4B
330
1F
100
AcDbEntity
  8
_U+30EC_U+30A4_U+30E4_U+30FC 1
 62
   179
420
  2234388
370
    25
100
AcDb2dPolyline
 66
     1
 10
0.0
 20
0.0
 30
0.0
  0
VERTEX
  5
4C
330
4B
100
AcDbEntity
  8
_U+30EC_U+30A4_U+30E4_U+30FC 1
 62
   179
420
  2234388
370
    25
100
AcDbVertex
100
AcDb2dVertex
 10
87.40277360350281
 20
-132.1903841336192
 30
0.0
  0
VERTEX
  5
4D
330
4B
100
AcDbEntity
  8
_U+30EC_U+30A4_U+30E4_U+30FC 1
 62
   179
420
  2234388
370
    25
100
AcDbVertex
100
AcDb2dVertex
 10
97.0373108577053
 20
-132.1903841336192
 30
0.0
  0
SEQEND
  5
4E
330
4B
100
AcDbEntity
  8
_U+30EC_U+30A4_U+30E4_U+30FC 1
 62
   179
420
  2234388
370
    25
  0
POLYLINE
  5
4F
330
1F
100
AcDbEntity
  8
_U+30EC_U+30A4_U+30E4_U+30FC 1
 62
   179
420
  2234388
370
    25
100
AcDb2dPolyline
 66
     1
 10
0.0
 20
0.0
 30
0.0
  0
VERTEX
  5
50
330
4F
100
AcDbEntity
  8
_U+30EC_U+30A4_U+30E4_U+30FC 1
 62
   179
420
  2234388
370
    25
100
AcDbVertex
100
AcDb2dVertex
 10
80.03716386887974
 20
-127.191029134869
 30
0.0
  0
VERTEX
  5
51
330
4F
100
AcDbEntity
  8
_U+30EC_U+30A4_U+30E4_U+30FC 1
 62
   179
420
  2234388
370
    25
100
AcDbVertex
100
AcDb2dVertex
 10
83.03714871487918
 20
-127.191029134869
 30
0.0
  0
SEQEND
  5
52
330
4F
100
AcDbEntity
  8
_U+30EC_U+30A4_U+30E4_U+30FC 1
 62
   179
420
  2234388
370
    25
  0
POLYLINE
  5
53
330
1F
100
AcDbEntity
  8
_U+30EC_U+30A4_U+30E4_U+30FC 1
 62
   179
420
  2234388
370
    25
100
AcDb2dPolyline
 66
     1
 10
0.0
 20
0.0
 30
0.0
  0
VERTEX
  5
54
330
53
100
AcDbEntity
  8
_U+30EC_U+30A4_U+30E4_U+30FC 1
 62
   179
420
  2234388
370
    25
100
AcDbVertex
100
AcDb2dVertex
 10
83.03714871487918
 20
-127.191029134869
 30
0.0
  0
VERTEX
  5
55
330
53
100
AcDbEntity
  8
_U+30EC_U+30A4_U+30E4_U+30FC 1
 62
   179
420
  2234388
370
    25
100
AcDbVertex
100
AcDb2dVertex
 10
83.03714871487918
 20
-131.6908508004104
 30
0.0
  0
SEQEND
  5
56
330
53
100
AcDbEntity
  8
_U+30EC_U+30A4_U+30E4_U+30FC 1
 62
   179
420
  2234388
370
    25
  0
POLYLINE
  5
57
330
1F
100
AcDbEntity
  8
_U+30EC_U+30A4_U+30E4_U+30FC 1
 62
   179
420
  2234388
370
    25
100
AcDb2dPolyline
 66
     1
 10
0.0
 20
0.0
 30
0.0
  0
VERTEX
  5
58
330
57
100
AcDbEntity
  8
_U+30EC_U+30A4_U+30E4_U+30FC 1
 62
   179
420
  2234388
370
    25
100
AcDbVertex
100
AcDb2dVertex
 10
84.03688563381822
 20
-127.191029134869
 30
0.0
  0
VERTEX
  5
59
330
57
100
AcDbEntity
  8
_U+30EC_U+30A4_U+30E4_U+30FC 1
 62
   179
420
  2234388
370
    25
100
AcDbVertex
100
AcDb2dVertex
 10
84.03688563381822
 20
-131.6908508004104
 30
0.0
  0
SEQEND
  5
5A
330
57
100
AcDbEntity
  8
_U+30EC_U+30A4_U+30E4_U+30FC 1
 62
   179
420
  2234388
370
    25
  0
POLYLINE
  5
5B
330
1F
100
AcDbEntity
  8
_U+30EC_U+30A4_U+30E4_U+30FC 1
 62
   179
420
  2234388
370
    25
100
AcDb2dPolyline
 66
     1
 10
0.0
 20
0.0
 30
0.0
  0
VERTEX
  5
5C
330
5B
100
AcDbEntity
  8
_U+30EC_U+30A4_U+30E4_U+30FC 1
 62
   179
420
  2234388
370
    25
100
AcDbVertex
100
AcDb2dVertex
 10
84.03688563381822
 20
-127.191029134869
 30
0.0
  0
VERTEX
  5
5D
330
5B
100
AcDbEntity
  8
_U+30EC_U+30A4_U+30E4_U+30FC 1
 62
   179
420
  2234388
370
    25
100
AcDbVertex
100
AcDb2dVertex
 10
87.0369077795035
 20
-127.191029134869
 30
0.0
  0
SEQEND
  5
5E
330
5B
100
AcDbEntity
  8
_U+30EC_U+30A4_U+30E4_U+30FC 1
 62
   179
420
  2234388
370
    25
  0
POLYLINE
  5
5F
330
1F
100
AcDbEntity
  8
_U+30EC_U+30A4_U+30E4_U+30FC 1
 62
   179
420
  2234388
370
    25
100
AcDb2dPolyline
 66
     1
 10
0.0
 20
0.0
 30
0.0
  0
VERTEX
  5
60
330
5F
100
AcDbEntity
  8
_U+30EC_U+30A4_U+30E4_U+30FC 1
 62
   179
420
  2234388
370
    25
100
AcDbVertex
100
AcDb2dVertex
 10
84.03688563381822
 20
-131.6908508004104
 30
0.0
  0
VERTEX
  5
61
330
5F
100
AcDbEntity
  8
_U+30EC_U+30A4_U+30E4_U+30FC 1
 62
   179
420
  2234388
370
    25
100
AcDbVertex
100
AcDb2dVertex
 10
86.53733918113744
 20
-131.6908508004104
 30
0.0
  0
SEQEND
  5
62
330
5F
100
AcDbEntity
  8
_U+30EC_U+30A4_U+30E4_U+30FC 1
 62
   179
420
  2234388
370
    25
  0
SPLINE
  5
63
330
1F
100
AcDbEntity
  8
_U+30EC_U+30A4_U+30E4_U+30FC 1
 62
   179
420
  2234388
370
    25
100
AcDbSpline
210
0.0
220
0.0
230
1.0
 70
     8
 71
     3
 72
     8
 73
     4
 74
     0
 42
0.0000000001
 43
0.0000000001
 12
1.0
 22
0.0
 32
0.0
 13
1.0
 23
0.0
 33
0.0
 40
0.0
 40
0.0
 40
0.0
 40
0.0
 40
1.0
 40
1.0
 40
1.0
 40
1.0
 10
97.53684417829446
 20
-132.6906230223829
 30
0.0
 10
97.53684417829446
 20
-132.4143274668965
 30
0.0
 10
97.31293612845128
 20
-132.1903841336192
 30
0.0
 10
97.0373108577053
 20
-132.1903841336192
 30
0.0
  0
SPLINE
  5
64
330
1F
100
AcDbEntity
  8
_U+30EC_U+30A4_U+30E4_U+30FC 1
 62
   179
420
  2234388
370
     9
100
AcDbSpline
210
0.0
220
0.0
230
1.0
 70
    11
 71
     3
 72
    17
 73
    13
 74
     0
 42
0.0000000001
 43
0.0000000001
 12
1.0
 22
0.0
 32
0.0
 13
1.0
 23
0.0
 33
0.0
 40
0.0
 40
0.0
 40
0.0
 40
0.0
 40
1.0
 40
1.0
 40
1.0
 40
2.0
 40
2.0
 40
2.0
 40
3.0
 40
3.0
 40
3.0
 40
4.0
 40
4.0
 40
4.0
 40
4.0
 10
101.5145546323702
 20
-127.191029134869
 30
0.0
 10
101.5145546323702
 20
-127.135572468216
 30
0.0
 10
101.4697871335123
 20
-127.0907696904496
 30
0.0
 10
101.4146479682523
 20
-127.0907696904496
 30
0.0
 10
101.3595440807693
 20
-127.0907696904496
 30
0.0
 10
101.3147413041345
 20
-127.135572468216
 30
0.0
 10
101.3147413041345
 20
-127.191029134869
 30
0.0
 10
101.3147413041345
 20
-127.2461683015218
 30
0.0
 10
101.3595440807693
 20
-127.2909358015106
 30
0.0
 10
101.4146479682523
 20
-127.2909358015106
 30
0.0
 10
101.4697871335123
 20
-127.2909358015106
 30
0.0
 10
101.5145546323702
 20
-127.2461683015218
 30
0.0
 10
101.5145546323702
 20
-127.191029134869
 30
0.0
  0
SPLINE
  5
65
330
1F
100
AcDbEntity
  8
_U+30EC_U+30A4_U+30E4_U+30FC 1
 62
   179
420
  2234388
370
     9
100
AcDbSpline
210
0.0
220
0.0
230
1.0
 70
    11
 71
     3
 72
    17
 73
    13
 74
     0
 42
0.0000000001
 43
0.0000000001
 12
1.0
 22
0.0
 32
0.0
 13
1.0
 23
0.0
 33
0.0
 40
0.0
 40
0.0
 40
0.0
 40
0.0
 40
1.0
 40
1.0
 40
1.0
 40
2.0
 40
2.0
 40
2.0
 40
3.0
 40
3.0
 40
3.0
 40
4.0
 40
4.0
 40
4.0
 40
4.0
 10
101.5145546323702
 20
-131.6908508004104
 30
0.0
 10
101.5145546323702
 20
-131.635711633758
 30
0.0
 10
101.4697871335123
 20
-131.5909441337688
 30
0.0
 10
101.4146479682523
 20
-131.5909441337688
 30
0.0
 10
101.3595440807693
 20
-131.5909441337688
 30
0.0
 10
101.3147413041345
 20
-131.635711633758
 30
0.0
 10
101.3147413041345
 20
-131.6908508004104
 30
0.0
 10
101.3147413041345
 20
-131.745954689286
 30
0.0
 10
101.3595440807693
 20
-131.790757467052
 30
0.0
 10
101.4146479682523
 20
-131.790757467052
 30
0.0
 10
101.4697871335123
 20
-131.790757467052
 30
0.0
 10
101.5145546323702
 20
-131.745954689286
 30
0.0
 10
101.5145546323702
 20
-131.6908508004104
 30
0.0
  0
SPLINE
  5
66
330
1F
100
AcDbEntity
  8
_U+30EC_U+30A4_U+30E4_U+30FC 1
 62
   179
420
  2234388
370
     9
100
AcDbSpline
210
0.0
220
0.0
230
1.0
 70
    11
 71
     3
 72
    17
 73
    13
 74
     0
 42
0.0000000001
 43
0.0000000001
 12
1.0
 22
0.0
 32
0.0
 13
1.0
 23
0.0
 33
0.0
 40
0.0
 40
0.0
 40
0.0
 40
0.0
 40
1.0
 40
1.0
 40
1.0
 40
2.0
 40
2.0
 40
2.0
 40
3.0
 40
3.0
 40
3.0
 40
4.0
 40
4.0
 40
4.0
 40
4.0
 10
79.63682963496188
 20
-136.6903821880498
 30
0.0
 10
79.63682963496188
 20
-136.6352430213967
 30
0.0
 10
79.59202685832712
 20
-136.59044024363
 30
0.0
 10
79.53692498011571
 20
-136.59044024363
 30
0.0
 10
79.4817838055841
 20
-136.59044024363
 30
0.0
 10
79.4370163067262
 20
-136.6352430213967
 30
0.0
 10
79.4370163067262
 20
-136.6903821880498
 30
0.0
 10
79.4370163067262
 20
-136.7454860769247
 30
0.0
 10
79.4817838055841
 20
-136.7902888546915
 30
0.0
 10
79.53692498011571
 20
-136.7902888546915
 30
0.0
 10
79.59202685832712
 20
-136.7902888546915
 30
0.0
 10
79.63682963496188
 20
-136.7454860769247
 30
0.0
 10
79.63682963496188
 20
-136.6903821880498
 30
0.0
  0
SPLINE
  5
67
330
1F
100
AcDbEntity
  8
_U+30EC_U+30A4_U+30E4_U+30FC 1
 62
   179
420
  2234388
370
     9
100
AcDbSpline
210
0.0
220
0.0
230
1.0
 70
    11
 71
     3
 72
    17
 73
    13
 74
     0
 42
0.0000000001
 43
0.0000000001
 12
1.0
 22
0.0
 32
0.0
 13
1.0
 23
0.0
 33
0.0
 40
0.0
 40
0.0
 40
0.0
 40
0.0
 40
1.0
 40
1.0
 40
1.0
 40
2.0
 40
2.0
 40
2.0
 40
3.0
 40
3.0
 40
3.0
 40
4.0
 40
4.0
 40
4.0
 40
4.0
 10
97.6367508424123
 20
-136.6903821880498
 30
0.0
 10
97.6367508424123
 20
-136.6352430213967
 30
0.0
 10
97.59198334355442
 20
-136.59044024363
 30
0.0
 10
97.53684417829446
 20
-136.59044024363
 30
0.0
 10
97.48174029081139
 20
-136.59044024363
 30
0.0
 10
97.43693751417663
 20
-136.6352430213967
 30
0.0
 10
97.43693751417663
 20
-136.6903821880498
 30
0.0
 10
97.43693751417663
 20
-136.7454860769247
 30
0.0
 10
97.48174029081139
 20
-136.7902888546915
 30
0.0
 10
97.53684417829446
 20
-136.7902888546915
 30
0.0
 10
97.59198334355442
 20
-136.7902888546915
 30
0.0
 10
97.6367508424123
 20
-136.7454860769247
 30
0.0
 10
97.6367508424123
 20
-136.6903821880498
 30
0.0
  0
SPLINE
  5
68
330
1F
100
AcDbEntity
  8
_U+30EC_U+30A4_U+30E4_U+30FC 1
 62
   179
420
  2234388
370
    25
100
AcDbSpline
210
0.0
220
0.0
230
1.0
 70
     8
 71
     3
 72
     8
 73
     4
 74
     0
 42
0.0000000001
 43
0.0000000001
 12
1.0
 22
0.0
 32
0.0
 13
1.0
 23
0.0
 33
0.0
 40
0.0
 40
0.0
 40
0.0
 40
0.0
 40
1.0
 40
1.0
 40
1.0
 40
1.0
 10
87.40277360350281
 20
-132.1903841336192
 30
0.0
 10
87.22430553374949
 20
-131.8809980225853
 30
0.0
 10
86.89427972758668
 20
-131.6908508004104
 30
0.0
 10
86.53733918113744
 20
-131.6908508004104
 30
0.0
  0
SPLINE
  5
69
330
1F
100
AcDbEntity
  8
_U+30EC_U+30A4_U+30E4_U+30FC 1
 62
   179
420
  2234388
370
    25
100
AcDbSpline
210
0.0
220
0.0
230
1.0
 70
     8
 71
     3
 72
    11
 73
     7
 74
     0
 42
0.0000000001
 43
0.0000000001
 12
1.0
 22
0.0
 32
0.0
 13
1.0
 23
0.0
 33
0.0
 40
0.0
 40
0.0
 40
0.0
 40
0.0
 40
1.0
 40
1.0
 40
1.0
 40
2.0
 40
2.0
 40
2.0
 40
2.0
 10
87.0369077795035
 20
-127.191029134869
 30
0.0
 10
87.3132055337274
 20
-127.191029134869
 30
0.0
 10
87.53711137785335
 20
-126.9670858015914
 30
0.0
 10
87.53711137785335
 20
-126.690790246105
 30
0.0
 10
87.53711137785335
 20
-126.4310399683923
 30
0.0
 10
87.33867388291591
 20
-126.2146813573353
 30
0.0
 10
87.07959388952558
 20
-126.1926327462297
 30
0.0
  0
SPLINE
  5
6A
330
1F
100
AcDbEntity
  8
_U+30EC_U+30A4_U+30E4_U+30FC 1
 62
   179
420
  2234388
370
    25
100
AcDbSpline
210
0.0
220
0.0
230
1.0
 70
     8
 71
     3
 72
    11
 73
     7
 74
     0
 42
0.0000000001
 43
0.0000000001
 12
1.0
 22
0.0
 32
0.0
 13
1.0
 23
0.0
 33
0.0
 40
0.0
 40
0.0
 40
0.0
 40
0.0
 40
1.0
 40
1.0
 40
1.0
 40
2.0
 40
2.0
 40
2.0
 40
2.0
 10
79.9944404591718
 20
-126.1926327462297
 30
0.0
 10
79.71881518842581
 20
-126.2160571906682
 30
0.0
 10
79.51487436029544
 20
-126.4585919128297
 30
0.0
 10
79.53896908190295
 20
-126.7335116349833
 30
0.0
 10
79.56101769245156
 20
-126.9922388571409
 30
0.0
 10
79.7773762980429
 20
-127.191029134869
 30
0.0
 10
80.03716386887974
 20
-127.191029134869
 30
0.0
  0
SPLINE
  5
6B
330
1F
100
AcDbEntity
  8
_U+30EC_U+30A4_U+30E4_U+30FC 1
 62
   179
420
  2234388
370
    25
100
AcDbSpline
210
0.0
220
0.0
230
1.0
 70
     8
 71
     3
 72
     8
 73
     4
 74
     0
 42
0.0000000001
 43
0.0000000001
 12
1.0
 22
0.0
 32
0.0
 13
1.0
 23
0.0
 33
0.0
 40
0.0
 40
0.0
 40
0.0
 40
0.0
 40
1.0
 40
1.0
 40
1.0
 40
1.0
 10
80.53669720208794
 20
-131.6908508004104
 30
0.0
 10
79.9847743483073
 20
-131.6908508004104
 30
0.0
 10
79.53692498011571
 20
-132.1387021891875
 30
0.0
 10
79.53692498011571
 20
-132.6906230223829
 30
0.0
  0
SPLINE
  5
6C
330
1F
100
AcDbEntity
  8
_U+30EC_U+30A4_U+30E4_U+30FC 1
 62
   179
420
  2234388
370
     9
100
AcDbSpline
210
0.0
220
0.0
230
1.0
 70
    11
 71
     3
 72
    17
 73
    13
 74
     0
 42
0.0000000001
 43
0.0000000001
 12
1.0
 22
0.0
 32
0.0
 13
1.0
 23
0.0
 33
0.0
 40
0.0
 40
0.0
 40
0.0
 40
0.0
 40
1.0
 40
1.0
 40
1.0
 40
2.0
 40
2.0
 40
2.0
 40
3.0
 40
3.0
 40
3.0
 40
4.0
 40
4.0
 40
4.0
 40
4.0
 10
87.63701804197117
 20
-122.040614691712
 30
0.0
 10
87.63701804197117
 20
-121.9854755250592
 30
0.0
 10
87.5922527558796
 20
-121.9407080250704
 30
0.0
 10
87.53711137785335
 20
-121.9407080250704
 30
0.0
 10
87.48200749037028
 20
-121.9407080250704
 30
0.0
 10
87.43720471373551
 20
-121.9854755250592
 30
0.0
 10
87.43720471373551
 20
-122.040614691712
 30
0.0
 10
87.43720471373551
 20
-122.096071358365
 30
0.0
 10
87.48200749037028
 20
-122.1408741361314
 30
0.0
 10
87.53711137785335
 20
-122.1408741361314
 30
0.0
 10
87.5922527558796
 20
-122.1408741361314
 30
0.0
 10
87.63701804197117
 20
-122.096071358365
 30
0.0
 10
87.63701804197117
 20
-122.040614691712
 30
0.0
  0
SPLINE
  5
6D
330
1F
100
AcDbEntity
  8
_U+30EC_U+30A4_U+30E4_U+30FC 1
 62
   179
420
  2234388
370
     9
100
AcDbSpline
210
0.0
220
0.0
230
1.0
 70
    11
 71
     3
 72
    17
 73
    13
 74
     0
 42
0.0000000001
 43
0.0000000001
 12
1.0
 22
0.0
 32
0.0
 13
1.0
 23
0.0
 33
0.0
 40
0.0
 40
0.0
 40
0.0
 40
0.0
 40
1.0
 40
1.0
 40
1.0
 40
2.0
 40
2.0
 40
2.0
 40
3.0
 40
3.0
 40
3.0
 40
4.0
 40
4.0
 40
4.0
 40
4.0
 10
79.63682963496188
 20
-122.040614691712
 30
0.0
 10
79.63682963496188
 20
-121.9854755250592
 30
0.0
 10
79.59202685832712
 20
-121.9407080250704
 30
0.0
 10
79.53692498011571
 20
-121.9407080250704
 30
0.0
 10
79.4817838055841
 20
-121.9407080250704
 30
0.0
 10
79.4370163067262
 20
-121.9854755250592
 30
0.0
 10
79.4370163067262
 20
-122.040614691712
 30
0.0
 10
79.4370163067262
 20
-122.096071358365
 30
0.0
 10
79.4817838055841
 20
-122.1408741361314
 30
0.0
 10
79.53692498011571
 20
-122.1408741361314
 30
0.0
 10
79.59202685832712
 20
-122.1408741361314
 30
0.0
 10
79.63682963496188
 20
-122.096071358365
 30
0.0
 10
79.63682963496188
 20
-122.040614691712
 30
0.0
  0
SPLINE
  5
6E
330
1F
100
AcDbEntity
  8
_U+30EC_U+30A4_U+30E4_U+30FC 1
 62
   179
420
  2234388
370
    25
100
AcDbSpline
210
0.0
220
0.0
230
1.0
 70
     8
 71
     3
 72
     8
 73
     4
 74
     0
 42
0.0000000001
 43
0.0000000001
 12
1.0
 22
0.0
 32
0.0
 13
1.0
 23
0.0
 33
0.0
 40
0.0
 40
0.0
 40
0.0
 40
0.0
 40
1.0
 40
1.0
 40
1.0
 40
1.0
 10
87.07959388952558
 20
-126.1926327462297
 30
0.0
 10
84.72247394966072
 20
-125.9900677462803
 30
0.0
 10
82.35156039903666
 20
-125.9900677462803
 30
0.0
 10
79.9944404591718
 20
-126.1926327462297
 30
0.0
  0
POLYLINE
  5
6F
330
1F
100
AcDbEntity
  8
_U+30EC_U+30A4_U+30E4_U+30FC 1
 62
   179
420
  2234388
370
     9
100
AcDb2dPolyline
 66
     1
 10
0.0
 20
0.0
 30
0.0
  0
VERTEX
  5
70
330
6F
100
AcDbEntity
  8
_U+30EC_U+30A4_U+30E4_U+30FC 1
 62
   179
420
  2234388
370
     9
100
AcDbVertex
100
AcDb2dVertex
 10
79.53692498011571
 20
-136.6903821880498
 30
0.0
  0
VERTEX
  5
71
330
6F
100
AcDbEntity
  8
_U+30EC_U+30A4_U+30E4_U+30FC 1
 62
   179
420
  2234388
370
     9
100
AcDbVertex
100
AcDb2dVertex
 10
97.53684417829446
 20
-136.6903821880498
 30
0.0
  0
SEQEND
  5
72
330
6F
100
AcDbEntity
  8
_U+30EC_U+30A4_U+30E4_U+30FC 1
 62
   179
420
  2234388
370
     9
  0
POLYLINE
  5
73
330
1F
100
AcDbEntity
  8
_U+30EC_U+30A4_U+30E4_U+30FC 1
 62
   179
420
  2234388
370
     9
100
AcDb2dPolyline
 66
     1
 10
0.0
 20
0.0
 30
0.0
  0
VERTEX
  5
74
330
73
100
AcDbEntity
  8
_U+30EC_U+30A4_U+30E4_U+30FC 1
 62
   179
420
  2234388
370
     9
100
AcDbVertex
100
AcDb2dVertex
 10
79.53692498011571
 20
-134.4303819108368
 30
0.0
  0
VERTEX
  5
75
330
73
100
AcDbEntity
  8
_U+30EC_U+30A4_U+30E4_U+30FC 1
 62
   179
420
  2234388
370
     9
100
AcDbVertex
100
AcDb2dVertex
 10
79.53692498011571
 20
-137.6901191322442
 30
0.0
  0
SEQEND
  5
76
330
73
100
AcDbEntity
  8
_U+30EC_U+30A4_U+30E4_U+30FC 1
 62
   179
420
  2234388
370
     9
  0
POLYLINE
  5
77
330
1F
100
AcDbEntity
  8
_U+30EC_U+30A4_U+30E4_U+30FC 1
 62
   179
420
  2234388
370
     9
100
AcDb2dPolyline
 66
     1
 10
0.0
 20
0.0
 30
0.0
  0
VERTEX
  5
78
330
77
100
AcDbEntity
  8
_U+30EC_U+30A4_U+30E4_U+30FC 1
 62
   179
420
  2234388
370
     9
100
AcDbVertex
100
AcDb2dVertex
 10
97.53684417829446
 20
-135.2303407995255
 30
0.0
  0
VERTEX
  5
79
330
77
100
AcDbEntity
  8
_U+30EC_U+30A4_U+30E4_U+30FC 1
 62
   179
420
  2234388
370
     9
100
AcDbVertex
100
AcDb2dVertex
 10
97.53684417829446
 20
-137.6901191322442
 30
0.0
  0
SEQEND
  5
7A
330
77
100
AcDbEntity
  8
_U+30EC_U+30A4_U+30E4_U+30FC 1
 62
   179
420
  2234388
370
     9
  0
INSERT
  5
7C
330
1F
100
AcDbEntity
  8
_U+30EC_U+30A4_U+30E4_U+30FC 1
100
AcDbBlockReference
  2
block 2
 10
0.0
 20
0.0
 30
0.0
  0
POLYLINE
  5
85
330
1F
100
AcDbEntity
  8
_U+30EC_U+30A4_U+30E4_U+30FC 1
 62
   179
420
  2234388
370
     9
100
AcDb2dPolyline
 66
     1
 10
0.0
 20
0.0
 30
0.0
  0
VERTEX
  5
86
330
85
100
AcDbEntity
  8
_U+30EC_U+30A4_U+30E4_U+30FC 1
 62
   179
420
  2234388
370
     9
100
AcDbVertex
100
AcDb2dVertex
 10
79.53692498011571
 20
-122.040614691712
 30
0.0
  0
VERTEX
  5
87
330
85
100
AcDbEntity
  8
_U+30EC_U+30A4_U+30E4_U+30FC 1
 62
   179
420
  2234388
370
     9
100
AcDbVertex
100
AcDb2dVertex
 10
87.53711137785335
 20
-122.040614691712
 30
0.0
  0
SEQEND
  5
88
330
85
100
AcDbEntity
  8
_U+30EC_U+30A4_U+30E4_U+30FC 1
 62
   179
420
  2234388
370
     9
  0
POLYLINE
  5
89
330
1F
100
AcDbEntity
  8
_U+30EC_U+30A4_U+30E4_U+30FC 1
 62
   179
420
  2234388
370
     9
100
AcDb2dPolyline
 66
     1
 10
0.0
 20
0.0
 30
0.0
  0
VERTEX
  5
8A
330
89
100
AcDbEntity
  8
_U+30EC_U+30A4_U+30E4_U+30FC 1
 62
   179
420
  2234388
370
     9
100
AcDbVertex
100
AcDb2dVertex
 10
79.53692498011571
 20
-124.2006730245055
 30
0.0
  0
VERTEX
  5
8B
330
89
100
AcDbEntity
  8
_U+30EC_U+30A4_U+30E4_U+30FC 1
 62
   179
420
  2234388
370
     9
100
AcDbVertex
100
AcDb2dVertex
 10
79.53692498011571
 20
-121.0408424697398
 30
0.0
  0
SEQEND
  5
8C
330
89
100
AcDbEntity
  8
_U+30EC_U+30A4_U+30E4_U+30FC 1
 62
   179
420
  2234388
370
     9
  0
POLYLINE
  5
8D
330
1F
100
AcDbEntity
  8
_U+30EC_U+30A4_U+30E4_U+30FC 1
 62
   179
420
  2234388
370
     9
100
AcDb2dPolyline
 66
     1
 10
0.0
 20
0.0
 30
0.0
  0
VERTEX
  5
8E
330
8D
100
AcDbEntity
  8
_U+30EC_U+30A4_U+30E4_U+30FC 1
 62
   179
420
  2234388
370
     9
100
AcDbVertex
100
AcDb2dVertex
 10
87.53711137785335
 20
-124.2006730245055
 30
0.0
  0
VERTEX
  5
8F
330
8D
100
AcDbEntity
  8
_U+30EC_U+30A4_U+30E4_U+30FC 1
 62
   179
420
  2234388
370
     9
100
AcDbVertex
100
AcDb2dVertex
 10
87.53711137785335
 20
-121.0408424697398
 30
0.0
  0
SEQEND
  5
90
330
8D
100
AcDbEntity
  8
_U+30EC_U+30A4_U+30E4_U+30FC 1
 62
   179
420
  2234388
370
     9
  0
INSERT
  5
92
330
1F
100
AcDbEntity
  8
_U+30EC_U+30A4_U+30E4_U+30FC 1
100
AcDbBlockReference
  2
block 3
 10
0.0
 20
0.0
 30
0.0
  0
POLYLINE
  5
99
330
1F
100
AcDbEntity
  8
_U+30EC_U+30A4_U+30E4_U+30FC 1
 62
   179
420
  2234388
370
     9
100
AcDb2dPolyline
 66
     1
 10
0.0
 20
0.0
 30
0.0
  0
VERTEX
  5
9A
330
99
100
AcDbEntity
  8
_U+30EC_U+30A4_U+30E4_U+30FC 1
 62
   179
420
  2234388
370
     9
100
AcDbVertex
100
AcDb2dVertex
 10
101.4146479682523
 20
-127.191029134869
 30
0.0
  0
VERTEX
  5
9B
330
99
100
AcDbEntity
  8
_U+30EC_U+30A4_U+30E4_U+30FC 1
 62
   179
420
  2234388
370
     9
100
AcDbVertex
100
AcDb2dVertex
 10
101.4146479682523
 20
-121.9331233028501
 30
0.0
  0
SEQEND
  5
9C
330
99
100
AcDbEntity
  8
_U+30EC_U+30A4_U+30E4_U+30FC 1
 62
   179
420
  2234388
370
     9
  0
POLYLINE
  5
9D
330
1F
100
AcDbEntity
  8
_U+30EC_U+30A4_U+30E4_U+30FC 1
 62
   179
420
  2234388
370
     9
100
AcDb2dPolyline
 66
     1
 10
0.0
 20
0.0
 30
0.0
  0
VERTEX
  5
9E
330
9D
100
AcDbEntity
  8
_U+30EC_U+30A4_U+30E4_U+30FC 1
 62
   179
420
  2234388
370
     9
100
AcDbVertex
100
AcDb2dVertex
 10
101.4146479682523
 20
-131.6908508004104
 30
0.0
  0
VERTEX
  5
9F
330
9D
100
AcDbEntity
  8
_U+30EC_U+30A4_U+30E4_U+30FC 1
 62
   179
420
  2234388
370
     9
100
AcDbVertex
100
AcDb2dVertex
 10
101.4146479682523
 20
-127.191029134869
 30
0.0
  0
SEQEND
  5
A0
330
9D
100
AcDbEntity
  8
_U+30EC_U+30A4_U+30E4_U+30FC 1
 62
   179
420
  2234388
370
     9
  0
POLYLINE
  5
A1
330
1F
100
AcDbEntity
  8
_U+30EC_U+30A4_U+30E4_U+30FC 1
 62
   179
420
  2234388
370
     9
100
AcDb2dPolyline
 66
     1
 10
0.0
 20
0.0
 30
0.0
  0
VERTEX
  5
A2
330
A1
100
AcDbEntity
  8
_U+30EC_U+30A4_U+30E4_U+30FC 1
 62
   179
420
  2234388
370
     9
100
AcDbVertex
100
AcDb2dVertex
 10
100.4190032714311
 20
-131.6908508004104
 30
0.0
  0
VERTEX
  5
A3
330
A1
100
AcDbEntity
  8
_U+30EC_U+30A4_U+30E4_U+30FC 1
 62
   179
420
  2234388
370
     9
100
AcDbVertex
100
AcDb2dVertex
 10
102.4150904427289
 20
-131.6908508004104
 30
0.0
  0
SEQEND
  5
A4
330
A1
100
AcDbEntity
  8
_U+30EC_U+30A4_U+30E4_U+30FC 1
 62
   179
420
  2234388
370
     9
  0
POLYLINE
  5
A5
330
1F
100
AcDbEntity
  8
_U+30EC_U+30A4_U+30E4_U+30FC 1
 62
   179
420
  2234388
370
     9
100
AcDb2dPolyline
 66
     1
 10
0.0
 20
0.0
 30
0.0
  0
VERTEX
  5
A6
330
A5
100
AcDbEntity
  8
_U+30EC_U+30A4_U+30E4_U+30FC 1
 62
   179
420
  2234388
370
     9
100
AcDbVertex
100
AcDb2dVertex
 10
100.4190032714311
 20
-127.191029134869
 30
0.0
  0
VERTEX
  5
A7
330
A5
100
AcDbEntity
  8
_U+30EC_U+30A4_U+30E4_U+30FC 1
 62
   179
420
  2234388
370
     9
100
AcDbVertex
100
AcDb2dVertex
 10
102.4150904427289
 20
-127.191029134869
 30
0.0
  0
SEQEND
  5
A8
330
A5
100
AcDbEntity
  8
_U+30EC_U+30A4_U+30E4_U+30FC 1
 62
   179
420
  2234388
370
     9
  0
INSERT
  5
AA
330
1F
100
AcDbEntity
  8
_U+30EC_U+30A4_U+30E4_U+30FC 1
100
AcDbBlockReference
  2
block 4
 10
0.0
 20
0.0
 30
0.0
  0
INSERT
  5
CD
330
1F
100
AcDbEntity
  8
_U+30EC_U+30A4_U+30E4_U+30FC 1
100
AcDbBlockReference
  2
block 5
 10
0.0
 20
0.0
 30
0.0
  0
SPLINE
  5
DC
330
1F
100
AcDbEntity
  8
_U+30EC_U+30A4_U+30E4_U+30FC 1
 62
   179
420
  2234388
370
     9
100
AcDbSpline
210
0.0
220
0.0
230
1.0
 70
    11
 71
     3
 72
    17
 73
    13
 74
     0
 42
0.0000000001
 43
0.0000000001
 12
1.0
 22
0.0
 32
0.0
 13
1.0
 23
0.0
 33
0.0
 40
0.0
 40
0.0
 40
0.0
 40
0.0
 40
1.0
 40
1.0
 40
1.0
 40
2.0
 40
2.0
 40
2.0
 40
3.0
 40
3.0
 40
3.0
 40
4.0
 40
4.0
 40
4.0
 40
4.0
 10
101.5145546323702
 20
-132.697502189048
 30
0.0
 10
101.5145546323702
 20
-132.6416927446176
 30
0.0
 10
101.4697871335123
 20
-132.5968899668509
 30
0.0
 10
101.4146479682523
 20
-132.5968899668509
 30
0.0
 10
101.3595440807693
 20
-132.5968899668509
 30
0.0
 10
101.3147413041345
 20
-132.6416927446176
 30
0.0
 10
101.3147413041345
 20
-132.697502189048
 30
0.0
 10
101.3147413041345
 20
-132.7526060779229
 30
0.0
 10
101.3595440807693
 20
-132.7974088556896
 30
0.0
 10
101.4146479682523
 20
-132.7974088556896
 30
0.0
 10
101.4697871335123
 20
-132.7974088556896
 30
0.0
 10
101.5145546323702
 20
-132.7526060779229
 30
0.0
 10
101.5145546323702
 20
-132.697502189048
 30
0.0
  0
POLYLINE
  5
DD
330
1F
100
AcDbEntity
  8
_U+30EC_U+30A4_U+30E4_U+30FC 1
 62
   179
420
  2234388
370
     9
100
AcDb2dPolyline
 66
     1
 10
0.0
 20
0.0
 30
0.0
  0
VERTEX
  5
DE
330
DD
100
AcDbEntity
  8
_U+30EC_U+30A4_U+30E4_U+30FC 1
 62
   179
420
  2234388
370
     9
100
AcDbVertex
100
AcDb2dVertex
 10
101.4146479682523
 20
-131.0500652450152
 30
0.0
  0
VERTEX
  5
DF
330
DD
100
AcDbEntity
  8
_U+30EC_U+30A4_U+30E4_U+30FC 1
 62
   179
420
  2234388
370
     9
100
AcDbVertex
100
AcDb2dVertex
 10
101.4146479682523
 20
-132.6971494112703
 30
0.0
  0
SEQEND
  5
E0
330
DD
100
AcDbEntity
  8
_U+30EC_U+30A4_U+30E4_U+30FC 1
 62
   179
420
  2234388
370
     9
  0
POLYLINE
  5
E1
330
1F
100
AcDbEntity
  8
_U+30EC_U+30A4_U+30E4_U+30FC 1
 62
   179
420
  2234388
370
     9
100
AcDb2dPolyline
 66
     1
 10
0.0
 20
0.0
 30
0.0
  0
VERTEX
  5
E2
330
E1
100
AcDbEntity
  8
_U+30EC_U+30A4_U+30E4_U+30FC 1
 62
   179
420
  2234388
370
     9
100
AcDbVertex
100
AcDb2dVertex
 10
100.4190032714311
 20
-132.6971494112703
 30
0.0
  0
VERTEX
  5
E3
330
E1
100
AcDbEntity
  8
_U+30EC_U+30A4_U+30E4_U+30FC 1
 62
   179
420
  2234388
370
     9
100
AcDbVertex
100
AcDb2dVertex
 10
102.4150904427289
 20
-132.6971494112703
 30
0.0
  0
SEQEND
  5
E4
330
E1
100
AcDbEntity
  8
_U+30EC_U+30A4_U+30E4_U+30FC 1
 62
   179
420
  2234388
370
     9
  0
INSERT
  5
E6
330
1F
100
AcDbEntity
  8
_U+30EC_U+30A4_U+30E4_U+30FC 1
100
AcDbBlockReference
  2
block 7
 10
0.0
 20
0.0
 30
0.0
  0
ENDSEC
  0
SECTION
  2
OBJECTS
  0
DICTIONARY
  5
C
330
0
100
AcDbDictionary
281
     1
  3
ACAD_GROUP
350
D
  3
ACAD_LAYOUT
350
1A
  3
ACAD_MATERIAL
350
3B
  3
ACAD_MLEADERSTYLE
350
EC
  3
ACAD_MLINESTYLE
350
17
  3
ACAD_PLOTSETTINGS
350
19
  3
ACAD_PLOTSTYLENAME
350
E
  3
ACAD_TABLESTYLE
350
EB
  3
ACAD_VISUALSTYLE
350
2A
  0
SUN
  5
3F
330
29
100
AcDbSun
 90
        1
290
     0
 63
     7
421
 16777215
 40
1.0
291
     1
 91
  2455826
 92
 54000000
292
     0
 70
     2
 71
   256
280
     1
  0
DICTIONARY
  5
D
102
{ACAD_REACTORS
330
C
102
}
330
C
100
AcDbDictionary
281
     1
  0
DICTIONARY
  5
1A
102
{ACAD_REACTORS
330
C
102
}
330
C
100
AcDbDictionary
281
     1
  3
Layout1
350
1E
  3
Layout2
350
26
  3
Model
350
22
  0
DICTIONARY
  5
3B
102
{ACAD_REACTORS
330
C
102
}
330
C
100
AcDbDictionary
281
     1
  3
ByBlock
350
3D
  3
ByLayer
350
3C
  3
Global
350
3E
  0
DICTIONARY
  5
EC
102
{ACAD_REACTORS
330
C
102
}
330
C
100
AcDbDictionary
281
     1
  0
DICTIONARY
  5
17
102
{ACAD_REACTORS
330
C
102
}
330
C
100
AcDbDictionary
281
     1
  3
Standard
350
18
  0
DICTIONARY
  5
19
102
{ACAD_REACTORS
330
C
102
}
330
C
100
AcDbDictionary
281
     1
  0
ACDBDICTIONARYWDFLT
  5
E
102
{ACAD_REACTORS
330
C
102
}
330
C
100
AcDbDictionary
281
     1
  3
Normal
350
F
100
AcDbDictionaryWithDefault
340
F
  0
DICTIONARY
  5
EB
102
{ACAD_REACTORS
330
C
102
}
330
C
100
AcDbDictionary
281
     1
  0
DICTIONARY
  5
2A
102
{ACAD_REACTORS
330
C
102
}
330
C
100
AcDbDictionary
281
     1
  3
2dWireframe
350
2F
  3
3D Hidden
350
31
  3
3dWireframe
350
30
  3
Basic
350
32
  3
Brighten
350
36
  3
ColorChange
350
3A
  3
Conceptual
350
34
  3
Dim
350
35
  3
Facepattern
350
39
  3
Flat
350
2B
  3
FlatWithEdges
350
2C
  3
Gouraud
350
2D
  3
GouraudWithEdges
350
2E
  3
Linepattern
350
38
  3
Realistic
350
33
  3
Thicken
350
37
  0
LAYOUT
  5
1E
102
{ACAD_REACTORS
330
1A
102
}
330
1A
100
AcDbPlotSettings
  1

  2
none_device
  4

  6

 40
0.0
 41
0.0
 42
0.0
 43
0.0
 44
0.0
 45
0.0
 46
0.0
 47
0.0
 48
0.0
 49
0.0
140
0.0
141
0.0
142
1.0
143
1.0
 70
   688
 72
     0
 73
     0
 74
     5
  7

 75
    16
 76
     0
 77
     2
 78
   300
147
1.0
148
0.0
149
0.0
100
AcDbLayout
  1
Layout1
 70
     1
 71
     1
 10
0.0
 20
0.0
 11
12.0
 21
9.0
 12
0.0
 22
0.0
 32
0.0
 14
1.000000000000000E+20
 24
1.000000000000000E+20
 34
1.000000000000000E+20
 15
-1.000000000000000E+20
 25
-1.000000000000000E+20
 35
-1.000000000000000E+20
146
0.0
 13
0.0
 23
0.0
 33
0.0
 16
1.0
 26
0.0
 36
0.0
 17
0.0
 27
1.0
 37
0.0
 76
     0
330
1B
  0
LAYOUT
  5
26
102
{ACAD_REACTORS
330
1A
102
}
330
1A
100
AcDbPlotSettings
  1

  2
none_device
  4

  6

 40
0.0
 41
0.0
 42
0.0
 43
0.0
 44
0.0
 45
0.0
 46
0.0
 47
0.0
 48
0.0
 49
0.0
140
0.0
141
0.0
142
1.0
143
1.0
 70
   688
 72
     0
 73
     0
 74
     5
  7

 75
    16
 76
     0
 77
     2
 78
   300
147
1.0
148
0.0
149
0.0
100
AcDbLayout
  1
Layout2
 70
     1
 71
     2
 10
0.0
 20
0.0
 11
0.0
 21
0.0
 12
0.0
 22
0.0
 32
0.0
 14
0.0
 24
0.0
 34
0.0
 15
0.0
 25
0.0
 35
0.0
146
0.0
 13
0.0
 23
0.0
 33
0.0
 16
1.0
 26
0.0
 36
0.0
 17
0.0
 27
1.0
 37
0.0
 76
     0
330
23
  0
LAYOUT
  5
22
102
{ACAD_REACTORS
330
1A
102
}
330
1A
100
AcDbPlotSettings
  1

  2
none_device
  4

  6

 40
0.0
 41
0.0
 42
0.0
 43
0.0
 44
0.0
 45
0.0
 46
0.0
 47
0.0
 48
0.0
 49
0.0
140
0.0
141
0.0
142
1.0
143
1.0
 70
  1712
 72
     0
 73
     0
 74
     0
  7

 75
     0
 76
     0
 77
     2
 78
   300
147
1.0
148
0.0
149
0.0
100
AcDbLayout
  1
Model
 70
     1
 71
     0
 10
0.0
 20
0.0
 11
12.0
 21
9.0
 12
0.0
 22
0.0
 32
0.0
 14
1.000000000000000E+20
 24
1.000000000000000E+20
 34
1.000000000000000E+20
 15
-1.000000000000000E+20
 25
-1.000000000000000E+20
 35
-1.000000000000000E+20
146
0.0
 13
0.0
 23
0.0
 33
0.0
 16
1.0
 26
0.0
 36
0.0
 17
0.0
 27
1.0
 37
0.0
 76
     0
330
1F
331
29
  0
MATERIAL
  5
3D
102
{ACAD_REACTORS
330
3B
102
}
330
3B
100
AcDbMaterial
  1
ByBlock
 72
     1
 94
      127
  0
MATERIAL
  5
3C
102
{ACAD_REACTORS
330
3B
102
}
330
3B
100
AcDbMaterial
  1
ByLayer
 72
     1
 94
      127
  0
MATERIAL
  5
3E
102
{ACAD_REACTORS
330
3B
102
}
330
3B
100
AcDbMaterial
  1
Global
 72
     1
 94
      127
  0
MLINESTYLE
  5
18
102
{ACAD_REACTORS
330
17
102
}
330
17
100
AcDbMlineStyle
  2
Standard
 70
     0
  3

 62
   256
 51
90.0
 52
90.0
 71
     2
 49
0.5
 62
   256
  6
BYLAYER
 49
-0.5
 62
   256
  6
BYLAYER
  0
ACDBPLACEHOLDER
  5
F
102
{ACAD_REACTORS
330
E
102
}
330
E
  0
VISUALSTYLE
  5
2F
102
{ACAD_REACTORS
330
2A
102
}
330
2A
100
AcDbVisualStyle
  2
2dWireframe
 70
     4
177
     2
291
     0
 71
     0
176
     1
 72
     2
176
     1
 73
     0
176
     1
 90
        0
176
     1
 40
-0.6
176
     1
 41
-30.0
176
     1
 62
     5
 63
     7
421
 16777215
176
     1
 74
     1
176
     1
 91
        4
176
     1
 64
     7
176
     1
 65
   257
176
     1
 75
     1
176
     1
175
     1
176
     1
 42
1.0
176
     1
 92
        0
176
     1
 66
   257
176
     1
 43
1.0
176
     1
 76
     1
176
     1
 77
     6
176
     1
 78
     2
176
     1
 67
     7
176
     1
 79
     5
176
     1
170
     0
176
     1
171
     0
176
     1
290
     0
176
     1
 93
        1
176
     1
 44
0.0
176
     1
173
     0
176
     1
  0
VISUALSTYLE
  5
31
102
{ACAD_REACTORS
330
2A
102
}
330
2A
100
AcDbVisualStyle
  2
3D Hidden
 70
     6
177
     2
291
     0
 71
     1
176
     1
 72
     2
176
     1
 73
     2
176
     1
 90
        0
176
     1
 40
-0.6
176
     1
 41
-30.0
176
     1
 62
     5
 63
     7
421
 16777215
176
     1
 74
     2
176
     1
 91
        2
176
     1
 64
     7
176
     1
 65
   257
176
     1
 75
     2
176
     1
175
     1
176
     1
 42
40.0
176
     1
 92
        0
176
     1
 66
   257
176
     1
 43
1.0
176
     1
 76
     1
176
     1
 77
     6
176
     1
 78
     2
176
     1
 67
     7
176
     1
 79
     3
176
     1
170
     0
176
     1
171
     0
176
     1
290
     0
176
     1
 93
        1
176
     1
 44
0.0
176
     1
173
     0
176
     1
  0
VISUALSTYLE
  5
30
102
{ACAD_REACTORS
330
2A
102
}
330
2A
100
AcDbVisualStyle
  2
3dWireframe
 70
     5
177
     2
291
     0
 71
     0
176
     1
 72
     2
176
     1
 73
     0
176
     1
 90
        0
176
     1
 40
-0.6
176
     1
 41
-30.0
176
     1
 62
     5
 63
     7
421
 16777215
176
     1
 74
     1
176
     1
 91
        4
176
     1
 64
     7
176
     1
 65
   257
176
     1
 75
     1
176
     1
175
     1
176
     1
 42
1.0
176
     1
 92
        0
176
     1
 66
   257
176
     1
 43
1.0
176
     1
 76
     1
176
     1
 77
     6
176
     1
 78
     2
176
     1
 67
     7
176
     1
 79
     5
176
     1
170
     0
176
     1
171
     0
176
     1
290
     0
176
     1
 93
        1
176
     1
 44
0.0
176
     1
173
     0
176
     1
  0
VISUALSTYLE
  5
32
102
{ACAD_REACTORS
330
2A
102
}
330
2A
100
AcDbVisualStyle
  2
Basic
 70
     7
177
     2
291
     1
 71
     1
176
     1
 72
     0
176
     1
 73
     1
176
     1
 90
        0
176
     1
 40
-0.6
176
     1
 41
-30.0
176
     1
 62
     5
 63
     7
421
 16777215
176
     1
 74
     0
176
     1
 91
        4
176
     1
 64
     7
176
     1
 65
   257
176
     1
 75
     1
176
     1
175
     1
176
     1
 42
1.0
176
     1
 92
        8
176
     1
 66
     7
176
     1
 43
1.0
176
     1
 76
     1
176
     1
 77
     6
176
     1
 78
     2
176
     1
 67
     7
176
     1
 79
     5
176
     1
170
     0
176
     1
171
     0
176
     1
290
     0
176
     1
 93
        1
176
     1
 44
0.0
176
     1
173
     0
176
     1
  0
VISUALSTYLE
  5
36
102
{ACAD_REACTORS
330
2A
102
}
330
2A
100
AcDbVisualStyle
  2
Brighten
 70
    12
177
     2
291
     1
 71
     2
176
     1
 72
     2
176
     1
 73
     0
176
     1
 90
        0
176
     1
 40
-0.6
176
     1
 41
-30.0
176
     1
 62
     5
 63
     7
421
 16777215
176
     1
 74
     1
176
     1
 91
        4
176
     1
 64
     7
176
     1
 65
   257
176
     1
 75
     1
176
     1
175
     1
176
     1
 42
1.0
176
     1
 92
        8
176
     1
 66
     7
176
     1
 43
1.0
176
     1
 76
     1
176
     1
 77
     6
176
     1
 78
     2
176
     1
 67
     7
176
     1
 79
     5
176
     1
170
     0
176
     1
171
     0
176
     1
290
     0
176
     1
 93
        1
176
     1
 44
50.0
176
     1
173
     0
176
     1
  0
VISUALSTYLE
  5
3A
102
{ACAD_REACTORS
330
2A
102
}
330
2A
100
AcDbVisualStyle
  2
ColorChange
 70
    16
177
     2
291
     1
 71
     2
176
     1
 72
     2
176
     1
 73
     3
176
     1
 90
        0
176
     1
 40
-0.6
176
     1
 41
-30.0
176
     1
 62
     5
 63
     8
421
  8421504
176
     1
 74
     1
176
     1
 91
        4
176
     1
 64
     7
176
     1
 65
   257
176
     1
 75
     1
176
     1
175
     1
176
     1
 42
1.0
176
     1
 92
        8
176
     1
 66
     8
424
  8421504
176
     1
 43
1.0
176
     1
 76
     1
176
     1
 77
     6
176
     1
 78
     2
176
     1
 67
     7
176
     1
 79
     5
176
     1
170
     0
176
     1
171
     0
176
     1
290
     0
176
     1
 93
        1
176
     1
 44
0.0
176
     1
173
     0
176
     1
  0
VISUALSTYLE
  5
34
102
{ACAD_REACTORS
330
2A
102
}
330
2A
100
AcDbVisualStyle
  2
Conceptual
 70
     9
177
     2
291
     0
 71
     3
176
     1
 72
     2
176
     1
 73
     0
176
     1
 90
        0
176
     1
 40
-0.6
176
     1
 41
-30.0
176
     1
 62
     5
 63
     7
421
 16777215
176
     1
 74
     2
176
     1
 91
        2
176
     1
 64
     7
176
     1
 65
   257
176
     1
 75
     1
176
     1
175
     1
176
     1
 42
40.0
176
     1
 92
        8
176
     1
 66
     7
176
     1
 43
1.0
176
     1
 76
     1
176
     1
 77
     6
176
     1
 78
     2
176
     1
 67
     7
176
     1
 79
     3
176
     1
170
     0
176
     1
171
     0
176
     1
290
     0
176
     1
 93
        1
176
     1
 44
0.0
176
     1
173
     0
176
     1
  0
VISUALSTYLE
  5
35
102
{ACAD_REACTORS
330
2A
102
}
330
2A
100
AcDbVisualStyle
  2
Dim
 70
    11
177
     2
291
     1
 71
     2
176
     1
 72
     2
176
     1
 73
     0
176
     1
 90
        0
176
     1
 40
-0.6
176
     1
 41
-30.0
176
     1
 62
     5
 63
     7
421
 16777215
176
     1
 74
     1
176
     1
 91
        4
176
     1
 64
     7
176
     1
 65
   257
176
     1
 75
     1
176
     1
175
     1
176
     1
 42
1.0
176
     1
 92
        8
176
     1
 66
     7
176
     1
 43
1.0
176
     1
 76
     1
176
     1
 77
     6
176
     1
 78
     2
176
     1
 67
     7
176
     1
 79
     5
176
     1
170
     0
176
     1
171
     0
176
     1
290
     0
176
     1
 93
        1
176
     1
 44
-50.0
176
     1
173
     0
176
     1
  0
VISUALSTYLE
  5
39
102
{ACAD_REACTORS
330
2A
102
}
330
2A
100
AcDbVisualStyle
  2
Facepattern
 70
    15
177
     2
291
     1
 71
     2
176
     1
 72
     2
176
     1
 73
     0
176
     1
 90
        0
176
     1
 40
-0.6
176
     1
 41
-30.0
176
     1
 62
     5
 63
     7
421
 16777215
176
     1
 74
     1
176
     1
 91
        4
176
     1
 64
     7
176
     1
 65
   257
176
     1
 75
     1
176
     1
175
     1
176
     1
 42
1.0
176
     1
 92
        8
176
     1
 66
     7
176
     1
 43
1.0
176
     1
 76
     1
176
     1
 77
     6
176
     1
 78
     2
176
     1
 67
     7
176
     1
 79
     5
176
     1
170
     0
176
     1
171
     0
176
     1
290
     0
176
     1
 93
        1
176
     1
 44
0.0
176
     1
173
     0
176
     1
  0
VISUALSTYLE
  5
2B
102
{ACAD_REACTORS
330
2A
102
}
330
2A
100
AcDbVisualStyle
  2
Flat
 70
     0
177
     2
291
     1
 71
     2
176
     1
 72
     1
176
     1
 73
     1
176
     1
 90
        2
176
     1
 40
-0.6
176
     1
 41
30.0
176
     1
 62
     5
 63
     7
421
 16777215
176
     1
 74
     0
176
     1
 91
        4
176
     1
 64
     7
176
     1
 65
   257
176
     1
 75
     1
176
     1
175
     1
176
     1
 42
1.0
176
     1
 92
        8
176
     1
 66
     7
176
     1
 43
1.0
176
     1
 76
     1
176
     1
 77
     6
176
     1
 78
     2
176
     1
 67
     7
176
     1
 79
     5
176
     1
170
     0
176
     1
171
     0
176
     1
290
     0
176
     1
 93
       13
176
     1
 44
0.0
176
     1
173
     0
176
     1
  0
VISUALSTYLE
  5
2C
102
{ACAD_REACTORS
330
2A
102
}
330
2A
100
AcDbVisualStyle
  2
FlatWithEdges
 70
     1
177
     2
291
     1
 71
     2
176
     1
 72
     1
176
     1
 73
     1
176
     1
 90
        2
176
     1
 40
-0.6
176
     1
 41
30.0
176
     1
 62
     5
 63
     7
421
 16777215
176
     1
 74
     1
176
     1
 91
        4
176
     1
 64
     7
176
     1
 65
   257
176
     1
 75
     1
176
     1
175
     1
176
     1
 42
1.0
176
     1
 92
        0
176
     1
 66
   257
176
     1
 43
1.0
176
     1
 76
     1
176
     1
 77
     6
176
     1
 78
     2
176
     1
 67
     7
176
     1
 79
     5
176
     1
170
     0
176
     1
171
     0
176
     1
290
     0
176
     1
 93
       13
176
     1
 44
0.0
176
     1
173
     0
176
     1
  0
VISUALSTYLE
  5
2D
102
{ACAD_REACTORS
330
2A
102
}
330
2A
100
AcDbVisualStyle
  2
Gouraud
 70
     2
177
     2
291
     1
 71
     2
176
     1
 72
     2
176
     1
 73
     1
176
     1
 90
        2
176
     1
 40
-0.6
176
     1
 41
30.0
176
     1
 62
     5
 63
     7
421
 16777215
176
     1
 74
     0
176
     1
 91
        4
176
     1
 64
     7
176
     1
 65
   257
176
     1
 75
     1
176
     1
175
     1
176
     1
 42
1.0
176
     1
 92
        0
176
     1
 66
     7
176
     1
 43
1.0
176
     1
 76
     1
176
     1
 77
     6
176
     1
 78
     2
176
     1
 67
     7
176
     1
 79
     5
176
     1
170
     0
176
     1
171
     0
176
     1
290
     0
176
     1
 93
       13
176
     1
 44
0.0
176
     1
173
     0
176
     1
  0
VISUALSTYLE
  5
2E
102
{ACAD_REACTORS
330
2A
102
}
330
2A
100
AcDbVisualStyle
  2
GouraudWithEdges
 70
     3
177
     2
291
     1
 71
     2
176
     1
 72
     2
176
     1
 73
     1
176
     1
 90
        2
176
     1
 40
-0.6
176
     1
 41
30.0
176
     1
 62
     5
 63
     7
421
 16777215
176
     1
 74
     1
176
     1
 91
        4
176
     1
 64
     7
176
     1
 65
   257
176
     1
 75
     1
176
     1
175
     1
176
     1
 42
1.0
176
     1
 92
        0
176
     1
 66
   257
176
     1
 43
1.0
176
     1
 76
     1
176
     1
 77
     6
176
     1
 78
     2
176
     1
 67
     7
176
     1
 79
     5
176
     1
170
     0
176
     1
171
     0
176
     1
290
     0
176
     1
 93
       13
176
     1
 44
0.0
176
     1
173
     0
176
     1
  0
VISUALSTYLE
  5
38
102
{ACAD_REACTORS
330
2A
102
}
330
2A
100
AcDbVisualStyle
  2
Linepattern
 70
    14
177
     2
291
     1
 71
     2
176
     1
 72
     2
176
     1
 73
     0
176
     1
 90
        0
176
     1
 40
-0.6
176
     1
 41
-30.0
176
     1
 62
     5
 63
     7
421
 16777215
176
     1
 74
     1
176
     1
 91
        4
176
     1
 64
     7
176
     1
 65
   257
176
     1
 75
     7
176
     1
175
     7
176
     1
 42
1.0
176
     1
 92
        8
176
     1
 66
     7
176
     1
 43
1.0
176
     1
 76
     1
176
     1
 77
     6
176
     1
 78
     2
176
     1
 67
     7
176
     1
 79
     5
176
     1
170
     0
176
     1
171
     0
176
     1
290
     0
176
     1
 93
        1
176
     1
 44
0.0
176
     1
173
     0
176
     1
  0
VISUALSTYLE
  5
33
102
{ACAD_REACTORS
330
2A
102
}
330
2A
100
AcDbVisualStyle
  2
Realistic
 70
     8
177
     2
291
     0
 71
     2
176
     1
 72
     2
176
     1
 73
     0
176
     1
 90
        0
176
     1
 40
-0.6
176
     1
 41
-30.0
176
     1
 62
     5
 63
     7
421
 16777215
176
     1
 74
     1
176
     1
 91
        0
176
     1
 64
     7
176
     1
 65
   257
176
     1
 75
     1
176
     1
175
     1
176
     1
 42
1.0
176
     1
 92
        8
176
     1
 66
     8
424
  7895160
176
     1
 43
1.0
176
     1
 76
     1
176
     1
 77
     6
176
     1
 78
     2
176
     1
 67
     7
176
     1
 79
     5
176
     1
170
     0
176
     1
171
     0
176
     1
290
     0
176
     1
 93
       13
176
     1
 44
0.0
176
     1
173
     0
176
     1
  0
VISUALSTYLE
  5
37
102
{ACAD_REACTORS
330
2A
102
}
330
2A
100
AcDbVisualStyle
  2
Thicken
 70
    13
177
     2
291
     1
 71
     2
176
     1
 72
     2
176
     1
 73
     0
176
     1
 90
        0
176
     1
 40
-0.6
176
     1
 41
-30.0
176
     1
 62
     5
 63
     7
421
 16777215
176
     1
 74
     1
176
     1
 91
        4
176
     1
 64
     7
176
     1
 65
   257
176
     1
 75
     1
176
     1
175
     1
176
     1
 42
1.0
176
     1
 92
       12
176
     1
 66
     7
176
     1
 43
1.0
176
     1
 76
     1
176
     1
 77
     6
176
     1
 78
     2
176
     1
 67
     7
176
     1
 79
     5
176
     1
170
     0
176
     1
171
     0
176
     1
290
     0
176
     1
 93
        1
176
     1
 44
0.0
176
     1
173
     0
176
     1
  0
ENDSEC
  0
EOF
