  0
SECTION
  2
HEADER
  9
$ACADVER
  1
AC1024
  9
$ACADMAINTVER
 70
     6
  9
$DWGCODEPAGE
  3
UNDEFINED
  9
$INSBASE
 10
0.0
 20
0.0
 30
0.0
  9
$EXTMIN
 10
1.000000000000000E+20
 20
1.000000000000000E+20
 30
1.000000000000000E+20
  9
$EXTMAX
 10
-1.000000000000000E+20
 20
-1.000000000000000E+20
 30
-1.000000000000000E+20
  9
$LIMMIN
 10
0.0
 20
0.0
  9
$LIMMAX
 10
12.0
 20
9.0
  9
$ORTHOMODE
 70
     0
  9
$REGENMODE
 70
     1
  9
$FILLMODE
 70
     1
  9
$QTEXTMODE
 70
     0
  9
$MIRRTEXT
 70
     1
  9
$LTSCALE
 40
1.0
  9
$ATTMODE
 70
     1
  9
$TEXTSIZE
 40
0.2
  9
$TRACEWID
 40
0.05
  9
$TEXTSTYLE
  7
Standard
  9
$CLAYER
  8
0
  9
$CELTYPE
  6
ByLayer
  9
$CECOLOR
 62
   256
  9
$CELTSCALE
 40
1.0
  9
$DISPSILH
 70
     0
  9
$DIMSCALE
 40
1.0
  9
$DIMASZ
 40
0.18
  9
$DIMEXO
 40
0.0625
  9
$DIMDLI
 40
0.38
  9
$DIMRND
 40
0.0
  9
$DIMDLE
 40
0.0
  9
$DIMEXE
 40
0.18
  9
$DIMTP
 40
0.0
  9
$DIMTM
 40
0.0
  9
$DIMTXT
 40
0.18
  9
$DIMCEN
 40
0.09
  9
$DIMTSZ
 40
0.0
  9
$DIMTOL
 70
     0
  9
$DIMLIM
 70
     0
  9
$DIMTIH
 70
     1
  9
$DIMTOH
 70
     1
  9
$DIMSE1
 70
     0
  9
$DIMSE2
 70
     0
  9
$DIMTAD
 70
     0
  9
$DIMZIN
 70
     0
  9
$DIMBLK
  1

  9
$DIMASO
 70
     1
  9
$DIMSHO
 70
     1
  9
$DIMPOST
  1

  9
$DIMAPOST
  1

  9
$DIMALT
 70
     0
  9
$DIMALTD
 70
     2
  9
$DIMALTF
 40
25.4
  9
$DIMLFAC
 40
1.0
  9
$DIMTOFL
 70
     0
  9
$DIMTVP
 40
0.0
  9
$DIMTIX
 70
     0
  9
$DIMSOXD
 70
     0
  9
$DIMSAH
 70
     0
  9
$DIMBLK1
  1

  9
$DIMBLK2
  1

  9
$DIMSTYLE
  2
Standard
  9
$DIMCLRD
 70
     0
  9
$DIMCLRE
 70
     0
  9
$DIMCLRT
 70
     0
  9
$DIMTFAC
 40
1.0
  9
$DIMGAP
 40
0.09
  9
$DIMJUST
 70
     0
  9
$DIMSD1
 70
     0
  9
$DIMSD2
 70
     0
  9
$DIMTOLJ
 70
     1
  9
$DIMTZIN
 70
     0
  9
$DIMALTZ
 70
     0
  9
$DIMALTTZ
 70
     0
  9
$DIMUPT
 70
     0
  9
$DIMDEC
 70
     4
  9
$DIMTDEC
 70
     4
  9
$DIMALTU
 70
     2
  9
$DIMALTTD
 70
     2
  9
$DIMTXSTY
  7
Standard
  9
$DIMAUNIT
 70
     0
  9
$DIMADEC
 70
     0
  9
$DIMALTRND
 40
0.0
  9
$DIMAZIN
 70
     0
  9
$DIMDSEP
 70
    46
  9
$DIMATFIT
 70
     3
  9
$DIMFRAC
 70
     0
  9
$DIMLDRBLK
  1

  9
$DIMLUNIT
 70
     2
  9
$DIMLWD
 70
    -2
  9
$DIMLWE
 70
    -2
  9
$DIMTMOVE
 70
     0
  9
$DIMFXL
 40
1.0
  9
$DIMFXLON
 70
     0
  9
$DIMJOGANG
 40
0.7853981633974483
  9
$DIMTFILL
 70
     0
  9
$DIMTFILLCLR
 70
     0
  9
$DIMARCSYM
 70
     0
  9
$DIMLTYPE
  6

  9
$DIMLTEX1
  6

  9
$DIMLTEX2
  6

  9
$DIMTXTDIRECTION
 70
     0
  9
$LUNITS
 70
     2
  9
$LUPREC
 70
     4
  9
$SKETCHINC
 40
0.1
  9
$FILLETRAD
 40
0.5
  9
$AUNITS
 70
     0
  9
$AUPREC
 70
     0
  9
$MENU
  1
.
  9
$ELEVATION
 40
0.0
  9
$PELEVATION
 40
0.0
  9
$THICKNESS
 40
0.0
  9
$LIMCHECK
 70
     0
  9
$CHAMFERA
 40
0.5
  9
$CHAMFERB
 40
0.5
  9
$CHAMFERC
 40
1.0
  9
$CHAMFERD
 40
0.0
  9
$SKPOLY
 70
     0
  9
$TDCREATE
 40
2458263.582222222
  9
$TDUCREATE
 40
2458263.207222222
  9
$TDUPDATE
 40
2458263.582222222
  9
$TDUUPDATE
 40
2458263.207222222
  9
$TDINDWG
 40
0.0000000116
  9
$TDUSRTIMER
 40
0.0000000116
  9
$USRTIMER
 70
     1
  9
$ANGBASE
 50
0.0
  9
$ANGDIR
 70
     0
  9
$PDMODE
 70
     0
  9
$PDSIZE
 40
0.0
  9
$PLINEWID
 40
0.0
  9
$SPLFRAME
 70
     0
  9
$SPLINETYPE
 70
     6
  9
$SPLINESEGS
 70
     8
  9
$HANDSEED
  5
DD
  9
$SURFTAB1
 70
     6
  9
$SURFTAB2
 70
     6
  9
$SURFTYPE
 70
     6
  9
$SURFU
 70
     6
  9
$SURFV
 70
     6
  9
$UCSBASE
  2

  9
$UCSNAME
  2

  9
$UCSORG
 10
0.0
 20
0.0
 30
0.0
  9
$UCSXDIR
 10
1.0
 20
0.0
 30
0.0
  9
$UCSYDIR
 10
0.0
 20
1.0
 30
0.0
  9
$UCSORTHOREF
  2

  9
$UCSORTHOVIEW
 70
     0
  9
$UCSORGTOP
 10
0.0
 20
0.0
 30
0.0
  9
$UCSORGBOTTOM
 10
0.0
 20
0.0
 30
0.0
  9
$UCSORGLEFT
 10
0.0
 20
0.0
 30
0.0
  9
$UCSORGRIGHT
 10
0.0
 20
0.0
 30
0.0
  9
$UCSORGFRONT
 10
0.0
 20
0.0
 30
0.0
  9
$UCSORGBACK
 10
0.0
 20
0.0
 30
0.0
  9
$PUCSBASE
  2

  9
$PUCSNAME
  2

  9
$PUCSORG
 10
0.0
 20
0.0
 30
0.0
  9
$PUCSXDIR
 10
1.0
 20
0.0
 30
0.0
  9
$PUCSYDIR
 10
0.0
 20
1.0
 30
0.0
  9
$PUCSORTHOREF
  2

  9
$PUCSORTHOVIEW
 70
     0
  9
$PUCSORGTOP
 10
0.0
 20
0.0
 30
0.0
  9
$PUCSORGBOTTOM
 10
0.0
 20
0.0
 30
0.0
  9
$PUCSORGLEFT
 10
0.0
 20
0.0
 30
0.0
  9
$PUCSORGRIGHT
 10
0.0
 20
0.0
 30
0.0
  9
$PUCSORGFRONT
 10
0.0
 20
0.0
 30
0.0
  9
$PUCSORGBACK
 10
0.0
 20
0.0
 30
0.0
  9
$USERI1
 70
     0
  9
$USERI2
 70
     0
  9
$USERI3
 70
     0
  9
$USERI4
 70
     0
  9
$USERI5
 70
     0
  9
$USERR1
 40
0.0
  9
$USERR2
 40
0.0
  9
$USERR3
 40
0.0
  9
$USERR4
 40
0.0
  9
$USERR5
 40
0.0
  9
$WORLDVIEW
 70
     1
  9
$SHADEDGE
 70
     3
  9
$SHADEDIF
 70
    70
  9
$TILEMODE
 70
     1
  9
$MAXACTVP
 70
    64
  9
$PINSBASE
 10
0.0
 20
0.0
 30
0.0
  9
$PLIMCHECK
 70
     0
  9
$PEXTMIN
 10
1.000000000000000E+20
 20
1.000000000000000E+20
 30
1.000000000000000E+20
  9
$PEXTMAX
 10
-1.000000000000000E+20
 20
-1.000000000000000E+20
 30
-1.000000000000000E+20
  9
$PLIMMIN
 10
0.0
 20
0.0
  9
$PLIMMAX
 10
12.0
 20
9.0
  9
$UNITMODE
 70
     0
  9
$VISRETAIN
 70
     1
  9
$PLINEGEN
 70
     0
  9
$PSLTSCALE
 70
     1
  9
$TREEDEPTH
 70
  3020
  9
$CMLSTYLE
  2
Standard
  9
$CMLJUST
 70
     0
  9
$CMLSCALE
 40
1.0
  9
$PROXYGRAPHICS
 70
     1
  9
$MEASUREMENT
 70
     0
  9
$CELWEIGHT
370
    -1
  9
$ENDCAPS
280
     0
  9
$JOINSTYLE
280
     0
  9
$LWDISPLAY
290
     1
  9
$INSUNITS
 70
     1
  9
$HYPERLINKBASE
  1

  9
$STYLESHEET
  1

  9
$XEDIT
290
     1
  9
$CEPSNTYPE
380
     0
  9
$PSTYLEMODE
290
     1
  9
$FINGERPRINTGUID
  2
{FA7E032A-6106-79EF-6026-96AD93A29C60}
  9
$VERSIONGUID
  2
{FAEB1C32-E019-11D5-929B-00C0DF256EC4}
  9
$EXTNAMES
290
     1
  9
$PSVPSCALE
 40
0.0
  9
$OLESTARTUP
290
     0
  9
$SORTENTS
280
   127
  9
$INDEXCTL
280
     0
  9
$HIDETEXT
280
     1
  9
$XCLIPFRAME
280
     2
  9
$HALOGAP
280
     0
  9
$OBSCOLOR
 70
   257
  9
$OBSLTYPE
280
     0
  9
$INTERSECTIONDISPLAY
280
     0
  9
$INTERSECTIONCOLOR
 70
   257
  9
$DIMASSOC
280
     2
  9
$PROJECTNAME
  1

  9
$CAMERADISPLAY
290
     0
  9
$LENSLENGTH
 40
50.0
  9
$CAMERAHEIGHT
 40
0.0
  9
$STEPSPERSEC
 40
2.0
  9
$STEPSIZE
 40
6.0
  9
$3DDWFPREC
 40
2.0
  9
$PSOLWIDTH
 40
0.25
  9
$PSOLHEIGHT
 40
4.0
  9
$LOFTANG1
 40
1.570796326794897
  9
$LOFTANG2
 40
1.570796326794897
  9
$LOFTMAG1
 40
0.0
  9
$LOFTMAG2
 40
0.0
  9
$LOFTPARAM
 70
     7
  9
$LOFTNORMALS
280
     1
  9
$LATITUDE
 40
37.795
  9
$LONGITUDE
 40
-122.394
  9
$NORTHDIRECTION
 40
0.0
  9
$TIMEZONE
 70
 -8000
  9
$LIGHTGLYPHDISPLAY
280
     1
  9
$TILEMODELIGHTSYNCH
280
     1
  9
$CMATERIAL
347
3C
  9
$SOLIDHIST
280
     1
  9
$SHOWHIST
280
     1
  9
$DWFFRAME
280
     2
  9
$DGNFRAME
280
     2
  9
$REALWORLDSCALE
290
     1
  9
$INTERFERECOLOR
 62
   256
  9
$CSHADOW
280
     0
  9
$SHADOWPLANELOCATION
 40
0.0
  0
ENDSEC
  0
SECTION
  2
CLASSES
  0
CLASS
  1
ACDBDICTIONARYWDFLT
  2
AcDbDictionaryWithDefault
  3
ObjectDBX Classes
 90
        0
 91
        4
280
     0
281
     0
  0
CLASS
  1
VISUALSTYLE
  2
AcDbVisualStyle
  3
ObjectDBX Classes
 90
     4095
 91
        4
280
     0
281
     0
  0
CLASS
  1
MATERIAL
  2
AcDbMaterial
  3
ObjectDBX Classes
 90
     1153
 91
        4
280
     0
281
     0
  0
CLASS
  1
SUN
  2
AcDbSun
  3
SCENEOE
 90
     1024
 91
        4
280
     0
281
     0
  0
ENDSEC
  0
SECTION
  2
TABLES
  0
TABLE
  2
VPORT
  5
8
330
0
100
AcDbSymbolTable
 70
     1
  0
VPORT
  5
29
330
8
100
AcDbSymbolTableRecord
100
AcDbViewportTableRecord
  2
*Active
 70
     0
 10
0.0
 20
0.0
 11
1.0
 21
1.0
 12
0.0
 22
0.0
 13
0.0
 23
0.0
 14
0.5
 24
0.5
 15
0.5
 25
0.5
 16
0.0
 26
0.0
 36
1.0
 17
105.0007777515277
 27
-148.5000416295416
 37
0.0
 40
297.0000832590831
 41
0.7070757462376333
 42
50.0
 43
0.0
 44
0.0
 50
0.0
 51
0.0
 71
     0
 72
   100
 73
     1
 74
     3
 75
     0
 76
     0
 77
     0
 78
     0
281
     0
 65
     1
110
0.0
120
0.0
130
0.0
111
1.0
121
0.0
131
0.0
112
0.0
122
1.0
132
0.0
 79
     0
146
0.0
 60
     3
 61
     5
292
     1
282
     1
141
0.0
142
0.0
 63
   250
361
3F
  0
ENDTAB
  0
TABLE
  2
LTYPE
  5
5
330
0
100
AcDbSymbolTable
 70
     2
  0
LTYPE
  5
14
330
5
100
AcDbSymbolTableRecord
100
AcDbLinetypeTableRecord
  2
ByBlock
 70
     0
  3

 72
    65
 73
     0
 40
0.0
  0
LTYPE
  5
15
330
5
100
AcDbSymbolTableRecord
100
AcDbLinetypeTableRecord
  2
ByLayer
 70
     0
  3

 72
    65
 73
     0
 40
0.0
  0
LTYPE
  5
16
330
5
100
AcDbSymbolTableRecord
100
AcDbLinetypeTableRecord
  2
Continuous
 70
     0
  3
Solid line
 72
    65
 73
     0
 40
0.0
  0
LTYPE
  5
BE
330
5
100
AcDbSymbolTableRecord
100
AcDbLinetypeTableRecord
  2
AI-Linetype-1
 70
     0
  3
Adobe Illustrator Linetype No. 1
 72
    65
 73
     2
 40
1.411111110758333
 49
0.7055555553791667
 74
     0
 49
-0.7055555553791667
 74
     0
  0
ENDTAB
  0
TABLE
  2
LAYER
  5
2
330
0
100
AcDbSymbolTable
 70
     2
  0
LAYER
  5
10
330
2
100
AcDbSymbolTableRecord
100
AcDbLayerTableRecord
  2
0
 70
     0
 62
     7
  6
Continuous
370
    -3
390
F
347
3E
  0
LAYER
  5
40
330
2
100
AcDbSymbolTableRecord
100
AcDbLayerTableRecord
  2
_U+30EC_U+30A4_U+30E4_U+30FC 1
 70
     0
 62
     7
  6
Continuous
370
    -3
390
F
347
3E
  0
ENDTAB
  0
TABLE
  2
STYLE
  5
3
330
0
100
AcDbSymbolTable
 70
     1
  0
STYLE
  5
11
330
3
100
AcDbSymbolTableRecord
100
AcDbTextStyleTableRecord
  2
Standard
 70
     0
 40
0.0
 41
1.0
 50
0.0
 71
     0
 42
0.2
  3
txt
  4

  0
ENDTAB
  0
TABLE
  2
VIEW
  5
6
330
0
100
AcDbSymbolTable
 70
     0
  0
ENDTAB
  0
TABLE
  2
UCS
  5
7
330
0
100
AcDbSymbolTable
 70
     0
  0
ENDTAB
  0
TABLE
  2
APPID
  5
9
330
0
100
AcDbSymbolTable
 70
     1
  0
APPID
  5
12
330
9
100
AcDbSymbolTableRecord
100
AcDbRegAppTableRecord
  2
ACAD
 70
     0
  0
ENDTAB
  0
TABLE
  2
DIMSTYLE
  5
A
330
0
100
AcDbSymbolTable
 70
     1
100
AcDbDimStyleTable
  0
DIMSTYLE
105
27
330
A
100
AcDbSymbolTableRecord
100
AcDbDimStyleTableRecord
  2
Standard
 70
     0
178
     0
340
11
  0
ENDTAB
  0
TABLE
  2
BLOCK_RECORD
  5
1
330
0
100
AcDbSymbolTable
 70
     6
  0
BLOCK_RECORD
  5
1F
330
1
100
AcDbSymbolTableRecord
100
AcDbBlockTableRecord
  2
*Model_Space
340
22
 70
     0
280
     1
281
     0
  0
BLOCK_RECORD
  5
1B
330
1
100
AcDbSymbolTableRecord
100
AcDbBlockTableRecord
  2
*Paper_Space
340
1E
 70
     0
280
     1
281
     0
  0
BLOCK_RECORD
  5
23
330
1
100
AcDbSymbolTableRecord
100
AcDbBlockTableRecord
  2
*Paper_Space0
340
26
 70
     0
280
     1
281
     0
  0
BLOCK_RECORD
  5
7B
330
1
100
AcDbSymbolTableRecord
100
AcDbBlockTableRecord
  2
block 2
340
0
102
{BLKREFS
331
7C
102
}
 70
     0
280
     1
281
     0
  0
BLOCK_RECORD
  5
95
330
1
100
AcDbSymbolTableRecord
100
AcDbBlockTableRecord
  2
block 3
340
0
102
{BLKREFS
331
96
102
}
 70
     0
280
     1
281
     0
  0
BLOCK_RECORD
  5
B1
330
1
100
AcDbSymbolTableRecord
100
AcDbBlockTableRecord
  2
block 4
340
0
102
{BLKREFS
331
B2
102
}
 70
     0
280
     1
281
     0
  0
BLOCK_RECORD
  5
C2
330
1
100
AcDbSymbolTableRecord
100
AcDbBlockTableRecord
  2
block 5
340
0
102
{BLKREFS
331
C3
102
}
 70
     0
280
     1
281
     0
  0
BLOCK_RECORD
  5
D5
330
1
100
AcDbSymbolTableRecord
100
AcDbBlockTableRecord
  2
block 6
340
0
102
{BLKREFS
331
D6
102
}
 70
     0
280
     1
281
     0
  0
ENDTAB
  0
ENDSEC
  0
SECTION
  2
BLOCKS
  0
BLOCK
  5
20
330
1F
100
AcDbEntity
  8
0
100
AcDbBlockBegin
  2
*Model_Space
 70
     0
 10
0.0
 20
0.0
 30
0.0
  3
*Model_Space
  1

  0
ENDBLK
  5
21
330
1F
100
AcDbEntity
  8
0
100
AcDbBlockEnd
  0
BLOCK
  5
1C
330
1B
100
AcDbEntity
 67
     1
  8
0
100
AcDbBlockBegin
  2
*Paper_Space
 70
     0
 10
0.0
 20
0.0
 30
0.0
  3
*Paper_Space
  1

  0
ENDBLK
  5
1D
330
1B
100
AcDbEntity
 67
     1
  8
0
100
AcDbBlockEnd
  0
BLOCK
  5
24
330
23
100
AcDbEntity
  8
0
100
AcDbBlockBegin
  2
*Paper_Space0
 70
     0
 10
0.0
 20
0.0
 30
0.0
  3
*Paper_Space0
  1

  0
ENDBLK
  5
25
330
23
100
AcDbEntity
  8
0
100
AcDbBlockEnd
  0
BLOCK
  5
7D
330
7B
100
AcDbEntity
  8
0
100
AcDbBlockBegin
  2
block 2
 70
     0
 10
0.0
 20
0.0
 30
0.0
  3
block 2
  1

  0
SPLINE
  5
7F
330
7B
100
AcDbEntity
  8
_U+30EC_U+30A4_U+30E4_U+30FC 1
370
     0
100
AcDbSpline
210
0.0
220
0.0
230
1.0
 70
    11
 71
     3
 72
    26
 73
    22
 74
     0
 42
0.0000000001
 43
0.0000000001
 12
1.0
 22
0.0
 32
0.0
 13
1.0
 23
0.0
 33
0.0
 40
0.0
 40
0.0
 40
0.0
 40
0.0
 40
1.0
 40
1.0
 40
1.0
 40
2.0
 40
2.0
 40
2.0
 40
3.0
 40
3.0
 40
3.0
 40
4.0
 40
4.0
 40
4.0
 40
5.0
 40
5.0
 40
5.0
 40
6.0
 40
6.0
 40
6.0
 40
7.0
 40
7.0
 40
7.0
 40
7.0
 10
102.2998711224285
 20
-155.9336344011208
 30
0.0
 10
102.2998711224285
 20
-155.9336344011208
 30
0.0
 10
102.2998711224285
 20
-154.8294812980982
 30
0.0
 10
102.2998711224285
 20
-154.8294812980982
 30
0.0
 10
102.2998711224285
 20
-154.8294812980982
 30
0.0
 10
101.9470933447389
 20
-154.8294812980982
 30
0.0
 10
101.9470933447389
 20
-154.8294812980982
 30
0.0
 10
101.9470933447389
 20
-154.8294812980982
 30
0.0
 10
101.9470933447389
 20
-154.6813421922324
 30
0.0
 10
101.9470933447389
 20
-154.6813421922324
 30
0.0
 10
102.3021104344939
 20
-154.6665282816459
 30
0.0
 10
102.3518920642558
 20
-154.5035752651935
 30
0.0
 10
102.3834146879458
 20
-154.3891980950833
 30
0.0
 10
102.3834146879458
 20
-154.3891980950833
 30
0.0
 10
102.5394775134276
 20
-154.3891980950833
 30
0.0
 10
102.5394775134276
 20
-154.3891980950833
 30
0.0
 10
102.5394775134276
 20
-154.3891980950833
 30
0.0
 10
102.5394775134276
 20
-155.9336344011208
 30
0.0
 10
102.5394775134276
 20
-155.9336344011208
 30
0.0
 10
102.5394775134276
 20
-155.9336344011208
 30
0.0
 10
102.2998711224285
 20
-155.9336344011208
 30
0.0
 10
102.2998711224285
 20
-155.9336344011208
 30
0.0
  0
HATCH
  5
80
330
7B
100
AcDbEntity
  8
_U+30EC_U+30A4_U+30E4_U+30FC 1
 62
   179
420
  2234388
100
AcDbHatch
 10
0.0
 20
0.0
 30
0.0
210
0.0
220
0.0
230
1.0
  2
SOLID
 70
     1
 71
     0
 91
        1
 92
        1
 93
        1
 72
     4
 94
        3
 73
     0
 74
     1
 95
       26
 96
       22
 40
0.0
 40
0.0
 40
0.0
 40
0.0
 40
1.0
 40
1.0
 40
1.0
 40
2.0
 40
2.0
 40
2.0
 40
3.0
 40
3.0
 40
3.0
 40
4.0
 40
4.0
 40
4.0
 40
5.0
 40
5.0
 40
5.0
 40
6.0
 40
6.0
 40
6.0
 40
7.0
 40
7.0
 40
7.0
 40
7.0
 10
102.2998711224285
 20
-155.9336344011208
 10
102.2998711224285
 20
-155.9336344011208
 10
102.2998711224285
 20
-154.8294812980982
 10
102.2998711224285
 20
-154.8294812980982
 10
102.2998711224285
 20
-154.8294812980982
 10
101.9470933447389
 20
-154.8294812980982
 10
101.9470933447389
 20
-154.8294812980982
 10
101.9470933447389
 20
-154.8294812980982
 10
101.9470933447389
 20
-154.6813421922324
 10
101.9470933447389
 20
-154.6813421922324
 10
102.3021104344939
 20
-154.6665282816459
 10
102.3518920642558
 20
-154.5035752651935
 10
102.3834146879458
 20
-154.3891980950833
 10
102.3834146879458
 20
-154.3891980950833
 10
102.5394775134276
 20
-154.3891980950833
 10
102.5394775134276
 20
-154.3891980950833
 10
102.5394775134276
 20
-154.3891980950833
 10
102.5394775134276
 20
-155.9336344011208
 10
102.5394775134276
 20
-155.9336344011208
 10
102.5394775134276
 20
-155.9336344011208
 10
102.2998711224285
 20
-155.9336344011208
 10
102.2998711224285
 20
-155.9336344011208
 97
        0
 97
        0
 75
     2
 76
     1
 98
        0
  0
SPLINE
  5
81
330
7B
100
AcDbEntity
  8
_U+30EC_U+30A4_U+30E4_U+30FC 1
370
     0
100
AcDbSpline
210
0.0
220
0.0
230
1.0
 70
    11
 71
     3
 72
    29
 73
    25
 74
     0
 42
0.0000000001
 43
0.0000000001
 12
1.0
 22
0.0
 32
0.0
 13
1.0
 23
0.0
 33
0.0
 40
0.0
 40
0.0
 40
0.0
 40
0.0
 40
1.0
 40
1.0
 40
1.0
 40
2.0
 40
2.0
 40
2.0
 40
3.0
 40
3.0
 40
3.0
 40
4.0
 40
4.0
 40
4.0
 40
5.0
 40
5.0
 40
5.0
 40
6.0
 40
6.0
 40
6.0
 40
7.0
 40
7.0
 40
7.0
 40
8.0
 40
8.0
 40
8.0
 40
8.0
 10
103.6096964259205
 20
-155.9842773047539
 30
0.0
 10
103.3247870292903
 20
-155.9842773047539
 30
0.0
 10
103.0534857598269
 20
-155.8468179948925
 30
0.0
 10
103.0534857598269
 20
-155.4978298222367
 30
0.0
 10
103.0534857598269
 20
-155.2418592276826
 30
0.0
 10
103.2048977064036
 20
-155.1467745922897
 30
0.0
 10
103.3180690930941
 20
-155.0854518926523
 30
0.0
 10
103.1845716430407
 20
-155.026196250306
 30
0.0
 10
103.1032673895888
 20
-154.9118190801957
 30
0.0
 10
103.1032673895888
 20
-154.7509331210345
 30
0.0
 10
103.1032673895888
 20
-154.4760145013116
 30
0.0
 10
103.3156575262544
 20
-154.3406222487412
 30
0.0
 10
103.6096964259205
 20
-154.3406222487412
 30
0.0
 10
103.9126925738482
 20
-154.3406222487412
 30
0.0
 10
104.1161254622522
 20
-154.4846272400247
 30
0.0
 10
104.1161254622522
 20
-154.7509331210345
 30
0.0
 10
104.1161254622522
 20
-154.9118190801957
 30
0.0
 10
104.0324096419607
 20
-155.026196250306
 30
0.0
 10
103.8990844466815
 20
-155.0854518926523
 30
0.0
 10
103.9939968273001
 20
-155.1360947962854
 30
0.0
 10
104.1634955251744
 20
-155.2311794316783
 30
0.0
 10
104.1634955251744
 20
-155.4936957076544
 30
0.0
 10
104.1634955251744
 20
-155.868177586901
 30
0.0
 10
103.8651502561518
 20
-155.9842773047539
 30
0.0
 10
103.6096964259205
 20
-155.9842773047539
 30
0.0
  0
SPLINE
  5
82
330
7B
100
AcDbEntity
  8
_U+30EC_U+30A4_U+30E4_U+30FC 1
370
     0
100
AcDbSpline
210
0.0
220
0.0
230
1.0
 70
    11
 71
     3
 72
    17
 73
    13
 74
     0
 42
0.0000000001
 43
0.0000000001
 12
1.0
 22
0.0
 32
0.0
 13
1.0
 23
0.0
 33
0.0
 40
0.0
 40
0.0
 40
0.0
 40
0.0
 40
1.0
 40
1.0
 40
1.0
 40
2.0
 40
2.0
 40
2.0
 40
3.0
 40
3.0
 40
3.0
 40
4.0
 40
4.0
 40
4.0
 40
4.0
 10
103.6096964259205
 20
-155.1932833813406
 30
0.0
 10
103.4558729125041
 20
-155.1932833813406
 30
0.0
 10
103.293092150826
 20
-155.2800997875689
 30
0.0
 10
103.293092150826
 20
-155.4830159116501
 30
0.0
 10
103.293092150826
 20
-155.688343602571
 30
0.0
 10
103.4288289129449
 20
-155.7896294098373
 30
0.0
 10
103.6096964259205
 20
-155.7896294098373
 30
0.0
 10
103.8086506901937
 20
-155.7896294098373
 30
0.0
 10
103.9261284462407
 20
-155.6669840105624
 30
0.0
 10
103.9261284462407
 20
-155.4892170835235
 30
0.0
 10
103.9261284462407
 20
-155.2673529342734
 30
0.0
 10
103.7521511242356
 20
-155.1932833813406
 30
0.0
 10
103.6096964259205
 20
-155.1932833813406
 30
0.0
  0
SPLINE
  5
83
330
7B
100
AcDbEntity
  8
_U+30EC_U+30A4_U+30E4_U+30FC 1
370
     0
100
AcDbSpline
210
0.0
220
0.0
230
1.0
 70
    11
 71
     3
 72
    17
 73
    13
 74
     0
 42
0.0000000001
 43
0.0000000001
 12
1.0
 22
0.0
 32
0.0
 13
1.0
 23
0.0
 33
0.0
 40
0.0
 40
0.0
 40
0.0
 40
0.0
 40
1.0
 40
1.0
 40
1.0
 40
2.0
 40
2.0
 40
2.0
 40
3.0
 40
3.0
 40
3.0
 40
4.0
 40
4.0
 40
4.0
 40
4.0
 10
103.6096964259205
 20
-154.5332030863667
 30
0.0
 10
103.4333075370757
 20
-154.5332030863667
 30
0.0
 10
103.3428737805879
 20
-154.6282877217596
 30
0.0
 10
103.3428737805879
 20
-154.7636799743299
 30
0.0
 10
103.3428737805879
 20
-154.8863253736048
 30
0.0
 10
103.419699409909
 20
-155.0048366582974
 30
0.0
 10
103.6096964259205
 20
-155.0048366582974
 30
0.0
 10
103.7995211871578
 20
-155.0048366582974
 30
0.0
 10
103.8765190712531
 20
-154.8863253736048
 30
0.0
 10
103.8765190712531
 20
-154.7636799743299
 30
0.0
 10
103.8765190712531
 20
-154.6282877217596
 30
0.0
 10
103.7836737479256
 20
-154.5332030863667
 30
0.0
 10
103.6096964259205
 20
-154.5332030863667
 30
0.0
  0
HATCH
  5
84
330
7B
100
AcDbEntity
  8
_U+30EC_U+30A4_U+30E4_U+30FC 1
 62
   179
420
  2234388
100
AcDbHatch
 10
0.0
 20
0.0
 30
0.0
210
0.0
220
0.0
230
1.0
  2
SOLID
 70
     1
 71
     0
 91
        3
 92
        1
 93
        1
 72
     4
 94
        3
 73
     0
 74
     1
 95
       29
 96
       25
 40
0.0
 40
0.0
 40
0.0
 40
0.0
 40
1.0
 40
1.0
 40
1.0
 40
2.0
 40
2.0
 40
2.0
 40
3.0
 40
3.0
 40
3.0
 40
4.0
 40
4.0
 40
4.0
 40
5.0
 40
5.0
 40
5.0
 40
6.0
 40
6.0
 40
6.0
 40
7.0
 40
7.0
 40
7.0
 40
8.0
 40
8.0
 40
8.0
 40
8.0
 10
103.6096964259205
 20
-155.9842773047539
 10
103.3247870292903
 20
-155.9842773047539
 10
103.0534857598269
 20
-155.8468179948925
 10
103.0534857598269
 20
-155.4978298222367
 10
103.0534857598269
 20
-155.2418592276826
 10
103.2048977064036
 20
-155.1467745922897
 10
103.3180690930941
 20
-155.0854518926523
 10
103.1845716430407
 20
-155.026196250306
 10
103.1032673895888
 20
-154.9118190801957
 10
103.1032673895888
 20
-154.7509331210345
 10
103.1032673895888
 20
-154.4760145013116
 10
103.3156575262544
 20
-154.3406222487412
 10
103.6096964259205
 20
-154.3406222487412
 10
103.9126925738482
 20
-154.3406222487412
 10
104.1161254622522
 20
-154.4846272400247
 10
104.1161254622522
 20
-154.7509331210345
 10
104.1161254622522
 20
-154.9118190801957
 10
104.0324096419607
 20
-155.026196250306
 10
103.8990844466815
 20
-155.0854518926523
 10
103.9939968273001
 20
-155.1360947962854
 10
104.1634955251744
 20
-155.2311794316783
 10
104.1634955251744
 20
-155.4936957076544
 10
104.1634955251744
 20
-155.868177586901
 10
103.8651502561518
 20
-155.9842773047539
 10
103.6096964259205
 20
-155.9842773047539
 97
        0
 97
        0
 92
        1
 93
        1
 72
     4
 94
        3
 73
     0
 74
     1
 95
       17
 96
       13
 40
0.0
 40
0.0
 40
0.0
 40
0.0
 40
1.0
 40
1.0
 40
1.0
 40
2.0
 40
2.0
 40
2.0
 40
3.0
 40
3.0
 40
3.0
 40
4.0
 40
4.0
 40
4.0
 40
4.0
 10
103.6096964259205
 20
-155.1932833813406
 10
103.4558729125041
 20
-155.1932833813406
 10
103.293092150826
 20
-155.2800997875689
 10
103.293092150826
 20
-155.4830159116501
 10
103.293092150826
 20
-155.688343602571
 10
103.4288289129449
 20
-155.7896294098373
 10
103.6096964259205
 20
-155.7896294098373
 10
103.8086506901937
 20
-155.7896294098373
 10
103.9261284462407
 20
-155.6669840105624
 10
103.9261284462407
 20
-155.4892170835235
 10
103.9261284462407
 20
-155.2673529342734
 10
103.7521511242356
 20
-155.1932833813406
 10
103.6096964259205
 20
-155.1932833813406
 97
        0
 97
        0
 92
        1
 93
        1
 72
     4
 94
        3
 73
     0
 74
     1
 95
       17
 96
       13
 40
0.0
 40
0.0
 40
0.0
 40
0.0
 40
1.0
 40
1.0
 40
1.0
 40
2.0
 40
2.0
 40
2.0
 40
3.0
 40
3.0
 40
3.0
 40
4.0
 40
4.0
 40
4.0
 40
4.0
 10
103.6096964259205
 20
-154.5332030863667
 10
103.4333075370757
 20
-154.5332030863667
 10
103.3428737805879
 20
-154.6282877217596
 10
103.3428737805879
 20
-154.7636799743299
 10
103.3428737805879
 20
-154.8863253736048
 10
103.419699409909
 20
-155.0048366582974
 10
103.6096964259205
 20
-155.0048366582974
 10
103.7995211871578
 20
-155.0048366582974
 10
103.8765190712531
 20
-154.8863253736048
 10
103.8765190712531
 20
-154.7636799743299
 10
103.8765190712531
 20
-154.6282877217596
 10
103.7836737479256
 20
-154.5332030863667
 10
103.6096964259205
 20
-154.5332030863667
 97
        0
 97
        0
 75
     2
 76
     1
 98
        0
  0
ENDBLK
  5
7E
330
7B
100
AcDbEntity
  8
0
100
AcDbBlockEnd
  0
BLOCK
  5
97
330
95
100
AcDbEntity
  8
0
100
AcDbBlockBegin
  2
block 3
 70
     0
 10
0.0
 20
0.0
 30
0.0
  3
block 3
  1

  0
SPLINE
  5
99
330
95
100
AcDbEntity
  8
_U+30EC_U+30A4_U+30E4_U+30FC 1
370
     0
100
AcDbSpline
210
0.0
220
0.0
230
1.0
 70
    11
 71
     3
 72
    62
 73
    58
 74
     0
 42
0.0000000001
 43
0.0000000001
 12
1.0
 22
0.0
 32
0.0
 13
1.0
 23
0.0
 33
0.0
 40
0.0
 40
0.0
 40
0.0
 40
0.0
 40
1.0
 40
1.0
 40
1.0
 40
2.0
 40
2.0
 40
2.0
 40
3.0
 40
3.0
 40
3.0
 40
4.0
 40
4.0
 40
4.0
 40
5.0
 40
5.0
 40
5.0
 40
6.0
 40
6.0
 40
6.0
 40
7.0
 40
7.0
 40
7.0
 40
8.0
 40
8.0
 40
8.0
 40
9.0
 40
9.0
 40
9.0
 40
10.0
 40
10.0
 40
10.0
 40
11.0
 40
11.0
 40
11.0
 40
12.0
 40
12.0
 40
12.0
 40
13.0
 40
13.0
 40
13.0
 40
14.0
 40
14.0
 40
14.0
 40
15.0
 40
15.0
 40
15.0
 40
16.0
 40
16.0
 40
16.0
 40
17.0
 40
17.0
 40
17.0
 40
18.0
 40
18.0
 40
18.0
 40
19.0
 40
19.0
 40
19.0
 40
19.0
 10
114.8563828922929
 20
-145.8133219036508
 30
0.0
 10
114.8563828922929
 20
-145.9149522204657
 30
0.0
 10
114.8353678098328
 20
-146.1478406752686
 30
0.0
 10
114.6493326536293
 20
-146.281338125322
 30
0.0
 10
114.5370225408102
 20
-146.3604030667085
 30
0.0
 10
114.437803790835
 20
-146.3648816908394
 30
0.0
 10
114.3530544418979
 20
-146.3693603149702
 30
0.0
 10
114.3530544418979
 20
-146.3693603149702
 30
0.0
 10
114.3530544418979
 20
-146.1344048028761
 30
0.0
 10
114.3530544418979
 20
-146.1344048028761
 30
0.0
 10
114.4271239948307
 20
-146.1319932360365
 30
0.0
 10
114.6617349973762
 20
-146.1207966757094
 30
0.0
 10
114.6617349973762
 20
-145.8178005277817
 30
0.0
 10
114.6617349973762
 20
-145.6708672053358
 30
0.0
 10
114.5921440685742
 20
-145.5080864436577
 30
0.0
 10
114.3637342379021
 20
-145.5080864436577
 30
0.0
 10
114.2472900105007
 20
-145.5080864436577
 30
0.0
 10
114.1987141641587
 20
-145.5487385703836
 30
0.0
 10
114.1670192856944
 20
-145.5826727609134
 30
0.0
 10
114.0929497327615
 20
-145.6617377022999
 30
0.0
 10
114.0802028794661
 20
-145.7861056493174
 30
0.0
 10
114.0802028794661
 20
-145.8450167821152
 30
0.0
 10
114.0802028794661
 20
-145.8653428454781
 30
0.0
 10
114.0822699367572
 20
-145.9037556601386
 30
0.0
 10
114.0864040513395
 20
-145.9330389717633
 30
0.0
 10
114.0864040513395
 20
-145.9330389717633
 30
0.0
 10
113.8917561564229
 20
-145.9330389717633
 30
0.0
 10
113.8917561564229
 20
-145.9330389717633
 30
0.0
 10
113.8983018378449
 20
-145.8923868450373
 30
0.0
 10
113.900368895136
 20
-145.8472560941806
 30
0.0
 10
113.900368895136
 20
-145.8403659032101
 30
0.0
 10
113.900368895136
 20
-145.7702582100852
 30
0.0
 10
113.8790093031275
 20
-145.5578680734196
 30
0.0
 10
113.6423312432908
 20
-145.5578680734196
 30
0.0
 10
113.4645643162519
 20
-145.5578680734196
 30
0.0
 10
113.4094427884879
 20
-145.697911204895
 30
0.0
 10
113.4094427884879
 20
-145.8155612157163
 30
0.0
 10
113.4094427884879
 20
-146.098231300281
 30
0.0
 10
113.6423312432908
 20
-146.1071885485427
 30
0.0
 10
113.713989229384
 20
-146.1116671726735
 30
0.0
 10
113.713989229384
 20
-146.1116671726735
 30
0.0
 10
113.713989229384
 20
-146.3287081882442
 30
0.0
 10
113.713989229384
 20
-146.3287081882442
 30
0.0
 10
113.589276772818
 20
-146.3197509399826
 30
0.0
 10
113.2127278362802
 20
-146.2902953735837
 30
0.0
 10
113.2127278362802
 20
-145.8019530885495
 30
0.0
 10
113.2127278362802
 20
-145.5623466975504
 30
0.0
 10
113.3398518596859
 20
-145.3046535552537
 30
0.0
 10
113.6357855618688
 20
-145.3046535552537
 30
0.0
 10
113.8221652276209
 20
-145.3046535552537
 30
0.0
 10
113.9045030097183
 20
-145.4062838720686
 30
0.0
 10
113.9658257093558
 20
-145.5125650677885
 30
0.0
 10
113.9933864732378
 20
-145.4471082535688
 30
0.0
 10
114.0736571980441
 20
-145.2526326134264
 30
0.0
 10
114.3509873846067
 20
-145.2526326134264
 30
0.0
 10
114.6892957612582
 20
-145.2526326134264
 30
0.0
 10
114.8563828922929
 20
-145.5170436919194
 30
0.0
 10
114.8563828922929
 20
-145.8133219036508
 30
0.0
  0
HATCH
  5
9A
330
95
100
AcDbEntity
  8
_U+30EC_U+30A4_U+30E4_U+30FC 1
 62
   179
420
  2234388
100
AcDbHatch
 10
0.0
 20
0.0
 30
0.0
210
0.0
220
0.0
230
1.0
  2
SOLID
 70
     1
 71
     0
 91
        1
 92
        1
 93
        1
 72
     4
 94
        3
 73
     0
 74
     1
 95
       62
 96
       58
 40
0.0
 40
0.0
 40
0.0
 40
0.0
 40
1.0
 40
1.0
 40
1.0
 40
2.0
 40
2.0
 40
2.0
 40
3.0
 40
3.0
 40
3.0
 40
4.0
 40
4.0
 40
4.0
 40
5.0
 40
5.0
 40
5.0
 40
6.0
 40
6.0
 40
6.0
 40
7.0
 40
7.0
 40
7.0
 40
8.0
 40
8.0
 40
8.0
 40
9.0
 40
9.0
 40
9.0
 40
10.0
 40
10.0
 40
10.0
 40
11.0
 40
11.0
 40
11.0
 40
12.0
 40
12.0
 40
12.0
 40
13.0
 40
13.0
 40
13.0
 40
14.0
 40
14.0
 40
14.0
 40
15.0
 40
15.0
 40
15.0
 40
16.0
 40
16.0
 40
16.0
 40
17.0
 40
17.0
 40
17.0
 40
18.0
 40
18.0
 40
18.0
 40
19.0
 40
19.0
 40
19.0
 40
19.0
 10
114.8563828922929
 20
-145.8133219036508
 10
114.8563828922929
 20
-145.9149522204657
 10
114.8353678098328
 20
-146.1478406752686
 10
114.6493326536293
 20
-146.281338125322
 10
114.5370225408102
 20
-146.3604030667085
 10
114.437803790835
 20
-146.3648816908394
 10
114.3530544418979
 20
-146.3693603149702
 10
114.3530544418979
 20
-146.3693603149702
 10
114.3530544418979
 20
-146.1344048028761
 10
114.3530544418979
 20
-146.1344048028761
 10
114.4271239948307
 20
-146.1319932360365
 10
114.6617349973762
 20
-146.1207966757094
 10
114.6617349973762
 20
-145.8178005277817
 10
114.6617349973762
 20
-145.6708672053358
 10
114.5921440685742
 20
-145.5080864436577
 10
114.3637342379021
 20
-145.5080864436577
 10
114.2472900105007
 20
-145.5080864436577
 10
114.1987141641587
 20
-145.5487385703836
 10
114.1670192856944
 20
-145.5826727609134
 10
114.0929497327615
 20
-145.6617377022999
 10
114.0802028794661
 20
-145.7861056493174
 10
114.0802028794661
 20
-145.8450167821152
 10
114.0802028794661
 20
-145.8653428454781
 10
114.0822699367572
 20
-145.9037556601386
 10
114.0864040513395
 20
-145.9330389717633
 10
114.0864040513395
 20
-145.9330389717633
 10
113.8917561564229
 20
-145.9330389717633
 10
113.8917561564229
 20
-145.9330389717633
 10
113.8983018378449
 20
-145.8923868450373
 10
113.900368895136
 20
-145.8472560941806
 10
113.900368895136
 20
-145.8403659032101
 10
113.900368895136
 20
-145.7702582100852
 10
113.8790093031275
 20
-145.5578680734196
 10
113.6423312432908
 20
-145.5578680734196
 10
113.4645643162519
 20
-145.5578680734196
 10
113.4094427884879
 20
-145.697911204895
 10
113.4094427884879
 20
-145.8155612157163
 10
113.4094427884879
 20
-146.098231300281
 10
113.6423312432908
 20
-146.1071885485427
 10
113.713989229384
 20
-146.1116671726735
 10
113.713989229384
 20
-146.1116671726735
 10
113.713989229384
 20
-146.3287081882442
 10
113.713989229384
 20
-146.3287081882442
 10
113.589276772818
 20
-146.3197509399826
 10
113.2127278362802
 20
-146.2902953735837
 10
113.2127278362802
 20
-145.8019530885495
 10
113.2127278362802
 20
-145.5623466975504
 10
113.3398518596859
 20
-145.3046535552537
 10
113.6357855618688
 20
-145.3046535552537
 10
113.8221652276209
 20
-145.3046535552537
 10
113.9045030097183
 20
-145.4062838720686
 10
113.9658257093558
 20
-145.5125650677885
 10
113.9933864732378
 20
-145.4471082535688
 10
114.0736571980441
 20
-145.2526326134264
 10
114.3509873846067
 20
-145.2526326134264
 10
114.6892957612582
 20
-145.2526326134264
 10
114.8563828922929
 20
-145.5170436919194
 10
114.8563828922929
 20
-145.8133219036508
 97
        0
 97
        0
 75
     2
 76
     1
 98
        0
  0
POLYLINE
  5
9B
330
95
100
AcDbEntity
  8
_U+30EC_U+30A4_U+30E4_U+30FC 1
370
     0
100
AcDb2dPolyline
 66
     1
 10
0.0
 20
0.0
 30
0.0
  0
VERTEX
  5
9C
330
9B
100
AcDbEntity
  8
_U+30EC_U+30A4_U+30E4_U+30FC 1
370
     0
100
AcDbVertex
100
AcDb2dVertex
 10
114.8057399886597
 20
-145.0166435726868
 30
0.0
  0
VERTEX
  5
9D
330
9B
100
AcDbEntity
  8
_U+30EC_U+30A4_U+30E4_U+30FC 1
370
     0
100
AcDbVertex
100
AcDb2dVertex
 10
114.5539035086879
 20
-145.0166435726868
 30
0.0
  0
VERTEX
  5
9E
330
9B
100
AcDbEntity
  8
_U+30EC_U+30A4_U+30E4_U+30FC 1
370
     0
100
AcDbVertex
100
AcDb2dVertex
 10
114.5539035086879
 20
-144.7475816152888
 30
0.0
  0
VERTEX
  5
9F
330
9B
100
AcDbEntity
  8
_U+30EC_U+30A4_U+30E4_U+30FC 1
370
     0
100
AcDbVertex
100
AcDb2dVertex
 10
114.8057399886597
 20
-144.7475816152888
 30
0.0
  0
VERTEX
  5
A0
330
9B
100
AcDbEntity
  8
_U+30EC_U+30A4_U+30E4_U+30FC 1
370
     0
100
AcDbVertex
100
AcDb2dVertex
 10
114.8057399886597
 20
-145.0166435726868
 30
0.0
  0
SEQEND
  5
A1
330
9B
100
AcDbEntity
  8
_U+30EC_U+30A4_U+30E4_U+30FC 1
370
     0
  0
HATCH
  5
A2
330
95
100
AcDbEntity
  8
_U+30EC_U+30A4_U+30E4_U+30FC 1
 62
   179
420
  2234388
100
AcDbHatch
 10
0.0
 20
0.0
 30
0.0
210
0.0
220
0.0
230
1.0
  2
SOLID
 70
     1
 71
     0
 91
        1
 92
        1
 93
        4
 72
     1
 10
114.8057399886597
 20
-145.0166435726868
 11
114.5539035086879
 21
-145.0166435726868
 72
     1
 10
114.5539035086879
 20
-145.0166435726868
 11
114.5539035086879
 21
-144.7475816152888
 72
     1
 10
114.5539035086879
 20
-144.7475816152888
 11
114.8057399886597
 21
-144.7475816152888
 72
     1
 10
114.8057399886597
 20
-144.7475816152888
 11
114.8057399886597
 21
-145.0166435726868
 97
        0
 75
     2
 76
     1
 98
        0
  0
SPLINE
  5
A3
330
95
100
AcDbEntity
  8
_U+30EC_U+30A4_U+30E4_U+30FC 1
370
     0
100
AcDbSpline
210
0.0
220
0.0
230
1.0
 70
    11
 71
     3
 72
    53
 73
    49
 74
     0
 42
0.0000000001
 43
0.0000000001
 12
1.0
 22
0.0
 32
0.0
 13
1.0
 23
0.0
 33
0.0
 40
0.0
 40
0.0
 40
0.0
 40
0.0
 40
1.0
 40
1.0
 40
1.0
 40
2.0
 40
2.0
 40
2.0
 40
3.0
 40
3.0
 40
3.0
 40
4.0
 40
4.0
 40
4.0
 40
5.0
 40
5.0
 40
5.0
 40
6.0
 40
6.0
 40
6.0
 40
7.0
 40
7.0
 40
7.0
 40
8.0
 40
8.0
 40
8.0
 40
9.0
 40
9.0
 40
9.0
 40
10.0
 40
10.0
 40
10.0
 40
11.0
 40
11.0
 40
11.0
 40
12.0
 40
12.0
 40
12.0
 40
13.0
 40
13.0
 40
13.0
 40
14.0
 40
14.0
 40
14.0
 40
15.0
 40
15.0
 40
15.0
 40
16.0
 40
16.0
 40
16.0
 40
16.0
 10
114.8563828922929
 20
-143.9808756150464
 30
0.0
 10
114.8563828922929
 20
-144.064591435338
 30
0.0
 10
114.8395019244151
 20
-144.1731119431234
 30
0.0
 10
114.7761121674865
 20
-144.2816324509088
 30
0.0
 10
114.6662136215071
 20
-144.4669785880152
 30
0.0
 10
114.534955483519
 20
-144.4897162182179
 30
0.0
 10
114.4271239948307
 20
-144.5100422815808
 30
0.0
 10
114.4271239948307
 20
-144.5100422815808
 30
0.0
 10
114.4271239948307
 20
-144.2726752026471
 30
0.0
 10
114.4271239948307
 20
-144.2726752026471
 30
0.0
 10
114.6259060043296
 20
-144.2137640698493
 30
0.0
 10
114.6555338255028
 20
-144.0781995625048
 30
0.0
 10
114.6555338255028
 20
-143.978636302981
 30
0.0
 10
114.6555338255028
 20
-143.8294636684697
 30
0.0
 10
114.5559705659791
 20
-143.6666829067917
 30
0.0
 10
114.3234266207247
 20
-143.6666829067917
 30
0.0
 10
114.0674560261706
 20
-143.6666829067917
 30
0.0
 10
113.9975205878201
 20
-143.8589192348686
 30
0.0
 10
113.9975205878201
 20
-143.987765806017
 30
0.0
 10
113.9975205878201
 20
-144.0216999965467
 30
0.0
 10
113.9975205878201
 20
-144.1731119431234
 30
0.0
 10
114.1267116685169
 20
-144.268024323742
 30
0.0
 10
114.1267116685169
 20
-144.268024323742
 30
0.0
 10
114.1077636433481
 20
-144.4557820276881
 30
0.0
 10
114.1077636433481
 20
-144.4557820276881
 30
0.0
 10
114.1077636433481
 20
-144.4557820276881
 30
0.0
 10
113.2613036826222
 20
-144.3267632017655
 30
0.0
 10
113.2613036826222
 20
-144.3267632017655
 30
0.0
 10
113.2613036826222
 20
-144.3267632017655
 30
0.0
 10
113.2613036826222
 20
-143.4947726420777
 30
0.0
 10
113.2613036826222
 20
-143.4947726420777
 30
0.0
 10
113.2613036826222
 20
-143.4947726420777
 30
0.0
 10
113.4559515775388
 20
-143.4947726420777
 30
0.0
 10
113.4559515775388
 20
-143.4947726420777
 30
0.0
 10
113.4559515775388
 20
-143.4947726420777
 30
0.0
 10
113.4559515775388
 20
-144.1527858797604
 30
0.0
 10
113.4559515775388
 20
-144.1527858797604
 30
0.0
 10
113.4559515775388
 20
-144.1527858797604
 30
0.0
 10
113.8790093031275
 20
-144.2228935728853
 30
0.0
 10
113.8790093031275
 20
-144.2228935728853
 30
0.0
 10
113.845247367372
 20
-144.1572645038912
 30
0.0
 10
113.8049397501946
 20
-144.0690700594689
 30
0.0
 10
113.8049397501946
 20
-143.9424628003859
 30
0.0
 10
113.8049397501946
 20
-143.6711615309225
 30
0.0
 10
113.9913194159466
 20
-143.4179470127566
 30
0.0
 10
114.3044785955558
 20
-143.4179470127566
 30
0.0
 10
114.6217718897473
 20
-143.4179470127566
 30
0.0
 10
114.8563828922929
 20
-143.65772565853
 30
0.0
 10
114.8563828922929
 20
-143.9808756150464
 30
0.0
  0
HATCH
  5
A4
330
95
100
AcDbEntity
  8
_U+30EC_U+30A4_U+30E4_U+30FC 1
 62
   179
420
  2234388
100
AcDbHatch
 10
0.0
 20
0.0
 30
0.0
210
0.0
220
0.0
230
1.0
  2
SOLID
 70
     1
 71
     0
 91
        1
 92
        1
 93
        1
 72
     4
 94
        3
 73
     0
 74
     1
 95
       53
 96
       49
 40
0.0
 40
0.0
 40
0.0
 40
0.0
 40
1.0
 40
1.0
 40
1.0
 40
2.0
 40
2.0
 40
2.0
 40
3.0
 40
3.0
 40
3.0
 40
4.0
 40
4.0
 40
4.0
 40
5.0
 40
5.0
 40
5.0
 40
6.0
 40
6.0
 40
6.0
 40
7.0
 40
7.0
 40
7.0
 40
8.0
 40
8.0
 40
8.0
 40
9.0
 40
9.0
 40
9.0
 40
10.0
 40
10.0
 40
10.0
 40
11.0
 40
11.0
 40
11.0
 40
12.0
 40
12.0
 40
12.0
 40
13.0
 40
13.0
 40
13.0
 40
14.0
 40
14.0
 40
14.0
 40
15.0
 40
15.0
 40
15.0
 40
16.0
 40
16.0
 40
16.0
 40
16.0
 10
114.8563828922929
 20
-143.9808756150464
 10
114.8563828922929
 20
-144.064591435338
 10
114.8395019244151
 20
-144.1731119431234
 10
114.7761121674865
 20
-144.2816324509088
 10
114.6662136215071
 20
-144.4669785880152
 10
114.534955483519
 20
-144.4897162182179
 10
114.4271239948307
 20
-144.5100422815808
 10
114.4271239948307
 20
-144.5100422815808
 10
114.4271239948307
 20
-144.2726752026471
 10
114.4271239948307
 20
-144.2726752026471
 10
114.6259060043296
 20
-144.2137640698493
 10
114.6555338255028
 20
-144.0781995625048
 10
114.6555338255028
 20
-143.978636302981
 10
114.6555338255028
 20
-143.8294636684697
 10
114.5559705659791
 20
-143.6666829067917
 10
114.3234266207247
 20
-143.6666829067917
 10
114.0674560261706
 20
-143.6666829067917
 10
113.9975205878201
 20
-143.8589192348686
 10
113.9975205878201
 20
-143.987765806017
 10
113.9975205878201
 20
-144.0216999965467
 10
113.9975205878201
 20
-144.1731119431234
 10
114.1267116685169
 20
-144.268024323742
 10
114.1267116685169
 20
-144.268024323742
 10
114.1077636433481
 20
-144.4557820276881
 10
114.1077636433481
 20
-144.4557820276881
 10
114.1077636433481
 20
-144.4557820276881
 10
113.2613036826222
 20
-144.3267632017655
 10
113.2613036826222
 20
-144.3267632017655
 10
113.2613036826222
 20
-144.3267632017655
 10
113.2613036826222
 20
-143.4947726420777
 10
113.2613036826222
 20
-143.4947726420777
 10
113.2613036826222
 20
-143.4947726420777
 10
113.4559515775388
 20
-143.4947726420777
 10
113.4559515775388
 20
-143.4947726420777
 10
113.4559515775388
 20
-143.4947726420777
 10
113.4559515775388
 20
-144.1527858797604
 10
113.4559515775388
 20
-144.1527858797604
 10
113.4559515775388
 20
-144.1527858797604
 10
113.8790093031275
 20
-144.2228935728853
 10
113.8790093031275
 20
-144.2228935728853
 10
113.845247367372
 20
-144.1572645038912
 10
113.8049397501946
 20
-144.0690700594689
 10
113.8049397501946
 20
-143.9424628003859
 10
113.8049397501946
 20
-143.6711615309225
 10
113.9913194159466
 20
-143.4179470127566
 10
114.3044785955558
 20
-143.4179470127566
 10
114.6217718897473
 20
-143.4179470127566
 10
114.8563828922929
 20
-143.65772565853
 10
114.8563828922929
 20
-143.9808756150464
 97
        0
 97
        0
 75
     2
 76
     1
 98
        0
  0
ENDBLK
  5
98
330
95
100
AcDbEntity
  8
0
100
AcDbBlockEnd
  0
BLOCK
  5
B3
330
B1
100
AcDbEntity
  8
0
100
AcDbBlockBegin
  2
block 4
 70
     0
 10
0.0
 20
0.0
 30
0.0
  3
block 4
  1

  0
SPLINE
  5
B5
330
B1
100
AcDbEntity
  8
_U+30EC_U+30A4_U+30E4_U+30FC 1
370
     0
100
AcDbSpline
210
0.0
220
0.0
230
1.0
 70
    11
 71
     3
 72
    29
 73
    25
 74
     0
 42
0.0000000001
 43
0.0000000001
 12
1.0
 22
0.0
 32
0.0
 13
1.0
 23
0.0
 33
0.0
 40
0.0
 40
0.0
 40
0.0
 40
0.0
 40
1.0
 40
1.0
 40
1.0
 40
2.0
 40
2.0
 40
2.0
 40
3.0
 40
3.0
 40
3.0
 40
4.0
 40
4.0
 40
4.0
 40
5.0
 40
5.0
 40
5.0
 40
6.0
 40
6.0
 40
6.0
 40
7.0
 40
7.0
 40
7.0
 40
8.0
 40
8.0
 40
8.0
 40
8.0
 10
98.01830645336001
 20
-142.3346367374198
 30
0.0
 10
97.73339705672986
 20
-142.3346367374198
 30
0.0
 10
97.46209578726642
 20
-142.1971774275584
 30
0.0
 10
97.46209578726642
 20
-141.8481892549025
 30
0.0
 10
97.46209578726642
 20
-141.5922186603485
 30
0.0
 10
97.61350773384315
 20
-141.4971340249556
 30
0.0
 10
97.72667912053362
 20
-141.4358113253181
 30
0.0
 10
97.59318167048018
 20
-141.3765556829718
 30
0.0
 10
97.51187741702829
 20
-141.2621785128615
 30
0.0
 10
97.51187741702829
 20
-141.1012925537004
 30
0.0
 10
97.51187741702829
 20
-140.8263739339774
 30
0.0
 10
97.72426755369393
 20
-140.6909816814071
 30
0.0
 10
98.01830645336001
 20
-140.6909816814071
 30
0.0
 10
98.32130260128774
 20
-140.6909816814071
 30
0.0
 10
98.52473548969174
 20
-140.8349866726906
 30
0.0
 10
98.52473548969174
 20
-141.1012925537004
 30
0.0
 10
98.52473548969174
 20
-141.2621785128615
 30
0.0
 10
98.44101966940016
 20
-141.3765556829718
 30
0.0
 10
98.30769447412099
 20
-141.4358113253181
 30
0.0
 10
98.40260685473963
 20
-141.4864542289513
 30
0.0
 10
98.57210555261392
 20
-141.5815388643442
 30
0.0
 10
98.57210555261392
 20
-141.8440551403203
 30
0.0
 10
98.57210555261392
 20
-142.2185370195669
 30
0.0
 10
98.27376028359129
 20
-142.3346367374198
 30
0.0
 10
98.01830645336001
 20
-142.3346367374198
 30
0.0
  0
SPLINE
  5
B6
330
B1
100
AcDbEntity
  8
_U+30EC_U+30A4_U+30E4_U+30FC 1
370
     0
100
AcDbSpline
210
0.0
220
0.0
230
1.0
 70
    11
 71
     3
 72
    17
 73
    13
 74
     0
 42
0.0000000001
 43
0.0000000001
 12
1.0
 22
0.0
 32
0.0
 13
1.0
 23
0.0
 33
0.0
 40
0.0
 40
0.0
 40
0.0
 40
0.0
 40
1.0
 40
1.0
 40
1.0
 40
2.0
 40
2.0
 40
2.0
 40
3.0
 40
3.0
 40
3.0
 40
4.0
 40
4.0
 40
4.0
 40
4.0
 10
98.01830645336001
 20
-141.5436428140065
 30
0.0
 10
97.8644829399436
 20
-141.5436428140065
 30
0.0
 10
97.70170217826555
 20
-141.6304592202347
 30
0.0
 10
97.70170217826555
 20
-141.833375344316
 30
0.0
 10
97.70170217826555
 20
-142.0387030352369
 30
0.0
 10
97.83743894038439
 20
-142.1399888425032
 30
0.0
 10
98.01830645336001
 20
-142.1399888425032
 30
0.0
 10
98.2172607176332
 20
-142.1399888425032
 30
0.0
 10
98.3347384736802
 20
-142.0173434432283
 30
0.0
 10
98.3347384736802
 20
-141.8395765161894
 30
0.0
 10
98.3347384736802
 20
-141.6177123669393
 30
0.0
 10
98.16076115167509
 20
-141.5436428140065
 30
0.0
 10
98.01830645336001
 20
-141.5436428140065
 30
0.0
  0
SPLINE
  5
B7
330
B1
100
AcDbEntity
  8
_U+30EC_U+30A4_U+30E4_U+30FC 1
370
     0
100
AcDbSpline
210
0.0
220
0.0
230
1.0
 70
    11
 71
     3
 72
    17
 73
    13
 74
     0
 42
0.0000000001
 43
0.0000000001
 12
1.0
 22
0.0
 32
0.0
 13
1.0
 23
0.0
 33
0.0
 40
0.0
 40
0.0
 40
0.0
 40
0.0
 40
1.0
 40
1.0
 40
1.0
 40
2.0
 40
2.0
 40
2.0
 40
3.0
 40
3.0
 40
3.0
 40
4.0
 40
4.0
 40
4.0
 40
4.0
 10
98.01830645336001
 20
-140.8835625190326
 30
0.0
 10
97.84191756451521
 20
-140.8835625190326
 30
0.0
 10
97.75148380802742
 20
-140.9786471544255
 30
0.0
 10
97.75148380802742
 20
-141.1140394069958
 30
0.0
 10
97.75148380802742
 20
-141.2366848062707
 30
0.0
 10
97.82830943734848
 20
-141.3551960909633
 30
0.0
 10
98.01830645336001
 20
-141.3551960909633
 30
0.0
 10
98.20813121459727
 20
-141.3551960909633
 30
0.0
 10
98.28512909869261
 20
-141.2366848062707
 30
0.0
 10
98.28512909869261
 20
-141.1140394069958
 30
0.0
 10
98.28512909869261
 20
-140.9786471544255
 30
0.0
 10
98.19228377536513
 20
-140.8835625190326
 30
0.0
 10
98.01830645336001
 20
-140.8835625190326
 30
0.0
  0
HATCH
  5
B8
330
B1
100
AcDbEntity
  8
_U+30EC_U+30A4_U+30E4_U+30FC 1
 62
   179
420
  2234388
100
AcDbHatch
 10
0.0
 20
0.0
 30
0.0
210
0.0
220
0.0
230
1.0
  2
SOLID
 70
     1
 71
     0
 91
        3
 92
        1
 93
        1
 72
     4
 94
        3
 73
     0
 74
     1
 95
       29
 96
       25
 40
0.0
 40
0.0
 40
0.0
 40
0.0
 40
1.0
 40
1.0
 40
1.0
 40
2.0
 40
2.0
 40
2.0
 40
3.0
 40
3.0
 40
3.0
 40
4.0
 40
4.0
 40
4.0
 40
5.0
 40
5.0
 40
5.0
 40
6.0
 40
6.0
 40
6.0
 40
7.0
 40
7.0
 40
7.0
 40
8.0
 40
8.0
 40
8.0
 40
8.0
 10
98.01830645336001
 20
-142.3346367374198
 10
97.73339705672986
 20
-142.3346367374198
 10
97.46209578726642
 20
-142.1971774275584
 10
97.46209578726642
 20
-141.8481892549025
 10
97.46209578726642
 20
-141.5922186603485
 10
97.61350773384315
 20
-141.4971340249556
 10
97.72667912053362
 20
-141.4358113253181
 10
97.59318167048018
 20
-141.3765556829718
 10
97.51187741702829
 20
-141.2621785128615
 10
97.51187741702829
 20
-141.1012925537004
 10
97.51187741702829
 20
-140.8263739339774
 10
97.72426755369393
 20
-140.6909816814071
 10
98.01830645336001
 20
-140.6909816814071
 10
98.32130260128774
 20
-140.6909816814071
 10
98.52473548969174
 20
-140.8349866726906
 10
98.52473548969174
 20
-141.1012925537004
 10
98.52473548969174
 20
-141.2621785128615
 10
98.44101966940016
 20
-141.3765556829718
 10
98.30769447412099
 20
-141.4358113253181
 10
98.40260685473963
 20
-141.4864542289513
 10
98.57210555261392
 20
-141.5815388643442
 10
98.57210555261392
 20
-141.8440551403203
 10
98.57210555261392
 20
-142.2185370195669
 10
98.27376028359129
 20
-142.3346367374198
 10
98.01830645336001
 20
-142.3346367374198
 97
        0
 97
        0
 92
        1
 93
        1
 72
     4
 94
        3
 73
     0
 74
     1
 95
       17
 96
       13
 40
0.0
 40
0.0
 40
0.0
 40
0.0
 40
1.0
 40
1.0
 40
1.0
 40
2.0
 40
2.0
 40
2.0
 40
3.0
 40
3.0
 40
3.0
 40
4.0
 40
4.0
 40
4.0
 40
4.0
 10
98.01830645336001
 20
-141.5436428140065
 10
97.8644829399436
 20
-141.5436428140065
 10
97.70170217826555
 20
-141.6304592202347
 10
97.70170217826555
 20
-141.833375344316
 10
97.70170217826555
 20
-142.0387030352369
 10
97.83743894038439
 20
-142.1399888425032
 10
98.01830645336001
 20
-142.1399888425032
 10
98.2172607176332
 20
-142.1399888425032
 10
98.3347384736802
 20
-142.0173434432283
 10
98.3347384736802
 20
-141.8395765161894
 10
98.3347384736802
 20
-141.6177123669393
 10
98.16076115167509
 20
-141.5436428140065
 10
98.01830645336001
 20
-141.5436428140065
 97
        0
 97
        0
 92
        1
 93
        1
 72
     4
 94
        3
 73
     0
 74
     1
 95
       17
 96
       13
 40
0.0
 40
0.0
 40
0.0
 40
0.0
 40
1.0
 40
1.0
 40
1.0
 40
2.0
 40
2.0
 40
2.0
 40
3.0
 40
3.0
 40
3.0
 40
4.0
 40
4.0
 40
4.0
 40
4.0
 10
98.01830645336001
 20
-140.8835625190326
 10
97.84191756451521
 20
-140.8835625190326
 10
97.75148380802742
 20
-140.9786471544255
 10
97.75148380802742
 20
-141.1140394069958
 10
97.75148380802742
 20
-141.2366848062707
 10
97.82830943734848
 20
-141.3551960909633
 10
98.01830645336001
 20
-141.3551960909633
 10
98.20813121459727
 20
-141.3551960909633
 10
98.28512909869261
 20
-141.2366848062707
 10
98.28512909869261
 20
-141.1140394069958
 10
98.28512909869261
 20
-140.9786471544255
 10
98.19228377536513
 20
-140.8835625190326
 10
98.01830645336001
 20
-140.8835625190326
 97
        0
 97
        0
 75
     2
 76
     1
 98
        0
  0
ENDBLK
  5
B4
330
B1
100
AcDbEntity
  8
0
100
AcDbBlockEnd
  0
BLOCK
  5
C4
330
C2
100
AcDbEntity
  8
0
100
AcDbBlockBegin
  2
block 5
 70
     0
 10
0.0
 20
0.0
 30
0.0
  3
block 5
  1

  0
SPLINE
  5
C6
330
C2
100
AcDbEntity
  8
_U+30EC_U+30A4_U+30E4_U+30FC 1
370
     0
100
AcDbSpline
210
0.0
220
0.0
230
1.0
 70
    11
 71
     3
 72
    26
 73
    22
 74
     0
 42
0.0000000001
 43
0.0000000001
 12
1.0
 22
0.0
 32
0.0
 13
1.0
 23
0.0
 33
0.0
 40
0.0
 40
0.0
 40
0.0
 40
0.0
 40
1.0
 40
1.0
 40
1.0
 40
2.0
 40
2.0
 40
2.0
 40
3.0
 40
3.0
 40
3.0
 40
4.0
 40
4.0
 40
4.0
 40
5.0
 40
5.0
 40
5.0
 40
6.0
 40
6.0
 40
6.0
 40
7.0
 40
7.0
 40
7.0
 40
7.0
 10
96.29972057054313
 20
-150.1496635909348
 30
0.0
 10
96.29972057054313
 20
-150.1496635909348
 30
0.0
 10
96.29972057054313
 20
-149.0455104879123
 30
0.0
 10
96.29972057054313
 20
-149.0455104879123
 30
0.0
 10
96.29972057054313
 20
-149.0455104879123
 30
0.0
 10
95.96968042305619
 20
-149.0455104879123
 30
0.0
 10
95.96968042305619
 20
-149.0455104879123
 30
0.0
 10
95.96968042305619
 20
-149.0455104879123
 30
0.0
 10
95.96968042305619
 20
-148.8973713820465
 30
0.0
 10
95.96968042305619
 20
-148.8973713820465
 30
0.0
 10
96.30178762783429
 20
-148.8825574714599
 30
0.0
 10
96.34829641688515
 20
-148.7197767097819
 30
0.0
 10
96.3779242380583
 20
-148.6053995396716
 30
0.0
 10
96.3779242380583
 20
-148.6053995396716
 30
0.0
 10
96.5239962866329
 20
-148.6053995396716
 30
0.0
 10
96.5239962866329
 20
-148.6053995396716
 30
0.0
 10
96.5239962866329
 20
-148.6053995396716
 30
0.0
 10
96.5239962866329
 20
-150.1496635909348
 30
0.0
 10
96.5239962866329
 20
-150.1496635909348
 30
0.0
 10
96.5239962866329
 20
-150.1496635909348
 30
0.0
 10
96.29972057054313
 20
-150.1496635909348
 30
0.0
 10
96.29972057054313
 20
-150.1496635909348
 30
0.0
  0
HATCH
  5
C7
330
C2
100
AcDbEntity
  8
_U+30EC_U+30A4_U+30E4_U+30FC 1
 62
   179
420
  2234388
100
AcDbHatch
 10
0.0
 20
0.0
 30
0.0
210
0.0
220
0.0
230
1.0
  2
SOLID
 70
     1
 71
     0
 91
        1
 92
        1
 93
        1
 72
     4
 94
        3
 73
     0
 74
     1
 95
       26
 96
       22
 40
0.0
 40
0.0
 40
0.0
 40
0.0
 40
1.0
 40
1.0
 40
1.0
 40
2.0
 40
2.0
 40
2.0
 40
3.0
 40
3.0
 40
3.0
 40
4.0
 40
4.0
 40
4.0
 40
5.0
 40
5.0
 40
5.0
 40
6.0
 40
6.0
 40
6.0
 40
7.0
 40
7.0
 40
7.0
 40
7.0
 10
96.29972057054313
 20
-150.1496635909348
 10
96.29972057054313
 20
-150.1496635909348
 10
96.29972057054313
 20
-149.0455104879123
 10
96.29972057054313
 20
-149.0455104879123
 10
96.29972057054313
 20
-149.0455104879123
 10
95.96968042305619
 20
-149.0455104879123
 10
95.96968042305619
 20
-149.0455104879123
 10
95.96968042305619
 20
-149.0455104879123
 10
95.96968042305619
 20
-148.8973713820465
 10
95.96968042305619
 20
-148.8973713820465
 10
96.30178762783429
 20
-148.8825574714599
 10
96.34829641688515
 20
-148.7197767097819
 10
96.3779242380583
 20
-148.6053995396716
 10
96.3779242380583
 20
-148.6053995396716
 10
96.5239962866329
 20
-148.6053995396716
 10
96.5239962866329
 20
-148.6053995396716
 10
96.5239962866329
 20
-148.6053995396716
 10
96.5239962866329
 20
-150.1496635909348
 10
96.5239962866329
 20
-150.1496635909348
 10
96.5239962866329
 20
-150.1496635909348
 10
96.29972057054313
 20
-150.1496635909348
 10
96.29972057054313
 20
-150.1496635909348
 97
        0
 97
        0
 75
     2
 76
     1
 98
        0
  0
ENDBLK
  5
C5
330
C2
100
AcDbEntity
  8
0
100
AcDbBlockEnd
  0
BLOCK
  5
D7
330
D5
100
AcDbEntity
  8
0
100
AcDbBlockBegin
  2
block 6
 70
     0
 10
0.0
 20
0.0
 30
0.0
  3
block 6
  1

  0
SPLINE
  5
D9
330
D5
100
AcDbEntity
  8
_U+30EC_U+30A4_U+30E4_U+30FC 1
370
     0
100
AcDbSpline
210
0.0
220
0.0
230
1.0
 70
    11
 71
     3
 72
    26
 73
    22
 74
     0
 42
0.0000000001
 43
0.0000000001
 12
1.0
 22
0.0
 32
0.0
 13
1.0
 23
0.0
 33
0.0
 40
0.0
 40
0.0
 40
0.0
 40
0.0
 40
1.0
 40
1.0
 40
1.0
 40
2.0
 40
2.0
 40
2.0
 40
3.0
 40
3.0
 40
3.0
 40
4.0
 40
4.0
 40
4.0
 40
5.0
 40
5.0
 40
5.0
 40
6.0
 40
6.0
 40
6.0
 40
7.0
 40
7.0
 40
7.0
 40
7.0
 10
114.8057399886597
 20
-152.0479112033075
 30
0.0
 10
114.8057399886597
 20
-152.0479112033075
 30
0.0
 10
113.7015868856371
 20
-152.0479112033075
 30
0.0
 10
113.7015868856371
 20
-152.0479112033075
 30
0.0
 10
113.7015868856371
 20
-152.0479112033075
 30
0.0
 10
113.7015868856371
 20
-152.400688980997
 30
0.0
 10
113.7015868856371
 20
-152.400688980997
 30
0.0
 10
113.7015868856371
 20
-152.400688980997
 30
0.0
 10
113.5534477797714
 20
-152.400688980997
 30
0.0
 10
113.5534477797714
 20
-152.400688980997
 30
0.0
 10
113.5386338691848
 20
-152.0454996364678
 30
0.0
 10
113.3756808527325
 20
-151.9955457519317
 30
0.0
 10
113.2613036826222
 20
-151.9641953830159
 30
0.0
 10
113.2613036826222
 20
-151.9641953830159
 30
0.0
 10
113.2613036826222
 20
-151.8081325575341
 30
0.0
 10
113.2613036826222
 20
-151.8081325575341
 30
0.0
 10
113.2613036826222
 20
-151.8081325575341
 30
0.0
 10
114.8057399886597
 20
-151.8081325575341
 30
0.0
 10
114.8057399886597
 20
-151.8081325575341
 30
0.0
 10
114.8057399886597
 20
-151.8081325575341
 30
0.0
 10
114.8057399886597
 20
-152.0479112033075
 30
0.0
 10
114.8057399886597
 20
-152.0479112033075
 30
0.0
  0
HATCH
  5
DA
330
D5
100
AcDbEntity
  8
_U+30EC_U+30A4_U+30E4_U+30FC 1
 62
   179
420
  2234388
100
AcDbHatch
 10
0.0
 20
0.0
 30
0.0
210
0.0
220
0.0
230
1.0
  2
SOLID
 70
     1
 71
     0
 91
        1
 92
        1
 93
        1
 72
     4
 94
        3
 73
     0
 74
     1
 95
       26
 96
       22
 40
0.0
 40
0.0
 40
0.0
 40
0.0
 40
1.0
 40
1.0
 40
1.0
 40
2.0
 40
2.0
 40
2.0
 40
3.0
 40
3.0
 40
3.0
 40
4.0
 40
4.0
 40
4.0
 40
5.0
 40
5.0
 40
5.0
 40
6.0
 40
6.0
 40
6.0
 40
7.0
 40
7.0
 40
7.0
 40
7.0
 10
114.8057399886597
 20
-152.0479112033075
 10
114.8057399886597
 20
-152.0479112033075
 10
113.7015868856371
 20
-152.0479112033075
 10
113.7015868856371
 20
-152.0479112033075
 10
113.7015868856371
 20
-152.0479112033075
 10
113.7015868856371
 20
-152.400688980997
 10
113.7015868856371
 20
-152.400688980997
 10
113.7015868856371
 20
-152.400688980997
 10
113.5534477797714
 20
-152.400688980997
 10
113.5534477797714
 20
-152.400688980997
 10
113.5386338691848
 20
-152.0454996364678
 10
113.3756808527325
 20
-151.9955457519317
 10
113.2613036826222
 20
-151.9641953830159
 10
113.2613036826222
 20
-151.9641953830159
 10
113.2613036826222
 20
-151.8081325575341
 10
113.2613036826222
 20
-151.8081325575341
 10
113.2613036826222
 20
-151.8081325575341
 10
114.8057399886597
 20
-151.8081325575341
 10
114.8057399886597
 20
-151.8081325575341
 10
114.8057399886597
 20
-151.8081325575341
 10
114.8057399886597
 20
-152.0479112033075
 10
114.8057399886597
 20
-152.0479112033075
 97
        0
 97
        0
 75
     2
 76
     1
 98
        0
  0
ENDBLK
  5
D8
330
D5
100
AcDbEntity
  8
0
100
AcDbBlockEnd
  0
ENDSEC
  0
SECTION
  2
ENTITIES
  0
SPLINE
  5
41
330
1F
100
AcDbEntity
  8
_U+30EC_U+30A4_U+30E4_U+30FC 1
370
     0
100
AcDbSpline
210
0.0
220
0.0
230
1.0
 70
    11
 71
     3
 72
    53
 73
    49
 74
     0
 42
0.0000000001
 43
0.0000000001
 12
1.0
 22
0.0
 32
0.0
 13
1.0
 23
0.0
 33
0.0
 40
0.0
 40
0.0
 40
0.0
 40
0.0
 40
1.0
 40
1.0
 40
1.0
 40
2.0
 40
2.0
 40
2.0
 40
3.0
 40
3.0
 40
3.0
 40
4.0
 40
4.0
 40
4.0
 40
5.0
 40
5.0
 40
5.0
 40
6.0
 40
6.0
 40
6.0
 40
7.0
 40
7.0
 40
7.0
 40
8.0
 40
8.0
 40
8.0
 40
9.0
 40
9.0
 40
9.0
 40
10.0
 40
10.0
 40
10.0
 40
11.0
 40
11.0
 40
11.0
 40
12.0
 40
12.0
 40
12.0
 40
13.0
 40
13.0
 40
13.0
 40
14.0
 40
14.0
 40
14.0
 40
15.0
 40
15.0
 40
15.0
 40
16.0
 40
16.0
 40
16.0
 40
16.0
 10
111.4756622459619
 20
-152.0300828341713
 30
0.0
 10
111.4756622459619
 20
-152.0300828341713
 30
0.0
 10
101.8412993070524
 20
-152.0300828341713
 30
0.0
 10
101.8412993070524
 20
-152.0300828341713
 30
0.0
 10
101.6631474982523
 20
-151.7207024936725
 30
0.0
 10
101.3329485533953
 20
-151.5305547547335
 30
0.0
 10
100.975584492341
 20
-151.5305547547335
 30
0.0
 10
100.975584492341
 20
-151.5305547547335
 30
0.0
 10
98.47544640092504
 20
-151.5305547547335
 30
0.0
 10
98.47544640092504
 20
-151.5305547547335
 30
0.0
 10
98.47544640092504
 20
-151.5305547547335
 30
0.0
 10
98.47544640092504
 20
-148.0302946780261
 30
0.0
 10
98.47544640092504
 20
-148.0302946780261
 30
0.0
 10
98.47544640092504
 20
-148.0302946780261
 30
0.0
 10
101.4754705387316
 20
-148.0302946780261
 30
0.0
 10
101.4754705387316
 20
-148.0302946780261
 30
0.0
 10
101.7520471106568
 20
-148.0302946780261
 30
0.0
 10
101.9753565851222
 20
-147.8062773440977
 30
0.0
 10
101.9753565851222
 20
-147.5300560476447
 30
0.0
 10
101.9753565851222
 20
-147.2711140582343
 30
0.0
 10
101.7770940314269
 20
-147.0545144455226
 30
0.0
 10
101.5181547334977
 20
-147.0319275382475
 30
0.0
 10
99.1608939028899
 20
-146.8301418361223
 30
0.0
 10
96.79022949765981
 20
-146.8301418361223
 30
0.0
 10
94.4326133915801
 20
-147.0319275382475
 30
0.0
 10
94.15744715561917
 20
-147.0559247814872
 30
0.0
 10
93.95354325806679
 20
-147.2979319734023
 30
0.0
 10
93.97717715139177
 20
-147.5734427189118
 30
0.0
 10
93.99975598422441
 20
-147.8320294328499
 30
0.0
 10
94.21600839590673
 20
-148.0302946780261
 30
0.0
 10
94.47600544580916
 20
-148.0302946780261
 30
0.0
 10
94.47600544580916
 20
-148.0302946780261
 30
0.0
 10
97.47567430814384
 20
-148.0302946780261
 30
0.0
 10
97.47567430814384
 20
-148.0302946780261
 30
0.0
 10
97.47567430814384
 20
-148.0302946780261
 30
0.0
 10
97.47567430814384
 20
-151.5305547547335
 30
0.0
 10
97.47567430814384
 20
-151.5305547547335
 30
0.0
 10
97.47567430814384
 20
-151.5305547547335
 30
0.0
 10
94.9755389082087
 20
-151.5305547547335
 30
0.0
 10
94.9755389082087
 20
-151.5305547547335
 30
0.0
 10
94.42344082485063
 20
-151.5305547547335
 30
0.0
 10
93.9757668154275
 20
-151.9785786566668
 30
0.0
 10
93.9757668154275
 20
-152.5303322304764
 30
0.0
 10
93.9757668154275
 20
-152.5303322304764
 30
0.0
 10
111.9755456008717
 20
-152.5303322304764
 30
0.0
 10
111.9755456008717
 20
-152.5303322304764
 30
0.0
 10
111.9755456008717
 20
-152.2541001680997
 30
0.0
 10
111.751533649905
 20
-152.0300828341713
 30
0.0
 10
111.4756622459619
 20
-152.0300828341713
 30
0.0
  0
HATCH
  5
42
330
1F
100
AcDbEntity
  8
_U+30EC_U+30A4_U+30E4_U+30FC 1
 62
     9
420
 13224394
100
AcDbHatch
 10
0.0
 20
0.0
 30
0.0
210
0.0
220
0.0
230
1.0
  2
SOLID
 70
     1
 71
     0
 91
        1
 92
        1
 93
        2
 72
     4
 94
        3
 73
     0
 74
     0
 95
       53
 96
       49
 40
0.0
 40
0.0
 40
0.0
 40
0.0
 40
0.3527777776895833
 40
0.3527777776895833
 40
0.3527777776895833
 40
0.7055555553791667
 40
0.7055555553791667
 40
0.7055555553791667
 40
1.05833333306875
 40
1.05833333306875
 40
1.05833333306875
 40
1.411111110758333
 40
1.411111110758333
 40
1.411111110758333
 40
1.763888888447917
 40
1.763888888447917
 40
1.763888888447917
 40
2.1166666661375
 40
2.1166666661375
 40
2.1166666661375
 40
2.469444443827083
 40
2.469444443827083
 40
2.469444443827083
 40
2.822222221516667
 40
2.822222221516667
 40
2.822222221516667
 40
3.17499999920625
 40
3.17499999920625
 40
3.17499999920625
 40
3.527777776895833
 40
3.527777776895833
 40
3.527777776895833
 40
3.880555554585417
 40
3.880555554585417
 40
3.880555554585417
 40
4.233333332275
 40
4.233333332275
 40
4.233333332275
 40
4.586111109964584
 40
4.586111109964584
 40
4.586111109964584
 40
4.938888887654167
 40
4.938888887654167
 40
4.938888887654167
 40
5.29166666534375
 40
5.29166666534375
 40
5.29166666534375
 40
5.644444443033334
 40
5.644444443033334
 40
5.644444443033334
 40
5.644444443033334
 10
111.4756622459619
 20
-152.0300828341713
 10
111.4756622459619
 20
-152.0300828341713
 10
101.8412993070524
 20
-152.0300828341713
 10
101.8412993070524
 20
-152.0300828341713
 10
101.6631474982523
 20
-151.7207024936725
 10
101.3329485533953
 20
-151.5305547547335
 10
100.975584492341
 20
-151.5305547547335
 10
100.975584492341
 20
-151.5305547547335
 10
98.47544640092504
 20
-151.5305547547335
 10
98.47544640092504
 20
-151.5305547547335
 10
98.47544640092504
 20
-151.5305547547335
 10
98.47544640092504
 20
-148.0302946780261
 10
98.47544640092504
 20
-148.0302946780261
 10
98.47544640092504
 20
-148.0302946780261
 10
101.4754705387316
 20
-148.0302946780261
 10
101.4754705387316
 20
-148.0302946780261
 10
101.7520471106568
 20
-148.0302946780261
 10
101.9753565851222
 20
-147.8062773440977
 10
101.9753565851222
 20
-147.5300560476447
 10
101.9753565851222
 20
-147.2711140582343
 10
101.7770940314269
 20
-147.0545144455226
 10
101.5181547334977
 20
-147.0319275382475
 10
99.1608939028899
 20
-146.8301418361223
 10
96.79022949765981
 20
-146.8301418361223
 10
94.4326133915801
 20
-147.0319275382475
 10
94.15744715561917
 20
-147.0559247814872
 10
93.95354325806679
 20
-147.2979319734023
 10
93.97717715139177
 20
-147.5734427189118
 10
93.99975598422441
 20
-147.8320294328499
 10
94.21600839590673
 20
-148.0302946780261
 10
94.47600544580916
 20
-148.0302946780261
 10
94.47600544580916
 20
-148.0302946780261
 10
97.47567430814384
 20
-148.0302946780261
 10
97.47567430814384
 20
-148.0302946780261
 10
97.47567430814384
 20
-148.0302946780261
 10
97.47567430814384
 20
-151.5305547547335
 10
97.47567430814384
 20
-151.5305547547335
 10
97.47567430814384
 20
-151.5305547547335
 10
94.9755389082087
 20
-151.5305547547335
 10
94.9755389082087
 20
-151.5305547547335
 10
94.42344082485063
 20
-151.5305547547335
 10
93.9757668154275
 20
-151.9785786566668
 10
93.9757668154275
 20
-152.5303322304764
 10
93.9757668154275
 20
-152.5303322304764
 10
111.9755456008717
 20
-152.5303322304764
 10
111.9755456008717
 20
-152.5303322304764
 10
111.9755456008717
 20
-152.2541001680997
 10
111.751533649905
 20
-152.0300828341713
 10
111.4756622459619
 20
-152.0300828341713
 97
        0
 72
     1
 10
111.4756622459619
 20
-152.0300828341713
 11
111.4756622459619
 21
-152.0300828341713
 97
        0
 75
     2
 76
     1
 98
        0
  0
POLYLINE
  5
43
330
1F
100
AcDbEntity
  8
_U+30EC_U+30A4_U+30E4_U+30FC 1
 62
   179
420
  2234388
370
    25
100
AcDb2dPolyline
 66
     1
 10
0.0
 20
0.0
 30
0.0
  0
VERTEX
  5
44
330
43
100
AcDbEntity
  8
_U+30EC_U+30A4_U+30E4_U+30FC 1
 62
   179
420
  2234388
370
    25
100
AcDbVertex
100
AcDb2dVertex
 10
94.97539895120461
 20
-151.5305547547335
 30
0.0
  0
VERTEX
  5
45
330
43
100
AcDbEntity
  8
_U+30EC_U+30A4_U+30E4_U+30FC 1
 62
   179
420
  2234388
370
    25
100
AcDbVertex
100
AcDb2dVertex
 10
97.47588693513082
 20
-151.5305547547335
 30
0.0
  0
SEQEND
  5
46
330
43
100
AcDbEntity
  8
_U+30EC_U+30A4_U+30E4_U+30FC 1
 62
   179
420
  2234388
370
    25
  0
POLYLINE
  5
47
330
1F
100
AcDbEntity
  8
_U+30EC_U+30A4_U+30E4_U+30FC 1
 62
   179
420
  2234388
370
    25
100
AcDb2dPolyline
 66
     1
 10
0.0
 20
0.0
 30
0.0
  0
VERTEX
  5
48
330
47
100
AcDbEntity
  8
_U+30EC_U+30A4_U+30E4_U+30FC 1
 62
   179
420
  2234388
370
    25
100
AcDbVertex
100
AcDb2dVertex
 10
93.97562685842341
 20
-152.530321464553
 30
0.0
  0
VERTEX
  5
49
330
47
100
AcDbEntity
  8
_U+30EC_U+30A4_U+30E4_U+30FC 1
 62
   179
420
  2234388
370
    25
100
AcDbVertex
100
AcDb2dVertex
 10
111.9754056438676
 20
-152.530321464553
 30
0.0
  0
SEQEND
  5
4A
330
47
100
AcDbEntity
  8
_U+30EC_U+30A4_U+30E4_U+30FC 1
 62
   179
420
  2234388
370
    25
  0
POLYLINE
  5
4B
330
1F
100
AcDbEntity
  8
_U+30EC_U+30A4_U+30E4_U+30FC 1
 62
   179
420
  2234388
370
    25
100
AcDb2dPolyline
 66
     1
 10
0.0
 20
0.0
 30
0.0
  0
VERTEX
  5
4C
330
4B
100
AcDbEntity
  8
_U+30EC_U+30A4_U+30E4_U+30FC 1
 62
   179
420
  2234388
370
    25
100
AcDbVertex
100
AcDb2dVertex
 10
101.8414769447884
 20
-152.0300828341713
 30
0.0
  0
VERTEX
  5
4D
330
4B
100
AcDbEntity
  8
_U+30EC_U+30A4_U+30E4_U+30FC 1
 62
   179
420
  2234388
370
    25
100
AcDbVertex
100
AcDb2dVertex
 10
111.4758345007362
 20
-152.0300828341713
 30
0.0
  0
SEQEND
  5
4E
330
4B
100
AcDbEntity
  8
_U+30EC_U+30A4_U+30E4_U+30FC 1
 62
   179
420
  2234388
370
    25
  0
POLYLINE
  5
4F
330
1F
100
AcDbEntity
  8
_U+30EC_U+30A4_U+30E4_U+30FC 1
 62
   179
420
  2234388
370
    25
100
AcDb2dPolyline
 66
     1
 10
0.0
 20
0.0
 30
0.0
  0
VERTEX
  5
50
330
4F
100
AcDbEntity
  8
_U+30EC_U+30A4_U+30E4_U+30FC 1
 62
   179
420
  2234388
370
    25
100
AcDbVertex
100
AcDb2dVertex
 10
94.47586548880508
 20
-148.0303269757962
 30
0.0
  0
VERTEX
  5
51
330
4F
100
AcDbEntity
  8
_U+30EC_U+30A4_U+30E4_U+30FC 1
 62
   179
420
  2234388
370
    25
100
AcDbVertex
100
AcDb2dVertex
 10
97.47588693513082
 20
-148.0303269757962
 30
0.0
  0
SEQEND
  5
52
330
4F
100
AcDbEntity
  8
_U+30EC_U+30A4_U+30E4_U+30FC 1
 62
   179
420
  2234388
370
    25
  0
POLYLINE
  5
53
330
1F
100
AcDbEntity
  8
_U+30EC_U+30A4_U+30E4_U+30FC 1
 62
   179
420
  2234388
370
    25
100
AcDb2dPolyline
 66
     1
 10
0.0
 20
0.0
 30
0.0
  0
VERTEX
  5
54
330
53
100
AcDbEntity
  8
_U+30EC_U+30A4_U+30E4_U+30FC 1
 62
   179
420
  2234388
370
    25
100
AcDbVertex
100
AcDb2dVertex
 10
97.4758519458798
 20
-148.0303269757962
 30
0.0
  0
VERTEX
  5
55
330
53
100
AcDbEntity
  8
_U+30EC_U+30A4_U+30E4_U+30FC 1
 62
   179
420
  2234388
370
    25
100
AcDbVertex
100
AcDb2dVertex
 10
97.4758519458798
 20
-151.530597818427
 30
0.0
  0
SEQEND
  5
56
330
53
100
AcDbEntity
  8
_U+30EC_U+30A4_U+30E4_U+30FC 1
 62
   179
420
  2234388
370
    25
  0
POLYLINE
  5
57
330
1F
100
AcDbEntity
  8
_U+30EC_U+30A4_U+30E4_U+30FC 1
 62
   179
420
  2234388
370
    25
100
AcDb2dPolyline
 66
     1
 10
0.0
 20
0.0
 30
0.0
  0
VERTEX
  5
58
330
57
100
AcDbEntity
  8
_U+30EC_U+30A4_U+30E4_U+30FC 1
 62
   179
420
  2234388
370
    25
100
AcDbVertex
100
AcDb2dVertex
 10
98.475624038661
 20
-148.0303269757962
 30
0.0
  0
VERTEX
  5
59
330
57
100
AcDbEntity
  8
_U+30EC_U+30A4_U+30E4_U+30FC 1
 62
   179
420
  2234388
370
    25
100
AcDbVertex
100
AcDb2dVertex
 10
98.475624038661
 20
-151.530597818427
 30
0.0
  0
SEQEND
  5
5A
330
57
100
AcDbEntity
  8
_U+30EC_U+30A4_U+30E4_U+30FC 1
 62
   179
420
  2234388
370
    25
  0
POLYLINE
  5
5B
330
1F
100
AcDbEntity
  8
_U+30EC_U+30A4_U+30E4_U+30FC 1
 62
   179
420
  2234388
370
    25
100
AcDb2dPolyline
 66
     1
 10
0.0
 20
0.0
 30
0.0
  0
VERTEX
  5
5C
330
5B
100
AcDbEntity
  8
_U+30EC_U+30A4_U+30E4_U+30FC 1
 62
   179
420
  2234388
370
    25
100
AcDbVertex
100
AcDb2dVertex
 10
98.475624038661
 20
-148.0303269757962
 30
0.0
  0
VERTEX
  5
5D
330
5B
100
AcDbEntity
  8
_U+30EC_U+30A4_U+30E4_U+30FC 1
 62
   179
420
  2234388
370
    25
100
AcDbVertex
100
AcDb2dVertex
 10
101.4756454849867
 20
-148.0303269757962
 30
0.0
  0
SEQEND
  5
5E
330
5B
100
AcDbEntity
  8
_U+30EC_U+30A4_U+30E4_U+30FC 1
 62
   179
420
  2234388
370
    25
  0
POLYLINE
  5
5F
330
1F
100
AcDbEntity
  8
_U+30EC_U+30A4_U+30E4_U+30FC 1
 62
   179
420
  2234388
370
    25
100
AcDb2dPolyline
 66
     1
 10
0.0
 20
0.0
 30
0.0
  0
VERTEX
  5
60
330
5F
100
AcDbEntity
  8
_U+30EC_U+30A4_U+30E4_U+30FC 1
 62
   179
420
  2234388
370
    25
100
AcDbVertex
100
AcDb2dVertex
 10
98.475624038661
 20
-151.5305547547335
 30
0.0
  0
VERTEX
  5
61
330
5F
100
AcDbEntity
  8
_U+30EC_U+30A4_U+30E4_U+30FC 1
 62
   179
420
  2234388
370
    25
100
AcDbVertex
100
AcDb2dVertex
 10
100.9757594385961
 20
-151.5305547547335
 30
0.0
  0
SEQEND
  5
62
330
5F
100
AcDbEntity
  8
_U+30EC_U+30A4_U+30E4_U+30FC 1
 62
   179
420
  2234388
370
    25
  0
SPLINE
  5
63
330
1F
100
AcDbEntity
  8
_U+30EC_U+30A4_U+30E4_U+30FC 1
 62
   179
420
  2234388
370
    25
100
AcDbSpline
210
0.0
220
0.0
230
1.0
 70
     8
 71
     3
 72
     8
 73
     4
 74
     0
 42
0.0000000001
 43
0.0000000001
 12
1.0
 22
0.0
 32
0.0
 13
1.0
 23
0.0
 33
0.0
 40
0.0
 40
0.0
 40
0.0
 40
0.0
 40
1.0
 40
1.0
 40
1.0
 40
1.0
 10
111.9755456008717
 20
-152.530321464553
 30
0.0
 10
111.9755456008717
 20
-152.2541001680997
 30
0.0
 10
111.7515282669433
 20
-152.0300828341713
 30
0.0
 10
111.4756568630002
 20
-152.0300828341713
 30
0.0
  0
SPLINE
  5
64
330
1F
100
AcDbEntity
  8
_U+30EC_U+30A4_U+30E4_U+30FC 1
 62
   179
420
  2234388
370
     9
100
AcDbSpline
210
0.0
220
0.0
230
1.0
 70
    11
 71
     3
 72
    17
 73
    13
 74
     0
 42
0.0000000001
 43
0.0000000001
 12
1.0
 22
0.0
 32
0.0
 13
1.0
 23
0.0
 33
0.0
 40
0.0
 40
0.0
 40
0.0
 40
0.0
 40
1.0
 40
1.0
 40
1.0
 40
2.0
 40
2.0
 40
2.0
 40
3.0
 40
3.0
 40
3.0
 40
4.0
 40
4.0
 40
4.0
 40
4.0
 10
115.9532582311028
 20
-148.0303269757962
 30
0.0
 10
115.9532582311028
 20
-147.9753023413428
 30
0.0
 10
115.9084504579478
 20
-147.9304945681877
 30
0.0
 10
115.8534204405326
 20
-147.9304945681877
 30
0.0
 10
115.7983850401558
 20
-147.9304945681877
 30
0.0
 10
115.7535826499624
 20
-147.9753023413428
 30
0.0
 10
115.7535826499624
 20
-148.0303269757962
 30
0.0
 10
115.7535826499624
 20
-148.0853623761731
 30
0.0
 10
115.7983850401558
 20
-148.1301701493281
 30
0.0
 10
115.8534204405326
 20
-148.1301701493281
 30
0.0
 10
115.9084504579478
 20
-148.1301701493281
 30
0.0
 10
115.9532582311028
 20
-148.0853623761731
 30
0.0
 10
115.9532582311028
 20
-148.0303269757962
 30
0.0
  0
SPLINE
  5
65
330
1F
100
AcDbEntity
  8
_U+30EC_U+30A4_U+30E4_U+30FC 1
 62
   179
420
  2234388
370
     9
100
AcDbSpline
210
0.0
220
0.0
230
1.0
 70
    11
 71
     3
 72
    17
 73
    13
 74
     0
 42
0.0000000001
 43
0.0000000001
 12
1.0
 22
0.0
 32
0.0
 13
1.0
 23
0.0
 33
0.0
 40
0.0
 40
0.0
 40
0.0
 40
0.0
 40
1.0
 40
1.0
 40
1.0
 40
2.0
 40
2.0
 40
2.0
 40
3.0
 40
3.0
 40
3.0
 40
4.0
 40
4.0
 40
4.0
 40
4.0
 10
115.9532582311028
 20
-151.5305547547335
 30
0.0
 10
115.9532582311028
 20
-151.47553012028
 30
0.0
 10
115.9084504579478
 20
-151.430722347125
 30
0.0
 10
115.8534204405326
 20
-151.430722347125
 30
0.0
 10
115.7983850401558
 20
-151.430722347125
 30
0.0
 10
115.7535826499624
 20
-151.47553012028
 30
0.0
 10
115.7535826499624
 20
-151.5305547547335
 30
0.0
 10
115.7535826499624
 20
-151.5855901551103
 30
0.0
 10
115.7983850401558
 20
-151.6303979282654
 30
0.0
 10
115.8534204405326
 20
-151.6303979282654
 30
0.0
 10
115.9084504579478
 20
-151.6303979282654
 30
0.0
 10
115.9532582311028
 20
-151.5855901551103
 30
0.0
 10
115.9532582311028
 20
-151.5305547547335
 30
0.0
  0
SPLINE
  5
66
330
1F
100
AcDbEntity
  8
_U+30EC_U+30A4_U+30E4_U+30FC 1
 62
   179
420
  2234388
370
     9
100
AcDbSpline
210
0.0
220
0.0
230
1.0
 70
    11
 71
     3
 72
    17
 73
    13
 74
     0
 42
0.0000000001
 43
0.0000000001
 12
1.0
 22
0.0
 32
0.0
 13
1.0
 23
0.0
 33
0.0
 40
0.0
 40
0.0
 40
0.0
 40
0.0
 40
1.0
 40
1.0
 40
1.0
 40
2.0
 40
2.0
 40
2.0
 40
3.0
 40
3.0
 40
3.0
 40
4.0
 40
4.0
 40
4.0
 40
4.0
 10
94.07553193601481
 20
-156.5307232783315
 30
0.0
 10
94.07553193601481
 20
-156.4749880929342
 30
0.0
 10
94.03072685434063
 20
-156.4301910857026
 30
0.0
 10
93.9756941454446
 20
-156.4301910857026
 30
0.0
 10
93.9206614365486
 20
-156.4301910857026
 30
0.0
 10
93.87585904635526
 20
-156.4749880929342
 30
0.0
 10
93.87585904635526
 20
-156.5307232783315
 30
0.0
 10
93.87585904635526
 20
-156.5857586787084
 30
0.0
 10
93.9206614365486
 20
-156.6305664518634
 30
0.0
 10
93.9756941454446
 20
-156.6305664518634
 30
0.0
 10
94.03072685434063
 20
-156.6305664518634
 30
0.0
 10
94.07553193601481
 20
-156.5857586787084
 30
0.0
 10
94.07553193601481
 20
-156.5307232783315
 30
0.0
  0
SPLINE
  5
67
330
1F
100
AcDbEntity
  8
_U+30EC_U+30A4_U+30E4_U+30FC 1
 62
   179
420
  2234388
370
     9
100
AcDbSpline
210
0.0
220
0.0
230
1.0
 70
    11
 71
     3
 72
    17
 73
    13
 74
     0
 42
0.0000000001
 43
0.0000000001
 12
1.0
 22
0.0
 32
0.0
 13
1.0
 23
0.0
 33
0.0
 40
0.0
 40
0.0
 40
0.0
 40
0.0
 40
1.0
 40
1.0
 40
1.0
 40
2.0
 40
2.0
 40
2.0
 40
3.0
 40
3.0
 40
3.0
 40
4.0
 40
4.0
 40
4.0
 40
4.0
 10
112.0754533699439
 20
-156.5307232783315
 30
0.0
 10
112.0754533699439
 20
-156.4749880929342
 30
0.0
 10
112.0306455967889
 20
-156.4301910857026
 30
0.0
 10
111.9756155793737
 20
-156.4301910857026
 30
0.0
 10
111.9205801789969
 20
-156.4301910857026
 30
0.0
 10
111.8757777888035
 20
-156.4749880929342
 30
0.0
 10
111.8757777888035
 20
-156.5307232783315
 30
0.0
 10
111.8757777888035
 20
-156.5857586787084
 30
0.0
 10
111.9205801789969
 20
-156.6305664518634
 30
0.0
 10
111.9756155793737
 20
-156.6305664518634
 30
0.0
 10
112.0306455967889
 20
-156.6305664518634
 30
0.0
 10
112.0754533699439
 20
-156.5857586787084
 30
0.0
 10
112.0754533699439
 20
-156.5307232783315
 30
0.0
  0
SPLINE
  5
68
330
1F
100
AcDbEntity
  8
_U+30EC_U+30A4_U+30E4_U+30FC 1
 62
   179
420
  2234388
370
    25
100
AcDbSpline
210
0.0
220
0.0
230
1.0
 70
     8
 71
     3
 72
     8
 73
     4
 74
     0
 42
0.0000000001
 43
0.0000000001
 12
1.0
 22
0.0
 32
0.0
 13
1.0
 23
0.0
 33
0.0
 40
0.0
 40
0.0
 40
0.0
 40
0.0
 40
1.0
 40
1.0
 40
1.0
 40
1.0
 10
101.8414769447884
 20
-152.0300828341713
 30
0.0
 10
101.6629698605163
 20
-151.7207024936725
 30
0.0
 10
101.3331234996504
 20
-151.5305547547335
 30
0.0
 10
100.9757594385961
 20
-151.5305547547335
 30
0.0
  0
SPLINE
  5
69
330
1F
100
AcDbEntity
  8
_U+30EC_U+30A4_U+30E4_U+30FC 1
 62
   179
420
  2234388
370
    25
100
AcDbSpline
210
0.0
220
0.0
230
1.0
 70
     8
 71
     3
 72
    11
 73
     7
 74
     0
 42
0.0000000001
 43
0.0000000001
 12
1.0
 22
0.0
 32
0.0
 13
1.0
 23
0.0
 33
0.0
 40
0.0
 40
0.0
 40
0.0
 40
0.0
 40
1.0
 40
1.0
 40
1.0
 40
2.0
 40
2.0
 40
2.0
 40
2.0
 10
101.4756104957357
 20
-148.0303269757962
 30
0.0
 10
101.7518344836699
 20
-148.0303269757962
 30
0.0
 10
101.9754965421263
 20
-147.8063204077913
 30
0.0
 10
101.9754965421263
 20
-147.5300883454146
 30
0.0
 10
101.9754965421263
 20
-147.2711571219282
 30
0.0
 10
101.7768814044399
 20
-147.0545467432931
 30
0.0
 10
101.5182946905018
 20
-147.031970601941
 30
0.0
  0
SPLINE
  5
6A
330
1F
100
AcDbEntity
  8
_U+30EC_U+30A4_U+30E4_U+30FC 1
 62
   179
420
  2234388
370
    25
100
AcDbSpline
210
0.0
220
0.0
230
1.0
 70
     8
 71
     3
 72
    11
 73
     7
 74
     0
 42
0.0000000001
 43
0.0000000001
 12
1.0
 22
0.0
 32
0.0
 13
1.0
 23
0.0
 33
0.0
 40
0.0
 40
0.0
 40
0.0
 40
0.0
 40
1.0
 40
1.0
 40
1.0
 40
2.0
 40
2.0
 40
2.0
 40
2.0
 10
94.43279102931606
 20
-147.0319598360176
 30
0.0
 10
94.15762210187428
 20
-147.0559570792571
 30
0.0
 10
93.9537182043219
 20
-147.2979642711725
 30
0.0
 10
93.97735478912773
 20
-147.573475016682
 30
0.0
 10
93.99957834648845
 20
-147.8320617306201
 30
0.0
 10
94.21618334216183
 20
-148.0303269757962
 30
0.0
 10
94.47582780807322
 20
-148.0303269757962
 30
0.0
  0
SPLINE
  5
6B
330
1F
100
AcDbEntity
  8
_U+30EC_U+30A4_U+30E4_U+30FC 1
 62
   179
420
  2234388
370
    25
100
AcDbSpline
210
0.0
220
0.0
230
1.0
 70
     8
 71
     3
 72
     8
 73
     4
 74
     0
 42
0.0000000001
 43
0.0000000001
 12
1.0
 22
0.0
 32
0.0
 13
1.0
 23
0.0
 33
0.0
 40
0.0
 40
0.0
 40
0.0
 40
0.0
 40
1.0
 40
1.0
 40
1.0
 40
1.0
 10
94.97539895120461
 20
-151.5305547547335
 30
0.0
 10
94.42365345183761
 20
-151.5305547547335
 30
0.0
 10
93.97562416694257
 20
-151.9785894225902
 30
0.0
 10
93.97562416694257
 20
-152.5303322304764
 30
0.0
  0
SPLINE
  5
6C
330
1F
100
AcDbEntity
  8
_U+30EC_U+30A4_U+30E4_U+30FC 1
 62
   179
420
  2234388
370
     9
100
AcDbSpline
210
0.0
220
0.0
230
1.0
 70
    11
 71
     3
 72
    17
 73
    13
 74
     0
 42
0.0000000001
 43
0.0000000001
 12
1.0
 22
0.0
 32
0.0
 13
1.0
 23
0.0
 33
0.0
 40
0.0
 40
0.0
 40
0.0
 40
0.0
 40
1.0
 40
1.0
 40
1.0
 40
2.0
 40
2.0
 40
2.0
 40
3.0
 40
3.0
 40
3.0
 40
4.0
 40
4.0
 40
4.0
 40
4.0
 10
102.0757219059386
 20
-142.8806197762916
 30
0.0
 10
102.0757219059386
 20
-142.8255951418381
 30
0.0
 10
102.0309168242644
 20
-142.7807873686831
 30
0.0
 10
101.9755315313773
 20
-142.7807873686831
 30
0.0
 10
101.9204988224813
 20
-142.7807873686831
 30
0.0
 10
101.875696432288
 20
-142.8255951418381
 30
0.0
 10
101.875696432288
 20
-142.8806197762916
 30
0.0
 10
101.875696432288
 20
-142.9356551766684
 30
0.0
 10
101.9204988224813
 20
-142.9804629498238
 30
0.0
 10
101.9755315313773
 20
-142.9804629498238
 30
0.0
 10
102.0309168242644
 20
-142.9804629498238
 30
0.0
 10
102.0757219059386
 20
-142.9356551766684
 30
0.0
 10
102.0757219059386
 20
-142.8806197762916
 30
0.0
  0
SPLINE
  5
6D
330
1F
100
AcDbEntity
  8
_U+30EC_U+30A4_U+30E4_U+30FC 1
 62
   179
420
  2234388
370
     9
100
AcDbSpline
210
0.0
220
0.0
230
1.0
 70
    11
 71
     3
 72
    17
 73
    13
 74
     0
 42
0.0000000001
 43
0.0000000001
 12
1.0
 22
0.0
 32
0.0
 13
1.0
 23
0.0
 33
0.0
 40
0.0
 40
0.0
 40
0.0
 40
0.0
 40
1.0
 40
1.0
 40
1.0
 40
2.0
 40
2.0
 40
2.0
 40
3.0
 40
3.0
 40
3.0
 40
4.0
 40
4.0
 40
4.0
 40
4.0
 10
94.07553193601481
 20
-142.8806197762916
 30
0.0
 10
94.07553193601481
 20
-142.8255951418381
 30
0.0
 10
94.03072685434063
 20
-142.7807873686831
 30
0.0
 10
93.9756941454446
 20
-142.7807873686831
 30
0.0
 10
93.9206614365486
 20
-142.7807873686831
 30
0.0
 10
93.87585904635526
 20
-142.8255951418381
 30
0.0
 10
93.87585904635526
 20
-142.8806197762916
 30
0.0
 10
93.87585904635526
 20
-142.9356551766684
 30
0.0
 10
93.9206614365486
 20
-142.9804629498238
 30
0.0
 10
93.9756941454446
 20
-142.9804629498238
 30
0.0
 10
94.03072685434063
 20
-142.9804629498238
 30
0.0
 10
94.07553193601481
 20
-142.9356551766684
 30
0.0
 10
94.07553193601481
 20
-142.8806197762916
 30
0.0
  0
SPLINE
  5
6E
330
1F
100
AcDbEntity
  8
_U+30EC_U+30A4_U+30E4_U+30FC 1
 62
   179
420
  2234388
370
    25
100
AcDbSpline
210
0.0
220
0.0
230
1.0
 70
     8
 71
     3
 72
     8
 73
     4
 74
     0
 42
0.0000000001
 43
0.0000000001
 12
1.0
 22
0.0
 32
0.0
 13
1.0
 23
0.0
 33
0.0
 40
0.0
 40
0.0
 40
0.0
 40
0.0
 40
1.0
 40
1.0
 40
1.0
 40
1.0
 10
101.5183323712337
 20
-147.0319598360176
 30
0.0
 10
99.16071626515395
 20
-146.8301741338925
 30
0.0
 10
96.79040444391492
 20
-146.8301741338925
 30
0.0
 10
94.43279102931606
 20
-147.0319598360176
 30
0.0
  0
POLYLINE
  5
6F
330
1F
100
AcDbEntity
  8
_U+30EC_U+30A4_U+30E4_U+30FC 1
 62
   179
420
  2234388
370
     9
100
AcDb2dPolyline
 66
     1
 10
0.0
 20
0.0
 30
0.0
  0
VERTEX
  5
70
330
6F
100
AcDbEntity
  8
_U+30EC_U+30A4_U+30E4_U+30FC 1
 62
   179
420
  2234388
370
     9
100
AcDbVertex
100
AcDb2dVertex
 10
93.97562685842341
 20
-156.5307232783315
 30
0.0
  0
VERTEX
  5
71
330
6F
100
AcDbEntity
  8
_U+30EC_U+30A4_U+30E4_U+30FC 1
 62
   179
420
  2234388
370
     9
100
AcDbVertex
100
AcDb2dVertex
 10
111.9754056438676
 20
-156.5307232783315
 30
0.0
  0
SEQEND
  5
72
330
6F
100
AcDbEntity
  8
_U+30EC_U+30A4_U+30E4_U+30FC 1
 62
   179
420
  2234388
370
     9
  0
POLYLINE
  5
73
330
1F
100
AcDbEntity
  8
_U+30EC_U+30A4_U+30E4_U+30FC 1
 62
   179
420
  2234388
370
     9
100
AcDb2dPolyline
 66
     1
 10
0.0
 20
0.0
 30
0.0
  0
VERTEX
  5
74
330
73
100
AcDbEntity
  8
_U+30EC_U+30A4_U+30E4_U+30FC 1
 62
   179
420
  2234388
370
     9
100
AcDbVertex
100
AcDb2dVertex
 10
93.97562685842341
 20
-154.2700516209106
 30
0.0
  0
VERTEX
  5
75
330
73
100
AcDbEntity
  8
_U+30EC_U+30A4_U+30E4_U+30FC 1
 62
   179
420
  2234388
370
     9
100
AcDbVertex
100
AcDb2dVertex
 10
93.97562685842341
 20
-157.5304253926107
 30
0.0
  0
SEQEND
  5
76
330
73
100
AcDbEntity
  8
_U+30EC_U+30A4_U+30E4_U+30FC 1
 62
   179
420
  2234388
370
     9
  0
POLYLINE
  5
77
330
1F
100
AcDbEntity
  8
_U+30EC_U+30A4_U+30E4_U+30FC 1
 62
   179
420
  2234388
370
     9
100
AcDb2dPolyline
 66
     1
 10
0.0
 20
0.0
 30
0.0
  0
VERTEX
  5
78
330
77
100
AcDbEntity
  8
_U+30EC_U+30A4_U+30E4_U+30FC 1
 62
   179
420
  2234388
370
     9
100
AcDbVertex
100
AcDb2dVertex
 10
111.9755456008717
 20
-155.0707456412996
 30
0.0
  0
VERTEX
  5
79
330
77
100
AcDbEntity
  8
_U+30EC_U+30A4_U+30E4_U+30FC 1
 62
   179
420
  2234388
370
     9
100
AcDbVertex
100
AcDb2dVertex
 10
111.9755456008717
 20
-157.5306730088487
 30
0.0
  0
SEQEND
  5
7A
330
77
100
AcDbEntity
  8
_U+30EC_U+30A4_U+30E4_U+30FC 1
 62
   179
420
  2234388
370
     9
  0
INSERT
  5
7C
330
1F
100
AcDbEntity
  8
_U+30EC_U+30A4_U+30E4_U+30FC 1
100
AcDbBlockReference
  2
block 2
 10
0.0
 20
0.0
 30
0.0
  0
POLYLINE
  5
85
330
1F
100
AcDbEntity
  8
_U+30EC_U+30A4_U+30E4_U+30FC 1
 62
   179
420
  2234388
370
     9
100
AcDb2dPolyline
 66
     1
 10
0.0
 20
0.0
 30
0.0
  0
VERTEX
  5
86
330
85
100
AcDbEntity
  8
_U+30EC_U+30A4_U+30E4_U+30FC 1
 62
   179
420
  2234388
370
     9
100
AcDbVertex
100
AcDb2dVertex
 10
115.8533504620306
 20
-148.0303269757962
 30
0.0
  0
VERTEX
  5
87
330
85
100
AcDbEntity
  8
_U+30EC_U+30A4_U+30E4_U+30FC 1
 62
   179
420
  2234388
370
     9
100
AcDbVertex
100
AcDb2dVertex
 10
115.8533504620306
 20
-142.7725299054418
 30
0.0
  0
SEQEND
  5
88
330
85
100
AcDbEntity
  8
_U+30EC_U+30A4_U+30E4_U+30FC 1
 62
   179
420
  2234388
370
     9
  0
POLYLINE
  5
89
330
1F
100
AcDbEntity
  8
_U+30EC_U+30A4_U+30E4_U+30FC 1
 62
   179
420
  2234388
370
     9
100
AcDb2dPolyline
 66
     1
 10
0.0
 20
0.0
 30
0.0
  0
VERTEX
  5
8A
330
89
100
AcDbEntity
  8
_U+30EC_U+30A4_U+30E4_U+30FC 1
 62
   179
420
  2234388
370
     9
100
AcDbVertex
100
AcDb2dVertex
 10
115.8533504620306
 20
-148.0303269757962
 30
0.0
  0
VERTEX
  5
8B
330
89
100
AcDbEntity
  8
_U+30EC_U+30A4_U+30E4_U+30FC 1
 62
   179
420
  2234388
370
     9
100
AcDbVertex
100
AcDb2dVertex
 10
115.8533504620306
 20
-151.530597818427
 30
0.0
  0
SEQEND
  5
8C
330
89
100
AcDbEntity
  8
_U+30EC_U+30A4_U+30E4_U+30FC 1
 62
   179
420
  2234388
370
     9
  0
POLYLINE
  5
8D
330
1F
100
AcDbEntity
  8
_U+30EC_U+30A4_U+30E4_U+30FC 1
 62
   179
420
  2234388
370
     9
100
AcDb2dPolyline
 66
     1
 10
0.0
 20
0.0
 30
0.0
  0
VERTEX
  5
8E
330
8D
100
AcDbEntity
  8
_U+30EC_U+30A4_U+30E4_U+30FC 1
 62
   179
420
  2234388
370
     9
100
AcDbVertex
100
AcDb2dVertex
 10
114.8577393986402
 20
-148.0303269757962
 30
0.0
  0
VERTEX
  5
8F
330
8D
100
AcDbEntity
  8
_U+30EC_U+30A4_U+30E4_U+30FC 1
 62
   179
420
  2234388
370
     9
100
AcDbVertex
100
AcDb2dVertex
 10
116.85340246882
 20
-148.0303269757962
 30
0.0
  0
SEQEND
  5
90
330
8D
100
AcDbEntity
  8
_U+30EC_U+30A4_U+30E4_U+30FC 1
 62
   179
420
  2234388
370
     9
  0
POLYLINE
  5
91
330
1F
100
AcDbEntity
  8
_U+30EC_U+30A4_U+30E4_U+30FC 1
 62
   179
420
  2234388
370
     9
100
AcDb2dPolyline
 66
     1
 10
0.0
 20
0.0
 30
0.0
  0
VERTEX
  5
92
330
91
100
AcDbEntity
  8
_U+30EC_U+30A4_U+30E4_U+30FC 1
 62
   179
420
  2234388
370
     9
100
AcDbVertex
100
AcDb2dVertex
 10
114.8577393986402
 20
-151.5305547547335
 30
0.0
  0
VERTEX
  5
93
330
91
100
AcDbEntity
  8
_U+30EC_U+30A4_U+30E4_U+30FC 1
 62
   179
420
  2234388
370
     9
100
AcDbVertex
100
AcDb2dVertex
 10
116.85340246882
 20
-151.5305547547335
 30
0.0
  0
SEQEND
  5
94
330
91
100
AcDbEntity
  8
_U+30EC_U+30A4_U+30E4_U+30FC 1
 62
   179
420
  2234388
370
     9
  0
INSERT
  5
96
330
1F
100
AcDbEntity
  8
_U+30EC_U+30A4_U+30E4_U+30FC 1
100
AcDbBlockReference
  2
block 3
 10
0.0
 20
0.0
 30
0.0
  0
POLYLINE
  5
A5
330
1F
100
AcDbEntity
  8
_U+30EC_U+30A4_U+30E4_U+30FC 1
 62
   179
420
  2234388
370
     9
100
AcDb2dPolyline
 66
     1
 10
0.0
 20
0.0
 30
0.0
  0
VERTEX
  5
A6
330
A5
100
AcDbEntity
  8
_U+30EC_U+30A4_U+30E4_U+30FC 1
 62
   179
420
  2234388
370
     9
100
AcDbVertex
100
AcDb2dVertex
 10
93.97562685842341
 20
-142.8806197762916
 30
0.0
  0
VERTEX
  5
A7
330
A5
100
AcDbEntity
  8
_U+30EC_U+30A4_U+30E4_U+30FC 1
 62
   179
420
  2234388
370
     9
100
AcDbVertex
100
AcDb2dVertex
 10
101.9755665206283
 20
-142.8806197762916
 30
0.0
  0
SEQEND
  5
A8
330
A5
100
AcDbEntity
  8
_U+30EC_U+30A4_U+30E4_U+30FC 1
 62
   179
420
  2234388
370
     9
  0
POLYLINE
  5
A9
330
1F
100
AcDbEntity
  8
_U+30EC_U+30A4_U+30E4_U+30FC 1
 62
   179
420
  2234388
370
     9
100
AcDb2dPolyline
 66
     1
 10
0.0
 20
0.0
 30
0.0
  0
VERTEX
  5
AA
330
A9
100
AcDbEntity
  8
_U+30EC_U+30A4_U+30E4_U+30FC 1
 62
   179
420
  2234388
370
     9
100
AcDbVertex
100
AcDb2dVertex
 10
93.97562685842341
 20
-145.0406731136964
 30
0.0
  0
VERTEX
  5
AB
330
A9
100
AcDbEntity
  8
_U+30EC_U+30A4_U+30E4_U+30FC 1
 62
   179
420
  2234388
370
     9
100
AcDbVertex
100
AcDb2dVertex
 10
93.97562685842341
 20
-141.8801425155282
 30
0.0
  0
SEQEND
  5
AC
330
A9
100
AcDbEntity
  8
_U+30EC_U+30A4_U+30E4_U+30FC 1
 62
   179
420
  2234388
370
     9
  0
POLYLINE
  5
AD
330
1F
100
AcDbEntity
  8
_U+30EC_U+30A4_U+30E4_U+30FC 1
 62
   179
420
  2234388
370
     9
100
AcDb2dPolyline
 66
     1
 10
0.0
 20
0.0
 30
0.0
  0
VERTEX
  5
AE
330
AD
100
AcDbEntity
  8
_U+30EC_U+30A4_U+30E4_U+30FC 1
 62
   179
420
  2234388
370
     9
100
AcDbVertex
100
AcDb2dVertex
 10
101.9754615528753
 20
-145.0406731136964
 30
0.0
  0
VERTEX
  5
AF
330
AD
100
AcDbEntity
  8
_U+30EC_U+30A4_U+30E4_U+30FC 1
 62
   179
420
  2234388
370
     9
100
AcDbVertex
100
AcDb2dVertex
 10
101.9754615528753
 20
-141.8801425155282
 30
0.0
  0
SEQEND
  5
B0
330
AD
100
AcDbEntity
  8
_U+30EC_U+30A4_U+30E4_U+30FC 1
 62
   179
420
  2234388
370
     9
  0
INSERT
  5
B2
330
1F
100
AcDbEntity
  8
_U+30EC_U+30A4_U+30E4_U+30FC 1
100
AcDbBlockReference
  2
block 4
 10
0.0
 20
0.0
 30
0.0
  0
POLYLINE
  5
B9
330
1F
100
AcDbEntity
  8
_U+30EC_U+30A4_U+30E4_U+30FC 1
  6
AI-Linetype-1
 62
     8
420
  8223869
370
    25
100
AcDb2dPolyline
 66
     1
 10
0.0
 20
0.0
 30
0.0
  0
VERTEX
  5
BA
330
B9
100
AcDbEntity
  8
_U+30EC_U+30A4_U+30E4_U+30FC 1
  6
AI-Linetype-1
 62
     8
420
  8223869
370
    25
100
AcDbVertex
100
AcDb2dVertex
 10
93.43679239268356
 20
-148.2411775854169
 30
0.0
  0
VERTEX
  5
BB
330
B9
100
AcDbEntity
  8
_U+30EC_U+30A4_U+30E4_U+30FC 1
  6
AI-Linetype-1
 62
     8
420
  8223869
370
    25
100
AcDbVertex
100
AcDb2dVertex
 10
93.43679239268356
 20
-146.3065519179047
 30
0.0
  0
VERTEX
  5
BC
330
B9
100
AcDbEntity
  8
_U+30EC_U+30A4_U+30E4_U+30FC 1
  6
AI-Linetype-1
 62
     8
420
  8223869
370
    25
100
AcDbVertex
100
AcDb2dVertex
 10
102.5649173904015
 20
-146.3065519179047
 30
0.0
  0
VERTEX
  5
BD
330
B9
100
AcDbEntity
  8
_U+30EC_U+30A4_U+30E4_U+30FC 1
  6
AI-Linetype-1
 62
     8
420
  8223869
370
    25
100
AcDbVertex
100
AcDb2dVertex
 10
102.5649173904015
 20
-148.2909269174086
 30
0.0
  0
SEQEND
  5
BF
330
B9
100
AcDbEntity
  8
_U+30EC_U+30A4_U+30E4_U+30FC 1
  6
AI-Linetype-1
 62
     8
420
  8223869
370
    25
  0
SPLINE
  5
C0
330
1F
100
AcDbEntity
  8
_U+30EC_U+30A4_U+30E4_U+30FC 1
 62
   179
420
  2234388
370
     9
100
AcDbSpline
210
0.0
220
0.0
230
1.0
 70
    11
 71
     3
 72
    17
 73
    13
 74
     0
 42
0.0000000001
 43
0.0000000001
 12
1.0
 22
0.0
 32
0.0
 13
1.0
 23
0.0
 33
0.0
 40
0.0
 40
0.0
 40
0.0
 40
0.0
 40
1.0
 40
1.0
 40
1.0
 40
2.0
 40
2.0
 40
2.0
 40
3.0
 40
3.0
 40
3.0
 40
4.0
 40
4.0
 40
4.0
 40
4.0
 10
97.57487690923395
 20
-150.3861048004569
 30
0.0
 10
97.57487690923395
 20
-150.3310801660034
 30
0.0
 10
97.53007182755977
 20
-150.2862723928484
 30
0.0
 10
97.47468653467267
 20
-150.2862723928484
 30
0.0
 10
97.41965382577665
 20
-150.2862723928484
 30
0.0
 10
97.37485143558332
 20
-150.3310801660034
 30
0.0
 10
97.37485143558332
 20
-150.3861048004569
 30
0.0
 10
97.37485143558332
 20
-150.4411402008337
 30
0.0
 10
97.41965382577665
 20
-150.4859479739888
 30
0.0
 10
97.47468653467267
 20
-150.4859479739888
 30
0.0
 10
97.53007182755977
 20
-150.4859479739888
 30
0.0
 10
97.57487690923395
 20
-150.4411402008337
 30
0.0
 10
97.57487690923395
 20
-150.3861048004569
 30
0.0
  0
SPLINE
  5
C1
330
1F
100
AcDbEntity
  8
_U+30EC_U+30A4_U+30E4_U+30FC 1
 62
   179
420
  2234388
370
     9
100
AcDbSpline
210
0.0
220
0.0
230
1.0
 70
    11
 71
     3
 72
    17
 73
    13
 74
     0
 42
0.0000000001
 43
0.0000000001
 12
1.0
 22
0.0
 32
0.0
 13
1.0
 23
0.0
 33
0.0
 40
0.0
 40
0.0
 40
0.0
 40
0.0
 40
1.0
 40
1.0
 40
1.0
 40
2.0
 40
2.0
 40
2.0
 40
3.0
 40
3.0
 40
3.0
 40
4.0
 40
4.0
 40
4.0
 40
4.0
 10
98.57464900201514
 20
-150.3861048004569
 30
0.0
 10
98.57464900201514
 20
-150.3310801660034
 30
0.0
 10
98.52984392034097
 20
-150.2862723928484
 30
0.0
 10
98.47445862745387
 20
-150.2862723928484
 30
0.0
 10
98.41942591855785
 20
-150.2862723928484
 30
0.0
 10
98.37462352836452
 20
-150.3310801660034
 30
0.0
 10
98.37462352836452
 20
-150.3861048004569
 30
0.0
 10
98.37462352836452
 20
-150.4411402008337
 30
0.0
 10
98.41942591855785
 20
-150.4859479739888
 30
0.0
 10
98.47445862745387
 20
-150.4859479739888
 30
0.0
 10
98.52984392034097
 20
-150.4859479739888
 30
0.0
 10
98.57464900201514
 20
-150.4411402008337
 30
0.0
 10
98.57464900201514
 20
-150.3861048004569
 30
0.0
  0
INSERT
  5
C3
330
1F
100
AcDbEntity
  8
_U+30EC_U+30A4_U+30E4_U+30FC 1
100
AcDbBlockReference
  2
block 5
 10
0.0
 20
0.0
 30
0.0
  0
POLYLINE
  5
C8
330
1F
100
AcDbEntity
  8
_U+30EC_U+30A4_U+30E4_U+30FC 1
 62
   179
420
  2234388
370
     9
100
AcDb2dPolyline
 66
     1
 10
0.0
 20
0.0
 30
0.0
  0
VERTEX
  5
C9
330
C8
100
AcDbEntity
  8
_U+30EC_U+30A4_U+30E4_U+30FC 1
 62
   179
420
  2234388
370
     9
100
AcDbVertex
100
AcDb2dVertex
 10
99.33601241277483
 20
-150.3861048004569
 30
0.0
  0
VERTEX
  5
CA
330
C8
100
AcDbEntity
  8
_U+30EC_U+30A4_U+30E4_U+30FC 1
 62
   179
420
  2234388
370
     9
100
AcDbVertex
100
AcDb2dVertex
 10
95.49708330098196
 20
-150.3861048004569
 30
0.0
  0
SEQEND
  5
CB
330
C8
100
AcDbEntity
  8
_U+30EC_U+30A4_U+30E4_U+30FC 1
 62
   179
420
  2234388
370
     9
  0
SPLINE
  5
CC
330
1F
100
AcDbEntity
  8
_U+30EC_U+30A4_U+30E4_U+30FC 1
 62
   179
420
  2234388
370
     9
100
AcDbSpline
210
0.0
220
0.0
230
1.0
 70
    11
 71
     3
 72
    17
 73
    13
 74
     0
 42
0.0000000001
 43
0.0000000001
 12
1.0
 22
0.0
 32
0.0
 13
1.0
 23
0.0
 33
0.0
 40
0.0
 40
0.0
 40
0.0
 40
0.0
 40
1.0
 40
1.0
 40
1.0
 40
2.0
 40
2.0
 40
2.0
 40
3.0
 40
3.0
 40
3.0
 40
4.0
 40
4.0
 40
4.0
 40
4.0
 10
115.9532582311028
 20
-152.5248200777
 30
0.0
 10
115.9532582311028
 20
-152.4697954432465
 30
0.0
 10
115.9084504579478
 20
-152.4249876700915
 30
0.0
 10
115.8534204405326
 20
-152.4249876700915
 30
0.0
 10
115.7983850401558
 20
-152.4249876700915
 30
0.0
 10
115.7535826499624
 20
-152.4697954432465
 30
0.0
 10
115.7535826499624
 20
-152.5248200777
 30
0.0
 10
115.7535826499624
 20
-152.5798554780768
 30
0.0
 10
115.7983850401558
 20
-152.6246632512319
 30
0.0
 10
115.8534204405326
 20
-152.6246632512319
 30
0.0
 10
115.9084504579478
 20
-152.6246632512319
 30
0.0
 10
115.9532582311028
 20
-152.5798554780768
 30
0.0
 10
115.9532582311028
 20
-152.5248200777
 30
0.0
  0
POLYLINE
  5
CD
330
1F
100
AcDbEntity
  8
_U+30EC_U+30A4_U+30E4_U+30FC 1
 62
   179
420
  2234388
370
     9
100
AcDb2dPolyline
 66
     1
 10
0.0
 20
0.0
 30
0.0
  0
VERTEX
  5
CE
330
CD
100
AcDbEntity
  8
_U+30EC_U+30A4_U+30E4_U+30FC 1
 62
   179
420
  2234388
370
     9
100
AcDbVertex
100
AcDb2dVertex
 10
115.8533504620306
 20
-150.8773861825769
 30
0.0
  0
VERTEX
  5
CF
330
CD
100
AcDbEntity
  8
_U+30EC_U+30A4_U+30E4_U+30FC 1
 62
   179
420
  2234388
370
     9
100
AcDbVertex
100
AcDb2dVertex
 10
115.8533504620306
 20
-152.5248631413935
 30
0.0
  0
SEQEND
  5
D0
330
CD
100
AcDbEntity
  8
_U+30EC_U+30A4_U+30E4_U+30FC 1
 62
   179
420
  2234388
370
     9
  0
POLYLINE
  5
D1
330
1F
100
AcDbEntity
  8
_U+30EC_U+30A4_U+30E4_U+30FC 1
 62
   179
420
  2234388
370
     9
100
AcDb2dPolyline
 66
     1
 10
0.0
 20
0.0
 30
0.0
  0
VERTEX
  5
D2
330
D1
100
AcDbEntity
  8
_U+30EC_U+30A4_U+30E4_U+30FC 1
 62
   179
420
  2234388
370
     9
100
AcDbVertex
100
AcDb2dVertex
 10
114.8577393986402
 20
-152.5248200777
 30
0.0
  0
VERTEX
  5
D3
330
D1
100
AcDbEntity
  8
_U+30EC_U+30A4_U+30E4_U+30FC 1
 62
   179
420
  2234388
370
     9
100
AcDbVertex
100
AcDb2dVertex
 10
116.85340246882
 20
-152.5248200777
 30
0.0
  0
SEQEND
  5
D4
330
D1
100
AcDbEntity
  8
_U+30EC_U+30A4_U+30E4_U+30FC 1
 62
   179
420
  2234388
370
     9
  0
INSERT
  5
D6
330
1F
100
AcDbEntity
  8
_U+30EC_U+30A4_U+30E4_U+30FC 1
100
AcDbBlockReference
  2
block 6
 10
0.0
 20
0.0
 30
0.0
  0
ENDSEC
  0
SECTION
  2
OBJECTS
  0
DICTIONARY
  5
C
330
0
100
AcDbDictionary
281
     1
  3
ACAD_GROUP
350
D
  3
ACAD_LAYOUT
350
1A
  3
ACAD_MATERIAL
350
3B
  3
ACAD_MLEADERSTYLE
350
DC
  3
ACAD_MLINESTYLE
350
17
  3
ACAD_PLOTSETTINGS
350
19
  3
ACAD_PLOTSTYLENAME
350
E
  3
ACAD_TABLESTYLE
350
DB
  3
ACAD_VISUALSTYLE
350
2A
  0
SUN
  5
3F
330
29
100
AcDbSun
 90
        1
290
     0
 63
     7
421
 16777215
 40
1.0
291
     1
 91
  2455826
 92
 54000000
292
     0
 70
     2
 71
   256
280
     1
  0
DICTIONARY
  5
D
102
{ACAD_REACTORS
330
C
102
}
330
C
100
AcDbDictionary
281
     1
  0
DICTIONARY
  5
1A
102
{ACAD_REACTORS
330
C
102
}
330
C
100
AcDbDictionary
281
     1
  3
Layout1
350
1E
  3
Layout2
350
26
  3
Model
350
22
  0
DICTIONARY
  5
3B
102
{ACAD_REACTORS
330
C
102
}
330
C
100
AcDbDictionary
281
     1
  3
ByBlock
350
3D
  3
ByLayer
350
3C
  3
Global
350
3E
  0
DICTIONARY
  5
DC
102
{ACAD_REACTORS
330
C
102
}
330
C
100
AcDbDictionary
281
     1
  0
DICTIONARY
  5
17
102
{ACAD_REACTORS
330
C
102
}
330
C
100
AcDbDictionary
281
     1
  3
Standard
350
18
  0
DICTIONARY
  5
19
102
{ACAD_REACTORS
330
C
102
}
330
C
100
AcDbDictionary
281
     1
  0
ACDBDICTIONARYWDFLT
  5
E
102
{ACAD_REACTORS
330
C
102
}
330
C
100
AcDbDictionary
281
     1
  3
Normal
350
F
100
AcDbDictionaryWithDefault
340
F
  0
DICTIONARY
  5
DB
102
{ACAD_REACTORS
330
C
102
}
330
C
100
AcDbDictionary
281
     1
  0
DICTIONARY
  5
2A
102
{ACAD_REACTORS
330
C
102
}
330
C
100
AcDbDictionary
281
     1
  3
2dWireframe
350
2F
  3
3D Hidden
350
31
  3
3dWireframe
350
30
  3
Basic
350
32
  3
Brighten
350
36
  3
ColorChange
350
3A
  3
Conceptual
350
34
  3
Dim
350
35
  3
Facepattern
350
39
  3
Flat
350
2B
  3
FlatWithEdges
350
2C
  3
Gouraud
350
2D
  3
GouraudWithEdges
350
2E
  3
Linepattern
350
38
  3
Realistic
350
33
  3
Thicken
350
37
  0
LAYOUT
  5
1E
102
{ACAD_REACTORS
330
1A
102
}
330
1A
100
AcDbPlotSettings
  1

  2
none_device
  4

  6

 40
0.0
 41
0.0
 42
0.0
 43
0.0
 44
0.0
 45
0.0
 46
0.0
 47
0.0
 48
0.0
 49
0.0
140
0.0
141
0.0
142
1.0
143
1.0
 70
   688
 72
     0
 73
     0
 74
     5
  7

 75
    16
 76
     0
 77
     2
 78
   300
147
1.0
148
0.0
149
0.0
100
AcDbLayout
  1
Layout1
 70
     1
 71
     1
 10
0.0
 20
0.0
 11
12.0
 21
9.0
 12
0.0
 22
0.0
 32
0.0
 14
1.000000000000000E+20
 24
1.000000000000000E+20
 34
1.000000000000000E+20
 15
-1.000000000000000E+20
 25
-1.000000000000000E+20
 35
-1.000000000000000E+20
146
0.0
 13
0.0
 23
0.0
 33
0.0
 16
1.0
 26
0.0
 36
0.0
 17
0.0
 27
1.0
 37
0.0
 76
     0
330
1B
  0
LAYOUT
  5
26
102
{ACAD_REACTORS
330
1A
102
}
330
1A
100
AcDbPlotSettings
  1

  2
none_device
  4

  6

 40
0.0
 41
0.0
 42
0.0
 43
0.0
 44
0.0
 45
0.0
 46
0.0
 47
0.0
 48
0.0
 49
0.0
140
0.0
141
0.0
142
1.0
143
1.0
 70
   688
 72
     0
 73
     0
 74
     5
  7

 75
    16
 76
     0
 77
     2
 78
   300
147
1.0
148
0.0
149
0.0
100
AcDbLayout
  1
Layout2
 70
     1
 71
     2
 10
0.0
 20
0.0
 11
0.0
 21
0.0
 12
0.0
 22
0.0
 32
0.0
 14
0.0
 24
0.0
 34
0.0
 15
0.0
 25
0.0
 35
0.0
146
0.0
 13
0.0
 23
0.0
 33
0.0
 16
1.0
 26
0.0
 36
0.0
 17
0.0
 27
1.0
 37
0.0
 76
     0
330
23
  0
LAYOUT
  5
22
102
{ACAD_REACTORS
330
1A
102
}
330
1A
100
AcDbPlotSettings
  1

  2
none_device
  4

  6

 40
0.0
 41
0.0
 42
0.0
 43
0.0
 44
0.0
 45
0.0
 46
0.0
 47
0.0
 48
0.0
 49
0.0
140
0.0
141
0.0
142
1.0
143
1.0
 70
  1712
 72
     0
 73
     0
 74
     0
  7

 75
     0
 76
     0
 77
     2
 78
   300
147
1.0
148
0.0
149
0.0
100
AcDbLayout
  1
Model
 70
     1
 71
     0
 10
0.0
 20
0.0
 11
12.0
 21
9.0
 12
0.0
 22
0.0
 32
0.0
 14
1.000000000000000E+20
 24
1.000000000000000E+20
 34
1.000000000000000E+20
 15
-1.000000000000000E+20
 25
-1.000000000000000E+20
 35
-1.000000000000000E+20
146
0.0
 13
0.0
 23
0.0
 33
0.0
 16
1.0
 26
0.0
 36
0.0
 17
0.0
 27
1.0
 37
0.0
 76
     0
330
1F
331
29
  0
MATERIAL
  5
3D
102
{ACAD_REACTORS
330
3B
102
}
330
3B
100
AcDbMaterial
  1
ByBlock
 72
     1
 94
      127
  0
MATERIAL
  5
3C
102
{ACAD_REACTORS
330
3B
102
}
330
3B
100
AcDbMaterial
  1
ByLayer
 72
     1
 94
      127
  0
MATERIAL
  5
3E
102
{ACAD_REACTORS
330
3B
102
}
330
3B
100
AcDbMaterial
  1
Global
 72
     1
 94
      127
  0
MLINESTYLE
  5
18
102
{ACAD_REACTORS
330
17
102
}
330
17
100
AcDbMlineStyle
  2
Standard
 70
     0
  3

 62
   256
 51
90.0
 52
90.0
 71
     2
 49
0.5
 62
   256
  6
BYLAYER
 49
-0.5
 62
   256
  6
BYLAYER
  0
ACDBPLACEHOLDER
  5
F
102
{ACAD_REACTORS
330
E
102
}
330
E
  0
VISUALSTYLE
  5
2F
102
{ACAD_REACTORS
330
2A
102
}
330
2A
100
AcDbVisualStyle
  2
2dWireframe
 70
     4
177
     2
291
     0
 71
     0
176
     1
 72
     2
176
     1
 73
     0
176
     1
 90
        0
176
     1
 40
-0.6
176
     1
 41
-30.0
176
     1
 62
     5
 63
     7
421
 16777215
176
     1
 74
     1
176
     1
 91
        4
176
     1
 64
     7
176
     1
 65
   257
176
     1
 75
     1
176
     1
175
     1
176
     1
 42
1.0
176
     1
 92
        0
176
     1
 66
   257
176
     1
 43
1.0
176
     1
 76
     1
176
     1
 77
     6
176
     1
 78
     2
176
     1
 67
     7
176
     1
 79
     5
176
     1
170
     0
176
     1
171
     0
176
     1
290
     0
176
     1
 93
        1
176
     1
 44
0.0
176
     1
173
     0
176
     1
  0
VISUALSTYLE
  5
31
102
{ACAD_REACTORS
330
2A
102
}
330
2A
100
AcDbVisualStyle
  2
3D Hidden
 70
     6
177
     2
291
     0
 71
     1
176
     1
 72
     2
176
     1
 73
     2
176
     1
 90
        0
176
     1
 40
-0.6
176
     1
 41
-30.0
176
     1
 62
     5
 63
     7
421
 16777215
176
     1
 74
     2
176
     1
 91
        2
176
     1
 64
     7
176
     1
 65
   257
176
     1
 75
     2
176
     1
175
     1
176
     1
 42
40.0
176
     1
 92
        0
176
     1
 66
   257
176
     1
 43
1.0
176
     1
 76
     1
176
     1
 77
     6
176
     1
 78
     2
176
     1
 67
     7
176
     1
 79
     3
176
     1
170
     0
176
     1
171
     0
176
     1
290
     0
176
     1
 93
        1
176
     1
 44
0.0
176
     1
173
     0
176
     1
  0
VISUALSTYLE
  5
30
102
{ACAD_REACTORS
330
2A
102
}
330
2A
100
AcDbVisualStyle
  2
3dWireframe
 70
     5
177
     2
291
     0
 71
     0
176
     1
 72
     2
176
     1
 73
     0
176
     1
 90
        0
176
     1
 40
-0.6
176
     1
 41
-30.0
176
     1
 62
     5
 63
     7
421
 16777215
176
     1
 74
     1
176
     1
 91
        4
176
     1
 64
     7
176
     1
 65
   257
176
     1
 75
     1
176
     1
175
     1
176
     1
 42
1.0
176
     1
 92
        0
176
     1
 66
   257
176
     1
 43
1.0
176
     1
 76
     1
176
     1
 77
     6
176
     1
 78
     2
176
     1
 67
     7
176
     1
 79
     5
176
     1
170
     0
176
     1
171
     0
176
     1
290
     0
176
     1
 93
        1
176
     1
 44
0.0
176
     1
173
     0
176
     1
  0
VISUALSTYLE
  5
32
102
{ACAD_REACTORS
330
2A
102
}
330
2A
100
AcDbVisualStyle
  2
Basic
 70
     7
177
     2
291
     1
 71
     1
176
     1
 72
     0
176
     1
 73
     1
176
     1
 90
        0
176
     1
 40
-0.6
176
     1
 41
-30.0
176
     1
 62
     5
 63
     7
421
 16777215
176
     1
 74
     0
176
     1
 91
        4
176
     1
 64
     7
176
     1
 65
   257
176
     1
 75
     1
176
     1
175
     1
176
     1
 42
1.0
176
     1
 92
        8
176
     1
 66
     7
176
     1
 43
1.0
176
     1
 76
     1
176
     1
 77
     6
176
     1
 78
     2
176
     1
 67
     7
176
     1
 79
     5
176
     1
170
     0
176
     1
171
     0
176
     1
290
     0
176
     1
 93
        1
176
     1
 44
0.0
176
     1
173
     0
176
     1
  0
VISUALSTYLE
  5
36
102
{ACAD_REACTORS
330
2A
102
}
330
2A
100
AcDbVisualStyle
  2
Brighten
 70
    12
177
     2
291
     1
 71
     2
176
     1
 72
     2
176
     1
 73
     0
176
     1
 90
        0
176
     1
 40
-0.6
176
     1
 41
-30.0
176
     1
 62
     5
 63
     7
421
 16777215
176
     1
 74
     1
176
     1
 91
        4
176
     1
 64
     7
176
     1
 65
   257
176
     1
 75
     1
176
     1
175
     1
176
     1
 42
1.0
176
     1
 92
        8
176
     1
 66
     7
176
     1
 43
1.0
176
     1
 76
     1
176
     1
 77
     6
176
     1
 78
     2
176
     1
 67
     7
176
     1
 79
     5
176
     1
170
     0
176
     1
171
     0
176
     1
290
     0
176
     1
 93
        1
176
     1
 44
50.0
176
     1
173
     0
176
     1
  0
VISUALSTYLE
  5
3A
102
{ACAD_REACTORS
330
2A
102
}
330
2A
100
AcDbVisualStyle
  2
ColorChange
 70
    16
177
     2
291
     1
 71
     2
176
     1
 72
     2
176
     1
 73
     3
176
     1
 90
        0
176
     1
 40
-0.6
176
     1
 41
-30.0
176
     1
 62
     5
 63
     8
421
  8421504
176
     1
 74
     1
176
     1
 91
        4
176
     1
 64
     7
176
     1
 65
   257
176
     1
 75
     1
176
     1
175
     1
176
     1
 42
1.0
176
     1
 92
        8
176
     1
 66
     8
424
  8421504
176
     1
 43
1.0
176
     1
 76
     1
176
     1
 77
     6
176
     1
 78
     2
176
     1
 67
     7
176
     1
 79
     5
176
     1
170
     0
176
     1
171
     0
176
     1
290
     0
176
     1
 93
        1
176
     1
 44
0.0
176
     1
173
     0
176
     1
  0
VISUALSTYLE
  5
34
102
{ACAD_REACTORS
330
2A
102
}
330
2A
100
AcDbVisualStyle
  2
Conceptual
 70
     9
177
     2
291
     0
 71
     3
176
     1
 72
     2
176
     1
 73
     0
176
     1
 90
        0
176
     1
 40
-0.6
176
     1
 41
-30.0
176
     1
 62
     5
 63
     7
421
 16777215
176
     1
 74
     2
176
     1
 91
        2
176
     1
 64
     7
176
     1
 65
   257
176
     1
 75
     1
176
     1
175
     1
176
     1
 42
40.0
176
     1
 92
        8
176
     1
 66
     7
176
     1
 43
1.0
176
     1
 76
     1
176
     1
 77
     6
176
     1
 78
     2
176
     1
 67
     7
176
     1
 79
     3
176
     1
170
     0
176
     1
171
     0
176
     1
290
     0
176
     1
 93
        1
176
     1
 44
0.0
176
     1
173
     0
176
     1
  0
VISUALSTYLE
  5
35
102
{ACAD_REACTORS
330
2A
102
}
330
2A
100
AcDbVisualStyle
  2
Dim
 70
    11
177
     2
291
     1
 71
     2
176
     1
 72
     2
176
     1
 73
     0
176
     1
 90
        0
176
     1
 40
-0.6
176
     1
 41
-30.0
176
     1
 62
     5
 63
     7
421
 16777215
176
     1
 74
     1
176
     1
 91
        4
176
     1
 64
     7
176
     1
 65
   257
176
     1
 75
     1
176
     1
175
     1
176
     1
 42
1.0
176
     1
 92
        8
176
     1
 66
     7
176
     1
 43
1.0
176
     1
 76
     1
176
     1
 77
     6
176
     1
 78
     2
176
     1
 67
     7
176
     1
 79
     5
176
     1
170
     0
176
     1
171
     0
176
     1
290
     0
176
     1
 93
        1
176
     1
 44
-50.0
176
     1
173
     0
176
     1
  0
VISUALSTYLE
  5
39
102
{ACAD_REACTORS
330
2A
102
}
330
2A
100
AcDbVisualStyle
  2
Facepattern
 70
    15
177
     2
291
     1
 71
     2
176
     1
 72
     2
176
     1
 73
     0
176
     1
 90
        0
176
     1
 40
-0.6
176
     1
 41
-30.0
176
     1
 62
     5
 63
     7
421
 16777215
176
     1
 74
     1
176
     1
 91
        4
176
     1
 64
     7
176
     1
 65
   257
176
     1
 75
     1
176
     1
175
     1
176
     1
 42
1.0
176
     1
 92
        8
176
     1
 66
     7
176
     1
 43
1.0
176
     1
 76
     1
176
     1
 77
     6
176
     1
 78
     2
176
     1
 67
     7
176
     1
 79
     5
176
     1
170
     0
176
     1
171
     0
176
     1
290
     0
176
     1
 93
        1
176
     1
 44
0.0
176
     1
173
     0
176
     1
  0
VISUALSTYLE
  5
2B
102
{ACAD_REACTORS
330
2A
102
}
330
2A
100
AcDbVisualStyle
  2
Flat
 70
     0
177
     2
291
     1
 71
     2
176
     1
 72
     1
176
     1
 73
     1
176
     1
 90
        2
176
     1
 40
-0.6
176
     1
 41
30.0
176
     1
 62
     5
 63
     7
421
 16777215
176
     1
 74
     0
176
     1
 91
        4
176
     1
 64
     7
176
     1
 65
   257
176
     1
 75
     1
176
     1
175
     1
176
     1
 42
1.0
176
     1
 92
        8
176
     1
 66
     7
176
     1
 43
1.0
176
     1
 76
     1
176
     1
 77
     6
176
     1
 78
     2
176
     1
 67
     7
176
     1
 79
     5
176
     1
170
     0
176
     1
171
     0
176
     1
290
     0
176
     1
 93
       13
176
     1
 44
0.0
176
     1
173
     0
176
     1
  0
VISUALSTYLE
  5
2C
102
{ACAD_REACTORS
330
2A
102
}
330
2A
100
AcDbVisualStyle
  2
FlatWithEdges
 70
     1
177
     2
291
     1
 71
     2
176
     1
 72
     1
176
     1
 73
     1
176
     1
 90
        2
176
     1
 40
-0.6
176
     1
 41
30.0
176
     1
 62
     5
 63
     7
421
 16777215
176
     1
 74
     1
176
     1
 91
        4
176
     1
 64
     7
176
     1
 65
   257
176
     1
 75
     1
176
     1
175
     1
176
     1
 42
1.0
176
     1
 92
        0
176
     1
 66
   257
176
     1
 43
1.0
176
     1
 76
     1
176
     1
 77
     6
176
     1
 78
     2
176
     1
 67
     7
176
     1
 79
     5
176
     1
170
     0
176
     1
171
     0
176
     1
290
     0
176
     1
 93
       13
176
     1
 44
0.0
176
     1
173
     0
176
     1
  0
VISUALSTYLE
  5
2D
102
{ACAD_REACTORS
330
2A
102
}
330
2A
100
AcDbVisualStyle
  2
Gouraud
 70
     2
177
     2
291
     1
 71
     2
176
     1
 72
     2
176
     1
 73
     1
176
     1
 90
        2
176
     1
 40
-0.6
176
     1
 41
30.0
176
     1
 62
     5
 63
     7
421
 16777215
176
     1
 74
     0
176
     1
 91
        4
176
     1
 64
     7
176
     1
 65
   257
176
     1
 75
     1
176
     1
175
     1
176
     1
 42
1.0
176
     1
 92
        0
176
     1
 66
     7
176
     1
 43
1.0
176
     1
 76
     1
176
     1
 77
     6
176
     1
 78
     2
176
     1
 67
     7
176
     1
 79
     5
176
     1
170
     0
176
     1
171
     0
176
     1
290
     0
176
     1
 93
       13
176
     1
 44
0.0
176
     1
173
     0
176
     1
  0
VISUALSTYLE
  5
2E
102
{ACAD_REACTORS
330
2A
102
}
330
2A
100
AcDbVisualStyle
  2
GouraudWithEdges
 70
     3
177
     2
291
     1
 71
     2
176
     1
 72
     2
176
     1
 73
     1
176
     1
 90
        2
176
     1
 40
-0.6
176
     1
 41
30.0
176
     1
 62
     5
 63
     7
421
 16777215
176
     1
 74
     1
176
     1
 91
        4
176
     1
 64
     7
176
     1
 65
   257
176
     1
 75
     1
176
     1
175
     1
176
     1
 42
1.0
176
     1
 92
        0
176
     1
 66
   257
176
     1
 43
1.0
176
     1
 76
     1
176
     1
 77
     6
176
     1
 78
     2
176
     1
 67
     7
176
     1
 79
     5
176
     1
170
     0
176
     1
171
     0
176
     1
290
     0
176
     1
 93
       13
176
     1
 44
0.0
176
     1
173
     0
176
     1
  0
VISUALSTYLE
  5
38
102
{ACAD_REACTORS
330
2A
102
}
330
2A
100
AcDbVisualStyle
  2
Linepattern
 70
    14
177
     2
291
     1
 71
     2
176
     1
 72
     2
176
     1
 73
     0
176
     1
 90
        0
176
     1
 40
-0.6
176
     1
 41
-30.0
176
     1
 62
     5
 63
     7
421
 16777215
176
     1
 74
     1
176
     1
 91
        4
176
     1
 64
     7
176
     1
 65
   257
176
     1
 75
     7
176
     1
175
     7
176
     1
 42
1.0
176
     1
 92
        8
176
     1
 66
     7
176
     1
 43
1.0
176
     1
 76
     1
176
     1
 77
     6
176
     1
 78
     2
176
     1
 67
     7
176
     1
 79
     5
176
     1
170
     0
176
     1
171
     0
176
     1
290
     0
176
     1
 93
        1
176
     1
 44
0.0
176
     1
173
     0
176
     1
  0
VISUALSTYLE
  5
33
102
{ACAD_REACTORS
330
2A
102
}
330
2A
100
AcDbVisualStyle
  2
Realistic
 70
     8
177
     2
291
     0
 71
     2
176
     1
 72
     2
176
     1
 73
     0
176
     1
 90
        0
176
     1
 40
-0.6
176
     1
 41
-30.0
176
     1
 62
     5
 63
     7
421
 16777215
176
     1
 74
     1
176
     1
 91
        0
176
     1
 64
     7
176
     1
 65
   257
176
     1
 75
     1
176
     1
175
     1
176
     1
 42
1.0
176
     1
 92
        8
176
     1
 66
     8
424
  7895160
176
     1
 43
1.0
176
     1
 76
     1
176
     1
 77
     6
176
     1
 78
     2
176
     1
 67
     7
176
     1
 79
     5
176
     1
170
     0
176
     1
171
     0
176
     1
290
     0
176
     1
 93
       13
176
     1
 44
0.0
176
     1
173
     0
176
     1
  0
VISUALSTYLE
  5
37
102
{ACAD_REACTORS
330
2A
102
}
330
2A
100
AcDbVisualStyle
  2
Thicken
 70
    13
177
     2
291
     1
 71
     2
176
     1
 72
     2
176
     1
 73
     0
176
     1
 90
        0
176
     1
 40
-0.6
176
     1
 41
-30.0
176
     1
 62
     5
 63
     7
421
 16777215
176
     1
 74
     1
176
     1
 91
        4
176
     1
 64
     7
176
     1
 65
   257
176
     1
 75
     1
176
     1
175
     1
176
     1
 42
1.0
176
     1
 92
       12
176
     1
 66
     7
176
     1
 43
1.0
176
     1
 76
     1
176
     1
 77
     6
176
     1
 78
     2
176
     1
 67
     7
176
     1
 79
     5
176
     1
170
     0
176
     1
171
     0
176
     1
290
     0
176
     1
 93
        1
176
     1
 44
0.0
176
     1
173
     0
176
     1
  0
ENDSEC
  0
EOF
