  0
SECTION
  2
HEADER
  9
$ACADVER
  1
AC1024
  9
$ACADMAINTVER
 70
     6
  9
$DWGCODEPAGE
  3
UNDEFINED
  9
$INSBASE
 10
0.0
 20
0.0
 30
0.0
  9
$EXTMIN
 10
1.000000000000000E+20
 20
1.000000000000000E+20
 30
1.000000000000000E+20
  9
$EXTMAX
 10
-1.000000000000000E+20
 20
-1.000000000000000E+20
 30
-1.000000000000000E+20
  9
$LIMMIN
 10
0.0
 20
0.0
  9
$LIMMAX
 10
12.0
 20
9.0
  9
$ORTHOMODE
 70
     0
  9
$REGENMODE
 70
     1
  9
$FILLMODE
 70
     1
  9
$QTEXTMODE
 70
     0
  9
$MIRRTEXT
 70
     1
  9
$LTSCALE
 40
1.0
  9
$ATTMODE
 70
     1
  9
$TEXTSIZE
 40
0.2
  9
$TRACEWID
 40
0.05
  9
$TEXTSTYLE
  7
Standard
  9
$CLAYER
  8
0
  9
$CELTYPE
  6
ByLayer
  9
$CECOLOR
 62
   256
  9
$CELTSCALE
 40
1.0
  9
$DISPSILH
 70
     0
  9
$DIMSCALE
 40
1.0
  9
$DIMASZ
 40
0.18
  9
$DIMEXO
 40
0.0625
  9
$DIMDLI
 40
0.38
  9
$DIMRND
 40
0.0
  9
$DIMDLE
 40
0.0
  9
$DIMEXE
 40
0.18
  9
$DIMTP
 40
0.0
  9
$DIMTM
 40
0.0
  9
$DIMTXT
 40
0.18
  9
$DIMCEN
 40
0.09
  9
$DIMTSZ
 40
0.0
  9
$DIMTOL
 70
     0
  9
$DIMLIM
 70
     0
  9
$DIMTIH
 70
     1
  9
$DIMTOH
 70
     1
  9
$DIMSE1
 70
     0
  9
$DIMSE2
 70
     0
  9
$DIMTAD
 70
     0
  9
$DIMZIN
 70
     0
  9
$DIMBLK
  1

  9
$DIMASO
 70
     1
  9
$DIMSHO
 70
     1
  9
$DIMPOST
  1

  9
$DIMAPOST
  1

  9
$DIMALT
 70
     0
  9
$DIMALTD
 70
     2
  9
$DIMALTF
 40
25.4
  9
$DIMLFAC
 40
1.0
  9
$DIMTOFL
 70
     0
  9
$DIMTVP
 40
0.0
  9
$DIMTIX
 70
     0
  9
$DIMSOXD
 70
     0
  9
$DIMSAH
 70
     0
  9
$DIMBLK1
  1

  9
$DIMBLK2
  1

  9
$DIMSTYLE
  2
Standard
  9
$DIMCLRD
 70
     0
  9
$DIMCLRE
 70
     0
  9
$DIMCLRT
 70
     0
  9
$DIMTFAC
 40
1.0
  9
$DIMGAP
 40
0.09
  9
$DIMJUST
 70
     0
  9
$DIMSD1
 70
     0
  9
$DIMSD2
 70
     0
  9
$DIMTOLJ
 70
     1
  9
$DIMTZIN
 70
     0
  9
$DIMALTZ
 70
     0
  9
$DIMALTTZ
 70
     0
  9
$DIMUPT
 70
     0
  9
$DIMDEC
 70
     4
  9
$DIMTDEC
 70
     4
  9
$DIMALTU
 70
     2
  9
$DIMALTTD
 70
     2
  9
$DIMTXSTY
  7
Standard
  9
$DIMAUNIT
 70
     0
  9
$DIMADEC
 70
     0
  9
$DIMALTRND
 40
0.0
  9
$DIMAZIN
 70
     0
  9
$DIMDSEP
 70
    46
  9
$DIMATFIT
 70
     3
  9
$DIMFRAC
 70
     0
  9
$DIMLDRBLK
  1

  9
$DIMLUNIT
 70
     2
  9
$DIMLWD
 70
    -2
  9
$DIMLWE
 70
    -2
  9
$DIMTMOVE
 70
     0
  9
$DIMFXL
 40
1.0
  9
$DIMFXLON
 70
     0
  9
$DIMJOGANG
 40
0.7853981633974483
  9
$DIMTFILL
 70
     0
  9
$DIMTFILLCLR
 70
     0
  9
$DIMARCSYM
 70
     0
  9
$DIMLTYPE
  6

  9
$DIMLTEX1
  6

  9
$DIMLTEX2
  6

  9
$DIMTXTDIRECTION
 70
     0
  9
$LUNITS
 70
     2
  9
$LUPREC
 70
     4
  9
$SKETCHINC
 40
0.1
  9
$FILLETRAD
 40
0.5
  9
$AUNITS
 70
     0
  9
$AUPREC
 70
     0
  9
$MENU
  1
.
  9
$ELEVATION
 40
0.0
  9
$PELEVATION
 40
0.0
  9
$THICKNESS
 40
0.0
  9
$LIMCHECK
 70
     0
  9
$CHAMFERA
 40
0.5
  9
$CHAMFERB
 40
0.5
  9
$CHAMFERC
 40
1.0
  9
$CHAMFERD
 40
0.0
  9
$SKPOLY
 70
     0
  9
$TDCREATE
 40
2457917.618275463
  9
$TDUCREATE
 40
2457917.243275463
  9
$TDUPDATE
 40
2457917.618275463
  9
$TDUUPDATE
 40
2457917.243275463
  9
$TDINDWG
 40
0.0000000116
  9
$TDUSRTIMER
 40
0.0000000116
  9
$USRTIMER
 70
     1
  9
$ANGBASE
 50
0.0
  9
$ANGDIR
 70
     0
  9
$PDMODE
 70
     0
  9
$PDSIZE
 40
0.0
  9
$PLINEWID
 40
0.0
  9
$SPLFRAME
 70
     0
  9
$SPLINETYPE
 70
     6
  9
$SPLINESEGS
 70
     8
  9
$HANDSEED
  5
D2
  9
$SURFTAB1
 70
     6
  9
$SURFTAB2
 70
     6
  9
$SURFTYPE
 70
     6
  9
$SURFU
 70
     6
  9
$SURFV
 70
     6
  9
$UCSBASE
  2

  9
$UCSNAME
  2

  9
$UCSORG
 10
0.0
 20
0.0
 30
0.0
  9
$UCSXDIR
 10
1.0
 20
0.0
 30
0.0
  9
$UCSYDIR
 10
0.0
 20
1.0
 30
0.0
  9
$UCSORTHOREF
  2

  9
$UCSORTHOVIEW
 70
     0
  9
$UCSORGTOP
 10
0.0
 20
0.0
 30
0.0
  9
$UCSORGBOTTOM
 10
0.0
 20
0.0
 30
0.0
  9
$UCSORGLEFT
 10
0.0
 20
0.0
 30
0.0
  9
$UCSORGRIGHT
 10
0.0
 20
0.0
 30
0.0
  9
$UCSORGFRONT
 10
0.0
 20
0.0
 30
0.0
  9
$UCSORGBACK
 10
0.0
 20
0.0
 30
0.0
  9
$PUCSBASE
  2

  9
$PUCSNAME
  2

  9
$PUCSORG
 10
0.0
 20
0.0
 30
0.0
  9
$PUCSXDIR
 10
1.0
 20
0.0
 30
0.0
  9
$PUCSYDIR
 10
0.0
 20
1.0
 30
0.0
  9
$PUCSORTHOREF
  2

  9
$PUCSORTHOVIEW
 70
     0
  9
$PUCSORGTOP
 10
0.0
 20
0.0
 30
0.0
  9
$PUCSORGBOTTOM
 10
0.0
 20
0.0
 30
0.0
  9
$PUCSORGLEFT
 10
0.0
 20
0.0
 30
0.0
  9
$PUCSORGRIGHT
 10
0.0
 20
0.0
 30
0.0
  9
$PUCSORGFRONT
 10
0.0
 20
0.0
 30
0.0
  9
$PUCSORGBACK
 10
0.0
 20
0.0
 30
0.0
  9
$USERI1
 70
     0
  9
$USERI2
 70
     0
  9
$USERI3
 70
     0
  9
$USERI4
 70
     0
  9
$USERI5
 70
     0
  9
$USERR1
 40
0.0
  9
$USERR2
 40
0.0
  9
$USERR3
 40
0.0
  9
$USERR4
 40
0.0
  9
$USERR5
 40
0.0
  9
$WORLDVIEW
 70
     1
  9
$SHADEDGE
 70
     3
  9
$SHADEDIF
 70
    70
  9
$TILEMODE
 70
     1
  9
$MAXACTVP
 70
    64
  9
$PINSBASE
 10
0.0
 20
0.0
 30
0.0
  9
$PLIMCHECK
 70
     0
  9
$PEXTMIN
 10
1.000000000000000E+20
 20
1.000000000000000E+20
 30
1.000000000000000E+20
  9
$PEXTMAX
 10
-1.000000000000000E+20
 20
-1.000000000000000E+20
 30
-1.000000000000000E+20
  9
$PLIMMIN
 10
0.0
 20
0.0
  9
$PLIMMAX
 10
12.0
 20
9.0
  9
$UNITMODE
 70
     0
  9
$VISRETAIN
 70
     1
  9
$PLINEGEN
 70
     0
  9
$PSLTSCALE
 70
     1
  9
$TREEDEPTH
 70
  3020
  9
$CMLSTYLE
  2
Standard
  9
$CMLJUST
 70
     0
  9
$CMLSCALE
 40
1.0
  9
$PROXYGRAPHICS
 70
     1
  9
$MEASUREMENT
 70
     0
  9
$CELWEIGHT
370
    -1
  9
$ENDCAPS
280
     0
  9
$JOINSTYLE
280
     0
  9
$LWDISPLAY
290
     1
  9
$INSUNITS
 70
     1
  9
$HYPERLINKBASE
  1

  9
$STYLESHEET
  1

  9
$XEDIT
290
     1
  9
$CEPSNTYPE
380
     0
  9
$PSTYLEMODE
290
     1
  9
$FINGERPRINTGUID
  2
{0B68D49A-A07A-20D5-E0F4-04EEFE2B0FB8}
  9
$VERSIONGUID
  2
{FAEB1C32-E019-11D5-929B-00C0DF256EC4}
  9
$EXTNAMES
290
     1
  9
$PSVPSCALE
 40
0.0
  9
$OLESTARTUP
290
     0
  9
$SORTENTS
280
   127
  9
$INDEXCTL
280
     0
  9
$HIDETEXT
280
     1
  9
$XCLIPFRAME
280
     2
  9
$HALOGAP
280
     0
  9
$OBSCOLOR
 70
   257
  9
$OBSLTYPE
280
     0
  9
$INTERSECTIONDISPLAY
280
     0
  9
$INTERSECTIONCOLOR
 70
   257
  9
$DIMASSOC
280
     2
  9
$PROJECTNAME
  1

  9
$CAMERADISPLAY
290
     0
  9
$LENSLENGTH
 40
50.0
  9
$CAMERAHEIGHT
 40
0.0
  9
$STEPSPERSEC
 40
2.0
  9
$STEPSIZE
 40
6.0
  9
$3DDWFPREC
 40
2.0
  9
$PSOLWIDTH
 40
0.25
  9
$PSOLHEIGHT
 40
4.0
  9
$LOFTANG1
 40
1.570796326794897
  9
$LOFTANG2
 40
1.570796326794897
  9
$LOFTMAG1
 40
0.0
  9
$LOFTMAG2
 40
0.0
  9
$LOFTPARAM
 70
     7
  9
$LOFTNORMALS
280
     1
  9
$LATITUDE
 40
37.795
  9
$LONGITUDE
 40
-122.394
  9
$NORTHDIRECTION
 40
0.0
  9
$TIMEZONE
 70
 -8000
  9
$LIGHTGLYPHDISPLAY
280
     1
  9
$TILEMODELIGHTSYNCH
280
     1
  9
$CMATERIAL
347
3C
  9
$SOLIDHIST
280
     1
  9
$SHOWHIST
280
     1
  9
$DWFFRAME
280
     2
  9
$DGNFRAME
280
     2
  9
$REALWORLDSCALE
290
     1
  9
$INTERFERECOLOR
 62
   256
  9
$CSHADOW
280
     0
  9
$SHADOWPLANELOCATION
 40
0.0
  0
ENDSEC
  0
SECTION
  2
CLASSES
  0
CLASS
  1
ACDBDICTIONARYWDFLT
  2
AcDbDictionaryWithDefault
  3
ObjectDBX Classes
 90
        0
 91
        4
280
     0
281
     0
  0
CLASS
  1
VISUALSTYLE
  2
AcDbVisualStyle
  3
ObjectDBX Classes
 90
     4095
 91
        4
280
     0
281
     0
  0
CLASS
  1
MATERIAL
  2
AcDbMaterial
  3
ObjectDBX Classes
 90
     1153
 91
        4
280
     0
281
     0
  0
CLASS
  1
SUN
  2
AcDbSun
  3
SCENEOE
 90
     1024
 91
        4
280
     0
281
     0
  0
ENDSEC
  0
SECTION
  2
TABLES
  0
TABLE
  2
VPORT
  5
8
330
0
100
AcDbSymbolTable
 70
     1
  0
VPORT
  5
29
330
8
100
AcDbSymbolTableRecord
100
AcDbViewportTableRecord
  2
*Active
 70
     0
 10
0.0
 20
0.0
 11
1.0
 21
1.0
 12
0.0
 22
0.0
 13
0.0
 23
0.0
 14
0.5
 24
0.5
 15
0.5
 25
0.5
 16
0.0
 26
0.0
 36
1.0
 17
91.00082462281999
 27
-128.4993055234307
 37
0.0
 40
256.9986110468615
 41
0.7081814508812795
 42
50.0
 43
0.0
 44
0.0
 50
0.0
 51
0.0
 71
     0
 72
   100
 73
     1
 74
     3
 75
     0
 76
     0
 77
     0
 78
     0
281
     0
 65
     1
110
0.0
120
0.0
130
0.0
111
1.0
121
0.0
131
0.0
112
0.0
122
1.0
132
0.0
 79
     0
146
0.0
 60
     3
 61
     5
292
     1
282
     1
141
0.0
142
0.0
 63
   250
361
3F
  0
ENDTAB
  0
TABLE
  2
LTYPE
  5
5
330
0
100
AcDbSymbolTable
 70
     1
  0
LTYPE
  5
14
330
5
100
AcDbSymbolTableRecord
100
AcDbLinetypeTableRecord
  2
ByBlock
 70
     0
  3

 72
    65
 73
     0
 40
0.0
  0
LTYPE
  5
15
330
5
100
AcDbSymbolTableRecord
100
AcDbLinetypeTableRecord
  2
ByLayer
 70
     0
  3

 72
    65
 73
     0
 40
0.0
  0
LTYPE
  5
16
330
5
100
AcDbSymbolTableRecord
100
AcDbLinetypeTableRecord
  2
Continuous
 70
     0
  3
Solid line
 72
    65
 73
     0
 40
0.0
  0
ENDTAB
  0
TABLE
  2
LAYER
  5
2
330
0
100
AcDbSymbolTable
 70
     2
  0
LAYER
  5
10
330
2
100
AcDbSymbolTableRecord
100
AcDbLayerTableRecord
  2
0
 70
     0
 62
     7
  6
Continuous
370
    -3
390
F
347
3E
  0
LAYER
  5
40
330
2
100
AcDbSymbolTableRecord
100
AcDbLayerTableRecord
  2
_U+30EC_U+30A4_U+30E4_U+30FC 1
 70
     0
 62
     7
  6
Continuous
370
    -3
390
F
347
3E
  0
ENDTAB
  0
TABLE
  2
STYLE
  5
3
330
0
100
AcDbSymbolTable
 70
     1
  0
STYLE
  5
11
330
3
100
AcDbSymbolTableRecord
100
AcDbTextStyleTableRecord
  2
Standard
 70
     0
 40
0.0
 41
1.0
 50
0.0
 71
     0
 42
0.2
  3
txt
  4

  0
ENDTAB
  0
TABLE
  2
VIEW
  5
6
330
0
100
AcDbSymbolTable
 70
     0
  0
ENDTAB
  0
TABLE
  2
UCS
  5
7
330
0
100
AcDbSymbolTable
 70
     0
  0
ENDTAB
  0
TABLE
  2
APPID
  5
9
330
0
100
AcDbSymbolTable
 70
     1
  0
APPID
  5
12
330
9
100
AcDbSymbolTableRecord
100
AcDbRegAppTableRecord
  2
ACAD
 70
     0
  0
ENDTAB
  0
TABLE
  2
DIMSTYLE
  5
A
330
0
100
AcDbSymbolTable
 70
     1
100
AcDbDimStyleTable
  0
DIMSTYLE
105
27
330
A
100
AcDbSymbolTableRecord
100
AcDbDimStyleTableRecord
  2
Standard
 70
     0
178
     0
340
11
  0
ENDTAB
  0
TABLE
  2
BLOCK_RECORD
  5
1
330
0
100
AcDbSymbolTable
 70
     7
  0
BLOCK_RECORD
  5
1F
330
1
100
AcDbSymbolTableRecord
100
AcDbBlockTableRecord
  2
*Model_Space
340
22
 70
     0
280
     1
281
     0
  0
BLOCK_RECORD
  5
1B
330
1
100
AcDbSymbolTableRecord
100
AcDbBlockTableRecord
  2
*Paper_Space
340
1E
 70
     0
280
     1
281
     0
  0
BLOCK_RECORD
  5
23
330
1
100
AcDbSymbolTableRecord
100
AcDbBlockTableRecord
  2
*Paper_Space0
340
26
 70
     0
280
     1
281
     0
  0
BLOCK_RECORD
  5
7C
330
1
100
AcDbSymbolTableRecord
100
AcDbBlockTableRecord
  2
block 2
340
0
102
{BLKREFS
331
7D
102
}
 70
     0
280
     1
281
     0
  0
BLOCK_RECORD
  5
96
330
1
100
AcDbSymbolTableRecord
100
AcDbBlockTableRecord
  2
block 3
340
0
102
{BLKREFS
331
97
102
}
 70
     0
280
     1
281
     0
  0
BLOCK_RECORD
  5
A6
330
1
100
AcDbSymbolTableRecord
100
AcDbBlockTableRecord
  2
block 4
340
0
102
{BLKREFS
331
A7
102
}
 70
     0
280
     1
281
     0
  0
BLOCK_RECORD
  5
B8
330
1
100
AcDbSymbolTableRecord
100
AcDbBlockTableRecord
  2
block 5
340
0
102
{BLKREFS
331
B9
102
}
 70
     0
280
     1
281
     0
  0
BLOCK_RECORD
  5
C0
330
1
100
AcDbSymbolTableRecord
100
AcDbBlockTableRecord
  2
block 6
340
0
102
{BLKREFS
331
C1
102
}
 70
     0
280
     1
281
     0
  0
BLOCK_RECORD
  5
C8
330
1
100
AcDbSymbolTableRecord
100
AcDbBlockTableRecord
  2
block 7
340
0
102
{BLKREFS
331
C9
102
}
 70
     0
280
     1
281
     0
  0
ENDTAB
  0
ENDSEC
  0
SECTION
  2
BLOCKS
  0
BLOCK
  5
20
330
1F
100
AcDbEntity
  8
0
100
AcDbBlockBegin
  2
*Model_Space
 70
     0
 10
0.0
 20
0.0
 30
0.0
  3
*Model_Space
  1

  0
ENDBLK
  5
21
330
1F
100
AcDbEntity
  8
0
100
AcDbBlockEnd
  0
BLOCK
  5
1C
330
1B
100
AcDbEntity
 67
     1
  8
0
100
AcDbBlockBegin
  2
*Paper_Space
 70
     0
 10
0.0
 20
0.0
 30
0.0
  3
*Paper_Space
  1

  0
ENDBLK
  5
1D
330
1B
100
AcDbEntity
 67
     1
  8
0
100
AcDbBlockEnd
  0
BLOCK
  5
24
330
23
100
AcDbEntity
  8
0
100
AcDbBlockBegin
  2
*Paper_Space0
 70
     0
 10
0.0
 20
0.0
 30
0.0
  3
*Paper_Space0
  1

  0
ENDBLK
  5
25
330
23
100
AcDbEntity
  8
0
100
AcDbBlockEnd
  0
BLOCK
  5
7E
330
7C
100
AcDbEntity
  8
0
100
AcDbBlockBegin
  2
block 2
 70
     0
 10
0.0
 20
0.0
 30
0.0
  3
block 2
  1

  0
SPLINE
  5
80
330
7C
100
AcDbEntity
  8
_U+30EC_U+30A4_U+30E4_U+30FC 1
370
     0
100
AcDbSpline
210
0.0
220
0.0
230
1.0
 70
    11
 71
     3
 72
    26
 73
    22
 74
     0
 42
0.0000000001
 43
0.0000000001
 12
1.0
 22
0.0
 32
0.0
 13
1.0
 23
0.0
 33
0.0
 40
0.0
 40
0.0
 40
0.0
 40
0.0
 40
1.0
 40
1.0
 40
1.0
 40
2.0
 40
2.0
 40
2.0
 40
3.0
 40
3.0
 40
3.0
 40
4.0
 40
4.0
 40
4.0
 40
5.0
 40
5.0
 40
5.0
 40
6.0
 40
6.0
 40
6.0
 40
7.0
 40
7.0
 40
7.0
 40
7.0
 10
87.76931963951601
 20
-135.6375433688684
 30
0.0
 10
87.76931963951601
 20
-135.6375433688684
 30
0.0
 10
87.76931963951601
 20
-134.5333902658458
 30
0.0
 10
87.76931963951601
 20
-134.5333902658458
 30
0.0
 10
87.76931963951601
 20
-134.5333902658458
 30
0.0
 10
87.41688637137494
 20
-134.5333902658458
 30
0.0
 10
87.41688637137494
 20
-134.5333902658458
 30
0.0
 10
87.41688637137494
 20
-134.5333902658458
 30
0.0
 10
87.41688637137494
 20
-134.3852511599801
 30
0.0
 10
87.41688637137494
 20
-134.3852511599801
 30
0.0
 10
87.77173120635568
 20
-134.3704372493935
 30
0.0
 10
87.82134058134328
 20
-134.2074842329412
 30
0.0
 10
87.85303545980757
 20
-134.0931070628309
 30
0.0
 10
87.85303545980757
 20
-134.0931070628309
 30
0.0
 10
88.0090982852894
 20
-134.0931070628309
 30
0.0
 10
88.0090982852894
 20
-134.0931070628309
 30
0.0
 10
88.0090982852894
 20
-134.0931070628309
 30
0.0
 10
88.0090982852894
 20
-135.6375433688684
 30
0.0
 10
88.0090982852894
 20
-135.6375433688684
 30
0.0
 10
88.0090982852894
 20
-135.6375433688684
 30
0.0
 10
87.76931963951601
 20
-135.6375433688684
 30
0.0
 10
87.76931963951601
 20
-135.6375433688684
 30
0.0
  0
HATCH
  5
81
330
7C
100
AcDbEntity
  8
_U+30EC_U+30A4_U+30E4_U+30FC 1
 62
   179
420
  2234388
100
AcDbHatch
 10
0.0
 20
0.0
 30
0.0
210
0.0
220
0.0
230
1.0
  2
SOLID
 70
     1
 71
     0
 91
        1
 92
        1
 93
        1
 72
     4
 94
        3
 73
     0
 74
     1
 95
       26
 96
       22
 40
0.0
 40
0.0
 40
0.0
 40
0.0
 40
1.0
 40
1.0
 40
1.0
 40
2.0
 40
2.0
 40
2.0
 40
3.0
 40
3.0
 40
3.0
 40
4.0
 40
4.0
 40
4.0
 40
5.0
 40
5.0
 40
5.0
 40
6.0
 40
6.0
 40
6.0
 40
7.0
 40
7.0
 40
7.0
 40
7.0
 10
87.76931963951601
 20
-135.6375433688684
 10
87.76931963951601
 20
-135.6375433688684
 10
87.76931963951601
 20
-134.5333902658458
 10
87.76931963951601
 20
-134.5333902658458
 10
87.76931963951601
 20
-134.5333902658458
 10
87.41688637137494
 20
-134.5333902658458
 10
87.41688637137494
 20
-134.5333902658458
 10
87.41688637137494
 20
-134.5333902658458
 10
87.41688637137494
 20
-134.3852511599801
 10
87.41688637137494
 20
-134.3852511599801
 10
87.77173120635568
 20
-134.3704372493935
 10
87.82134058134328
 20
-134.2074842329412
 10
87.85303545980757
 20
-134.0931070628309
 10
87.85303545980757
 20
-134.0931070628309
 10
88.0090982852894
 20
-134.0931070628309
 10
88.0090982852894
 20
-134.0931070628309
 10
88.0090982852894
 20
-134.0931070628309
 10
88.0090982852894
 20
-135.6375433688684
 10
88.0090982852894
 20
-135.6375433688684
 10
88.0090982852894
 20
-135.6375433688684
 10
87.76931963951601
 20
-135.6375433688684
 10
87.76931963951601
 20
-135.6375433688684
 97
        0
 97
        0
 75
     2
 76
     1
 98
        0
  0
SPLINE
  5
82
330
7C
100
AcDbEntity
  8
_U+30EC_U+30A4_U+30E4_U+30FC 1
370
     0
100
AcDbSpline
210
0.0
220
0.0
230
1.0
 70
    11
 71
     3
 72
    29
 73
    25
 74
     0
 42
0.0000000001
 43
0.0000000001
 12
1.0
 22
0.0
 32
0.0
 13
1.0
 23
0.0
 33
0.0
 40
0.0
 40
0.0
 40
0.0
 40
0.0
 40
1.0
 40
1.0
 40
1.0
 40
2.0
 40
2.0
 40
2.0
 40
3.0
 40
3.0
 40
3.0
 40
4.0
 40
4.0
 40
4.0
 40
5.0
 40
5.0
 40
5.0
 40
6.0
 40
6.0
 40
6.0
 40
7.0
 40
7.0
 40
7.0
 40
8.0
 40
8.0
 40
8.0
 40
8.0
 10
89.07914494300799
 20
-135.6881862725016
 30
0.0
 10
88.79423554637783
 20
-135.6881862725016
 30
0.0
 10
88.52310653168867
 20
-135.5507269626401
 30
0.0
 10
88.52310653168867
 20
-135.2017387899843
 30
0.0
 10
88.52310653168867
 20
-134.9457681954302
 30
0.0
 10
88.67469073303967
 20
-134.8506835600373
 30
0.0
 10
88.78768986495587
 20
-134.7893608603999
 30
0.0
 10
88.6543646696767
 20
-134.7301052180536
 30
0.0
 10
88.57271590667627
 20
-134.6157280479433
 30
0.0
 10
88.57271590667627
 20
-134.4548420887821
 30
0.0
 10
88.57271590667627
 20
-134.1799234690592
 30
0.0
 10
88.78527829811618
 20
-134.0445312164889
 30
0.0
 10
89.07914494300799
 20
-134.0445312164889
 30
0.0
 10
89.38231334570997
 20
-134.0445312164889
 30
0.0
 10
89.58557397933973
 20
-134.1885362077723
 30
0.0
 10
89.58557397933973
 20
-134.4548420887821
 30
0.0
 10
89.58557397933973
 20
-134.6157280479433
 30
0.0
 10
89.50220266859668
 20
-134.7301052180536
 30
0.0
 10
89.36853296376898
 20
-134.7893608603999
 30
0.0
 10
89.46361759916188
 20
-134.8400037640331
 30
0.0
 10
89.63311629703617
 20
-134.935088399426
 30
0.0
 10
89.63311629703617
 20
-135.197604675402
 30
0.0
 10
89.63311629703617
 20
-135.5720865546486
 30
0.0
 10
89.33477102801353
 20
-135.6881862725016
 30
0.0
 10
89.07914494300799
 20
-135.6881862725016
 30
0.0
  0
SPLINE
  5
83
330
7C
100
AcDbEntity
  8
_U+30EC_U+30A4_U+30E4_U+30FC 1
370
     0
100
AcDbSpline
210
0.0
220
0.0
230
1.0
 70
    11
 71
     3
 72
    17
 73
    13
 74
     0
 42
0.0000000001
 43
0.0000000001
 12
1.0
 22
0.0
 32
0.0
 13
1.0
 23
0.0
 33
0.0
 40
0.0
 40
0.0
 40
0.0
 40
0.0
 40
1.0
 40
1.0
 40
1.0
 40
2.0
 40
2.0
 40
2.0
 40
3.0
 40
3.0
 40
3.0
 40
4.0
 40
4.0
 40
4.0
 40
4.0
 10
89.07914494300799
 20
-134.8971923490882
 30
0.0
 10
88.92549368436585
 20
-134.8971923490882
 30
0.0
 10
88.76288517746207
 20
-134.9840087553165
 30
0.0
 10
88.76288517746207
 20
-135.1869248793977
 30
0.0
 10
88.76288517746207
 20
-135.3922525703186
 30
0.0
 10
88.89827743003238
 20
-135.493538377585
 30
0.0
 10
89.07914494300799
 20
-135.493538377585
 30
0.0
 10
89.27827146205544
 20
-135.493538377585
 30
0.0
 10
89.39574921810245
 20
-135.3708929783101
 30
0.0
 10
89.39574921810245
 20
-135.1931260512712
 30
0.0
 10
89.39574921810245
 20
-134.9712619020211
 30
0.0
 10
89.22177189609734
 20
-134.8971923490882
 30
0.0
 10
89.07914494300799
 20
-134.8971923490882
 30
0.0
  0
SPLINE
  5
84
330
7C
100
AcDbEntity
  8
_U+30EC_U+30A4_U+30E4_U+30FC 1
370
     0
100
AcDbSpline
210
0.0
220
0.0
230
1.0
 70
    11
 71
     3
 72
    17
 73
    13
 74
     0
 42
0.0000000001
 43
0.0000000001
 12
1.0
 22
0.0
 32
0.0
 13
1.0
 23
0.0
 33
0.0
 40
0.0
 40
0.0
 40
0.0
 40
0.0
 40
1.0
 40
1.0
 40
1.0
 40
2.0
 40
2.0
 40
2.0
 40
3.0
 40
3.0
 40
3.0
 40
4.0
 40
4.0
 40
4.0
 40
4.0
 10
89.07914494300799
 20
-134.2371120541143
 30
0.0
 10
88.90310056371173
 20
-134.2371120541143
 30
0.0
 10
88.81249455244966
 20
-134.3321966895072
 30
0.0
 10
88.81249455244966
 20
-134.4675889420776
 30
0.0
 10
88.81249455244966
 20
-134.5902343413524
 30
0.0
 10
88.88932018177073
 20
-134.708745626045
 30
0.0
 10
89.07914494300799
 20
-134.708745626045
 30
0.0
 10
89.26931421379379
 20
-134.708745626045
 30
0.0
 10
89.34613984311486
 20
-134.5902343413524
 30
0.0
 10
89.34613984311486
 20
-134.4675889420776
 30
0.0
 10
89.34613984311486
 20
-134.3321966895072
 30
0.0
 10
89.25346677456163
 20
-134.2371120541143
 30
0.0
 10
89.07914494300799
 20
-134.2371120541143
 30
0.0
  0
HATCH
  5
85
330
7C
100
AcDbEntity
  8
_U+30EC_U+30A4_U+30E4_U+30FC 1
 62
   179
420
  2234388
100
AcDbHatch
 10
0.0
 20
0.0
 30
0.0
210
0.0
220
0.0
230
1.0
  2
SOLID
 70
     1
 71
     0
 91
        3
 92
        1
 93
        1
 72
     4
 94
        3
 73
     0
 74
     1
 95
       29
 96
       25
 40
0.0
 40
0.0
 40
0.0
 40
0.0
 40
1.0
 40
1.0
 40
1.0
 40
2.0
 40
2.0
 40
2.0
 40
3.0
 40
3.0
 40
3.0
 40
4.0
 40
4.0
 40
4.0
 40
5.0
 40
5.0
 40
5.0
 40
6.0
 40
6.0
 40
6.0
 40
7.0
 40
7.0
 40
7.0
 40
8.0
 40
8.0
 40
8.0
 40
8.0
 10
89.07914494300799
 20
-135.6881862725016
 10
88.79423554637783
 20
-135.6881862725016
 10
88.52310653168867
 20
-135.5507269626401
 10
88.52310653168867
 20
-135.2017387899843
 10
88.52310653168867
 20
-134.9457681954302
 10
88.67469073303967
 20
-134.8506835600373
 10
88.78768986495587
 20
-134.7893608603999
 10
88.6543646696767
 20
-134.7301052180536
 10
88.57271590667627
 20
-134.6157280479433
 10
88.57271590667627
 20
-134.4548420887821
 10
88.57271590667627
 20
-134.1799234690592
 10
88.78527829811618
 20
-134.0445312164889
 10
89.07914494300799
 20
-134.0445312164889
 10
89.38231334570997
 20
-134.0445312164889
 10
89.58557397933973
 20
-134.1885362077723
 10
89.58557397933973
 20
-134.4548420887821
 10
89.58557397933973
 20
-134.6157280479433
 10
89.50220266859668
 20
-134.7301052180536
 10
89.36853296376898
 20
-134.7893608603999
 10
89.46361759916188
 20
-134.8400037640331
 10
89.63311629703617
 20
-134.935088399426
 10
89.63311629703617
 20
-135.197604675402
 10
89.63311629703617
 20
-135.5720865546486
 10
89.33477102801353
 20
-135.6881862725016
 10
89.07914494300799
 20
-135.6881862725016
 97
        0
 97
        0
 92
        1
 93
        1
 72
     4
 94
        3
 73
     0
 74
     1
 95
       17
 96
       13
 40
0.0
 40
0.0
 40
0.0
 40
0.0
 40
1.0
 40
1.0
 40
1.0
 40
2.0
 40
2.0
 40
2.0
 40
3.0
 40
3.0
 40
3.0
 40
4.0
 40
4.0
 40
4.0
 40
4.0
 10
89.07914494300799
 20
-134.8971923490882
 10
88.92549368436585
 20
-134.8971923490882
 10
88.76288517746207
 20
-134.9840087553165
 10
88.76288517746207
 20
-135.1869248793977
 10
88.76288517746207
 20
-135.3922525703186
 10
88.89827743003238
 20
-135.493538377585
 10
89.07914494300799
 20
-135.493538377585
 10
89.27827146205544
 20
-135.493538377585
 10
89.39574921810245
 20
-135.3708929783101
 10
89.39574921810245
 20
-135.1931260512712
 10
89.39574921810245
 20
-134.9712619020211
 10
89.22177189609734
 20
-134.8971923490882
 10
89.07914494300799
 20
-134.8971923490882
 97
        0
 97
        0
 92
        1
 93
        1
 72
     4
 94
        3
 73
     0
 74
     1
 95
       17
 96
       13
 40
0.0
 40
0.0
 40
0.0
 40
0.0
 40
1.0
 40
1.0
 40
1.0
 40
2.0
 40
2.0
 40
2.0
 40
3.0
 40
3.0
 40
3.0
 40
4.0
 40
4.0
 40
4.0
 40
4.0
 10
89.07914494300799
 20
-134.2371120541143
 10
88.90310056371173
 20
-134.2371120541143
 10
88.81249455244966
 20
-134.3321966895072
 10
88.81249455244966
 20
-134.4675889420776
 10
88.81249455244966
 20
-134.5902343413524
 10
88.88932018177073
 20
-134.708745626045
 10
89.07914494300799
 20
-134.708745626045
 10
89.26931421379379
 20
-134.708745626045
 10
89.34613984311486
 20
-134.5902343413524
 10
89.34613984311486
 20
-134.4675889420776
 10
89.34613984311486
 20
-134.3321966895072
 10
89.25346677456163
 20
-134.2371120541143
 10
89.07914494300799
 20
-134.2371120541143
 97
        0
 97
        0
 75
     2
 76
     1
 98
        0
  0
ENDBLK
  5
7F
330
7C
100
AcDbEntity
  8
0
100
AcDbBlockEnd
  0
BLOCK
  5
98
330
96
100
AcDbEntity
  8
0
100
AcDbBlockBegin
  2
block 3
 70
     0
 10
0.0
 20
0.0
 30
0.0
  3
block 3
  1

  0
SPLINE
  5
9A
330
96
100
AcDbEntity
  8
_U+30EC_U+30A4_U+30E4_U+30FC 1
370
     0
100
AcDbSpline
210
0.0
220
0.0
230
1.0
 70
    11
 71
     3
 72
    62
 73
    58
 74
     0
 42
0.0000000001
 43
0.0000000001
 12
1.0
 22
0.0
 32
0.0
 13
1.0
 23
0.0
 33
0.0
 40
0.0
 40
0.0
 40
0.0
 40
0.0
 40
1.0
 40
1.0
 40
1.0
 40
2.0
 40
2.0
 40
2.0
 40
3.0
 40
3.0
 40
3.0
 40
4.0
 40
4.0
 40
4.0
 40
5.0
 40
5.0
 40
5.0
 40
6.0
 40
6.0
 40
6.0
 40
7.0
 40
7.0
 40
7.0
 40
8.0
 40
8.0
 40
8.0
 40
9.0
 40
9.0
 40
9.0
 40
10.0
 40
10.0
 40
10.0
 40
11.0
 40
11.0
 40
11.0
 40
12.0
 40
12.0
 40
12.0
 40
13.0
 40
13.0
 40
13.0
 40
14.0
 40
14.0
 40
14.0
 40
15.0
 40
15.0
 40
15.0
 40
16.0
 40
16.0
 40
16.0
 40
17.0
 40
17.0
 40
17.0
 40
18.0
 40
18.0
 40
18.0
 40
19.0
 40
19.0
 40
19.0
 40
19.0
 10
100.1802761251285
 20
-126.5159640525724
 30
0.0
 10
100.1802761251285
 20
-126.6175943693873
 30
0.0
 10
100.1592610426685
 20
-126.8504828241902
 30
0.0
 10
99.97322588646503
 20
-126.9838080194693
 30
0.0
 10
99.86091577364589
 20
-127.0630452156301
 30
0.0
 10
99.76169702367069
 20
-127.0675238397609
 30
0.0
 10
99.67694767473354
 20
-127.0720024638917
 30
0.0
 10
99.67694767473354
 20
-127.0720024638917
 30
0.0
 10
99.67694767473354
 20
-126.8370469517977
 30
0.0
 10
99.67694767473354
 20
-126.8370469517977
 30
0.0
 10
99.75101722766642
 20
-126.834635384958
 30
0.0
 10
99.98562823021193
 20
-126.8232665698567
 30
0.0
 10
99.98562823021193
 20
-126.5204426767032
 30
0.0
 10
99.98562823021193
 20
-126.3733370994831
 30
0.0
 10
99.91603730140989
 20
-126.2107285925793
 30
0.0
 10
99.68762747073782
 20
-126.2107285925793
 30
0.0
 10
99.57118324333638
 20
-126.2107285925793
 30
0.0
 10
99.52260739699435
 20
-126.2513807193052
 30
0.0
 10
99.49091251853005
 20
-126.2851426550607
 30
0.0
 10
99.41684296559718
 20
-126.3643798512214
 30
0.0
 10
99.40409611230176
 20
-126.4887477982389
 30
0.0
 10
99.40409611230176
 20
-126.5476589310367
 30
0.0
 10
99.40409611230176
 20
-126.5679849943997
 30
0.0
 10
99.40616316959292
 20
-126.606225554286
 30
0.0
 10
99.41029728417521
 20
-126.6358533754591
 30
0.0
 10
99.41029728417521
 20
-126.6358533754591
 30
0.0
 10
99.21564938925859
 20
-126.6358533754591
 30
0.0
 10
99.21564938925859
 20
-126.6358533754591
 30
0.0
 10
99.22219507068057
 20
-126.5952012487331
 30
0.0
 10
99.22426212797171
 20
-126.5497259883279
 30
0.0
 10
99.22426212797171
 20
-126.5431803069059
 30
0.0
 10
99.22426212797171
 20
-126.4729003590068
 30
0.0
 10
99.20290253596316
 20
-126.2603379675669
 30
0.0
 10
98.9662244761265
 20
-126.2603379675669
 30
0.0
 10
98.78845754908761
 20
-126.2603379675669
 30
0.0
 10
98.73333602132361
 20
-126.4005533538165
 30
0.0
 10
98.73333602132361
 20
-126.5180311098636
 30
0.0
 10
98.73333602132361
 20
-126.8008734492026
 30
0.0
 10
98.9662244761265
 20
-126.8098306974642
 30
0.0
 10
99.0378824622197
 20
-126.814309321595
 30
0.0
 10
99.0378824622197
 20
-126.814309321595
 30
0.0
 10
99.0378824622197
 20
-127.0313503371658
 30
0.0
 10
99.0378824622197
 20
-127.0313503371658
 30
0.0
 10
98.91317000565365
 20
-127.0223930889041
 30
0.0
 10
98.53662106911585
 20
-126.9931097772795
 30
0.0
 10
98.53662106911585
 20
-126.5045952374711
 30
0.0
 10
98.53662106911585
 20
-126.2648165916977
 30
0.0
 10
98.66374509252157
 20
-126.007123449401
 30
0.0
 10
98.95967879470453
 20
-126.007123449401
 30
0.0
 10
99.14605846045654
 20
-126.007123449401
 30
0.0
 10
99.22839624255401
 20
-126.1090982757644
 30
0.0
 10
99.28971894219147
 20
-126.2152072167101
 30
0.0
 10
99.31727970607346
 20
-126.1497504024903
 30
0.0
 10
99.39755043087979
 20
-125.9551025075737
 30
0.0
 10
99.6748806174424
 20
-125.9551025075737
 30
0.0
 10
100.0131889940939
 20
-125.9551025075737
 30
0.0
 10
100.1802761251285
 20
-126.2196858408409
 30
0.0
 10
100.1802761251285
 20
-126.5159640525724
 30
0.0
  0
HATCH
  5
9B
330
96
100
AcDbEntity
  8
_U+30EC_U+30A4_U+30E4_U+30FC 1
 62
   179
420
  2234388
100
AcDbHatch
 10
0.0
 20
0.0
 30
0.0
210
0.0
220
0.0
230
1.0
  2
SOLID
 70
     1
 71
     0
 91
        1
 92
        1
 93
        1
 72
     4
 94
        3
 73
     0
 74
     1
 95
       62
 96
       58
 40
0.0
 40
0.0
 40
0.0
 40
0.0
 40
1.0
 40
1.0
 40
1.0
 40
2.0
 40
2.0
 40
2.0
 40
3.0
 40
3.0
 40
3.0
 40
4.0
 40
4.0
 40
4.0
 40
5.0
 40
5.0
 40
5.0
 40
6.0
 40
6.0
 40
6.0
 40
7.0
 40
7.0
 40
7.0
 40
8.0
 40
8.0
 40
8.0
 40
9.0
 40
9.0
 40
9.0
 40
10.0
 40
10.0
 40
10.0
 40
11.0
 40
11.0
 40
11.0
 40
12.0
 40
12.0
 40
12.0
 40
13.0
 40
13.0
 40
13.0
 40
14.0
 40
14.0
 40
14.0
 40
15.0
 40
15.0
 40
15.0
 40
16.0
 40
16.0
 40
16.0
 40
17.0
 40
17.0
 40
17.0
 40
18.0
 40
18.0
 40
18.0
 40
19.0
 40
19.0
 40
19.0
 40
19.0
 10
100.1802761251285
 20
-126.5159640525724
 10
100.1802761251285
 20
-126.6175943693873
 10
100.1592610426685
 20
-126.8504828241902
 10
99.97322588646503
 20
-126.9838080194693
 10
99.86091577364589
 20
-127.0630452156301
 10
99.76169702367069
 20
-127.0675238397609
 10
99.67694767473354
 20
-127.0720024638917
 10
99.67694767473354
 20
-127.0720024638917
 10
99.67694767473354
 20
-126.8370469517977
 10
99.67694767473354
 20
-126.8370469517977
 10
99.75101722766642
 20
-126.834635384958
 10
99.98562823021193
 20
-126.8232665698567
 10
99.98562823021193
 20
-126.5204426767032
 10
99.98562823021193
 20
-126.3733370994831
 10
99.91603730140989
 20
-126.2107285925793
 10
99.68762747073782
 20
-126.2107285925793
 10
99.57118324333638
 20
-126.2107285925793
 10
99.52260739699435
 20
-126.2513807193052
 10
99.49091251853005
 20
-126.2851426550607
 10
99.41684296559718
 20
-126.3643798512214
 10
99.40409611230176
 20
-126.4887477982389
 10
99.40409611230176
 20
-126.5476589310367
 10
99.40409611230176
 20
-126.5679849943997
 10
99.40616316959292
 20
-126.606225554286
 10
99.41029728417521
 20
-126.6358533754591
 10
99.41029728417521
 20
-126.6358533754591
 10
99.21564938925859
 20
-126.6358533754591
 10
99.21564938925859
 20
-126.6358533754591
 10
99.22219507068057
 20
-126.5952012487331
 10
99.22426212797171
 20
-126.5497259883279
 10
99.22426212797171
 20
-126.5431803069059
 10
99.22426212797171
 20
-126.4729003590068
 10
99.20290253596316
 20
-126.2603379675669
 10
98.9662244761265
 20
-126.2603379675669
 10
98.78845754908761
 20
-126.2603379675669
 10
98.73333602132361
 20
-126.4005533538165
 10
98.73333602132361
 20
-126.5180311098636
 10
98.73333602132361
 20
-126.8008734492026
 10
98.9662244761265
 20
-126.8098306974642
 10
99.0378824622197
 20
-126.814309321595
 10
99.0378824622197
 20
-126.814309321595
 10
99.0378824622197
 20
-127.0313503371658
 10
99.0378824622197
 20
-127.0313503371658
 10
98.91317000565365
 20
-127.0223930889041
 10
98.53662106911585
 20
-126.9931097772795
 10
98.53662106911585
 20
-126.5045952374711
 10
98.53662106911585
 20
-126.2648165916977
 10
98.66374509252157
 20
-126.007123449401
 10
98.95967879470453
 20
-126.007123449401
 10
99.14605846045654
 20
-126.007123449401
 10
99.22839624255401
 20
-126.1090982757644
 10
99.28971894219147
 20
-126.2152072167101
 10
99.31727970607346
 20
-126.1497504024903
 10
99.39755043087979
 20
-125.9551025075737
 10
99.6748806174424
 20
-125.9551025075737
 10
100.0131889940939
 20
-125.9551025075737
 10
100.1802761251285
 20
-126.2196858408409
 10
100.1802761251285
 20
-126.5159640525724
 97
        0
 97
        0
 75
     2
 76
     1
 98
        0
  0
POLYLINE
  5
9C
330
96
100
AcDbEntity
  8
_U+30EC_U+30A4_U+30E4_U+30FC 1
370
     0
100
AcDb2dPolyline
 66
     1
 10
0.0
 20
0.0
 30
0.0
  0
VERTEX
  5
9D
330
9C
100
AcDbEntity
  8
_U+30EC_U+30A4_U+30E4_U+30FC 1
370
     0
100
AcDbVertex
100
AcDb2dVertex
 10
100.1296332214954
 20
-125.7194579763826
 30
0.0
  0
VERTEX
  5
9E
330
9C
100
AcDbEntity
  8
_U+30EC_U+30A4_U+30E4_U+30FC 1
370
     0
100
AcDbVertex
100
AcDb2dVertex
 10
99.87779674152361
 20
-125.7194579763826
 30
0.0
  0
VERTEX
  5
9F
330
9C
100
AcDbEntity
  8
_U+30EC_U+30A4_U+30E4_U+30FC 1
370
     0
100
AcDbVertex
100
AcDb2dVertex
 10
99.87779674152361
 20
-125.4503960189846
 30
0.0
  0
VERTEX
  5
A0
330
9C
100
AcDbEntity
  8
_U+30EC_U+30A4_U+30E4_U+30FC 1
370
     0
100
AcDbVertex
100
AcDb2dVertex
 10
100.1296332214954
 20
-125.4503960189846
 30
0.0
  0
VERTEX
  5
A1
330
9C
100
AcDbEntity
  8
_U+30EC_U+30A4_U+30E4_U+30FC 1
370
     0
100
AcDbVertex
100
AcDb2dVertex
 10
100.1296332214954
 20
-125.7194579763826
 30
0.0
  0
SEQEND
  5
A2
330
9C
100
AcDbEntity
  8
_U+30EC_U+30A4_U+30E4_U+30FC 1
370
     0
  0
HATCH
  5
A3
330
96
100
AcDbEntity
  8
_U+30EC_U+30A4_U+30E4_U+30FC 1
 62
   179
420
  2234388
100
AcDbHatch
 10
0.0
 20
0.0
 30
0.0
210
0.0
220
0.0
230
1.0
  2
SOLID
 70
     1
 71
     0
 91
        1
 92
        1
 93
        4
 72
     1
 10
100.1296332214954
 20
-125.7194579763826
 11
99.87779674152361
 21
-125.7194579763826
 72
     1
 10
99.87779674152361
 20
-125.7194579763826
 11
99.87779674152361
 21
-125.4503960189846
 72
     1
 10
99.87779674152361
 20
-125.4503960189846
 11
100.1296332214954
 21
-125.4503960189846
 72
     1
 10
100.1296332214954
 20
-125.4503960189846
 11
100.1296332214954
 21
-125.7194579763826
 97
        0
 75
     2
 76
     1
 98
        0
  0
SPLINE
  5
A4
330
96
100
AcDbEntity
  8
_U+30EC_U+30A4_U+30E4_U+30FC 1
370
     0
100
AcDbSpline
210
0.0
220
0.0
230
1.0
 70
    11
 71
     3
 72
    53
 73
    49
 74
     0
 42
0.0000000001
 43
0.0000000001
 12
1.0
 22
0.0
 32
0.0
 13
1.0
 23
0.0
 33
0.0
 40
0.0
 40
0.0
 40
0.0
 40
0.0
 40
1.0
 40
1.0
 40
1.0
 40
2.0
 40
2.0
 40
2.0
 40
3.0
 40
3.0
 40
3.0
 40
4.0
 40
4.0
 40
4.0
 40
5.0
 40
5.0
 40
5.0
 40
6.0
 40
6.0
 40
6.0
 40
7.0
 40
7.0
 40
7.0
 40
8.0
 40
8.0
 40
8.0
 40
9.0
 40
9.0
 40
9.0
 40
10.0
 40
10.0
 40
10.0
 40
11.0
 40
11.0
 40
11.0
 40
12.0
 40
12.0
 40
12.0
 40
13.0
 40
13.0
 40
13.0
 40
14.0
 40
14.0
 40
14.0
 40
15.0
 40
15.0
 40
15.0
 40
16.0
 40
16.0
 40
16.0
 40
16.0
 10
100.1802761251285
 20
-124.683517763968
 30
0.0
 10
100.1802761251285
 20
-124.7672335842596
 30
0.0
 10
100.1633951572508
 20
-124.8754095824964
 30
0.0
 10
100.1000054003222
 20
-124.9842745998303
 30
0.0
 10
99.99010685434276
 20
-125.1696207369368
 30
0.0
 10
99.85884871635474
 20
-125.1920138575909
 30
0.0
 10
99.75101722766642
 20
-125.2123399209539
 30
0.0
 10
99.75101722766642
 20
-125.2123399209539
 30
0.0
 10
99.75101722766642
 20
-124.9749728420202
 30
0.0
 10
99.75101722766642
 20
-124.9749728420202
 30
0.0
 10
99.94979923716534
 20
-124.9164062187709
 30
0.0
 10
99.97942705833849
 20
-124.7806694566521
 30
0.0
 10
99.97942705833849
 20
-124.6811061971283
 30
0.0
 10
99.97942705833849
 20
-124.531933562617
 30
0.0
 10
99.87986379881477
 20
-124.3689805461647
 30
0.0
 10
99.64731985356039
 20
-124.3689805461647
 30
0.0
 10
99.39134925900633
 20
-124.3689805461647
 30
0.0
 10
99.32141382065576
 20
-124.5612168742417
 30
0.0
 10
99.32141382065576
 20
-124.69006344539
 30
0.0
 10
99.32141382065576
 20
-124.724169890694
 30
0.0
 10
99.32141382065576
 20
-124.8754095824964
 30
0.0
 10
99.45060490135263
 20
-124.9704942178893
 30
0.0
 10
99.45060490135263
 20
-124.9704942178893
 30
0.0
 10
99.43165687618375
 20
-125.1582519218354
 30
0.0
 10
99.43165687618375
 20
-125.1582519218354
 30
0.0
 10
99.43165687618375
 20
-125.1582519218354
 30
0.0
 10
98.58519691545787
 20
-125.0294053506871
 30
0.0
 10
98.58519691545787
 20
-125.0294053506871
 30
0.0
 10
98.58519691545787
 20
-125.0294053506871
 30
0.0
 10
98.58519691545787
 20
-124.1974147909993
 30
0.0
 10
98.58519691545787
 20
-124.1974147909993
 30
0.0
 10
98.58519691545787
 20
-124.1974147909993
 30
0.0
 10
98.77984481037448
 20
-124.1974147909993
 30
0.0
 10
98.77984481037448
 20
-124.1974147909993
 30
0.0
 10
98.77984481037448
 20
-124.1974147909993
 30
0.0
 10
98.77984481037448
 20
-124.8550835191335
 30
0.0
 10
98.77984481037448
 20
-124.8550835191335
 30
0.0
 10
98.77984481037448
 20
-124.8550835191335
 30
0.0
 10
99.20290253596316
 20
-124.9253634670326
 30
0.0
 10
99.20290253596316
 20
-124.9253634670326
 30
0.0
 10
99.16914060020773
 20
-124.8599066528128
 30
0.0
 10
99.12883298303029
 20
-124.7717122083904
 30
0.0
 10
99.12883298303029
 20
-124.6449326945332
 30
0.0
 10
99.12883298303029
 20
-124.3738036798441
 30
0.0
 10
99.3152126487823
 20
-124.1205891616782
 30
0.0
 10
99.62837182839152
 20
-124.1205891616782
 30
0.0
 10
99.94566512258304
 20
-124.1205891616782
 30
0.0
 10
100.1802761251285
 20
-124.3600232979031
 30
0.0
 10
100.1802761251285
 20
-124.683517763968
 30
0.0
  0
HATCH
  5
A5
330
96
100
AcDbEntity
  8
_U+30EC_U+30A4_U+30E4_U+30FC 1
 62
   179
420
  2234388
100
AcDbHatch
 10
0.0
 20
0.0
 30
0.0
210
0.0
220
0.0
230
1.0
  2
SOLID
 70
     1
 71
     0
 91
        1
 92
        1
 93
        1
 72
     4
 94
        3
 73
     0
 74
     1
 95
       53
 96
       49
 40
0.0
 40
0.0
 40
0.0
 40
0.0
 40
1.0
 40
1.0
 40
1.0
 40
2.0
 40
2.0
 40
2.0
 40
3.0
 40
3.0
 40
3.0
 40
4.0
 40
4.0
 40
4.0
 40
5.0
 40
5.0
 40
5.0
 40
6.0
 40
6.0
 40
6.0
 40
7.0
 40
7.0
 40
7.0
 40
8.0
 40
8.0
 40
8.0
 40
9.0
 40
9.0
 40
9.0
 40
10.0
 40
10.0
 40
10.0
 40
11.0
 40
11.0
 40
11.0
 40
12.0
 40
12.0
 40
12.0
 40
13.0
 40
13.0
 40
13.0
 40
14.0
 40
14.0
 40
14.0
 40
15.0
 40
15.0
 40
15.0
 40
16.0
 40
16.0
 40
16.0
 40
16.0
 10
100.1802761251285
 20
-124.683517763968
 10
100.1802761251285
 20
-124.7672335842596
 10
100.1633951572508
 20
-124.8754095824964
 10
100.1000054003222
 20
-124.9842745998303
 10
99.99010685434276
 20
-125.1696207369368
 10
99.85884871635474
 20
-125.1920138575909
 10
99.75101722766642
 20
-125.2123399209539
 10
99.75101722766642
 20
-125.2123399209539
 10
99.75101722766642
 20
-124.9749728420202
 10
99.75101722766642
 20
-124.9749728420202
 10
99.94979923716534
 20
-124.9164062187709
 10
99.97942705833849
 20
-124.7806694566521
 10
99.97942705833849
 20
-124.6811061971283
 10
99.97942705833849
 20
-124.531933562617
 10
99.87986379881477
 20
-124.3689805461647
 10
99.64731985356039
 20
-124.3689805461647
 10
99.39134925900633
 20
-124.3689805461647
 10
99.32141382065576
 20
-124.5612168742417
 10
99.32141382065576
 20
-124.69006344539
 10
99.32141382065576
 20
-124.724169890694
 10
99.32141382065576
 20
-124.8754095824964
 10
99.45060490135263
 20
-124.9704942178893
 10
99.45060490135263
 20
-124.9704942178893
 10
99.43165687618375
 20
-125.1582519218354
 10
99.43165687618375
 20
-125.1582519218354
 10
99.43165687618375
 20
-125.1582519218354
 10
98.58519691545787
 20
-125.0294053506871
 10
98.58519691545787
 20
-125.0294053506871
 10
98.58519691545787
 20
-125.0294053506871
 10
98.58519691545787
 20
-124.1974147909993
 10
98.58519691545787
 20
-124.1974147909993
 10
98.58519691545787
 20
-124.1974147909993
 10
98.77984481037448
 20
-124.1974147909993
 10
98.77984481037448
 20
-124.1974147909993
 10
98.77984481037448
 20
-124.1974147909993
 10
98.77984481037448
 20
-124.8550835191335
 10
98.77984481037448
 20
-124.8550835191335
 10
98.77984481037448
 20
-124.8550835191335
 10
99.20290253596316
 20
-124.9253634670326
 10
99.20290253596316
 20
-124.9253634670326
 10
99.16914060020773
 20
-124.8599066528128
 10
99.12883298303029
 20
-124.7717122083904
 10
99.12883298303029
 20
-124.6449326945332
 10
99.12883298303029
 20
-124.3738036798441
 10
99.3152126487823
 20
-124.1205891616782
 10
99.62837182839152
 20
-124.1205891616782
 10
99.94566512258304
 20
-124.1205891616782
 10
100.1802761251285
 20
-124.3600232979031
 10
100.1802761251285
 20
-124.683517763968
 97
        0
 97
        0
 75
     2
 76
     1
 98
        0
  0
ENDBLK
  5
99
330
96
100
AcDbEntity
  8
0
100
AcDbBlockEnd
  0
BLOCK
  5
A8
330
A6
100
AcDbEntity
  8
0
100
AcDbBlockBegin
  2
block 4
 70
     0
 10
0.0
 20
0.0
 30
0.0
  3
block 4
  1

  0
SPLINE
  5
AA
330
A6
100
AcDbEntity
  8
_U+30EC_U+30A4_U+30E4_U+30FC 1
370
     0
100
AcDbSpline
210
0.0
220
0.0
230
1.0
 70
    11
 71
     3
 72
    26
 73
    22
 74
     0
 42
0.0000000001
 43
0.0000000001
 12
1.0
 22
0.0
 32
0.0
 13
1.0
 23
0.0
 33
0.0
 40
0.0
 40
0.0
 40
0.0
 40
0.0
 40
1.0
 40
1.0
 40
1.0
 40
2.0
 40
2.0
 40
2.0
 40
3.0
 40
3.0
 40
3.0
 40
4.0
 40
4.0
 40
4.0
 40
5.0
 40
5.0
 40
5.0
 40
6.0
 40
6.0
 40
6.0
 40
7.0
 40
7.0
 40
7.0
 40
7.0
 10
100.1296332214954
 20
-131.7573323238315
 30
0.0
 10
100.1296332214954
 20
-131.7573323238315
 30
0.0
 10
99.0254801184728
 20
-131.7573323238315
 30
0.0
 10
99.0254801184728
 20
-131.7573323238315
 30
0.0
 10
99.0254801184728
 20
-131.7573323238315
 30
0.0
 10
99.0254801184728
 20
-132.1097655919726
 30
0.0
 10
99.0254801184728
 20
-132.1097655919726
 30
0.0
 10
99.0254801184728
 20
-132.1097655919726
 30
0.0
 10
98.87734101260706
 20
-132.1097655919726
 30
0.0
 10
98.87734101260706
 20
-132.1097655919726
 30
0.0
 10
98.86252710202048
 20
-131.7549207569918
 30
0.0
 10
98.69957408556817
 20
-131.7053113820042
 30
0.0
 10
98.58519691545787
 20
-131.6736165035399
 30
0.0
 10
98.58519691545787
 20
-131.6736165035399
 30
0.0
 10
98.58519691545787
 20
-131.5175536780581
 30
0.0
 10
98.58519691545787
 20
-131.5175536780581
 30
0.0
 10
98.58519691545787
 20
-131.5175536780581
 30
0.0
 10
100.1296332214954
 20
-131.5175536780581
 30
0.0
 10
100.1296332214954
 20
-131.5175536780581
 30
0.0
 10
100.1296332214954
 20
-131.5175536780581
 30
0.0
 10
100.1296332214954
 20
-131.7573323238315
 30
0.0
 10
100.1296332214954
 20
-131.7573323238315
 30
0.0
  0
HATCH
  5
AB
330
A6
100
AcDbEntity
  8
_U+30EC_U+30A4_U+30E4_U+30FC 1
 62
   179
420
  2234388
100
AcDbHatch
 10
0.0
 20
0.0
 30
0.0
210
0.0
220
0.0
230
1.0
  2
SOLID
 70
     1
 71
     0
 91
        1
 92
        1
 93
        1
 72
     4
 94
        3
 73
     0
 74
     1
 95
       26
 96
       22
 40
0.0
 40
0.0
 40
0.0
 40
0.0
 40
1.0
 40
1.0
 40
1.0
 40
2.0
 40
2.0
 40
2.0
 40
3.0
 40
3.0
 40
3.0
 40
4.0
 40
4.0
 40
4.0
 40
5.0
 40
5.0
 40
5.0
 40
6.0
 40
6.0
 40
6.0
 40
7.0
 40
7.0
 40
7.0
 40
7.0
 10
100.1296332214954
 20
-131.7573323238315
 10
100.1296332214954
 20
-131.7573323238315
 10
99.0254801184728
 20
-131.7573323238315
 10
99.0254801184728
 20
-131.7573323238315
 10
99.0254801184728
 20
-131.7573323238315
 10
99.0254801184728
 20
-132.1097655919726
 10
99.0254801184728
 20
-132.1097655919726
 10
99.0254801184728
 20
-132.1097655919726
 10
98.87734101260706
 20
-132.1097655919726
 10
98.87734101260706
 20
-132.1097655919726
 10
98.86252710202048
 20
-131.7549207569918
 10
98.69957408556817
 20
-131.7053113820042
 10
98.58519691545787
 20
-131.6736165035399
 10
98.58519691545787
 20
-131.6736165035399
 10
98.58519691545787
 20
-131.5175536780581
 10
98.58519691545787
 20
-131.5175536780581
 10
98.58519691545787
 20
-131.5175536780581
 10
100.1296332214954
 20
-131.5175536780581
 10
100.1296332214954
 20
-131.5175536780581
 10
100.1296332214954
 20
-131.5175536780581
 10
100.1296332214954
 20
-131.7573323238315
 10
100.1296332214954
 20
-131.7573323238315
 97
        0
 97
        0
 75
     2
 76
     1
 98
        0
  0
ENDBLK
  5
A9
330
A6
100
AcDbEntity
  8
0
100
AcDbBlockEnd
  0
BLOCK
  5
BA
330
B8
100
AcDbEntity
  8
0
100
AcDbBlockBegin
  2
block 5
 70
     0
 10
0.0
 20
0.0
 30
0.0
  3
block 5
  1

  0
SPLINE
  5
BC
330
B8
100
AcDbEntity
  8
_U+30EC_U+30A4_U+30E4_U+30FC 1
370
     0
100
AcDbSpline
210
0.0
220
0.0
230
1.0
 70
    11
 71
     3
 72
    29
 73
    25
 74
     0
 42
0.0000000001
 43
0.0000000001
 12
1.0
 22
0.0
 32
0.0
 13
1.0
 23
0.0
 33
0.0
 40
0.0
 40
0.0
 40
0.0
 40
0.0
 40
1.0
 40
1.0
 40
1.0
 40
2.0
 40
2.0
 40
2.0
 40
3.0
 40
3.0
 40
3.0
 40
4.0
 40
4.0
 40
4.0
 40
5.0
 40
5.0
 40
5.0
 40
6.0
 40
6.0
 40
6.0
 40
7.0
 40
7.0
 40
7.0
 40
8.0
 40
8.0
 40
8.0
 40
8.0
 10
83.4882717347703
 20
-122.0378566860704
 30
0.0
 10
83.20336233814014
 20
-122.0378566860704
 30
0.0
 10
82.93206106867672
 20
-121.9002251214347
 30
0.0
 10
82.93206106867672
 20
-121.5512369487789
 30
0.0
 10
82.93206106867672
 20
-121.2952663542248
 30
0.0
 10
83.08347301525345
 20
-121.2000094640576
 30
0.0
 10
83.1966444019439
 20
-121.1386867644202
 30
0.0
 10
83.06314695189047
 20
-121.0794311220739
 30
0.0
 10
82.98184269843857
 20
-120.9652262067379
 30
0.0
 10
82.98184269843857
 20
-120.804512502351
 30
0.0
 10
82.98184269843857
 20
-120.5294216278538
 30
0.0
 10
83.19423283510422
 20
-120.3940293752834
 30
0.0
 10
83.4882717347703
 20
-120.3940293752834
 30
0.0
 10
83.79126788269802
 20
-120.3940293752834
 30
0.0
 10
83.99470077110202
 20
-120.5378621117926
 30
0.0
 10
83.99470077110202
 20
-120.804512502351
 30
0.0
 10
83.99470077110202
 20
-120.9652262067379
 30
0.0
 10
83.91098495081046
 20
-121.0794311220739
 30
0.0
 10
83.77765975553129
 20
-121.1386867644202
 30
0.0
 10
83.87257213614991
 20
-121.1895019228276
 30
0.0
 10
84.0420708340242
 20
-121.2847588129948
 30
0.0
 10
84.0420708340242
 20
-121.5471028341966
 30
0.0
 10
84.0420708340242
 20
-121.921412458669
 30
0.0
 10
83.74372556500157
 20
-122.0378566860704
 30
0.0
 10
83.4882717347703
 20
-122.0378566860704
 30
0.0
  0
SPLINE
  5
BD
330
B8
100
AcDbEntity
  8
_U+30EC_U+30A4_U+30E4_U+30FC 1
370
     0
100
AcDbSpline
210
0.0
220
0.0
230
1.0
 70
    11
 71
     3
 72
    17
 73
    13
 74
     0
 42
0.0000000001
 43
0.0000000001
 12
1.0
 22
0.0
 32
0.0
 13
1.0
 23
0.0
 33
0.0
 40
0.0
 40
0.0
 40
0.0
 40
0.0
 40
1.0
 40
1.0
 40
1.0
 40
2.0
 40
2.0
 40
2.0
 40
3.0
 40
3.0
 40
3.0
 40
4.0
 40
4.0
 40
4.0
 40
4.0
 10
83.4882717347703
 20
-121.2466905078828
 30
0.0
 10
83.3344482213539
 20
-121.2466905078828
 30
0.0
 10
83.17166745967583
 20
-121.3333346593368
 30
0.0
 10
83.17166745967583
 20
-121.5364230381923
 30
0.0
 10
83.17166745967583
 20
-121.7415784743389
 30
0.0
 10
83.30740422179468
 20
-121.8432087911538
 30
0.0
 10
83.4882717347703
 20
-121.8432087911538
 30
0.0
 10
83.68722599904348
 20
-121.8432087911538
 30
0.0
 10
83.8047037550905
 20
-121.7205633918789
 30
0.0
 10
83.8047037550905
 20
-121.54279646484
 30
0.0
 10
83.8047037550905
 20
-121.3205878060414
 30
0.0
 10
83.63072643308537
 20
-121.2466905078828
 30
0.0
 10
83.4882717347703
 20
-121.2466905078828
 30
0.0
  0
SPLINE
  5
BE
330
B8
100
AcDbEntity
  8
_U+30EC_U+30A4_U+30E4_U+30FC 1
370
     0
100
AcDbSpline
210
0.0
220
0.0
230
1.0
 70
    11
 71
     3
 72
    17
 73
    13
 74
     0
 42
0.0000000001
 43
0.0000000001
 12
1.0
 22
0.0
 32
0.0
 13
1.0
 23
0.0
 33
0.0
 40
0.0
 40
0.0
 40
0.0
 40
0.0
 40
1.0
 40
1.0
 40
1.0
 40
2.0
 40
2.0
 40
2.0
 40
3.0
 40
3.0
 40
3.0
 40
4.0
 40
4.0
 40
4.0
 40
4.0
 10
83.4882717347703
 20
-120.5866102129089
 30
0.0
 10
83.31188284592551
 20
-120.5866102129089
 30
0.0
 10
83.2214490894377
 20
-120.6816948483018
 30
0.0
 10
83.2214490894377
 20
-120.8170871008721
 30
0.0
 10
83.2214490894377
 20
-120.9399047549213
 30
0.0
 10
83.29827471875876
 20
-121.0584160396139
 30
0.0
 10
83.4882717347703
 20
-121.0584160396139
 30
0.0
 10
83.67809649600757
 20
-121.0584160396139
 30
0.0
 10
83.7550943801029
 20
-120.9399047549213
 30
0.0
 10
83.7550943801029
 20
-120.8170871008721
 30
0.0
 10
83.7550943801029
 20
-120.6816948483018
 30
0.0
 10
83.66224905677541
 20
-120.5866102129089
 30
0.0
 10
83.4882717347703
 20
-120.5866102129089
 30
0.0
  0
HATCH
  5
BF
330
B8
100
AcDbEntity
  8
_U+30EC_U+30A4_U+30E4_U+30FC 1
 62
   179
420
  2234388
100
AcDbHatch
 10
0.0
 20
0.0
 30
0.0
210
0.0
220
0.0
230
1.0
  2
SOLID
 70
     1
 71
     0
 91
        3
 92
        1
 93
        1
 72
     4
 94
        3
 73
     0
 74
     1
 95
       29
 96
       25
 40
0.0
 40
0.0
 40
0.0
 40
0.0
 40
1.0
 40
1.0
 40
1.0
 40
2.0
 40
2.0
 40
2.0
 40
3.0
 40
3.0
 40
3.0
 40
4.0
 40
4.0
 40
4.0
 40
5.0
 40
5.0
 40
5.0
 40
6.0
 40
6.0
 40
6.0
 40
7.0
 40
7.0
 40
7.0
 40
8.0
 40
8.0
 40
8.0
 40
8.0
 10
83.4882717347703
 20
-122.0378566860704
 10
83.20336233814014
 20
-122.0378566860704
 10
82.93206106867672
 20
-121.9002251214347
 10
82.93206106867672
 20
-121.5512369487789
 10
82.93206106867672
 20
-121.2952663542248
 10
83.08347301525345
 20
-121.2000094640576
 10
83.1966444019439
 20
-121.1386867644202
 10
83.06314695189047
 20
-121.0794311220739
 10
82.98184269843857
 20
-120.9652262067379
 10
82.98184269843857
 20
-120.804512502351
 10
82.98184269843857
 20
-120.5294216278538
 10
83.19423283510422
 20
-120.3940293752834
 10
83.4882717347703
 20
-120.3940293752834
 10
83.79126788269802
 20
-120.3940293752834
 10
83.99470077110202
 20
-120.5378621117926
 10
83.99470077110202
 20
-120.804512502351
 10
83.99470077110202
 20
-120.9652262067379
 10
83.91098495081046
 20
-121.0794311220739
 10
83.77765975553129
 20
-121.1386867644202
 10
83.87257213614991
 20
-121.1895019228276
 10
84.0420708340242
 20
-121.2847588129948
 10
84.0420708340242
 20
-121.5471028341966
 10
84.0420708340242
 20
-121.921412458669
 10
83.74372556500157
 20
-122.0378566860704
 10
83.4882717347703
 20
-122.0378566860704
 97
        0
 97
        0
 92
        1
 93
        1
 72
     4
 94
        3
 73
     0
 74
     1
 95
       17
 96
       13
 40
0.0
 40
0.0
 40
0.0
 40
0.0
 40
1.0
 40
1.0
 40
1.0
 40
2.0
 40
2.0
 40
2.0
 40
3.0
 40
3.0
 40
3.0
 40
4.0
 40
4.0
 40
4.0
 40
4.0
 10
83.4882717347703
 20
-121.2466905078828
 10
83.3344482213539
 20
-121.2466905078828
 10
83.17166745967583
 20
-121.3333346593368
 10
83.17166745967583
 20
-121.5364230381923
 10
83.17166745967583
 20
-121.7415784743389
 10
83.30740422179468
 20
-121.8432087911538
 10
83.4882717347703
 20
-121.8432087911538
 10
83.68722599904348
 20
-121.8432087911538
 10
83.8047037550905
 20
-121.7205633918789
 10
83.8047037550905
 20
-121.54279646484
 10
83.8047037550905
 20
-121.3205878060414
 10
83.63072643308537
 20
-121.2466905078828
 10
83.4882717347703
 20
-121.2466905078828
 97
        0
 97
        0
 92
        1
 93
        1
 72
     4
 94
        3
 73
     0
 74
     1
 95
       17
 96
       13
 40
0.0
 40
0.0
 40
0.0
 40
0.0
 40
1.0
 40
1.0
 40
1.0
 40
2.0
 40
2.0
 40
2.0
 40
3.0
 40
3.0
 40
3.0
 40
4.0
 40
4.0
 40
4.0
 40
4.0
 10
83.4882717347703
 20
-120.5866102129089
 10
83.31188284592551
 20
-120.5866102129089
 10
83.2214490894377
 20
-120.6816948483018
 10
83.2214490894377
 20
-120.8170871008721
 10
83.2214490894377
 20
-120.9399047549213
 10
83.29827471875876
 20
-121.0584160396139
 10
83.4882717347703
 20
-121.0584160396139
 10
83.67809649600757
 20
-121.0584160396139
 10
83.7550943801029
 20
-120.9399047549213
 10
83.7550943801029
 20
-120.8170871008721
 10
83.7550943801029
 20
-120.6816948483018
 10
83.66224905677541
 20
-120.5866102129089
 10
83.4882717347703
 20
-120.5866102129089
 97
        0
 97
        0
 75
     2
 76
     1
 98
        0
  0
ENDBLK
  5
BB
330
B8
100
AcDbEntity
  8
0
100
AcDbBlockEnd
  0
BLOCK
  5
C2
330
C0
100
AcDbEntity
  8
0
100
AcDbBlockBegin
  2
block 6
 70
     0
 10
0.0
 20
0.0
 30
0.0
  3
block 6
  1

  0
POLYLINE
  5
C4
330
C0
100
AcDbEntity
  8
_U+30EC_U+30A4_U+30E4_U+30FC 1
 62
   179
420
  2234388
370
     9
100
AcDb2dPolyline
 66
     1
 10
0.0
 20
0.0
 30
0.0
  0
VERTEX
  5
C5
330
C4
100
AcDbEntity
  8
_U+30EC_U+30A4_U+30E4_U+30FC 1
 62
   179
420
  2234388
370
     9
100
AcDbVertex
100
AcDb2dVertex
 10
84.43996951242357
 20
-130.1116058008052
 30
0.0
  0
VERTEX
  5
C6
330
C4
100
AcDbEntity
  8
_U+30EC_U+30A4_U+30E4_U+30FC 1
 62
   179
420
  2234388
370
     9
100
AcDbVertex
100
AcDb2dVertex
 10
81.27943348194445
 20
-130.1116058008052
 30
0.0
  0
SEQEND
  5
C7
330
C4
100
AcDbEntity
  8
_U+30EC_U+30A4_U+30E4_U+30FC 1
 62
   179
420
  2234388
370
     9
  0
INSERT
  5
C9
330
C0
100
AcDbEntity
  8
_U+30EC_U+30A4_U+30E4_U+30FC 1
100
AcDbBlockReference
  2
block 7
 10
0.0
 20
0.0
 30
0.0
  0
ENDBLK
  5
C3
330
C0
100
AcDbEntity
  8
0
100
AcDbBlockEnd
  0
BLOCK
  5
CA
330
C8
100
AcDbEntity
  8
0
100
AcDbBlockBegin
  2
block 7
 70
     0
 10
0.0
 20
0.0
 30
0.0
  3
block 7
  1

  0
SPLINE
  5
CC
330
C8
100
AcDbEntity
  8
_U+30EC_U+30A4_U+30E4_U+30FC 1
370
     0
100
AcDbSpline
210
0.0
220
0.0
230
1.0
 70
    11
 71
     3
 72
    26
 73
    22
 74
     0
 42
0.0000000001
 43
0.0000000001
 12
1.0
 22
0.0
 32
0.0
 13
1.0
 23
0.0
 33
0.0
 40
0.0
 40
0.0
 40
0.0
 40
0.0
 40
1.0
 40
1.0
 40
1.0
 40
2.0
 40
2.0
 40
2.0
 40
3.0
 40
3.0
 40
3.0
 40
4.0
 40
4.0
 40
4.0
 40
5.0
 40
5.0
 40
5.0
 40
6.0
 40
6.0
 40
6.0
 40
7.0
 40
7.0
 40
7.0
 40
7.0
 10
81.85598549385892
 20
-129.5603949328877
 30
0.0
 10
81.85598549385892
 20
-129.5603949328877
 30
0.0
 10
81.85598549385892
 20
-128.4560695750909
 30
0.0
 10
81.85598549385892
 20
-128.4560695750909
 30
0.0
 10
81.85598549385892
 20
-128.4560695750909
 30
0.0
 10
81.50320771616934
 20
-128.4560695750909
 30
0.0
 10
81.50320771616934
 20
-128.4560695750909
 30
0.0
 10
81.50320771616934
 20
-128.4560695750909
 30
0.0
 10
81.50320771616934
 20
-128.3081027239994
 30
0.0
 10
81.50320771616934
 20
-128.3081027239994
 30
0.0
 10
81.85822480592434
 20
-128.2932888134128
 30
0.0
 10
81.90800643568619
 20
-128.1303357969605
 30
0.0
 10
81.93952905937623
 20
-128.0161308816244
 30
0.0
 10
81.93952905937623
 20
-128.0161308816244
 30
0.0
 10
82.09559188485805
 20
-128.0161308816244
 30
0.0
 10
82.09559188485805
 20
-128.0161308816244
 30
0.0
 10
82.09559188485805
 20
-128.0161308816244
 30
0.0
 10
82.09559188485805
 20
-129.5603949328877
 30
0.0
 10
82.09559188485805
 20
-129.5603949328877
 30
0.0
 10
82.09559188485805
 20
-129.5603949328877
 30
0.0
 10
81.85598549385892
 20
-129.5603949328877
 30
0.0
 10
81.85598549385892
 20
-129.5603949328877
 30
0.0
  0
HATCH
  5
CD
330
C8
100
AcDbEntity
  8
_U+30EC_U+30A4_U+30E4_U+30FC 1
 62
   179
420
  2234388
100
AcDbHatch
 10
0.0
 20
0.0
 30
0.0
210
0.0
220
0.0
230
1.0
  2
SOLID
 70
     1
 71
     0
 91
        1
 92
        1
 93
        1
 72
     4
 94
        3
 73
     0
 74
     1
 95
       26
 96
       22
 40
0.0
 40
0.0
 40
0.0
 40
0.0
 40
1.0
 40
1.0
 40
1.0
 40
2.0
 40
2.0
 40
2.0
 40
3.0
 40
3.0
 40
3.0
 40
4.0
 40
4.0
 40
4.0
 40
5.0
 40
5.0
 40
5.0
 40
6.0
 40
6.0
 40
6.0
 40
7.0
 40
7.0
 40
7.0
 40
7.0
 10
81.85598549385892
 20
-129.5603949328877
 10
81.85598549385892
 20
-129.5603949328877
 10
81.85598549385892
 20
-128.4560695750909
 10
81.85598549385892
 20
-128.4560695750909
 10
81.85598549385892
 20
-128.4560695750909
 10
81.50320771616934
 20
-128.4560695750909
 10
81.50320771616934
 20
-128.4560695750909
 10
81.50320771616934
 20
-128.4560695750909
 10
81.50320771616934
 20
-128.3081027239994
 10
81.50320771616934
 20
-128.3081027239994
 10
81.85822480592434
 20
-128.2932888134128
 10
81.90800643568619
 20
-128.1303357969605
 10
81.93952905937623
 20
-128.0161308816244
 10
81.93952905937623
 20
-128.0161308816244
 10
82.09559188485805
 20
-128.0161308816244
 10
82.09559188485805
 20
-128.0161308816244
 10
82.09559188485805
 20
-128.0161308816244
 10
82.09559188485805
 20
-129.5603949328877
 10
82.09559188485805
 20
-129.5603949328877
 10
82.09559188485805
 20
-129.5603949328877
 10
81.85598549385892
 20
-129.5603949328877
 10
81.85598549385892
 20
-129.5603949328877
 97
        0
 97
        0
 75
     2
 76
     1
 98
        0
  0
ENDBLK
  5
CB
330
C8
100
AcDbEntity
  8
0
100
AcDbBlockEnd
  0
ENDSEC
  0
SECTION
  2
ENTITIES
  0
SPLINE
  5
41
330
1F
100
AcDbEntity
  8
_U+30EC_U+30A4_U+30E4_U+30FC 1
370
     0
100
AcDbSpline
210
0.0
220
0.0
230
1.0
 70
    11
 71
     3
 72
    53
 73
    49
 74
     0
 42
0.0000000001
 43
0.0000000001
 12
1.0
 22
0.0
 32
0.0
 13
1.0
 23
0.0
 33
0.0
 40
0.0
 40
0.0
 40
0.0
 40
0.0
 40
1.0
 40
1.0
 40
1.0
 40
2.0
 40
2.0
 40
2.0
 40
3.0
 40
3.0
 40
3.0
 40
4.0
 40
4.0
 40
4.0
 40
5.0
 40
5.0
 40
5.0
 40
6.0
 40
6.0
 40
6.0
 40
7.0
 40
7.0
 40
7.0
 40
8.0
 40
8.0
 40
8.0
 40
9.0
 40
9.0
 40
9.0
 40
10.0
 40
10.0
 40
10.0
 40
11.0
 40
11.0
 40
11.0
 40
12.0
 40
12.0
 40
12.0
 40
13.0
 40
13.0
 40
13.0
 40
14.0
 40
14.0
 40
14.0
 40
15.0
 40
15.0
 40
15.0
 40
16.0
 40
16.0
 40
16.0
 40
16.0
 10
96.94565919337686
 20
-131.733219411511
 30
0.0
 10
96.94565919337686
 20
-131.733219411511
 30
0.0
 10
87.31147471694315
 20
-131.733219411511
 30
0.0
 10
87.31147471694315
 20
-131.733219411511
 30
0.0
 10
87.13300444371853
 20
-131.4238333004777
 30
0.0
 10
86.80298084102702
 20
-131.2336860783028
 30
0.0
 10
86.44572497838845
 20
-131.2336860783028
 30
0.0
 10
86.44572497838845
 20
-131.2336860783028
 30
0.0
 10
83.94562202503543
 20
-131.2336860783028
 30
0.0
 10
83.94562202503543
 20
-131.2336860783028
 30
0.0
 10
83.94562202503543
 20
-131.2336860783028
 30
0.0
 10
83.94562202503543
 20
-127.7334602458444
 30
0.0
 10
83.94562202503543
 20
-127.7334602458444
 30
0.0
 10
83.94562202503543
 20
-127.7334602458444
 30
0.0
 10
86.94561108937472
 20
-127.7334602458444
 30
0.0
 10
86.94561108937472
 20
-127.7334602458444
 30
0.0
 10
87.2219044414505
 20
-127.7334602458444
 30
0.0
 10
87.44549720036099
 20
-127.5095169125671
 30
0.0
 10
87.44549720036099
 20
-127.2332213570807
 30
0.0
 10
87.44549720036099
 20
-126.9738238571454
 30
0.0
 10
87.24705749636435
 20
-126.7574652460884
 30
0.0
 10
86.9883302807428
 20
-126.7350638572051
 30
0.0
 10
84.63082228533229
 20
-126.5328516350335
 30
0.0
 10
82.260261512477
 20
-126.5328516350335
 30
0.0
 10
79.90278879484336
 20
-126.7350638572051
 30
0.0
 10
79.62751630186615
 20
-126.7588410794213
 30
0.0
 10
79.42357547373578
 20
-127.0010230238054
 30
0.0
 10
79.4473526953514
 20
-127.2762955237364
 30
0.0
 10
79.46975408366878
 20
-127.535022745894
 30
0.0
 10
79.68607741148324
 20
-127.7334602458444
 30
0.0
 10
79.94586296041112
 20
-127.7334602458444
 30
0.0
 10
79.94586296041112
 20
-127.7334602458444
 30
0.0
 10
82.94584982831952
 20
-127.7334602458444
 30
0.0
 10
82.94584982831952
 20
-127.7334602458444
 30
0.0
 10
82.94584982831952
 20
-127.7334602458444
 30
0.0
 10
82.94584982831952
 20
-131.2336860783028
 30
0.0
 10
82.94584982831952
 20
-131.2336860783028
 30
0.0
 10
82.94584982831952
 20
-131.2336860783028
 30
0.0
 10
80.4453962810003
 20
-131.2336860783028
 30
0.0
 10
80.4453962810003
 20
-131.2336860783028
 30
0.0
 10
79.89347546174763
 20
-131.2336860783028
 30
0.0
 10
79.44562408428439
 20
-131.6811846893021
 30
0.0
 10
79.44562408428439
 20
-132.2334583002747
 30
0.0
 10
79.44562408428439
 20
-132.2334583002747
 30
0.0
 10
97.4455452917348
 20
-132.2334583002747
 30
0.0
 10
97.4455452917348
 20
-132.2334583002747
 30
0.0
 10
97.4455452917348
 20
-131.9571627447882
 30
0.0
 10
97.22163724189161
 20
-131.733219411511
 30
0.0
 10
96.94565919337686
 20
-131.733219411511
 30
0.0
  0
HATCH
  5
42
330
1F
100
AcDbEntity
  8
_U+30EC_U+30A4_U+30E4_U+30FC 1
 62
   253
420
 11711154
100
AcDbHatch
 10
0.0
 20
0.0
 30
0.0
210
0.0
220
0.0
230
1.0
  2
SOLID
 70
     1
 71
     0
 91
        1
 92
        1
 93
        1
 72
     4
 94
        3
 73
     0
 74
     1
 95
       53
 96
       49
 40
0.0
 40
0.0
 40
0.0
 40
0.0
 40
1.0
 40
1.0
 40
1.0
 40
2.0
 40
2.0
 40
2.0
 40
3.0
 40
3.0
 40
3.0
 40
4.0
 40
4.0
 40
4.0
 40
5.0
 40
5.0
 40
5.0
 40
6.0
 40
6.0
 40
6.0
 40
7.0
 40
7.0
 40
7.0
 40
8.0
 40
8.0
 40
8.0
 40
9.0
 40
9.0
 40
9.0
 40
10.0
 40
10.0
 40
10.0
 40
11.0
 40
11.0
 40
11.0
 40
12.0
 40
12.0
 40
12.0
 40
13.0
 40
13.0
 40
13.0
 40
14.0
 40
14.0
 40
14.0
 40
15.0
 40
15.0
 40
15.0
 40
16.0
 40
16.0
 40
16.0
 40
16.0
 10
96.94565919337686
 20
-131.733219411511
 10
96.94565919337686
 20
-131.733219411511
 10
87.31147471694315
 20
-131.733219411511
 10
87.31147471694315
 20
-131.733219411511
 10
87.13300444371853
 20
-131.4238333004777
 10
86.80298084102702
 20
-131.2336860783028
 10
86.44572497838845
 20
-131.2336860783028
 10
86.44572497838845
 20
-131.2336860783028
 10
83.94562202503543
 20
-131.2336860783028
 10
83.94562202503543
 20
-131.2336860783028
 10
83.94562202503543
 20
-131.2336860783028
 10
83.94562202503543
 20
-127.7334602458444
 10
83.94562202503543
 20
-127.7334602458444
 10
83.94562202503543
 20
-127.7334602458444
 10
86.94561108937472
 20
-127.7334602458444
 10
86.94561108937472
 20
-127.7334602458444
 10
87.2219044414505
 20
-127.7334602458444
 10
87.44549720036099
 20
-127.5095169125671
 10
87.44549720036099
 20
-127.2332213570807
 10
87.44549720036099
 20
-126.9738238571454
 10
87.24705749636435
 20
-126.7574652460884
 10
86.9883302807428
 20
-126.7350638572051
 10
84.63082228533229
 20
-126.5328516350335
 10
82.260261512477
 20
-126.5328516350335
 10
79.90278879484336
 20
-126.7350638572051
 10
79.62751630186615
 20
-126.7588410794213
 10
79.42357547373578
 20
-127.0010230238054
 10
79.4473526953514
 20
-127.2762955237364
 10
79.46975408366878
 20
-127.535022745894
 10
79.68607741148324
 20
-127.7334602458444
 10
79.94586296041112
 20
-127.7334602458444
 10
79.94586296041112
 20
-127.7334602458444
 10
82.94584982831952
 20
-127.7334602458444
 10
82.94584982831952
 20
-127.7334602458444
 10
82.94584982831952
 20
-127.7334602458444
 10
82.94584982831952
 20
-131.2336860783028
 10
82.94584982831952
 20
-131.2336860783028
 10
82.94584982831952
 20
-131.2336860783028
 10
80.4453962810003
 20
-131.2336860783028
 10
80.4453962810003
 20
-131.2336860783028
 10
79.89347546174763
 20
-131.2336860783028
 10
79.44562408428439
 20
-131.6811846893021
 10
79.44562408428439
 20
-132.2334583002747
 10
79.44562408428439
 20
-132.2334583002747
 10
97.4455452917348
 20
-132.2334583002747
 10
97.4455452917348
 20
-132.2334583002747
 10
97.4455452917348
 20
-131.9571627447882
 10
97.22163724189161
 20
-131.733219411511
 10
96.94565919337686
 20
-131.733219411511
 97
        0
 97
        0
 75
     2
 76
     1
 98
        0
  0
POLYLINE
  5
43
330
1F
100
AcDbEntity
  8
_U+30EC_U+30A4_U+30E4_U+30FC 1
 62
   179
420
  2234388
370
    25
100
AcDb2dPolyline
 66
     1
 10
0.0
 20
0.0
 30
0.0
  0
VERTEX
  5
44
330
43
100
AcDbEntity
  8
_U+30EC_U+30A4_U+30E4_U+30FC 1
 62
   179
420
  2234388
370
    25
100
AcDbVertex
100
AcDb2dVertex
 10
80.4453962810003
 20
-131.2336860783028
 30
0.0
  0
VERTEX
  5
45
330
43
100
AcDbEntity
  8
_U+30EC_U+30A4_U+30E4_U+30FC 1
 62
   179
420
  2234388
370
    25
100
AcDbVertex
100
AcDb2dVertex
 10
82.94584982831952
 20
-131.2336860783028
 30
0.0
  0
SEQEND
  5
46
330
43
100
AcDbEntity
  8
_U+30EC_U+30A4_U+30E4_U+30FC 1
 62
   179
420
  2234388
370
    25
  0
POLYLINE
  5
47
330
1F
100
AcDbEntity
  8
_U+30EC_U+30A4_U+30E4_U+30FC 1
 62
   179
420
  2234388
370
    25
100
AcDb2dPolyline
 66
     1
 10
0.0
 20
0.0
 30
0.0
  0
VERTEX
  5
48
330
47
100
AcDbEntity
  8
_U+30EC_U+30A4_U+30E4_U+30FC 1
 62
   179
420
  2234388
370
    25
100
AcDbVertex
100
AcDb2dVertex
 10
79.44562408428439
 20
-132.2334583002747
 30
0.0
  0
VERTEX
  5
49
330
47
100
AcDbEntity
  8
_U+30EC_U+30A4_U+30E4_U+30FC 1
 62
   179
420
  2234388
370
    25
100
AcDbVertex
100
AcDb2dVertex
 10
97.4455452917348
 20
-132.2334583002747
 30
0.0
  0
SEQEND
  5
4A
330
47
100
AcDbEntity
  8
_U+30EC_U+30A4_U+30E4_U+30FC 1
 62
   179
420
  2234388
370
    25
  0
POLYLINE
  5
4B
330
1F
100
AcDbEntity
  8
_U+30EC_U+30A4_U+30E4_U+30FC 1
 62
   179
420
  2234388
370
    25
100
AcDb2dPolyline
 66
     1
 10
0.0
 20
0.0
 30
0.0
  0
VERTEX
  5
4C
330
4B
100
AcDbEntity
  8
_U+30EC_U+30A4_U+30E4_U+30FC 1
 62
   179
420
  2234388
370
    25
100
AcDbVertex
100
AcDb2dVertex
 10
87.31147471694315
 20
-131.733219411511
 30
0.0
  0
VERTEX
  5
4D
330
4B
100
AcDbEntity
  8
_U+30EC_U+30A4_U+30E4_U+30FC 1
 62
   179
420
  2234388
370
    25
100
AcDbVertex
100
AcDb2dVertex
 10
96.94565919337686
 20
-131.733219411511
 30
0.0
  0
SEQEND
  5
4E
330
4B
100
AcDbEntity
  8
_U+30EC_U+30A4_U+30E4_U+30FC 1
 62
   179
420
  2234388
370
    25
  0
POLYLINE
  5
4F
330
1F
100
AcDbEntity
  8
_U+30EC_U+30A4_U+30E4_U+30FC 1
 62
   179
420
  2234388
370
    25
100
AcDb2dPolyline
 66
     1
 10
0.0
 20
0.0
 30
0.0
  0
VERTEX
  5
50
330
4F
100
AcDbEntity
  8
_U+30EC_U+30A4_U+30E4_U+30FC 1
 62
   179
420
  2234388
370
    25
100
AcDbVertex
100
AcDb2dVertex
 10
79.94586296041112
 20
-127.7334602458444
 30
0.0
  0
VERTEX
  5
51
330
4F
100
AcDbEntity
  8
_U+30EC_U+30A4_U+30E4_U+30FC 1
 62
   179
420
  2234388
370
    25
100
AcDbVertex
100
AcDb2dVertex
 10
82.94584982831952
 20
-127.7334602458444
 30
0.0
  0
SEQEND
  5
52
330
4F
100
AcDbEntity
  8
_U+30EC_U+30A4_U+30E4_U+30FC 1
 62
   179
420
  2234388
370
    25
  0
POLYLINE
  5
53
330
1F
100
AcDbEntity
  8
_U+30EC_U+30A4_U+30E4_U+30FC 1
 62
   179
420
  2234388
370
    25
100
AcDb2dPolyline
 66
     1
 10
0.0
 20
0.0
 30
0.0
  0
VERTEX
  5
54
330
53
100
AcDbEntity
  8
_U+30EC_U+30A4_U+30E4_U+30FC 1
 62
   179
420
  2234388
370
    25
100
AcDbVertex
100
AcDb2dVertex
 10
82.94584982831952
 20
-127.7334602458444
 30
0.0
  0
VERTEX
  5
55
330
53
100
AcDbEntity
  8
_U+30EC_U+30A4_U+30E4_U+30FC 1
 62
   179
420
  2234388
370
    25
100
AcDbVertex
100
AcDb2dVertex
 10
82.94584982831952
 20
-131.2336860783028
 30
0.0
  0
SEQEND
  5
56
330
53
100
AcDbEntity
  8
_U+30EC_U+30A4_U+30E4_U+30FC 1
 62
   179
420
  2234388
370
    25
  0
POLYLINE
  5
57
330
1F
100
AcDbEntity
  8
_U+30EC_U+30A4_U+30E4_U+30FC 1
 62
   179
420
  2234388
370
    25
100
AcDb2dPolyline
 66
     1
 10
0.0
 20
0.0
 30
0.0
  0
VERTEX
  5
58
330
57
100
AcDbEntity
  8
_U+30EC_U+30A4_U+30E4_U+30FC 1
 62
   179
420
  2234388
370
    25
100
AcDbVertex
100
AcDb2dVertex
 10
83.94562202503543
 20
-127.7334602458444
 30
0.0
  0
VERTEX
  5
59
330
57
100
AcDbEntity
  8
_U+30EC_U+30A4_U+30E4_U+30FC 1
 62
   179
420
  2234388
370
    25
100
AcDbVertex
100
AcDb2dVertex
 10
83.94562202503543
 20
-131.2336860783028
 30
0.0
  0
SEQEND
  5
5A
330
57
100
AcDbEntity
  8
_U+30EC_U+30A4_U+30E4_U+30FC 1
 62
   179
420
  2234388
370
    25
  0
POLYLINE
  5
5B
330
1F
100
AcDbEntity
  8
_U+30EC_U+30A4_U+30E4_U+30FC 1
 62
   179
420
  2234388
370
    25
100
AcDb2dPolyline
 66
     1
 10
0.0
 20
0.0
 30
0.0
  0
VERTEX
  5
5C
330
5B
100
AcDbEntity
  8
_U+30EC_U+30A4_U+30E4_U+30FC 1
 62
   179
420
  2234388
370
    25
100
AcDbVertex
100
AcDb2dVertex
 10
83.94562202503543
 20
-127.7334602458444
 30
0.0
  0
VERTEX
  5
5D
330
5B
100
AcDbEntity
  8
_U+30EC_U+30A4_U+30E4_U+30FC 1
 62
   179
420
  2234388
370
    25
100
AcDbVertex
100
AcDb2dVertex
 10
86.94561108937472
 20
-127.7334602458444
 30
0.0
  0
SEQEND
  5
5E
330
5B
100
AcDbEntity
  8
_U+30EC_U+30A4_U+30E4_U+30FC 1
 62
   179
420
  2234388
370
    25
  0
POLYLINE
  5
5F
330
1F
100
AcDbEntity
  8
_U+30EC_U+30A4_U+30E4_U+30FC 1
 62
   179
420
  2234388
370
    25
100
AcDb2dPolyline
 66
     1
 10
0.0
 20
0.0
 30
0.0
  0
VERTEX
  5
60
330
5F
100
AcDbEntity
  8
_U+30EC_U+30A4_U+30E4_U+30FC 1
 62
   179
420
  2234388
370
    25
100
AcDbVertex
100
AcDb2dVertex
 10
83.94562202503543
 20
-131.2336860783028
 30
0.0
  0
VERTEX
  5
61
330
5F
100
AcDbEntity
  8
_U+30EC_U+30A4_U+30E4_U+30FC 1
 62
   179
420
  2234388
370
    25
100
AcDbVertex
100
AcDb2dVertex
 10
86.44572497838845
 20
-131.2336860783028
 30
0.0
  0
SEQEND
  5
62
330
5F
100
AcDbEntity
  8
_U+30EC_U+30A4_U+30E4_U+30FC 1
 62
   179
420
  2234388
370
    25
  0
SPLINE
  5
63
330
1F
100
AcDbEntity
  8
_U+30EC_U+30A4_U+30E4_U+30FC 1
 62
   179
420
  2234388
370
    25
100
AcDbSpline
210
0.0
220
0.0
230
1.0
 70
     8
 71
     3
 72
     8
 73
     4
 74
     0
 42
0.0000000001
 43
0.0000000001
 12
1.0
 22
0.0
 32
0.0
 13
1.0
 23
0.0
 33
0.0
 40
0.0
 40
0.0
 40
0.0
 40
0.0
 40
1.0
 40
1.0
 40
1.0
 40
1.0
 10
97.4455452917348
 20
-132.2334583002747
 30
0.0
 10
97.4455452917348
 20
-131.9571627447882
 30
0.0
 10
97.22163724189161
 20
-131.733219411511
 30
0.0
 10
96.94565919337686
 20
-131.733219411511
 30
0.0
  0
SPLINE
  5
64
330
1F
100
AcDbEntity
  8
_U+30EC_U+30A4_U+30E4_U+30FC 1
 62
   179
420
  2234388
370
     9
100
AcDbSpline
210
0.0
220
0.0
230
1.0
 70
    11
 71
     3
 72
    17
 73
    13
 74
     0
 42
0.0000000001
 43
0.0000000001
 12
1.0
 22
0.0
 32
0.0
 13
1.0
 23
0.0
 33
0.0
 40
0.0
 40
0.0
 40
0.0
 40
0.0
 40
1.0
 40
1.0
 40
1.0
 40
2.0
 40
2.0
 40
2.0
 40
3.0
 40
3.0
 40
3.0
 40
4.0
 40
4.0
 40
4.0
 40
4.0
 10
101.4232583079774
 20
-127.7334602458444
 30
0.0
 10
101.4232583079774
 20
-127.6783563569692
 30
0.0
 10
101.3784882469526
 20
-127.6335535792028
 30
0.0
 10
101.3233490816927
 20
-127.6335535792028
 30
0.0
 10
101.2682451942096
 20
-127.6335535792028
 30
0.0
 10
101.2234424175748
 20
-127.6783563569692
 30
0.0
 10
101.2234424175748
 20
-127.7334602458444
 30
0.0
 10
101.2234424175748
 20
-127.7885994124971
 30
0.0
 10
101.2682451942096
 20
-127.833366912486
 30
0.0
 10
101.3233490816927
 20
-127.833366912486
 30
0.0
 10
101.3784882469526
 20
-127.833366912486
 30
0.0
 10
101.4232583079774
 20
-127.7885994124971
 30
0.0
 10
101.4232583079774
 20
-127.7334602458444
 30
0.0
  0
SPLINE
  5
65
330
1F
100
AcDbEntity
  8
_U+30EC_U+30A4_U+30E4_U+30FC 1
 62
   179
420
  2234388
370
     9
100
AcDbSpline
210
0.0
220
0.0
230
1.0
 70
    11
 71
     3
 72
    17
 73
    13
 74
     0
 42
0.0000000001
 43
0.0000000001
 12
1.0
 22
0.0
 32
0.0
 13
1.0
 23
0.0
 33
0.0
 40
0.0
 40
0.0
 40
0.0
 40
0.0
 40
1.0
 40
1.0
 40
1.0
 40
2.0
 40
2.0
 40
2.0
 40
3.0
 40
3.0
 40
3.0
 40
4.0
 40
4.0
 40
4.0
 40
4.0
 10
101.4232583079774
 20
-131.2336860783028
 30
0.0
 10
101.4232583079774
 20
-131.1782294116501
 30
0.0
 10
101.3784882469526
 20
-131.1334266338834
 30
0.0
 10
101.3233490816927
 20
-131.1334266338834
 30
0.0
 10
101.2682451942096
 20
-131.1334266338834
 30
0.0
 10
101.2234424175748
 20
-131.1782294116501
 30
0.0
 10
101.2234424175748
 20
-131.2336860783028
 30
0.0
 10
101.2234424175748
 20
-131.2887899671777
 30
0.0
 10
101.2682451942096
 20
-131.3335927449444
 30
0.0
 10
101.3233490816927
 20
-131.3335927449444
 30
0.0
 10
101.3784882469526
 20
-131.3335927449444
 30
0.0
 10
101.4232583079774
 20
-131.2887899671777
 30
0.0
 10
101.4232583079774
 20
-131.2336860783028
 30
0.0
  0
SPLINE
  5
66
330
1F
100
AcDbEntity
  8
_U+30EC_U+30A4_U+30E4_U+30FC 1
 62
   179
420
  2234388
370
     9
100
AcDbSpline
210
0.0
220
0.0
230
1.0
 70
    11
 71
     3
 72
    17
 73
    13
 74
     0
 42
0.0000000001
 43
0.0000000001
 12
1.0
 22
0.0
 32
0.0
 13
1.0
 23
0.0
 33
0.0
 40
0.0
 40
0.0
 40
0.0
 40
0.0
 40
1.0
 40
1.0
 40
1.0
 40
2.0
 40
2.0
 40
2.0
 40
3.0
 40
3.0
 40
3.0
 40
4.0
 40
4.0
 40
4.0
 40
4.0
 10
101.4232583079774
 20
-132.2337758002749
 30
0.0
 10
101.4232583079774
 20
-132.1779663558445
 30
0.0
 10
101.3784882469526
 20
-132.1331988558559
 30
0.0
 10
101.3233490816927
 20
-132.1331988558559
 30
0.0
 10
101.2682451942096
 20
-132.1331988558559
 30
0.0
 10
101.2234424175748
 20
-132.1779663558445
 30
0.0
 10
101.2234424175748
 20
-132.2337758002749
 30
0.0
 10
101.2234424175748
 20
-132.288914966928
 30
0.0
 10
101.2682451942096
 20
-132.3336824669165
 30
0.0
 10
101.3233490816927
 20
-132.3336824669165
 30
0.0
 10
101.3784882469526
 20
-132.3336824669165
 30
0.0
 10
101.4232583079774
 20
-132.288914966928
 30
0.0
 10
101.4232583079774
 20
-132.2337758002749
 30
0.0
  0
SPLINE
  5
67
330
1F
100
AcDbEntity
  8
_U+30EC_U+30A4_U+30E4_U+30FC 1
 62
   179
420
  2234388
370
     9
100
AcDbSpline
210
0.0
220
0.0
230
1.0
 70
    11
 71
     3
 72
    17
 73
    13
 74
     0
 42
0.0000000001
 43
0.0000000001
 12
1.0
 22
0.0
 32
0.0
 13
1.0
 23
0.0
 33
0.0
 40
0.0
 40
0.0
 40
0.0
 40
0.0
 40
1.0
 40
1.0
 40
1.0
 40
2.0
 40
2.0
 40
2.0
 40
3.0
 40
3.0
 40
3.0
 40
4.0
 40
4.0
 40
4.0
 40
4.0
 10
79.54553074840221
 20
-136.2335349659418
 30
0.0
 10
79.54553074840221
 20
-136.1780782992891
 30
0.0
 10
79.50072797176746
 20
-136.1332755215224
 30
0.0
 10
79.44562408428439
 20
-136.1332755215224
 30
0.0
 10
79.39048491902443
 20
-136.1332755215224
 30
0.0
 10
79.34571942460815
 20
-136.1780782992891
 30
0.0
 10
79.34571942460815
 20
-136.2335349659418
 30
0.0
 10
79.34571942460815
 20
-136.2886741325942
 30
0.0
 10
79.39048491902443
 20
-136.3334416325834
 30
0.0
 10
79.44562408428439
 20
-136.3334416325834
 30
0.0
 10
79.50072797176746
 20
-136.3334416325834
 30
0.0
 10
79.54553074840221
 20
-136.2886741325942
 30
0.0
 10
79.54553074840221
 20
-136.2335349659418
 30
0.0
  0
SPLINE
  5
68
330
1F
100
AcDbEntity
  8
_U+30EC_U+30A4_U+30E4_U+30FC 1
 62
   179
420
  2234388
370
     9
100
AcDbSpline
210
0.0
220
0.0
230
1.0
 70
    11
 71
     3
 72
    17
 73
    13
 74
     0
 42
0.0000000001
 43
0.0000000001
 12
1.0
 22
0.0
 32
0.0
 13
1.0
 23
0.0
 33
0.0
 40
0.0
 40
0.0
 40
0.0
 40
0.0
 40
1.0
 40
1.0
 40
1.0
 40
2.0
 40
2.0
 40
2.0
 40
3.0
 40
3.0
 40
3.0
 40
4.0
 40
4.0
 40
4.0
 40
4.0
 10
97.54545195585264
 20
-136.2335349659418
 30
0.0
 10
97.54545195585264
 20
-136.1780782992891
 30
0.0
 10
97.50068445699475
 20
-136.1332755215224
 30
0.0
 10
97.4455452917348
 20
-136.1332755215224
 30
0.0
 10
97.39044140425173
 20
-136.1332755215224
 30
0.0
 10
97.34563862761696
 20
-136.1780782992891
 30
0.0
 10
97.34563862761696
 20
-136.2335349659418
 30
0.0
 10
97.34563862761696
 20
-136.2886741325942
 30
0.0
 10
97.39044140425173
 20
-136.3334416325834
 30
0.0
 10
97.4455452917348
 20
-136.3334416325834
 30
0.0
 10
97.50068445699475
 20
-136.3334416325834
 30
0.0
 10
97.54545195585264
 20
-136.2886741325942
 30
0.0
 10
97.54545195585264
 20
-136.2335349659418
 30
0.0
  0
SPLINE
  5
69
330
1F
100
AcDbEntity
  8
_U+30EC_U+30A4_U+30E4_U+30FC 1
 62
   179
420
  2234388
370
    25
100
AcDbSpline
210
0.0
220
0.0
230
1.0
 70
     8
 71
     3
 72
     8
 73
     4
 74
     0
 42
0.0000000001
 43
0.0000000001
 12
1.0
 22
0.0
 32
0.0
 13
1.0
 23
0.0
 33
0.0
 40
0.0
 40
0.0
 40
0.0
 40
0.0
 40
1.0
 40
1.0
 40
1.0
 40
1.0
 10
87.31147471694315
 20
-131.733219411511
 30
0.0
 10
87.13300444371853
 20
-131.4238333004777
 30
0.0
 10
86.80298084102702
 20
-131.2336860783028
 30
0.0
 10
86.44572497838845
 20
-131.2336860783028
 30
0.0
  0
SPLINE
  5
6A
330
1F
100
AcDbEntity
  8
_U+30EC_U+30A4_U+30E4_U+30FC 1
 62
   179
420
  2234388
370
    25
100
AcDbSpline
210
0.0
220
0.0
230
1.0
 70
     8
 71
     3
 72
    11
 73
     7
 74
     0
 42
0.0000000001
 43
0.0000000001
 12
1.0
 22
0.0
 32
0.0
 13
1.0
 23
0.0
 33
0.0
 40
0.0
 40
0.0
 40
0.0
 40
0.0
 40
1.0
 40
1.0
 40
1.0
 40
2.0
 40
2.0
 40
2.0
 40
2.0
 10
86.94561108937472
 20
-127.7334602458444
 30
0.0
 10
87.2219044414505
 20
-127.7334602458444
 30
0.0
 10
87.44549720036099
 20
-127.5095169125671
 30
0.0
 10
87.44549720036099
 20
-127.2332213570807
 30
0.0
 10
87.44549720036099
 20
-126.9738238571454
 30
0.0
 10
87.24705749636435
 20
-126.7574652460884
 30
0.0
 10
86.9883302807428
 20
-126.7350638572051
 30
0.0
  0
SPLINE
  5
6B
330
1F
100
AcDbEntity
  8
_U+30EC_U+30A4_U+30E4_U+30FC 1
 62
   179
420
  2234388
370
    25
100
AcDbSpline
210
0.0
220
0.0
230
1.0
 70
     8
 71
     3
 72
    11
 73
     7
 74
     0
 42
0.0000000001
 43
0.0000000001
 12
1.0
 22
0.0
 32
0.0
 13
1.0
 23
0.0
 33
0.0
 40
0.0
 40
0.0
 40
0.0
 40
0.0
 40
1.0
 40
1.0
 40
1.0
 40
2.0
 40
2.0
 40
2.0
 40
2.0
 10
79.90278879484336
 20
-126.7350638572051
 30
0.0
 10
79.62751630186615
 20
-126.7588410794213
 30
0.0
 10
79.42357547373578
 20
-127.0010230238054
 30
0.0
 10
79.4473526953514
 20
-127.2762955237364
 30
0.0
 10
79.46975408366878
 20
-127.535022745894
 30
0.0
 10
79.68607741148324
 20
-127.7334602458444
 30
0.0
 10
79.94586296041112
 20
-127.7334602458444
 30
0.0
  0
SPLINE
  5
6C
330
1F
100
AcDbEntity
  8
_U+30EC_U+30A4_U+30E4_U+30FC 1
 62
   179
420
  2234388
370
    25
100
AcDbSpline
210
0.0
220
0.0
230
1.0
 70
     8
 71
     3
 72
     8
 73
     4
 74
     0
 42
0.0000000001
 43
0.0000000001
 12
1.0
 22
0.0
 32
0.0
 13
1.0
 23
0.0
 33
0.0
 40
0.0
 40
0.0
 40
0.0
 40
0.0
 40
1.0
 40
1.0
 40
1.0
 40
1.0
 10
80.4453962810003
 20
-131.2336860783028
 30
0.0
 10
79.89347546174763
 20
-131.2336860783028
 30
0.0
 10
79.44562408428439
 20
-131.6811846893021
 30
0.0
 10
79.44562408428439
 20
-132.2334583002747
 30
0.0
  0
SPLINE
  5
6D
330
1F
100
AcDbEntity
  8
_U+30EC_U+30A4_U+30E4_U+30FC 1
 62
   179
420
  2234388
370
     9
100
AcDbSpline
210
0.0
220
0.0
230
1.0
 70
    11
 71
     3
 72
    17
 73
    13
 74
     0
 42
0.0000000001
 43
0.0000000001
 12
1.0
 22
0.0
 32
0.0
 13
1.0
 23
0.0
 33
0.0
 40
0.0
 40
0.0
 40
0.0
 40
0.0
 40
1.0
 40
1.0
 40
1.0
 40
2.0
 40
2.0
 40
2.0
 40
3.0
 40
3.0
 40
3.0
 40
4.0
 40
4.0
 40
4.0
 40
4.0
 10
87.54571915541152
 20
-122.5833985804651
 30
0.0
 10
87.54571915541152
 20
-122.5282594138124
 30
0.0
 10
87.50095165655364
 20
-122.4834919138235
 30
0.0
 10
87.44549720036099
 20
-122.4834919138235
 30
0.0
 10
87.39035582604184
 20
-122.4834919138235
 30
0.0
 10
87.34558832718395
 20
-122.5282594138124
 30
0.0
 10
87.34558832718395
 20
-122.5833985804651
 30
0.0
 10
87.34558832718395
 20
-122.6388552471181
 30
0.0
 10
87.39035582604184
 20
-122.683622747107
 30
0.0
 10
87.44549720036099
 20
-122.683622747107
 30
0.0
 10
87.50095165655364
 20
-122.683622747107
 30
0.0
 10
87.54571915541152
 20
-122.6388552471181
 30
0.0
 10
87.54571915541152
 20
-122.5833985804651
 30
0.0
  0
SPLINE
  5
6E
330
1F
100
AcDbEntity
  8
_U+30EC_U+30A4_U+30E4_U+30FC 1
 62
   179
420
  2234388
370
     9
100
AcDbSpline
210
0.0
220
0.0
230
1.0
 70
    11
 71
     3
 72
    17
 73
    13
 74
     0
 42
0.0000000001
 43
0.0000000001
 12
1.0
 22
0.0
 32
0.0
 13
1.0
 23
0.0
 33
0.0
 40
0.0
 40
0.0
 40
0.0
 40
0.0
 40
1.0
 40
1.0
 40
1.0
 40
2.0
 40
2.0
 40
2.0
 40
3.0
 40
3.0
 40
3.0
 40
4.0
 40
4.0
 40
4.0
 40
4.0
 10
79.54553074840221
 20
-122.5833985804651
 30
0.0
 10
79.54553074840221
 20
-122.5282594138124
 30
0.0
 10
79.50072797176746
 20
-122.4834919138235
 30
0.0
 10
79.44562408428439
 20
-122.4834919138235
 30
0.0
 10
79.39048491902443
 20
-122.4834919138235
 30
0.0
 10
79.34571942460815
 20
-122.5282594138124
 30
0.0
 10
79.34571942460815
 20
-122.5833985804651
 30
0.0
 10
79.34571942460815
 20
-122.6388552471181
 30
0.0
 10
79.39048491902443
 20
-122.683622747107
 30
0.0
 10
79.44562408428439
 20
-122.683622747107
 30
0.0
 10
79.50072797176746
 20
-122.683622747107
 30
0.0
 10
79.54553074840221
 20
-122.6388552471181
 30
0.0
 10
79.54553074840221
 20
-122.5833985804651
 30
0.0
  0
SPLINE
  5
6F
330
1F
100
AcDbEntity
  8
_U+30EC_U+30A4_U+30E4_U+30FC 1
 62
   179
420
  2234388
370
    25
100
AcDbSpline
210
0.0
220
0.0
230
1.0
 70
     8
 71
     3
 72
     8
 73
     4
 74
     0
 42
0.0000000001
 43
0.0000000001
 12
1.0
 22
0.0
 32
0.0
 13
1.0
 23
0.0
 33
0.0
 40
0.0
 40
0.0
 40
0.0
 40
0.0
 40
1.0
 40
1.0
 40
1.0
 40
1.0
 10
86.9883302807428
 20
-126.7350638572051
 30
0.0
 10
84.63082228533229
 20
-126.5328516350335
 30
0.0
 10
82.260261512477
 20
-126.5328516350335
 30
0.0
 10
79.90278879484336
 20
-126.7350638572051
 30
0.0
  0
POLYLINE
  5
70
330
1F
100
AcDbEntity
  8
_U+30EC_U+30A4_U+30E4_U+30FC 1
 62
   179
420
  2234388
370
     9
100
AcDb2dPolyline
 66
     1
 10
0.0
 20
0.0
 30
0.0
  0
VERTEX
  5
71
330
70
100
AcDbEntity
  8
_U+30EC_U+30A4_U+30E4_U+30FC 1
 62
   179
420
  2234388
370
     9
100
AcDbVertex
100
AcDb2dVertex
 10
79.44562408428439
 20
-136.2335349659418
 30
0.0
  0
VERTEX
  5
72
330
70
100
AcDbEntity
  8
_U+30EC_U+30A4_U+30E4_U+30FC 1
 62
   179
420
  2234388
370
     9
100
AcDbVertex
100
AcDb2dVertex
 10
97.4455452917348
 20
-136.2335349659418
 30
0.0
  0
SEQEND
  5
73
330
70
100
AcDbEntity
  8
_U+30EC_U+30A4_U+30E4_U+30FC 1
 62
   179
420
  2234388
370
     9
  0
POLYLINE
  5
74
330
1F
100
AcDbEntity
  8
_U+30EC_U+30A4_U+30E4_U+30FC 1
 62
   179
420
  2234388
370
     9
100
AcDb2dPolyline
 66
     1
 10
0.0
 20
0.0
 30
0.0
  0
VERTEX
  5
75
330
74
100
AcDbEntity
  8
_U+30EC_U+30A4_U+30E4_U+30FC 1
 62
   179
420
  2234388
370
     9
100
AcDbVertex
100
AcDb2dVertex
 10
79.44562408428439
 20
-133.9732171887292
 30
0.0
  0
VERTEX
  5
76
330
74
100
AcDbEntity
  8
_U+30EC_U+30A4_U+30E4_U+30FC 1
 62
   179
420
  2234388
370
     9
100
AcDbVertex
100
AcDb2dVertex
 10
79.44562408428439
 20
-137.2333071879137
 30
0.0
  0
SEQEND
  5
77
330
74
100
AcDbEntity
  8
_U+30EC_U+30A4_U+30E4_U+30FC 1
 62
   179
420
  2234388
370
     9
  0
POLYLINE
  5
78
330
1F
100
AcDbEntity
  8
_U+30EC_U+30A4_U+30E4_U+30FC 1
 62
   179
420
  2234388
370
     9
100
AcDb2dPolyline
 66
     1
 10
0.0
 20
0.0
 30
0.0
  0
VERTEX
  5
79
330
78
100
AcDbEntity
  8
_U+30EC_U+30A4_U+30E4_U+30FC 1
 62
   179
420
  2234388
370
     9
100
AcDbVertex
100
AcDb2dVertex
 10
97.4455452917348
 20
-134.7735288551956
 30
0.0
  0
VERTEX
  5
7A
330
78
100
AcDbEntity
  8
_U+30EC_U+30A4_U+30E4_U+30FC 1
 62
   179
420
  2234388
370
     9
100
AcDbVertex
100
AcDb2dVertex
 10
97.4455452917348
 20
-137.2333071879137
 30
0.0
  0
SEQEND
  5
7B
330
78
100
AcDbEntity
  8
_U+30EC_U+30A4_U+30E4_U+30FC 1
 62
   179
420
  2234388
370
     9
  0
INSERT
  5
7D
330
1F
100
AcDbEntity
  8
_U+30EC_U+30A4_U+30E4_U+30FC 1
100
AcDbBlockReference
  2
block 2
 10
0.0
 20
0.0
 30
0.0
  0
POLYLINE
  5
86
330
1F
100
AcDbEntity
  8
_U+30EC_U+30A4_U+30E4_U+30FC 1
 62
   179
420
  2234388
370
     9
100
AcDb2dPolyline
 66
     1
 10
0.0
 20
0.0
 30
0.0
  0
VERTEX
  5
87
330
86
100
AcDbEntity
  8
_U+30EC_U+30A4_U+30E4_U+30FC 1
 62
   179
420
  2234388
370
     9
100
AcDbVertex
100
AcDb2dVertex
 10
101.3233490816927
 20
-123.5306069135618
 30
0.0
  0
VERTEX
  5
88
330
86
100
AcDbEntity
  8
_U+30EC_U+30A4_U+30E4_U+30FC 1
 62
   179
420
  2234388
370
     9
100
AcDbVertex
100
AcDb2dVertex
 10
101.3233490816927
 20
-132.2334583002747
 30
0.0
  0
SEQEND
  5
89
330
86
100
AcDbEntity
  8
_U+30EC_U+30A4_U+30E4_U+30FC 1
 62
   179
420
  2234388
370
     9
  0
POLYLINE
  5
8A
330
1F
100
AcDbEntity
  8
_U+30EC_U+30A4_U+30E4_U+30FC 1
 62
   179
420
  2234388
370
     9
100
AcDb2dPolyline
 66
     1
 10
0.0
 20
0.0
 30
0.0
  0
VERTEX
  5
8B
330
8A
100
AcDbEntity
  8
_U+30EC_U+30A4_U+30E4_U+30FC 1
 62
   179
420
  2234388
370
     9
100
AcDbVertex
100
AcDb2dVertex
 10
100.3190966073133
 20
-127.7334602458444
 30
0.0
  0
VERTEX
  5
8C
330
8A
100
AcDbEntity
  8
_U+30EC_U+30A4_U+30E4_U+30FC 1
 62
   179
420
  2234388
370
     9
100
AcDbVertex
100
AcDb2dVertex
 10
102.3234740561774
 20
-127.7334602458444
 30
0.0
  0
SEQEND
  5
8D
330
8A
100
AcDbEntity
  8
_U+30EC_U+30A4_U+30E4_U+30FC 1
 62
   179
420
  2234388
370
     9
  0
POLYLINE
  5
8E
330
1F
100
AcDbEntity
  8
_U+30EC_U+30A4_U+30E4_U+30FC 1
 62
   179
420
  2234388
370
     9
100
AcDb2dPolyline
 66
     1
 10
0.0
 20
0.0
 30
0.0
  0
VERTEX
  5
8F
330
8E
100
AcDbEntity
  8
_U+30EC_U+30A4_U+30E4_U+30FC 1
 62
   179
420
  2234388
370
     9
100
AcDbVertex
100
AcDb2dVertex
 10
100.3277396626483
 20
-131.2336860783028
 30
0.0
  0
VERTEX
  5
90
330
8E
100
AcDbEntity
  8
_U+30EC_U+30A4_U+30E4_U+30FC 1
 62
   179
420
  2234388
370
     9
100
AcDbVertex
100
AcDb2dVertex
 10
102.3234740561774
 20
-131.2336860783028
 30
0.0
  0
SEQEND
  5
91
330
8E
100
AcDbEntity
  8
_U+30EC_U+30A4_U+30E4_U+30FC 1
 62
   179
420
  2234388
370
     9
  0
POLYLINE
  5
92
330
1F
100
AcDbEntity
  8
_U+30EC_U+30A4_U+30E4_U+30FC 1
 62
   179
420
  2234388
370
     9
100
AcDb2dPolyline
 66
     1
 10
0.0
 20
0.0
 30
0.0
  0
VERTEX
  5
93
330
92
100
AcDbEntity
  8
_U+30EC_U+30A4_U+30E4_U+30FC 1
 62
   179
420
  2234388
370
     9
100
AcDbVertex
100
AcDb2dVertex
 10
100.3277396626483
 20
-132.2334583002747
 30
0.0
  0
VERTEX
  5
94
330
92
100
AcDbEntity
  8
_U+30EC_U+30A4_U+30E4_U+30FC 1
 62
   179
420
  2234388
370
     9
100
AcDbVertex
100
AcDb2dVertex
 10
102.3234740561774
 20
-132.2334583002747
 30
0.0
  0
SEQEND
  5
95
330
92
100
AcDbEntity
  8
_U+30EC_U+30A4_U+30E4_U+30FC 1
 62
   179
420
  2234388
370
     9
  0
INSERT
  5
97
330
1F
100
AcDbEntity
  8
_U+30EC_U+30A4_U+30E4_U+30FC 1
100
AcDbBlockReference
  2
block 3
 10
0.0
 20
0.0
 30
0.0
  0
INSERT
  5
A7
330
1F
100
AcDbEntity
  8
_U+30EC_U+30A4_U+30E4_U+30FC 1
100
AcDbBlockReference
  2
block 4
 10
0.0
 20
0.0
 30
0.0
  0
POLYLINE
  5
AC
330
1F
100
AcDbEntity
  8
_U+30EC_U+30A4_U+30E4_U+30FC 1
 62
   179
420
  2234388
370
     9
100
AcDb2dPolyline
 66
     1
 10
0.0
 20
0.0
 30
0.0
  0
VERTEX
  5
AD
330
AC
100
AcDbEntity
  8
_U+30EC_U+30A4_U+30E4_U+30FC 1
 62
   179
420
  2234388
370
     9
100
AcDbVertex
100
AcDb2dVertex
 10
79.44562408428439
 20
-122.5833985804651
 30
0.0
  0
VERTEX
  5
AE
330
AC
100
AcDbEntity
  8
_U+30EC_U+30A4_U+30E4_U+30FC 1
 62
   179
420
  2234388
370
     9
100
AcDbVertex
100
AcDb2dVertex
 10
87.44549720036099
 20
-122.5833985804651
 30
0.0
  0
SEQEND
  5
AF
330
AC
100
AcDbEntity
  8
_U+30EC_U+30A4_U+30E4_U+30FC 1
 62
   179
420
  2234388
370
     9
  0
POLYLINE
  5
B0
330
1F
100
AcDbEntity
  8
_U+30EC_U+30A4_U+30E4_U+30FC 1
 62
   179
420
  2234388
370
     9
100
AcDb2dPolyline
 66
     1
 10
0.0
 20
0.0
 30
0.0
  0
VERTEX
  5
B1
330
B0
100
AcDbEntity
  8
_U+30EC_U+30A4_U+30E4_U+30FC 1
 62
   179
420
  2234388
370
     9
100
AcDbVertex
100
AcDb2dVertex
 10
79.44562408428439
 20
-124.7434569132586
 30
0.0
  0
VERTEX
  5
B2
330
B0
100
AcDbEntity
  8
_U+30EC_U+30A4_U+30E4_U+30FC 1
 62
   179
420
  2234388
370
     9
100
AcDbVertex
100
AcDb2dVertex
 10
79.44562408428439
 20
-121.5832735807152
 30
0.0
  0
SEQEND
  5
B3
330
B0
100
AcDbEntity
  8
_U+30EC_U+30A4_U+30E4_U+30FC 1
 62
   179
420
  2234388
370
     9
  0
POLYLINE
  5
B4
330
1F
100
AcDbEntity
  8
_U+30EC_U+30A4_U+30E4_U+30FC 1
 62
   179
420
  2234388
370
     9
100
AcDb2dPolyline
 66
     1
 10
0.0
 20
0.0
 30
0.0
  0
VERTEX
  5
B5
330
B4
100
AcDbEntity
  8
_U+30EC_U+30A4_U+30E4_U+30FC 1
 62
   179
420
  2234388
370
     9
100
AcDbVertex
100
AcDb2dVertex
 10
87.44549720036099
 20
-124.7434569132586
 30
0.0
  0
VERTEX
  5
B6
330
B4
100
AcDbEntity
  8
_U+30EC_U+30A4_U+30E4_U+30FC 1
 62
   179
420
  2234388
370
     9
100
AcDbVertex
100
AcDb2dVertex
 10
87.44549720036099
 20
-121.5832735807152
 30
0.0
  0
SEQEND
  5
B7
330
B4
100
AcDbEntity
  8
_U+30EC_U+30A4_U+30E4_U+30FC 1
 62
   179
420
  2234388
370
     9
  0
INSERT
  5
B9
330
1F
100
AcDbEntity
  8
_U+30EC_U+30A4_U+30E4_U+30FC 1
100
AcDbBlockReference
  2
block 5
 10
0.0
 20
0.0
 30
0.0
  0
INSERT
  5
C1
330
1F
100
AcDbEntity
  8
_U+30EC_U+30A4_U+30E4_U+30FC 1
100
AcDbBlockReference
  2
block 6
 10
0.0
 20
0.0
 30
0.0
  0
SPLINE
  5
CE
330
1F
100
AcDbEntity
  8
_U+30EC_U+30A4_U+30E4_U+30FC 1
 62
   179
420
  2234388
370
     9
100
AcDbSpline
210
0.0
220
0.0
230
1.0
 70
    11
 71
     3
 72
    17
 73
    13
 74
     0
 42
0.0000000001
 43
0.0000000001
 12
1.0
 22
0.0
 32
0.0
 13
1.0
 23
0.0
 33
0.0
 40
0.0
 40
0.0
 40
0.0
 40
0.0
 40
1.0
 40
1.0
 40
1.0
 40
2.0
 40
2.0
 40
2.0
 40
3.0
 40
3.0
 40
3.0
 40
4.0
 40
4.0
 40
4.0
 40
4.0
 10
83.03714871487918
 20
-130.1116058008052
 30
0.0
 10
83.03714871487918
 20
-130.0565019119303
 30
0.0
 10
82.99234593824441
 20
-130.0116991341636
 30
0.0
 10
82.93724205076134
 20
-130.0116991341636
 30
0.0
 10
82.8821028855014
 20
-130.0116991341636
 30
0.0
 10
82.8373353866435
 20
-130.0565019119303
 30
0.0
 10
82.8373353866435
 20
-130.1116058008052
 30
0.0
 10
82.8373353866435
 20
-130.1667449674583
 30
0.0
 10
82.8821028855014
 20
-130.2115124674469
 30
0.0
 10
82.93724205076134
 20
-130.2115124674469
 30
0.0
 10
82.99234593824441
 20
-130.2115124674469
 30
0.0
 10
83.03714871487918
 20
-130.1667449674583
 30
0.0
 10
83.03714871487918
 20
-130.1116058008052
 30
0.0
  0
SPLINE
  5
CF
330
1F
100
AcDbEntity
  8
_U+30EC_U+30A4_U+30E4_U+30FC 1
 62
   179
420
  2234388
370
     9
100
AcDbSpline
210
0.0
220
0.0
230
1.0
 70
    11
 71
     3
 72
    17
 73
    13
 74
     0
 42
0.0000000001
 43
0.0000000001
 12
1.0
 22
0.0
 32
0.0
 13
1.0
 23
0.0
 33
0.0
 40
0.0
 40
0.0
 40
0.0
 40
0.0
 40
1.0
 40
1.0
 40
1.0
 40
2.0
 40
2.0
 40
2.0
 40
3.0
 40
3.0
 40
3.0
 40
4.0
 40
4.0
 40
4.0
 40
4.0
 10
84.03688563381822
 20
-130.1116058008052
 30
0.0
 10
84.03688563381822
 20
-130.0565019119303
 30
0.0
 10
83.99211813496032
 20
-130.0116991341636
 30
0.0
 10
83.93697896970038
 20
-130.0116991341636
 30
0.0
 10
83.8818750822173
 20
-130.0116991341636
 30
0.0
 10
83.83707230558254
 20
-130.0565019119303
 30
0.0
 10
83.83707230558254
 20
-130.1116058008052
 30
0.0
 10
83.83707230558254
 20
-130.1667449674583
 30
0.0
 10
83.8818750822173
 20
-130.2115124674469
 30
0.0
 10
83.93697896970038
 20
-130.2115124674469
 30
0.0
 10
83.99211813496032
 20
-130.2115124674469
 30
0.0
 10
84.03688563381822
 20
-130.1667449674583
 30
0.0
 10
84.03688563381822
 20
-130.1116058008052
 30
0.0
  0
ENDSEC
  0
SECTION
  2
OBJECTS
  0
DICTIONARY
  5
C
330
0
100
AcDbDictionary
281
     1
  3
ACAD_GROUP
350
D
  3
ACAD_LAYOUT
350
1A
  3
ACAD_MATERIAL
350
3B
  3
ACAD_MLEADERSTYLE
350
D1
  3
ACAD_MLINESTYLE
350
17
  3
ACAD_PLOTSETTINGS
350
19
  3
ACAD_PLOTSTYLENAME
350
E
  3
ACAD_TABLESTYLE
350
D0
  3
ACAD_VISUALSTYLE
350
2A
  0
SUN
  5
3F
330
29
100
AcDbSun
 90
        1
290
     0
 63
     7
421
 16777215
 40
1.0
291
     1
 91
  2455826
 92
 54000000
292
     0
 70
     2
 71
   256
280
     1
  0
DICTIONARY
  5
D
102
{ACAD_REACTORS
330
C
102
}
330
C
100
AcDbDictionary
281
     1
  0
DICTIONARY
  5
1A
102
{ACAD_REACTORS
330
C
102
}
330
C
100
AcDbDictionary
281
     1
  3
Layout1
350
1E
  3
Layout2
350
26
  3
Model
350
22
  0
DICTIONARY
  5
3B
102
{ACAD_REACTORS
330
C
102
}
330
C
100
AcDbDictionary
281
     1
  3
ByBlock
350
3D
  3
ByLayer
350
3C
  3
Global
350
3E
  0
DICTIONARY
  5
D1
102
{ACAD_REACTORS
330
C
102
}
330
C
100
AcDbDictionary
281
     1
  0
DICTIONARY
  5
17
102
{ACAD_REACTORS
330
C
102
}
330
C
100
AcDbDictionary
281
     1
  3
Standard
350
18
  0
DICTIONARY
  5
19
102
{ACAD_REACTORS
330
C
102
}
330
C
100
AcDbDictionary
281
     1
  0
ACDBDICTIONARYWDFLT
  5
E
102
{ACAD_REACTORS
330
C
102
}
330
C
100
AcDbDictionary
281
     1
  3
Normal
350
F
100
AcDbDictionaryWithDefault
340
F
  0
DICTIONARY
  5
D0
102
{ACAD_REACTORS
330
C
102
}
330
C
100
AcDbDictionary
281
     1
  0
DICTIONARY
  5
2A
102
{ACAD_REACTORS
330
C
102
}
330
C
100
AcDbDictionary
281
     1
  3
2dWireframe
350
2F
  3
3D Hidden
350
31
  3
3dWireframe
350
30
  3
Basic
350
32
  3
Brighten
350
36
  3
ColorChange
350
3A
  3
Conceptual
350
34
  3
Dim
350
35
  3
Facepattern
350
39
  3
Flat
350
2B
  3
FlatWithEdges
350
2C
  3
Gouraud
350
2D
  3
GouraudWithEdges
350
2E
  3
Linepattern
350
38
  3
Realistic
350
33
  3
Thicken
350
37
  0
LAYOUT
  5
1E
102
{ACAD_REACTORS
330
1A
102
}
330
1A
100
AcDbPlotSettings
  1

  2
none_device
  4

  6

 40
0.0
 41
0.0
 42
0.0
 43
0.0
 44
0.0
 45
0.0
 46
0.0
 47
0.0
 48
0.0
 49
0.0
140
0.0
141
0.0
142
1.0
143
1.0
 70
   688
 72
     0
 73
     0
 74
     5
  7

 75
    16
 76
     0
 77
     2
 78
   300
147
1.0
148
0.0
149
0.0
100
AcDbLayout
  1
Layout1
 70
     1
 71
     1
 10
0.0
 20
0.0
 11
12.0
 21
9.0
 12
0.0
 22
0.0
 32
0.0
 14
1.000000000000000E+20
 24
1.000000000000000E+20
 34
1.000000000000000E+20
 15
-1.000000000000000E+20
 25
-1.000000000000000E+20
 35
-1.000000000000000E+20
146
0.0
 13
0.0
 23
0.0
 33
0.0
 16
1.0
 26
0.0
 36
0.0
 17
0.0
 27
1.0
 37
0.0
 76
     0
330
1B
  0
LAYOUT
  5
26
102
{ACAD_REACTORS
330
1A
102
}
330
1A
100
AcDbPlotSettings
  1

  2
none_device
  4

  6

 40
0.0
 41
0.0
 42
0.0
 43
0.0
 44
0.0
 45
0.0
 46
0.0
 47
0.0
 48
0.0
 49
0.0
140
0.0
141
0.0
142
1.0
143
1.0
 70
   688
 72
     0
 73
     0
 74
     5
  7

 75
    16
 76
     0
 77
     2
 78
   300
147
1.0
148
0.0
149
0.0
100
AcDbLayout
  1
Layout2
 70
     1
 71
     2
 10
0.0
 20
0.0
 11
0.0
 21
0.0
 12
0.0
 22
0.0
 32
0.0
 14
0.0
 24
0.0
 34
0.0
 15
0.0
 25
0.0
 35
0.0
146
0.0
 13
0.0
 23
0.0
 33
0.0
 16
1.0
 26
0.0
 36
0.0
 17
0.0
 27
1.0
 37
0.0
 76
     0
330
23
  0
LAYOUT
  5
22
102
{ACAD_REACTORS
330
1A
102
}
330
1A
100
AcDbPlotSettings
  1

  2
none_device
  4

  6

 40
0.0
 41
0.0
 42
0.0
 43
0.0
 44
0.0
 45
0.0
 46
0.0
 47
0.0
 48
0.0
 49
0.0
140
0.0
141
0.0
142
1.0
143
1.0
 70
  1712
 72
     0
 73
     0
 74
     0
  7

 75
     0
 76
     0
 77
     2
 78
   300
147
1.0
148
0.0
149
0.0
100
AcDbLayout
  1
Model
 70
     1
 71
     0
 10
0.0
 20
0.0
 11
12.0
 21
9.0
 12
0.0
 22
0.0
 32
0.0
 14
1.000000000000000E+20
 24
1.000000000000000E+20
 34
1.000000000000000E+20
 15
-1.000000000000000E+20
 25
-1.000000000000000E+20
 35
-1.000000000000000E+20
146
0.0
 13
0.0
 23
0.0
 33
0.0
 16
1.0
 26
0.0
 36
0.0
 17
0.0
 27
1.0
 37
0.0
 76
     0
330
1F
331
29
  0
MATERIAL
  5
3D
102
{ACAD_REACTORS
330
3B
102
}
330
3B
100
AcDbMaterial
  1
ByBlock
 72
     1
 94
      127
  0
MATERIAL
  5
3C
102
{ACAD_REACTORS
330
3B
102
}
330
3B
100
AcDbMaterial
  1
ByLayer
 72
     1
 94
      127
  0
MATERIAL
  5
3E
102
{ACAD_REACTORS
330
3B
102
}
330
3B
100
AcDbMaterial
  1
Global
 72
     1
 94
      127
  0
MLINESTYLE
  5
18
102
{ACAD_REACTORS
330
17
102
}
330
17
100
AcDbMlineStyle
  2
Standard
 70
     0
  3

 62
   256
 51
90.0
 52
90.0
 71
     2
 49
0.5
 62
   256
  6
BYLAYER
 49
-0.5
 62
   256
  6
BYLAYER
  0
ACDBPLACEHOLDER
  5
F
102
{ACAD_REACTORS
330
E
102
}
330
E
  0
VISUALSTYLE
  5
2F
102
{ACAD_REACTORS
330
2A
102
}
330
2A
100
AcDbVisualStyle
  2
2dWireframe
 70
     4
177
     2
291
     0
 71
     0
176
     1
 72
     2
176
     1
 73
     0
176
     1
 90
        0
176
     1
 40
-0.6
176
     1
 41
-30.0
176
     1
 62
     5
 63
     7
421
 16777215
176
     1
 74
     1
176
     1
 91
        4
176
     1
 64
     7
176
     1
 65
   257
176
     1
 75
     1
176
     1
175
     1
176
     1
 42
1.0
176
     1
 92
        0
176
     1
 66
   257
176
     1
 43
1.0
176
     1
 76
     1
176
     1
 77
     6
176
     1
 78
     2
176
     1
 67
     7
176
     1
 79
     5
176
     1
170
     0
176
     1
171
     0
176
     1
290
     0
176
     1
 93
        1
176
     1
 44
0.0
176
     1
173
     0
176
     1
  0
VISUALSTYLE
  5
31
102
{ACAD_REACTORS
330
2A
102
}
330
2A
100
AcDbVisualStyle
  2
3D Hidden
 70
     6
177
     2
291
     0
 71
     1
176
     1
 72
     2
176
     1
 73
     2
176
     1
 90
        0
176
     1
 40
-0.6
176
     1
 41
-30.0
176
     1
 62
     5
 63
     7
421
 16777215
176
     1
 74
     2
176
     1
 91
        2
176
     1
 64
     7
176
     1
 65
   257
176
     1
 75
     2
176
     1
175
     1
176
     1
 42
40.0
176
     1
 92
        0
176
     1
 66
   257
176
     1
 43
1.0
176
     1
 76
     1
176
     1
 77
     6
176
     1
 78
     2
176
     1
 67
     7
176
     1
 79
     3
176
     1
170
     0
176
     1
171
     0
176
     1
290
     0
176
     1
 93
        1
176
     1
 44
0.0
176
     1
173
     0
176
     1
  0
VISUALSTYLE
  5
30
102
{ACAD_REACTORS
330
2A
102
}
330
2A
100
AcDbVisualStyle
  2
3dWireframe
 70
     5
177
     2
291
     0
 71
     0
176
     1
 72
     2
176
     1
 73
     0
176
     1
 90
        0
176
     1
 40
-0.6
176
     1
 41
-30.0
176
     1
 62
     5
 63
     7
421
 16777215
176
     1
 74
     1
176
     1
 91
        4
176
     1
 64
     7
176
     1
 65
   257
176
     1
 75
     1
176
     1
175
     1
176
     1
 42
1.0
176
     1
 92
        0
176
     1
 66
   257
176
     1
 43
1.0
176
     1
 76
     1
176
     1
 77
     6
176
     1
 78
     2
176
     1
 67
     7
176
     1
 79
     5
176
     1
170
     0
176
     1
171
     0
176
     1
290
     0
176
     1
 93
        1
176
     1
 44
0.0
176
     1
173
     0
176
     1
  0
VISUALSTYLE
  5
32
102
{ACAD_REACTORS
330
2A
102
}
330
2A
100
AcDbVisualStyle
  2
Basic
 70
     7
177
     2
291
     1
 71
     1
176
     1
 72
     0
176
     1
 73
     1
176
     1
 90
        0
176
     1
 40
-0.6
176
     1
 41
-30.0
176
     1
 62
     5
 63
     7
421
 16777215
176
     1
 74
     0
176
     1
 91
        4
176
     1
 64
     7
176
     1
 65
   257
176
     1
 75
     1
176
     1
175
     1
176
     1
 42
1.0
176
     1
 92
        8
176
     1
 66
     7
176
     1
 43
1.0
176
     1
 76
     1
176
     1
 77
     6
176
     1
 78
     2
176
     1
 67
     7
176
     1
 79
     5
176
     1
170
     0
176
     1
171
     0
176
     1
290
     0
176
     1
 93
        1
176
     1
 44
0.0
176
     1
173
     0
176
     1
  0
VISUALSTYLE
  5
36
102
{ACAD_REACTORS
330
2A
102
}
330
2A
100
AcDbVisualStyle
  2
Brighten
 70
    12
177
     2
291
     1
 71
     2
176
     1
 72
     2
176
     1
 73
     0
176
     1
 90
        0
176
     1
 40
-0.6
176
     1
 41
-30.0
176
     1
 62
     5
 63
     7
421
 16777215
176
     1
 74
     1
176
     1
 91
        4
176
     1
 64
     7
176
     1
 65
   257
176
     1
 75
     1
176
     1
175
     1
176
     1
 42
1.0
176
     1
 92
        8
176
     1
 66
     7
176
     1
 43
1.0
176
     1
 76
     1
176
     1
 77
     6
176
     1
 78
     2
176
     1
 67
     7
176
     1
 79
     5
176
     1
170
     0
176
     1
171
     0
176
     1
290
     0
176
     1
 93
        1
176
     1
 44
50.0
176
     1
173
     0
176
     1
  0
VISUALSTYLE
  5
3A
102
{ACAD_REACTORS
330
2A
102
}
330
2A
100
AcDbVisualStyle
  2
ColorChange
 70
    16
177
     2
291
     1
 71
     2
176
     1
 72
     2
176
     1
 73
     3
176
     1
 90
        0
176
     1
 40
-0.6
176
     1
 41
-30.0
176
     1
 62
     5
 63
     8
421
  8421504
176
     1
 74
     1
176
     1
 91
        4
176
     1
 64
     7
176
     1
 65
   257
176
     1
 75
     1
176
     1
175
     1
176
     1
 42
1.0
176
     1
 92
        8
176
     1
 66
     8
424
  8421504
176
     1
 43
1.0
176
     1
 76
     1
176
     1
 77
     6
176
     1
 78
     2
176
     1
 67
     7
176
     1
 79
     5
176
     1
170
     0
176
     1
171
     0
176
     1
290
     0
176
     1
 93
        1
176
     1
 44
0.0
176
     1
173
     0
176
     1
  0
VISUALSTYLE
  5
34
102
{ACAD_REACTORS
330
2A
102
}
330
2A
100
AcDbVisualStyle
  2
Conceptual
 70
     9
177
     2
291
     0
 71
     3
176
     1
 72
     2
176
     1
 73
     0
176
     1
 90
        0
176
     1
 40
-0.6
176
     1
 41
-30.0
176
     1
 62
     5
 63
     7
421
 16777215
176
     1
 74
     2
176
     1
 91
        2
176
     1
 64
     7
176
     1
 65
   257
176
     1
 75
     1
176
     1
175
     1
176
     1
 42
40.0
176
     1
 92
        8
176
     1
 66
     7
176
     1
 43
1.0
176
     1
 76
     1
176
     1
 77
     6
176
     1
 78
     2
176
     1
 67
     7
176
     1
 79
     3
176
     1
170
     0
176
     1
171
     0
176
     1
290
     0
176
     1
 93
        1
176
     1
 44
0.0
176
     1
173
     0
176
     1
  0
VISUALSTYLE
  5
35
102
{ACAD_REACTORS
330
2A
102
}
330
2A
100
AcDbVisualStyle
  2
Dim
 70
    11
177
     2
291
     1
 71
     2
176
     1
 72
     2
176
     1
 73
     0
176
     1
 90
        0
176
     1
 40
-0.6
176
     1
 41
-30.0
176
     1
 62
     5
 63
     7
421
 16777215
176
     1
 74
     1
176
     1
 91
        4
176
     1
 64
     7
176
     1
 65
   257
176
     1
 75
     1
176
     1
175
     1
176
     1
 42
1.0
176
     1
 92
        8
176
     1
 66
     7
176
     1
 43
1.0
176
     1
 76
     1
176
     1
 77
     6
176
     1
 78
     2
176
     1
 67
     7
176
     1
 79
     5
176
     1
170
     0
176
     1
171
     0
176
     1
290
     0
176
     1
 93
        1
176
     1
 44
-50.0
176
     1
173
     0
176
     1
  0
VISUALSTYLE
  5
39
102
{ACAD_REACTORS
330
2A
102
}
330
2A
100
AcDbVisualStyle
  2
Facepattern
 70
    15
177
     2
291
     1
 71
     2
176
     1
 72
     2
176
     1
 73
     0
176
     1
 90
        0
176
     1
 40
-0.6
176
     1
 41
-30.0
176
     1
 62
     5
 63
     7
421
 16777215
176
     1
 74
     1
176
     1
 91
        4
176
     1
 64
     7
176
     1
 65
   257
176
     1
 75
     1
176
     1
175
     1
176
     1
 42
1.0
176
     1
 92
        8
176
     1
 66
     7
176
     1
 43
1.0
176
     1
 76
     1
176
     1
 77
     6
176
     1
 78
     2
176
     1
 67
     7
176
     1
 79
     5
176
     1
170
     0
176
     1
171
     0
176
     1
290
     0
176
     1
 93
        1
176
     1
 44
0.0
176
     1
173
     0
176
     1
  0
VISUALSTYLE
  5
2B
102
{ACAD_REACTORS
330
2A
102
}
330
2A
100
AcDbVisualStyle
  2
Flat
 70
     0
177
     2
291
     1
 71
     2
176
     1
 72
     1
176
     1
 73
     1
176
     1
 90
        2
176
     1
 40
-0.6
176
     1
 41
30.0
176
     1
 62
     5
 63
     7
421
 16777215
176
     1
 74
     0
176
     1
 91
        4
176
     1
 64
     7
176
     1
 65
   257
176
     1
 75
     1
176
     1
175
     1
176
     1
 42
1.0
176
     1
 92
        8
176
     1
 66
     7
176
     1
 43
1.0
176
     1
 76
     1
176
     1
 77
     6
176
     1
 78
     2
176
     1
 67
     7
176
     1
 79
     5
176
     1
170
     0
176
     1
171
     0
176
     1
290
     0
176
     1
 93
       13
176
     1
 44
0.0
176
     1
173
     0
176
     1
  0
VISUALSTYLE
  5
2C
102
{ACAD_REACTORS
330
2A
102
}
330
2A
100
AcDbVisualStyle
  2
FlatWithEdges
 70
     1
177
     2
291
     1
 71
     2
176
     1
 72
     1
176
     1
 73
     1
176
     1
 90
        2
176
     1
 40
-0.6
176
     1
 41
30.0
176
     1
 62
     5
 63
     7
421
 16777215
176
     1
 74
     1
176
     1
 91
        4
176
     1
 64
     7
176
     1
 65
   257
176
     1
 75
     1
176
     1
175
     1
176
     1
 42
1.0
176
     1
 92
        0
176
     1
 66
   257
176
     1
 43
1.0
176
     1
 76
     1
176
     1
 77
     6
176
     1
 78
     2
176
     1
 67
     7
176
     1
 79
     5
176
     1
170
     0
176
     1
171
     0
176
     1
290
     0
176
     1
 93
       13
176
     1
 44
0.0
176
     1
173
     0
176
     1
  0
VISUALSTYLE
  5
2D
102
{ACAD_REACTORS
330
2A
102
}
330
2A
100
AcDbVisualStyle
  2
Gouraud
 70
     2
177
     2
291
     1
 71
     2
176
     1
 72
     2
176
     1
 73
     1
176
     1
 90
        2
176
     1
 40
-0.6
176
     1
 41
30.0
176
     1
 62
     5
 63
     7
421
 16777215
176
     1
 74
     0
176
     1
 91
        4
176
     1
 64
     7
176
     1
 65
   257
176
     1
 75
     1
176
     1
175
     1
176
     1
 42
1.0
176
     1
 92
        0
176
     1
 66
     7
176
     1
 43
1.0
176
     1
 76
     1
176
     1
 77
     6
176
     1
 78
     2
176
     1
 67
     7
176
     1
 79
     5
176
     1
170
     0
176
     1
171
     0
176
     1
290
     0
176
     1
 93
       13
176
     1
 44
0.0
176
     1
173
     0
176
     1
  0
VISUALSTYLE
  5
2E
102
{ACAD_REACTORS
330
2A
102
}
330
2A
100
AcDbVisualStyle
  2
GouraudWithEdges
 70
     3
177
     2
291
     1
 71
     2
176
     1
 72
     2
176
     1
 73
     1
176
     1
 90
        2
176
     1
 40
-0.6
176
     1
 41
30.0
176
     1
 62
     5
 63
     7
421
 16777215
176
     1
 74
     1
176
     1
 91
        4
176
     1
 64
     7
176
     1
 65
   257
176
     1
 75
     1
176
     1
175
     1
176
     1
 42
1.0
176
     1
 92
        0
176
     1
 66
   257
176
     1
 43
1.0
176
     1
 76
     1
176
     1
 77
     6
176
     1
 78
     2
176
     1
 67
     7
176
     1
 79
     5
176
     1
170
     0
176
     1
171
     0
176
     1
290
     0
176
     1
 93
       13
176
     1
 44
0.0
176
     1
173
     0
176
     1
  0
VISUALSTYLE
  5
38
102
{ACAD_REACTORS
330
2A
102
}
330
2A
100
AcDbVisualStyle
  2
Linepattern
 70
    14
177
     2
291
     1
 71
     2
176
     1
 72
     2
176
     1
 73
     0
176
     1
 90
        0
176
     1
 40
-0.6
176
     1
 41
-30.0
176
     1
 62
     5
 63
     7
421
 16777215
176
     1
 74
     1
176
     1
 91
        4
176
     1
 64
     7
176
     1
 65
   257
176
     1
 75
     7
176
     1
175
     7
176
     1
 42
1.0
176
     1
 92
        8
176
     1
 66
     7
176
     1
 43
1.0
176
     1
 76
     1
176
     1
 77
     6
176
     1
 78
     2
176
     1
 67
     7
176
     1
 79
     5
176
     1
170
     0
176
     1
171
     0
176
     1
290
     0
176
     1
 93
        1
176
     1
 44
0.0
176
     1
173
     0
176
     1
  0
VISUALSTYLE
  5
33
102
{ACAD_REACTORS
330
2A
102
}
330
2A
100
AcDbVisualStyle
  2
Realistic
 70
     8
177
     2
291
     0
 71
     2
176
     1
 72
     2
176
     1
 73
     0
176
     1
 90
        0
176
     1
 40
-0.6
176
     1
 41
-30.0
176
     1
 62
     5
 63
     7
421
 16777215
176
     1
 74
     1
176
     1
 91
        0
176
     1
 64
     7
176
     1
 65
   257
176
     1
 75
     1
176
     1
175
     1
176
     1
 42
1.0
176
     1
 92
        8
176
     1
 66
     8
424
  7895160
176
     1
 43
1.0
176
     1
 76
     1
176
     1
 77
     6
176
     1
 78
     2
176
     1
 67
     7
176
     1
 79
     5
176
     1
170
     0
176
     1
171
     0
176
     1
290
     0
176
     1
 93
       13
176
     1
 44
0.0
176
     1
173
     0
176
     1
  0
VISUALSTYLE
  5
37
102
{ACAD_REACTORS
330
2A
102
}
330
2A
100
AcDbVisualStyle
  2
Thicken
 70
    13
177
     2
291
     1
 71
     2
176
     1
 72
     2
176
     1
 73
     0
176
     1
 90
        0
176
     1
 40
-0.6
176
     1
 41
-30.0
176
     1
 62
     5
 63
     7
421
 16777215
176
     1
 74
     1
176
     1
 91
        4
176
     1
 64
     7
176
     1
 65
   257
176
     1
 75
     1
176
     1
175
     1
176
     1
 42
1.0
176
     1
 92
       12
176
     1
 66
     7
176
     1
 43
1.0
176
     1
 76
     1
176
     1
 77
     6
176
     1
 78
     2
176
     1
 67
     7
176
     1
 79
     5
176
     1
170
     0
176
     1
171
     0
176
     1
290
     0
176
     1
 93
        1
176
     1
 44
0.0
176
     1
173
     0
176
     1
  0
ENDSEC
  0
EOF
