  0
SECTION
  2
HEADER
  9
$ACADVER
  1
AC1024
  9
$ACADMAINTVER
 70
     6
  9
$DWGCODEPAGE
  3
UNDEFINED
  9
$INSBASE
 10
0.0
 20
0.0
 30
0.0
  9
$EXTMIN
 10
1.000000000000000E+20
 20
1.000000000000000E+20
 30
1.000000000000000E+20
  9
$EXTMAX
 10
-1.000000000000000E+20
 20
-1.000000000000000E+20
 30
-1.000000000000000E+20
  9
$LIMMIN
 10
0.0
 20
0.0
  9
$LIMMAX
 10
12.0
 20
9.0
  9
$ORTHOMODE
 70
     0
  9
$REGENMODE
 70
     1
  9
$FILLMODE
 70
     1
  9
$QTEXTMODE
 70
     0
  9
$MIRRTEXT
 70
     1
  9
$LTSCALE
 40
1.0
  9
$ATTMODE
 70
     1
  9
$TEXTSIZE
 40
0.2
  9
$TRACEWID
 40
0.05
  9
$TEXTSTYLE
  7
Standard
  9
$CLAYER
  8
0
  9
$CELTYPE
  6
ByLayer
  9
$CECOLOR
 62
   256
  9
$CELTSCALE
 40
1.0
  9
$DISPSILH
 70
     0
  9
$DIMSCALE
 40
1.0
  9
$DIMASZ
 40
0.18
  9
$DIMEXO
 40
0.0625
  9
$DIMDLI
 40
0.38
  9
$DIMRND
 40
0.0
  9
$DIMDLE
 40
0.0
  9
$DIMEXE
 40
0.18
  9
$DIMTP
 40
0.0
  9
$DIMTM
 40
0.0
  9
$DIMTXT
 40
0.18
  9
$DIMCEN
 40
0.09
  9
$DIMTSZ
 40
0.0
  9
$DIMTOL
 70
     0
  9
$DIMLIM
 70
     0
  9
$DIMTIH
 70
     1
  9
$DIMTOH
 70
     1
  9
$DIMSE1
 70
     0
  9
$DIMSE2
 70
     0
  9
$DIMTAD
 70
     0
  9
$DIMZIN
 70
     0
  9
$DIMBLK
  1

  9
$DIMASO
 70
     1
  9
$DIMSHO
 70
     1
  9
$DIMPOST
  1

  9
$DIMAPOST
  1

  9
$DIMALT
 70
     0
  9
$DIMALTD
 70
     2
  9
$DIMALTF
 40
25.4
  9
$DIMLFAC
 40
1.0
  9
$DIMTOFL
 70
     0
  9
$DIMTVP
 40
0.0
  9
$DIMTIX
 70
     0
  9
$DIMSOXD
 70
     0
  9
$DIMSAH
 70
     0
  9
$DIMBLK1
  1

  9
$DIMBLK2
  1

  9
$DIMSTYLE
  2
Standard
  9
$DIMCLRD
 70
     0
  9
$DIMCLRE
 70
     0
  9
$DIMCLRT
 70
     0
  9
$DIMTFAC
 40
1.0
  9
$DIMGAP
 40
0.09
  9
$DIMJUST
 70
     0
  9
$DIMSD1
 70
     0
  9
$DIMSD2
 70
     0
  9
$DIMTOLJ
 70
     1
  9
$DIMTZIN
 70
     0
  9
$DIMALTZ
 70
     0
  9
$DIMALTTZ
 70
     0
  9
$DIMUPT
 70
     0
  9
$DIMDEC
 70
     4
  9
$DIMTDEC
 70
     4
  9
$DIMALTU
 70
     2
  9
$DIMALTTD
 70
     2
  9
$DIMTXSTY
  7
Standard
  9
$DIMAUNIT
 70
     0
  9
$DIMADEC
 70
     0
  9
$DIMALTRND
 40
0.0
  9
$DIMAZIN
 70
     0
  9
$DIMDSEP
 70
    46
  9
$DIMATFIT
 70
     3
  9
$DIMFRAC
 70
     0
  9
$DIMLDRBLK
  1

  9
$DIMLUNIT
 70
     2
  9
$DIMLWD
 70
    -2
  9
$DIMLWE
 70
    -2
  9
$DIMTMOVE
 70
     0
  9
$DIMFXL
 40
1.0
  9
$DIMFXLON
 70
     0
  9
$DIMJOGANG
 40
0.7853981633974483
  9
$DIMTFILL
 70
     0
  9
$DIMTFILLCLR
 70
     0
  9
$DIMARCSYM
 70
     0
  9
$DIMLTYPE
  6

  9
$DIMLTEX1
  6

  9
$DIMLTEX2
  6

  9
$DIMTXTDIRECTION
 70
     0
  9
$LUNITS
 70
     2
  9
$LUPREC
 70
     4
  9
$SKETCHINC
 40
0.1
  9
$FILLETRAD
 40
0.5
  9
$AUNITS
 70
     0
  9
$AUPREC
 70
     0
  9
$MENU
  1
.
  9
$ELEVATION
 40
0.0
  9
$PELEVATION
 40
0.0
  9
$THICKNESS
 40
0.0
  9
$LIMCHECK
 70
     0
  9
$CHAMFERA
 40
0.5
  9
$CHAMFERB
 40
0.5
  9
$CHAMFERC
 40
1.0
  9
$CHAMFERD
 40
0.0
  9
$SKPOLY
 70
     0
  9
$TDCREATE
 40
2457917.618240729
  9
$TDUCREATE
 40
2457917.243240741
  9
$TDUPDATE
 40
2457917.618240729
  9
$TDUUPDATE
 40
2457917.243240741
  9
$TDINDWG
 40
0.0000000116
  9
$TDUSRTIMER
 40
0.0000000116
  9
$USRTIMER
 70
     1
  9
$ANGBASE
 50
0.0
  9
$ANGDIR
 70
     0
  9
$PDMODE
 70
     0
  9
$PDSIZE
 40
0.0
  9
$PLINEWID
 40
0.0
  9
$SPLFRAME
 70
     0
  9
$SPLINETYPE
 70
     6
  9
$SPLINESEGS
 70
     8
  9
$HANDSEED
  5
DE
  9
$SURFTAB1
 70
     6
  9
$SURFTAB2
 70
     6
  9
$SURFTYPE
 70
     6
  9
$SURFU
 70
     6
  9
$SURFV
 70
     6
  9
$UCSBASE
  2

  9
$UCSNAME
  2

  9
$UCSORG
 10
0.0
 20
0.0
 30
0.0
  9
$UCSXDIR
 10
1.0
 20
0.0
 30
0.0
  9
$UCSYDIR
 10
0.0
 20
1.0
 30
0.0
  9
$UCSORTHOREF
  2

  9
$UCSORTHOVIEW
 70
     0
  9
$UCSORGTOP
 10
0.0
 20
0.0
 30
0.0
  9
$UCSORGBOTTOM
 10
0.0
 20
0.0
 30
0.0
  9
$UCSORGLEFT
 10
0.0
 20
0.0
 30
0.0
  9
$UCSORGRIGHT
 10
0.0
 20
0.0
 30
0.0
  9
$UCSORGFRONT
 10
0.0
 20
0.0
 30
0.0
  9
$UCSORGBACK
 10
0.0
 20
0.0
 30
0.0
  9
$PUCSBASE
  2

  9
$PUCSNAME
  2

  9
$PUCSORG
 10
0.0
 20
0.0
 30
0.0
  9
$PUCSXDIR
 10
1.0
 20
0.0
 30
0.0
  9
$PUCSYDIR
 10
0.0
 20
1.0
 30
0.0
  9
$PUCSORTHOREF
  2

  9
$PUCSORTHOVIEW
 70
     0
  9
$PUCSORGTOP
 10
0.0
 20
0.0
 30
0.0
  9
$PUCSORGBOTTOM
 10
0.0
 20
0.0
 30
0.0
  9
$PUCSORGLEFT
 10
0.0
 20
0.0
 30
0.0
  9
$PUCSORGRIGHT
 10
0.0
 20
0.0
 30
0.0
  9
$PUCSORGFRONT
 10
0.0
 20
0.0
 30
0.0
  9
$PUCSORGBACK
 10
0.0
 20
0.0
 30
0.0
  9
$USERI1
 70
     0
  9
$USERI2
 70
     0
  9
$USERI3
 70
     0
  9
$USERI4
 70
     0
  9
$USERI5
 70
     0
  9
$USERR1
 40
0.0
  9
$USERR2
 40
0.0
  9
$USERR3
 40
0.0
  9
$USERR4
 40
0.0
  9
$USERR5
 40
0.0
  9
$WORLDVIEW
 70
     1
  9
$SHADEDGE
 70
     3
  9
$SHADEDIF
 70
    70
  9
$TILEMODE
 70
     1
  9
$MAXACTVP
 70
    64
  9
$PINSBASE
 10
0.0
 20
0.0
 30
0.0
  9
$PLIMCHECK
 70
     0
  9
$PEXTMIN
 10
1.000000000000000E+20
 20
1.000000000000000E+20
 30
1.000000000000000E+20
  9
$PEXTMAX
 10
-1.000000000000000E+20
 20
-1.000000000000000E+20
 30
-1.000000000000000E+20
  9
$PLIMMIN
 10
0.0
 20
0.0
  9
$PLIMMAX
 10
12.0
 20
9.0
  9
$UNITMODE
 70
     0
  9
$VISRETAIN
 70
     1
  9
$PLINEGEN
 70
     0
  9
$PSLTSCALE
 70
     1
  9
$TREEDEPTH
 70
  3020
  9
$CMLSTYLE
  2
Standard
  9
$CMLJUST
 70
     0
  9
$CMLSCALE
 40
1.0
  9
$PROXYGRAPHICS
 70
     1
  9
$MEASUREMENT
 70
     0
  9
$CELWEIGHT
370
    -1
  9
$ENDCAPS
280
     0
  9
$JOINSTYLE
280
     0
  9
$LWDISPLAY
290
     1
  9
$INSUNITS
 70
     1
  9
$HYPERLINKBASE
  1

  9
$STYLESHEET
  1

  9
$XEDIT
290
     1
  9
$CEPSNTYPE
380
     0
  9
$PSTYLEMODE
290
     1
  9
$FINGERPRINTGUID
  2
{2D2EC8DC-6C85-CB87-FE8B-77ACB673E778}
  9
$VERSIONGUID
  2
{FAEB1C32-E019-11D5-929B-00C0DF256EC4}
  9
$EXTNAMES
290
     1
  9
$PSVPSCALE
 40
0.0
  9
$OLESTARTUP
290
     0
  9
$SORTENTS
280
   127
  9
$INDEXCTL
280
     0
  9
$HIDETEXT
280
     1
  9
$XCLIPFRAME
280
     2
  9
$HALOGAP
280
     0
  9
$OBSCOLOR
 70
   257
  9
$OBSLTYPE
280
     0
  9
$INTERSECTIONDISPLAY
280
     0
  9
$INTERSECTIONCOLOR
 70
   257
  9
$DIMASSOC
280
     2
  9
$PROJECTNAME
  1

  9
$CAMERADISPLAY
290
     0
  9
$LENSLENGTH
 40
50.0
  9
$CAMERAHEIGHT
 40
0.0
  9
$STEPSPERSEC
 40
2.0
  9
$STEPSIZE
 40
6.0
  9
$3DDWFPREC
 40
2.0
  9
$PSOLWIDTH
 40
0.25
  9
$PSOLHEIGHT
 40
4.0
  9
$LOFTANG1
 40
1.570796326794897
  9
$LOFTANG2
 40
1.570796326794897
  9
$LOFTMAG1
 40
0.0
  9
$LOFTMAG2
 40
0.0
  9
$LOFTPARAM
 70
     7
  9
$LOFTNORMALS
280
     1
  9
$LATITUDE
 40
37.795
  9
$LONGITUDE
 40
-122.394
  9
$NORTHDIRECTION
 40
0.0
  9
$TIMEZONE
 70
 -8000
  9
$LIGHTGLYPHDISPLAY
280
     1
  9
$TILEMODELIGHTSYNCH
280
     1
  9
$CMATERIAL
347
3C
  9
$SOLIDHIST
280
     1
  9
$SHOWHIST
280
     1
  9
$DWFFRAME
280
     2
  9
$DGNFRAME
280
     2
  9
$REALWORLDSCALE
290
     1
  9
$INTERFERECOLOR
 62
   256
  9
$CSHADOW
280
     0
  9
$SHADOWPLANELOCATION
 40
0.0
  0
ENDSEC
  0
SECTION
  2
CLASSES
  0
CLASS
  1
ACDBDICTIONARYWDFLT
  2
AcDbDictionaryWithDefault
  3
ObjectDBX Classes
 90
        0
 91
        4
280
     0
281
     0
  0
CLASS
  1
VISUALSTYLE
  2
AcDbVisualStyle
  3
ObjectDBX Classes
 90
     4095
 91
        4
280
     0
281
     0
  0
CLASS
  1
MATERIAL
  2
AcDbMaterial
  3
ObjectDBX Classes
 90
     1153
 91
        4
280
     0
281
     0
  0
CLASS
  1
SUN
  2
AcDbSun
  3
SCENEOE
 90
     1024
 91
        4
280
     0
281
     0
  0
ENDSEC
  0
SECTION
  2
TABLES
  0
TABLE
  2
VPORT
  5
8
330
0
100
AcDbSymbolTable
 70
     1
  0
VPORT
  5
29
330
8
100
AcDbSymbolTableRecord
100
AcDbViewportTableRecord
  2
*Active
 70
     0
 10
0.0
 20
0.0
 11
1.0
 21
1.0
 12
0.0
 22
0.0
 13
0.0
 23
0.0
 14
0.5
 24
0.5
 15
0.5
 25
0.5
 16
0.0
 26
0.0
 36
1.0
 17
91.00082462281999
 27
-128.4993055234307
 37
0.0
 40
256.9986110468615
 41
0.7081814508812795
 42
50.0
 43
0.0
 44
0.0
 50
0.0
 51
0.0
 71
     0
 72
   100
 73
     1
 74
     3
 75
     0
 76
     0
 77
     0
 78
     0
281
     0
 65
     1
110
0.0
120
0.0
130
0.0
111
1.0
121
0.0
131
0.0
112
0.0
122
1.0
132
0.0
 79
     0
146
0.0
 60
     3
 61
     5
292
     1
282
     1
141
0.0
142
0.0
 63
   250
361
3F
  0
ENDTAB
  0
TABLE
  2
LTYPE
  5
5
330
0
100
AcDbSymbolTable
 70
     1
  0
LTYPE
  5
14
330
5
100
AcDbSymbolTableRecord
100
AcDbLinetypeTableRecord
  2
ByBlock
 70
     0
  3

 72
    65
 73
     0
 40
0.0
  0
LTYPE
  5
15
330
5
100
AcDbSymbolTableRecord
100
AcDbLinetypeTableRecord
  2
ByLayer
 70
     0
  3

 72
    65
 73
     0
 40
0.0
  0
LTYPE
  5
16
330
5
100
AcDbSymbolTableRecord
100
AcDbLinetypeTableRecord
  2
Continuous
 70
     0
  3
Solid line
 72
    65
 73
     0
 40
0.0
  0
ENDTAB
  0
TABLE
  2
LAYER
  5
2
330
0
100
AcDbSymbolTable
 70
     2
  0
LAYER
  5
10
330
2
100
AcDbSymbolTableRecord
100
AcDbLayerTableRecord
  2
0
 70
     0
 62
     7
  6
Continuous
370
    -3
390
F
347
3E
  0
LAYER
  5
40
330
2
100
AcDbSymbolTableRecord
100
AcDbLayerTableRecord
  2
_U+30EC_U+30A4_U+30E4_U+30FC 1
 70
     0
 62
     7
  6
Continuous
370
    -3
390
F
347
3E
  0
ENDTAB
  0
TABLE
  2
STYLE
  5
3
330
0
100
AcDbSymbolTable
 70
     1
  0
STYLE
  5
11
330
3
100
AcDbSymbolTableRecord
100
AcDbTextStyleTableRecord
  2
Standard
 70
     0
 40
0.0
 41
1.0
 50
0.0
 71
     0
 42
0.2
  3
txt
  4

  0
ENDTAB
  0
TABLE
  2
VIEW
  5
6
330
0
100
AcDbSymbolTable
 70
     0
  0
ENDTAB
  0
TABLE
  2
UCS
  5
7
330
0
100
AcDbSymbolTable
 70
     0
  0
ENDTAB
  0
TABLE
  2
APPID
  5
9
330
0
100
AcDbSymbolTable
 70
     1
  0
APPID
  5
12
330
9
100
AcDbSymbolTableRecord
100
AcDbRegAppTableRecord
  2
ACAD
 70
     0
  0
ENDTAB
  0
TABLE
  2
DIMSTYLE
  5
A
330
0
100
AcDbSymbolTable
 70
     1
100
AcDbDimStyleTable
  0
DIMSTYLE
105
27
330
A
100
AcDbSymbolTableRecord
100
AcDbDimStyleTableRecord
  2
Standard
 70
     0
178
     0
340
11
  0
ENDTAB
  0
TABLE
  2
BLOCK_RECORD
  5
1
330
0
100
AcDbSymbolTable
 70
     8
  0
BLOCK_RECORD
  5
1F
330
1
100
AcDbSymbolTableRecord
100
AcDbBlockTableRecord
  2
*Model_Space
340
22
 70
     0
280
     1
281
     0
  0
BLOCK_RECORD
  5
1B
330
1
100
AcDbSymbolTableRecord
100
AcDbBlockTableRecord
  2
*Paper_Space
340
1E
 70
     0
280
     1
281
     0
  0
BLOCK_RECORD
  5
23
330
1
100
AcDbSymbolTableRecord
100
AcDbBlockTableRecord
  2
*Paper_Space0
340
26
 70
     0
280
     1
281
     0
  0
BLOCK_RECORD
  5
47
330
1
100
AcDbSymbolTableRecord
100
AcDbBlockTableRecord
  2
block 2
340
0
102
{BLKREFS
331
48
102
}
 70
     0
280
     1
281
     0
  0
BLOCK_RECORD
  5
54
330
1
100
AcDbSymbolTableRecord
100
AcDbBlockTableRecord
  2
block 3
340
0
102
{BLKREFS
331
55
102
}
 70
     0
280
     1
281
     0
  0
BLOCK_RECORD
  5
71
330
1
100
AcDbSymbolTableRecord
100
AcDbBlockTableRecord
  2
block 4
340
0
102
{BLKREFS
331
72
102
}
 70
     0
280
     1
281
     0
  0
BLOCK_RECORD
  5
7A
330
1
100
AcDbSymbolTableRecord
100
AcDbBlockTableRecord
  2
block 5
340
0
102
{BLKREFS
331
7B
102
}
 70
     0
280
     1
281
     0
  0
BLOCK_RECORD
  5
8F
330
1
100
AcDbSymbolTableRecord
100
AcDbBlockTableRecord
  2
block 6
340
0
102
{BLKREFS
331
90
102
}
 70
     0
280
     1
281
     0
  0
BLOCK_RECORD
  5
AF
330
1
100
AcDbSymbolTableRecord
100
AcDbBlockTableRecord
  2
block 7
340
0
102
{BLKREFS
331
B0
102
}
 70
     0
280
     1
281
     0
  0
BLOCK_RECORD
  5
C0
330
1
100
AcDbSymbolTableRecord
100
AcDbBlockTableRecord
  2
block 8
340
0
102
{BLKREFS
331
C1
102
}
 70
     0
280
     1
281
     0
  0
ENDTAB
  0
ENDSEC
  0
SECTION
  2
BLOCKS
  0
BLOCK
  5
20
330
1F
100
AcDbEntity
  8
0
100
AcDbBlockBegin
  2
*Model_Space
 70
     0
 10
0.0
 20
0.0
 30
0.0
  3
*Model_Space
  1

  0
ENDBLK
  5
21
330
1F
100
AcDbEntity
  8
0
100
AcDbBlockEnd
  0
BLOCK
  5
1C
330
1B
100
AcDbEntity
 67
     1
  8
0
100
AcDbBlockBegin
  2
*Paper_Space
 70
     0
 10
0.0
 20
0.0
 30
0.0
  3
*Paper_Space
  1

  0
ENDBLK
  5
1D
330
1B
100
AcDbEntity
 67
     1
  8
0
100
AcDbBlockEnd
  0
BLOCK
  5
24
330
23
100
AcDbEntity
  8
0
100
AcDbBlockBegin
  2
*Paper_Space0
 70
     0
 10
0.0
 20
0.0
 30
0.0
  3
*Paper_Space0
  1

  0
ENDBLK
  5
25
330
23
100
AcDbEntity
  8
0
100
AcDbBlockEnd
  0
BLOCK
  5
49
330
47
100
AcDbEntity
  8
0
100
AcDbBlockBegin
  2
block 2
 70
     0
 10
0.0
 20
0.0
 30
0.0
  3
block 2
  1

  0
SPLINE
  5
4B
330
47
100
AcDbEntity
  8
_U+30EC_U+30A4_U+30E4_U+30FC 1
370
     0
100
AcDbSpline
210
0.0
220
0.0
230
1.0
 70
    11
 71
     3
 72
    26
 73
    22
 74
     0
 42
0.0000000001
 43
0.0000000001
 12
1.0
 22
0.0
 32
0.0
 13
1.0
 23
0.0
 33
0.0
 40
0.0
 40
0.0
 40
0.0
 40
0.0
 40
1.0
 40
1.0
 40
1.0
 40
2.0
 40
2.0
 40
2.0
 40
3.0
 40
3.0
 40
3.0
 40
4.0
 40
4.0
 40
4.0
 40
5.0
 40
5.0
 40
5.0
 40
6.0
 40
6.0
 40
6.0
 40
7.0
 40
7.0
 40
7.0
 40
7.0
 10
85.893809657346
 20
-148.897715891595
 30
0.0
 10
85.893809657346
 20
-148.897715891595
 30
0.0
 10
85.893809657346
 20
-147.7932182790239
 30
0.0
 10
85.893809657346
 20
-147.7932182790239
 30
0.0
 10
85.893809657346
 20
-147.7932182790239
 30
0.0
 10
85.56376950985906
 20
-147.7932182790239
 30
0.0
 10
85.56376950985906
 20
-147.7932182790239
 30
0.0
 10
85.56376950985906
 20
-147.7932182790239
 30
0.0
 10
85.56376950985906
 20
-147.6454236827067
 30
0.0
 10
85.56376950985906
 20
-147.6454236827067
 30
0.0
 10
85.89587671463714
 20
-147.6306097721201
 30
0.0
 10
85.94238550368802
 20
-147.4676567556678
 30
0.0
 10
85.97201332486117
 20
-147.3536240951061
 30
0.0
 10
85.97201332486117
 20
-147.3536240951061
 30
0.0
 10
86.11808537343576
 20
-147.3536240951061
 30
0.0
 10
86.11808537343576
 20
-147.3536240951061
 30
0.0
 10
86.11808537343576
 20
-147.3536240951061
 30
0.0
 10
86.11808537343576
 20
-148.897715891595
 30
0.0
 10
86.11808537343576
 20
-148.897715891595
 30
0.0
 10
86.11808537343576
 20
-148.897715891595
 30
0.0
 10
85.893809657346
 20
-148.897715891595
 30
0.0
 10
85.893809657346
 20
-148.897715891595
 30
0.0
  0
HATCH
  5
4C
330
47
100
AcDbEntity
  8
_U+30EC_U+30A4_U+30E4_U+30FC 1
 62
   179
420
  2234388
100
AcDbHatch
 10
0.0
 20
0.0
 30
0.0
210
0.0
220
0.0
230
1.0
  2
SOLID
 70
     1
 71
     0
 91
        1
 92
        1
 93
        1
 72
     4
 94
        3
 73
     0
 74
     1
 95
       26
 96
       22
 40
0.0
 40
0.0
 40
0.0
 40
0.0
 40
1.0
 40
1.0
 40
1.0
 40
2.0
 40
2.0
 40
2.0
 40
3.0
 40
3.0
 40
3.0
 40
4.0
 40
4.0
 40
4.0
 40
5.0
 40
5.0
 40
5.0
 40
6.0
 40
6.0
 40
6.0
 40
7.0
 40
7.0
 40
7.0
 40
7.0
 10
85.893809657346
 20
-148.897715891595
 10
85.893809657346
 20
-148.897715891595
 10
85.893809657346
 20
-147.7932182790239
 10
85.893809657346
 20
-147.7932182790239
 10
85.893809657346
 20
-147.7932182790239
 10
85.56376950985906
 20
-147.7932182790239
 10
85.56376950985906
 20
-147.7932182790239
 10
85.56376950985906
 20
-147.7932182790239
 10
85.56376950985906
 20
-147.6454236827067
 10
85.56376950985906
 20
-147.6454236827067
 10
85.89587671463714
 20
-147.6306097721201
 10
85.94238550368802
 20
-147.4676567556678
 10
85.97201332486117
 20
-147.3536240951061
 10
85.97201332486117
 20
-147.3536240951061
 10
86.11808537343576
 20
-147.3536240951061
 10
86.11808537343576
 20
-147.3536240951061
 10
86.11808537343576
 20
-147.3536240951061
 10
86.11808537343576
 20
-148.897715891595
 10
86.11808537343576
 20
-148.897715891595
 10
86.11808537343576
 20
-148.897715891595
 10
85.893809657346
 20
-148.897715891595
 10
85.893809657346
 20
-148.897715891595
 97
        0
 97
        0
 75
     2
 76
     1
 98
        0
  0
SPLINE
  5
4D
330
47
100
AcDbEntity
  8
_U+30EC_U+30A4_U+30E4_U+30FC 1
370
     0
100
AcDbSpline
210
0.0
220
0.0
230
1.0
 70
    11
 71
     3
 72
    29
 73
    25
 74
     0
 42
0.0000000001
 43
0.0000000001
 12
1.0
 22
0.0
 32
0.0
 13
1.0
 23
0.0
 33
0.0
 40
0.0
 40
0.0
 40
0.0
 40
0.0
 40
1.0
 40
1.0
 40
1.0
 40
2.0
 40
2.0
 40
2.0
 40
3.0
 40
3.0
 40
3.0
 40
4.0
 40
4.0
 40
4.0
 40
5.0
 40
5.0
 40
5.0
 40
6.0
 40
6.0
 40
6.0
 40
7.0
 40
7.0
 40
7.0
 40
8.0
 40
8.0
 40
8.0
 40
8.0
 10
87.51696639522146
 20
-148.7199489645561
 30
0.0
 10
87.40913490653314
 20
-148.9294107700593
 30
0.0
 10
87.23567434885081
 20
-148.9487033047767
 30
0.0
 10
87.11923012144936
 20
-148.9487033047767
 30
0.0
 10
86.95851641706246
 20
-148.9487033047767
 30
0.0
 10
86.81675073784443
 20
-148.9018500061773
 30
0.0
 10
86.72149384767727
 20
-148.7199489645561
 30
0.0
 10
86.61796872834552
 20
-148.5253010696395
 30
0.0
 10
86.59884844840238
 20
-148.2886230098028
 30
0.0
 10
86.59884844840238
 20
-148.125325483802
 30
0.0
 10
86.59884844840238
 20
-147.9816650020671
 30
0.0
 10
86.6157294162801
 20
-147.7298285220953
 30
0.0
 10
86.72149384767727
 20
-147.5310465125964
 30
0.0
 10
86.82949759113986
 20
-147.3281303885152
 30
0.0
 10
86.99021129552676
 20
-147.3047037392155
 30
0.0
 10
87.11923012144936
 20
-147.3047037392155
 30
0.0
 10
87.27787676854511
 20
-147.3047037392155
 30
0.0
 10
87.4217095050543
 20
-147.3491454709752
 30
0.0
 10
87.51696639522146
 20
-147.5310465125964
 30
0.0
 10
87.61635739997091
 20
-147.7236273502219
 30
0.0
 10
87.63961179449635
 20
-147.9520371808939
 30
0.0
 10
87.63961179449635
 20
-148.125325483802
 30
0.0
 10
87.63961179449635
 20
-148.2968912389674
 30
0.0
 10
87.61859671203632
 20
-148.5277126364792
 30
0.0
 10
87.51696639522146
 20
-148.7199489645561
 30
0.0
  0
SPLINE
  5
4E
330
47
100
AcDbEntity
  8
_U+30EC_U+30A4_U+30E4_U+30FC 1
370
     0
100
AcDbSpline
210
0.0
220
0.0
230
1.0
 70
    11
 71
     3
 72
    17
 73
    13
 74
     0
 42
0.0000000001
 43
0.0000000001
 12
1.0
 22
0.0
 32
0.0
 13
1.0
 23
0.0
 33
0.0
 40
0.0
 40
0.0
 40
0.0
 40
0.0
 40
1.0
 40
1.0
 40
1.0
 40
2.0
 40
2.0
 40
2.0
 40
3.0
 40
3.0
 40
3.0
 40
4.0
 40
4.0
 40
4.0
 40
4.0
 10
87.11923012144936
 20
-147.497284576841
 30
0.0
 10
86.86963295354302
 20
-147.497284576841
 30
0.0
 10
86.82312416449214
 20
-147.780815935277
 30
0.0
 10
86.82312416449214
 20
-148.125325483802
 30
0.0
 10
86.82312416449214
 20
-148.4450303448332
 30
0.0
 10
86.859125412313
 20
-148.7537109003116
 30
0.0
 10
87.11923012144936
 20
-148.7537109003116
 30
0.0
 10
87.36676023206456
 20
-148.7537109003116
 30
0.0
 10
87.41550833318085
 20
-148.4725911087152
 30
0.0
 10
87.41550833318085
 20
-148.125325483802
 30
0.0
 10
87.41550833318085
 20
-147.8063096418679
 30
0.0
 10
87.37744002806883
 20
-147.497284576841
 30
0.0
 10
87.11923012144936
 20
-147.497284576841
 30
0.0
  0
HATCH
  5
4F
330
47
100
AcDbEntity
  8
_U+30EC_U+30A4_U+30E4_U+30FC 1
 62
   179
420
  2234388
100
AcDbHatch
 10
0.0
 20
0.0
 30
0.0
210
0.0
220
0.0
230
1.0
  2
SOLID
 70
     1
 71
     0
 91
        2
 92
        1
 93
        1
 72
     4
 94
        3
 73
     0
 74
     1
 95
       29
 96
       25
 40
0.0
 40
0.0
 40
0.0
 40
0.0
 40
1.0
 40
1.0
 40
1.0
 40
2.0
 40
2.0
 40
2.0
 40
3.0
 40
3.0
 40
3.0
 40
4.0
 40
4.0
 40
4.0
 40
5.0
 40
5.0
 40
5.0
 40
6.0
 40
6.0
 40
6.0
 40
7.0
 40
7.0
 40
7.0
 40
8.0
 40
8.0
 40
8.0
 40
8.0
 10
87.51696639522146
 20
-148.7199489645561
 10
87.40913490653314
 20
-148.9294107700593
 10
87.23567434885081
 20
-148.9487033047767
 10
87.11923012144936
 20
-148.9487033047767
 10
86.95851641706246
 20
-148.9487033047767
 10
86.81675073784443
 20
-148.9018500061773
 10
86.72149384767727
 20
-148.7199489645561
 10
86.61796872834552
 20
-148.5253010696395
 10
86.59884844840238
 20
-148.2886230098028
 10
86.59884844840238
 20
-148.125325483802
 10
86.59884844840238
 20
-147.9816650020671
 10
86.6157294162801
 20
-147.7298285220953
 10
86.72149384767727
 20
-147.5310465125964
 10
86.82949759113986
 20
-147.3281303885152
 10
86.99021129552676
 20
-147.3047037392155
 10
87.11923012144936
 20
-147.3047037392155
 10
87.27787676854511
 20
-147.3047037392155
 10
87.4217095050543
 20
-147.3491454709752
 10
87.51696639522146
 20
-147.5310465125964
 10
87.61635739997091
 20
-147.7236273502219
 10
87.63961179449635
 20
-147.9520371808939
 10
87.63961179449635
 20
-148.125325483802
 10
87.63961179449635
 20
-148.2968912389674
 10
87.61859671203632
 20
-148.5277126364792
 10
87.51696639522146
 20
-148.7199489645561
 97
        0
 97
        0
 92
        1
 93
        1
 72
     4
 94
        3
 73
     0
 74
     1
 95
       17
 96
       13
 40
0.0
 40
0.0
 40
0.0
 40
0.0
 40
1.0
 40
1.0
 40
1.0
 40
2.0
 40
2.0
 40
2.0
 40
3.0
 40
3.0
 40
3.0
 40
4.0
 40
4.0
 40
4.0
 40
4.0
 10
87.11923012144936
 20
-147.497284576841
 10
86.86963295354302
 20
-147.497284576841
 10
86.82312416449214
 20
-147.780815935277
 10
86.82312416449214
 20
-148.125325483802
 10
86.82312416449214
 20
-148.4450303448332
 10
86.859125412313
 20
-148.7537109003116
 10
87.11923012144936
 20
-148.7537109003116
 10
87.36676023206456
 20
-148.7537109003116
 10
87.41550833318085
 20
-148.4725911087152
 10
87.41550833318085
 20
-148.125325483802
 10
87.41550833318085
 20
-147.8063096418679
 10
87.37744002806883
 20
-147.497284576841
 10
87.11923012144936
 20
-147.497284576841
 97
        0
 97
        0
 75
     2
 76
     1
 98
        0
  0
ENDBLK
  5
4A
330
47
100
AcDbEntity
  8
0
100
AcDbBlockEnd
  0
BLOCK
  5
56
330
54
100
AcDbEntity
  8
0
100
AcDbBlockBegin
  2
block 3
 70
     0
 10
0.0
 20
0.0
 30
0.0
  3
block 3
  1

  0
SPLINE
  5
58
330
54
100
AcDbEntity
  8
_U+30EC_U+30A4_U+30E4_U+30FC 1
370
     0
100
AcDbSpline
210
0.0
220
0.0
230
1.0
 70
    11
 71
     3
 72
    26
 73
    22
 74
     0
 42
0.0000000001
 43
0.0000000001
 12
1.0
 22
0.0
 32
0.0
 13
1.0
 23
0.0
 33
0.0
 40
0.0
 40
0.0
 40
0.0
 40
0.0
 40
1.0
 40
1.0
 40
1.0
 40
2.0
 40
2.0
 40
2.0
 40
3.0
 40
3.0
 40
3.0
 40
4.0
 40
4.0
 40
4.0
 40
5.0
 40
5.0
 40
5.0
 40
6.0
 40
6.0
 40
6.0
 40
7.0
 40
7.0
 40
7.0
 40
7.0
 10
75.97331269802056
 20
-148.897715891595
 30
0.0
 10
75.97331269802056
 20
-148.897715891595
 30
0.0
 10
75.97331269802056
 20
-147.7932182790239
 30
0.0
 10
75.97331269802056
 20
-147.7932182790239
 30
0.0
 10
75.97331269802056
 20
-147.7932182790239
 30
0.0
 10
75.64327255053362
 20
-147.7932182790239
 30
0.0
 10
75.64327255053362
 20
-147.7932182790239
 30
0.0
 10
75.64327255053362
 20
-147.7932182790239
 30
0.0
 10
75.64327255053362
 20
-147.6454236827067
 30
0.0
 10
75.64327255053362
 20
-147.6454236827067
 30
0.0
 10
75.97537975531172
 20
-147.6306097721201
 30
0.0
 10
76.02188854436258
 20
-147.4676567556678
 30
0.0
 10
76.05151636553573
 20
-147.3536240951061
 30
0.0
 10
76.05151636553573
 20
-147.3536240951061
 30
0.0
 10
76.19758841411033
 20
-147.3536240951061
 30
0.0
 10
76.19758841411033
 20
-147.3536240951061
 30
0.0
 10
76.19758841411033
 20
-147.3536240951061
 30
0.0
 10
76.19758841411033
 20
-148.897715891595
 30
0.0
 10
76.19758841411033
 20
-148.897715891595
 30
0.0
 10
76.19758841411033
 20
-148.897715891595
 30
0.0
 10
75.97331269802056
 20
-148.897715891595
 30
0.0
 10
75.97331269802056
 20
-148.897715891595
 30
0.0
  0
HATCH
  5
59
330
54
100
AcDbEntity
  8
_U+30EC_U+30A4_U+30E4_U+30FC 1
 62
   179
420
  2234388
100
AcDbHatch
 10
0.0
 20
0.0
 30
0.0
210
0.0
220
0.0
230
1.0
  2
SOLID
 70
     1
 71
     0
 91
        1
 92
        1
 93
        1
 72
     4
 94
        3
 73
     0
 74
     1
 95
       26
 96
       22
 40
0.0
 40
0.0
 40
0.0
 40
0.0
 40
1.0
 40
1.0
 40
1.0
 40
2.0
 40
2.0
 40
2.0
 40
3.0
 40
3.0
 40
3.0
 40
4.0
 40
4.0
 40
4.0
 40
5.0
 40
5.0
 40
5.0
 40
6.0
 40
6.0
 40
6.0
 40
7.0
 40
7.0
 40
7.0
 40
7.0
 10
75.97331269802056
 20
-148.897715891595
 10
75.97331269802056
 20
-148.897715891595
 10
75.97331269802056
 20
-147.7932182790239
 10
75.97331269802056
 20
-147.7932182790239
 10
75.97331269802056
 20
-147.7932182790239
 10
75.64327255053362
 20
-147.7932182790239
 10
75.64327255053362
 20
-147.7932182790239
 10
75.64327255053362
 20
-147.7932182790239
 10
75.64327255053362
 20
-147.6454236827067
 10
75.64327255053362
 20
-147.6454236827067
 10
75.97537975531172
 20
-147.6306097721201
 10
76.02188854436258
 20
-147.4676567556678
 10
76.05151636553573
 20
-147.3536240951061
 10
76.05151636553573
 20
-147.3536240951061
 10
76.19758841411033
 20
-147.3536240951061
 10
76.19758841411033
 20
-147.3536240951061
 10
76.19758841411033
 20
-147.3536240951061
 10
76.19758841411033
 20
-148.897715891595
 10
76.19758841411033
 20
-148.897715891595
 10
76.19758841411033
 20
-148.897715891595
 10
75.97331269802056
 20
-148.897715891595
 10
75.97331269802056
 20
-148.897715891595
 97
        0
 97
        0
 75
     2
 76
     1
 98
        0
  0
SPLINE
  5
5A
330
54
100
AcDbEntity
  8
_U+30EC_U+30A4_U+30E4_U+30FC 1
370
     0
100
AcDbSpline
210
0.0
220
0.0
230
1.0
 70
    11
 71
     3
 72
    29
 73
    25
 74
     0
 42
0.0000000001
 43
0.0000000001
 12
1.0
 22
0.0
 32
0.0
 13
1.0
 23
0.0
 33
0.0
 40
0.0
 40
0.0
 40
0.0
 40
0.0
 40
1.0
 40
1.0
 40
1.0
 40
2.0
 40
2.0
 40
2.0
 40
3.0
 40
3.0
 40
3.0
 40
4.0
 40
4.0
 40
4.0
 40
5.0
 40
5.0
 40
5.0
 40
6.0
 40
6.0
 40
6.0
 40
7.0
 40
7.0
 40
7.0
 40
8.0
 40
8.0
 40
8.0
 40
8.0
 10
77.59646943589603
 20
-148.7199489645561
 30
0.0
 10
77.4886379472077
 20
-148.9294107700593
 30
0.0
 10
77.31517738952537
 20
-148.9487033047767
 30
0.0
 10
77.19873316212393
 20
-148.9487033047767
 30
0.0
 10
77.03801945773702
 20
-148.9487033047767
 30
0.0
 10
76.896253778519
 20
-148.9018500061773
 30
0.0
 10
76.80099688835183
 20
-148.7199489645561
 30
0.0
 10
76.69747176902008
 20
-148.5253010696395
 30
0.0
 10
76.67835148907695
 20
-148.2886230098028
 30
0.0
 10
76.67835148907695
 20
-148.125325483802
 30
0.0
 10
76.67835148907695
 20
-147.9816650020671
 30
0.0
 10
76.69523245695467
 20
-147.7298285220953
 30
0.0
 10
76.80099688835183
 20
-147.5310465125964
 30
0.0
 10
76.90900063181442
 20
-147.3281303885152
 30
0.0
 10
77.06971433620133
 20
-147.3047037392155
 30
0.0
 10
77.19873316212393
 20
-147.3047037392155
 30
0.0
 10
77.35737980921968
 20
-147.3047037392155
 30
0.0
 10
77.50121254572886
 20
-147.3491454709752
 30
0.0
 10
77.59646943589603
 20
-147.5310465125964
 30
0.0
 10
77.69586044064549
 20
-147.7236273502219
 30
0.0
 10
77.71911483517091
 20
-147.9520371808939
 30
0.0
 10
77.71911483517091
 20
-148.125325483802
 30
0.0
 10
77.71911483517091
 20
-148.2968912389674
 30
0.0
 10
77.69809975271089
 20
-148.5277126364792
 30
0.0
 10
77.59646943589603
 20
-148.7199489645561
 30
0.0
  0
SPLINE
  5
5B
330
54
100
AcDbEntity
  8
_U+30EC_U+30A4_U+30E4_U+30FC 1
370
     0
100
AcDbSpline
210
0.0
220
0.0
230
1.0
 70
    11
 71
     3
 72
    17
 73
    13
 74
     0
 42
0.0000000001
 43
0.0000000001
 12
1.0
 22
0.0
 32
0.0
 13
1.0
 23
0.0
 33
0.0
 40
0.0
 40
0.0
 40
0.0
 40
0.0
 40
1.0
 40
1.0
 40
1.0
 40
2.0
 40
2.0
 40
2.0
 40
3.0
 40
3.0
 40
3.0
 40
4.0
 40
4.0
 40
4.0
 40
4.0
 10
77.19873316212393
 20
-147.497284576841
 30
0.0
 10
76.94913599421758
 20
-147.497284576841
 30
0.0
 10
76.90262720516671
 20
-147.780815935277
 30
0.0
 10
76.90262720516671
 20
-148.125325483802
 30
0.0
 10
76.90262720516671
 20
-148.4450303448332
 30
0.0
 10
76.93862845298757
 20
-148.7537109003116
 30
0.0
 10
77.19873316212393
 20
-148.7537109003116
 30
0.0
 10
77.44626327273913
 20
-148.7537109003116
 30
0.0
 10
77.49501137385542
 20
-148.4725911087152
 30
0.0
 10
77.49501137385542
 20
-148.125325483802
 30
0.0
 10
77.49501137385542
 20
-147.8063096418679
 30
0.0
 10
77.45677081396914
 20
-147.497284576841
 30
0.0
 10
77.19873316212393
 20
-147.497284576841
 30
0.0
  0
HATCH
  5
5C
330
54
100
AcDbEntity
  8
_U+30EC_U+30A4_U+30E4_U+30FC 1
 62
   179
420
  2234388
100
AcDbHatch
 10
0.0
 20
0.0
 30
0.0
210
0.0
220
0.0
230
1.0
  2
SOLID
 70
     1
 71
     0
 91
        2
 92
        1
 93
        1
 72
     4
 94
        3
 73
     0
 74
     1
 95
       29
 96
       25
 40
0.0
 40
0.0
 40
0.0
 40
0.0
 40
1.0
 40
1.0
 40
1.0
 40
2.0
 40
2.0
 40
2.0
 40
3.0
 40
3.0
 40
3.0
 40
4.0
 40
4.0
 40
4.0
 40
5.0
 40
5.0
 40
5.0
 40
6.0
 40
6.0
 40
6.0
 40
7.0
 40
7.0
 40
7.0
 40
8.0
 40
8.0
 40
8.0
 40
8.0
 10
77.59646943589603
 20
-148.7199489645561
 10
77.4886379472077
 20
-148.9294107700593
 10
77.31517738952537
 20
-148.9487033047767
 10
77.19873316212393
 20
-148.9487033047767
 10
77.03801945773702
 20
-148.9487033047767
 10
76.896253778519
 20
-148.9018500061773
 10
76.80099688835183
 20
-148.7199489645561
 10
76.69747176902008
 20
-148.5253010696395
 10
76.67835148907695
 20
-148.2886230098028
 10
76.67835148907695
 20
-148.125325483802
 10
76.67835148907695
 20
-147.9816650020671
 10
76.69523245695467
 20
-147.7298285220953
 10
76.80099688835183
 20
-147.5310465125964
 10
76.90900063181442
 20
-147.3281303885152
 10
77.06971433620133
 20
-147.3047037392155
 10
77.19873316212393
 20
-147.3047037392155
 10
77.35737980921968
 20
-147.3047037392155
 10
77.50121254572886
 20
-147.3491454709752
 10
77.59646943589603
 20
-147.5310465125964
 10
77.69586044064549
 20
-147.7236273502219
 10
77.71911483517091
 20
-147.9520371808939
 10
77.71911483517091
 20
-148.125325483802
 10
77.71911483517091
 20
-148.2968912389674
 10
77.69809975271089
 20
-148.5277126364792
 10
77.59646943589603
 20
-148.7199489645561
 97
        0
 97
        0
 92
        1
 93
        1
 72
     4
 94
        3
 73
     0
 74
     1
 95
       17
 96
       13
 40
0.0
 40
0.0
 40
0.0
 40
0.0
 40
1.0
 40
1.0
 40
1.0
 40
2.0
 40
2.0
 40
2.0
 40
3.0
 40
3.0
 40
3.0
 40
4.0
 40
4.0
 40
4.0
 40
4.0
 10
77.19873316212393
 20
-147.497284576841
 10
76.94913599421758
 20
-147.497284576841
 10
76.90262720516671
 20
-147.780815935277
 10
76.90262720516671
 20
-148.125325483802
 10
76.90262720516671
 20
-148.4450303448332
 10
76.93862845298757
 20
-148.7537109003116
 10
77.19873316212393
 20
-148.7537109003116
 10
77.44626327273913
 20
-148.7537109003116
 10
77.49501137385542
 20
-148.4725911087152
 10
77.49501137385542
 20
-148.125325483802
 10
77.49501137385542
 20
-147.8063096418679
 10
77.45677081396914
 20
-147.497284576841
 10
77.19873316212393
 20
-147.497284576841
 97
        0
 97
        0
 75
     2
 76
     1
 98
        0
  0
ENDBLK
  5
57
330
54
100
AcDbEntity
  8
0
100
AcDbBlockEnd
  0
BLOCK
  5
73
330
71
100
AcDbEntity
  8
0
100
AcDbBlockBegin
  2
block 4
 70
     0
 10
0.0
 20
0.0
 30
0.0
  3
block 4
  1

  0
SPLINE
  5
75
330
71
100
AcDbEntity
  8
_U+30EC_U+30A4_U+30E4_U+30FC 1
370
     0
100
AcDbSpline
210
0.0
220
0.0
230
1.0
 70
    11
 71
     3
 72
    44
 73
    40
 74
     0
 42
0.0000000001
 43
0.0000000001
 12
1.0
 22
0.0
 32
0.0
 13
1.0
 23
0.0
 33
0.0
 40
0.0
 40
0.0
 40
0.0
 40
0.0
 40
1.0
 40
1.0
 40
1.0
 40
2.0
 40
2.0
 40
2.0
 40
3.0
 40
3.0
 40
3.0
 40
4.0
 40
4.0
 40
4.0
 40
5.0
 40
5.0
 40
5.0
 40
6.0
 40
6.0
 40
6.0
 40
7.0
 40
7.0
 40
7.0
 40
8.0
 40
8.0
 40
8.0
 40
9.0
 40
9.0
 40
9.0
 40
10.0
 40
10.0
 40
10.0
 40
11.0
 40
11.0
 40
11.0
 40
12.0
 40
12.0
 40
12.0
 40
13.0
 40
13.0
 40
13.0
 40
13.0
 10
66.32652857499824
 20
-135.5693304782604
 30
0.0
 10
66.48517522209399
 20
-135.7874050224768
 30
0.0
 10
66.55924477502685
 20
-135.880767110127
 30
0.0
 10
66.70307751153604
 20
-135.9289984469205
 30
0.0
 10
66.70307751153604
 20
-135.9289984469205
 30
0.0
 10
66.70307751153604
 20
-135.1507513768026
 30
0.0
 10
66.70307751153604
 20
-135.1507513768026
 30
0.0
 10
66.70307751153604
 20
-135.1507513768026
 30
0.0
 10
66.90823294768266
 20
-135.1507513768026
 30
0.0
 10
66.90823294768266
 20
-135.1507513768026
 30
0.0
 10
66.90823294768266
 20
-135.1507513768026
 30
0.0
 10
66.90823294768266
 20
-136.1787678696012
 30
0.0
 10
66.90823294768266
 20
-136.1787678696012
 30
0.0
 10
66.55063203631373
 20
-136.1470729911368
 30
0.0
 10
66.47242836879856
 20
-136.0816161769171
 30
0.0
 10
66.17408309977593
 20
-135.6964545016662
 30
0.0
 10
65.97530109027701
 20
-135.4404839071121
 30
0.0
 10
65.90760496399186
 20
-135.3750270928924
 30
0.0
 10
65.77014565413039
 20
-135.3750270928924
 30
0.0
 10
65.65163436943779
 20
-135.3750270928924
 30
0.0
 10
65.52054848622403
 20
-135.4466850789856
 30
0.0
 10
65.52054848622403
 20
-135.6437445407418
 30
0.0
 10
65.52054848622403
 20
-135.9038492498782
 30
0.0
 10
65.75102537418725
 20
-135.9124619885913
 30
0.0
 10
65.8674696015887
 20
-135.9165961031736
 30
0.0
 10
65.8674696015887
 20
-135.9165961031736
 30
0.0
 10
65.8674696015887
 20
-136.1405273097149
 30
0.0
 10
65.8674696015887
 20
-136.1405273097149
 30
0.0
 10
65.74051783295724
 20
-136.1322590805503
 30
0.0
 10
65.62837997491235
 20
-136.1219237940945
 30
0.0
 10
65.50986869021976
 20
-136.0413085597397
 30
0.0
 10
65.34915498583285
 20
-135.9314100137602
 30
0.0
 10
65.31522079530315
 20
-135.7450303480082
 30
0.0
 10
65.31522079530315
 20
-135.6285861206067
 30
0.0
 10
65.31522079530315
 20
-135.3516004435927
 30
0.0
 10
65.49936114898975
 20
-135.1442056953806
 30
0.0
 10
65.77221271142153
 20
-135.1442056953806
 30
0.0
 10
66.0006225420936
 20
-135.1442056953806
 30
0.0
 10
66.10018580161731
 20
-135.2606499227821
 30
0.0
 10
66.32652857499824
 20
-135.5693304782604
 30
0.0
  0
HATCH
  5
76
330
71
100
AcDbEntity
  8
_U+30EC_U+30A4_U+30E4_U+30FC 1
 62
   179
420
  2234388
100
AcDbHatch
 10
0.0
 20
0.0
 30
0.0
210
0.0
220
0.0
230
1.0
  2
SOLID
 70
     1
 71
     0
 91
        1
 92
        1
 93
        1
 72
     4
 94
        3
 73
     0
 74
     1
 95
       44
 96
       40
 40
0.0
 40
0.0
 40
0.0
 40
0.0
 40
1.0
 40
1.0
 40
1.0
 40
2.0
 40
2.0
 40
2.0
 40
3.0
 40
3.0
 40
3.0
 40
4.0
 40
4.0
 40
4.0
 40
5.0
 40
5.0
 40
5.0
 40
6.0
 40
6.0
 40
6.0
 40
7.0
 40
7.0
 40
7.0
 40
8.0
 40
8.0
 40
8.0
 40
9.0
 40
9.0
 40
9.0
 40
10.0
 40
10.0
 40
10.0
 40
11.0
 40
11.0
 40
11.0
 40
12.0
 40
12.0
 40
12.0
 40
13.0
 40
13.0
 40
13.0
 40
13.0
 10
66.32652857499824
 20
-135.5693304782604
 10
66.48517522209399
 20
-135.7874050224768
 10
66.55924477502685
 20
-135.880767110127
 10
66.70307751153604
 20
-135.9289984469205
 10
66.70307751153604
 20
-135.9289984469205
 10
66.70307751153604
 20
-135.1507513768026
 10
66.70307751153604
 20
-135.1507513768026
 10
66.70307751153604
 20
-135.1507513768026
 10
66.90823294768266
 20
-135.1507513768026
 10
66.90823294768266
 20
-135.1507513768026
 10
66.90823294768266
 20
-135.1507513768026
 10
66.90823294768266
 20
-136.1787678696012
 10
66.90823294768266
 20
-136.1787678696012
 10
66.55063203631373
 20
-136.1470729911368
 10
66.47242836879856
 20
-136.0816161769171
 10
66.17408309977593
 20
-135.6964545016662
 10
65.97530109027701
 20
-135.4404839071121
 10
65.90760496399186
 20
-135.3750270928924
 10
65.77014565413039
 20
-135.3750270928924
 10
65.65163436943779
 20
-135.3750270928924
 10
65.52054848622403
 20
-135.4466850789856
 10
65.52054848622403
 20
-135.6437445407418
 10
65.52054848622403
 20
-135.9038492498782
 10
65.75102537418725
 20
-135.9124619885913
 10
65.8674696015887
 20
-135.9165961031736
 10
65.8674696015887
 20
-135.9165961031736
 10
65.8674696015887
 20
-136.1405273097149
 10
65.8674696015887
 20
-136.1405273097149
 10
65.74051783295724
 20
-136.1322590805503
 10
65.62837997491235
 20
-136.1219237940945
 10
65.50986869021976
 20
-136.0413085597397
 10
65.34915498583285
 20
-135.9314100137602
 10
65.31522079530315
 20
-135.7450303480082
 10
65.31522079530315
 20
-135.6285861206067
 10
65.31522079530315
 20
-135.3516004435927
 10
65.49936114898975
 20
-135.1442056953806
 10
65.77221271142153
 20
-135.1442056953806
 10
66.0006225420936
 20
-135.1442056953806
 10
66.10018580161731
 20
-135.2606499227821
 10
66.32652857499824
 20
-135.5693304782604
 97
        0
 97
        0
 75
     2
 76
     1
 98
        0
  0
SPLINE
  5
77
330
71
100
AcDbEntity
  8
_U+30EC_U+30A4_U+30E4_U+30FC 1
370
     0
100
AcDbSpline
210
0.0
220
0.0
230
1.0
 70
    11
 71
     3
 72
    29
 73
    25
 74
     0
 42
0.0000000001
 43
0.0000000001
 12
1.0
 22
0.0
 32
0.0
 13
1.0
 23
0.0
 33
0.0
 40
0.0
 40
0.0
 40
0.0
 40
0.0
 40
1.0
 40
1.0
 40
1.0
 40
2.0
 40
2.0
 40
2.0
 40
3.0
 40
3.0
 40
3.0
 40
4.0
 40
4.0
 40
4.0
 40
5.0
 40
5.0
 40
5.0
 40
6.0
 40
6.0
 40
6.0
 40
7.0
 40
7.0
 40
7.0
 40
8.0
 40
8.0
 40
8.0
 40
8.0
 10
66.73046602064377
 20
-134.087939419603
 30
0.0
 10
66.93992782614697
 20
-134.1961154178399
 30
0.0
 10
66.95904810609011
 20
-134.3694037207479
 30
0.0
 10
66.95904810609011
 20
-134.4858479481494
 30
0.0
 10
66.95904810609011
 20
-134.6467339073105
 30
0.0
 10
66.91253931703923
 20
-134.7883273317543
 30
0.0
 10
66.73046602064377
 20
-134.8837564766957
 30
0.0
 10
66.53581812572716
 20
-134.9871093412532
 30
0.0
 10
66.29896781111623
 20
-135.0064018759706
 30
0.0
 10
66.13601479466392
 20
-135.0064018759706
 30
0.0
 10
65.99218205815474
 20
-135.0064018759706
 30
0.0
 10
65.74051783295724
 20
-134.9891763985444
 30
0.0
 10
65.54156356868405
 20
-134.8837564766957
 30
0.0
 10
65.33847518982859
 20
-134.7755804784589
 30
0.0
 10
65.31522079530315
 20
-134.6150390288462
 30
0.0
 10
65.31522079530315
 20
-134.4858479481494
 30
0.0
 10
65.31522079530315
 20
-134.3270290462794
 30
0.0
 10
65.35966252706287
 20
-134.1833685645445
 30
0.0
 10
65.54156356868405
 20
-134.087939419603
 30
0.0
 10
65.73414440630953
 20
-133.9887206696278
 30
0.0
 10
65.96255423698159
 20
-133.9652940203281
 30
0.0
 10
66.13601479466392
 20
-133.9652940203281
 30
0.0
 10
66.3074082950551
 20
-133.9652940203281
 30
0.0
 10
66.53805743779257
 20
-133.9866536123367
 30
0.0
 10
66.73046602064377
 20
-134.087939419603
 30
0.0
  0
SPLINE
  5
78
330
71
100
AcDbEntity
  8
_U+30EC_U+30A4_U+30E4_U+30FC 1
370
     0
100
AcDbSpline
210
0.0
220
0.0
230
1.0
 70
    11
 71
     3
 72
    17
 73
    13
 74
     0
 42
0.0000000001
 43
0.0000000001
 12
1.0
 22
0.0
 32
0.0
 13
1.0
 23
0.0
 33
0.0
 40
0.0
 40
0.0
 40
0.0
 40
0.0
 40
1.0
 40
1.0
 40
1.0
 40
2.0
 40
2.0
 40
2.0
 40
3.0
 40
3.0
 40
3.0
 40
4.0
 40
4.0
 40
4.0
 40
4.0
 10
65.5078016329286
 20
-134.4858479481494
 30
0.0
 10
65.5078016329286
 20
-134.73561737083
 30
0.0
 10
65.79133299136467
 20
-134.7817816503323
 30
0.0
 10
66.13601479466392
 20
-134.7817816503323
 30
0.0
 10
66.45554740092084
 20
-134.7817816503323
 30
0.0
 10
66.76440021117348
 20
-134.7459526572857
 30
0.0
 10
66.76440021117348
 20
-134.4858479481494
 30
0.0
 10
66.76440021117348
 20
-134.2381455827599
 30
0.0
 10
66.48293591002857
 20
-134.1895697364179
 30
0.0
 10
66.13601479466392
 20
-134.1895697364179
 30
0.0
 10
65.81665444318125
 20
-134.1895697364179
 30
0.0
 10
65.5078016329286
 20
-134.2278102963042
 30
0.0
 10
65.5078016329286
 20
-134.4858479481494
 30
0.0
  0
HATCH
  5
79
330
71
100
AcDbEntity
  8
_U+30EC_U+30A4_U+30E4_U+30FC 1
 62
   179
420
  2234388
100
AcDbHatch
 10
0.0
 20
0.0
 30
0.0
210
0.0
220
0.0
230
1.0
  2
SOLID
 70
     1
 71
     0
 91
        2
 92
        1
 93
        1
 72
     4
 94
        3
 73
     0
 74
     1
 95
       29
 96
       25
 40
0.0
 40
0.0
 40
0.0
 40
0.0
 40
1.0
 40
1.0
 40
1.0
 40
2.0
 40
2.0
 40
2.0
 40
3.0
 40
3.0
 40
3.0
 40
4.0
 40
4.0
 40
4.0
 40
5.0
 40
5.0
 40
5.0
 40
6.0
 40
6.0
 40
6.0
 40
7.0
 40
7.0
 40
7.0
 40
8.0
 40
8.0
 40
8.0
 40
8.0
 10
66.73046602064377
 20
-134.087939419603
 10
66.93992782614697
 20
-134.1961154178399
 10
66.95904810609011
 20
-134.3694037207479
 10
66.95904810609011
 20
-134.4858479481494
 10
66.95904810609011
 20
-134.6467339073105
 10
66.91253931703923
 20
-134.7883273317543
 10
66.73046602064377
 20
-134.8837564766957
 10
66.53581812572716
 20
-134.9871093412532
 10
66.29896781111623
 20
-135.0064018759706
 10
66.13601479466392
 20
-135.0064018759706
 10
65.99218205815474
 20
-135.0064018759706
 10
65.74051783295724
 20
-134.9891763985444
 10
65.54156356868405
 20
-134.8837564766957
 10
65.33847518982859
 20
-134.7755804784589
 10
65.31522079530315
 20
-134.6150390288462
 10
65.31522079530315
 20
-134.4858479481494
 10
65.31522079530315
 20
-134.3270290462794
 10
65.35966252706287
 20
-134.1833685645445
 10
65.54156356868405
 20
-134.087939419603
 10
65.73414440630953
 20
-133.9887206696278
 10
65.96255423698159
 20
-133.9652940203281
 10
66.13601479466392
 20
-133.9652940203281
 10
66.3074082950551
 20
-133.9652940203281
 10
66.53805743779257
 20
-133.9866536123367
 10
66.73046602064377
 20
-134.087939419603
 97
        0
 97
        0
 92
        1
 93
        1
 72
     4
 94
        3
 73
     0
 74
     1
 95
       17
 96
       13
 40
0.0
 40
0.0
 40
0.0
 40
0.0
 40
1.0
 40
1.0
 40
1.0
 40
2.0
 40
2.0
 40
2.0
 40
3.0
 40
3.0
 40
3.0
 40
4.0
 40
4.0
 40
4.0
 40
4.0
 10
65.5078016329286
 20
-134.4858479481494
 10
65.5078016329286
 20
-134.73561737083
 10
65.79133299136467
 20
-134.7817816503323
 10
66.13601479466392
 20
-134.7817816503323
 10
66.45554740092084
 20
-134.7817816503323
 10
66.76440021117348
 20
-134.7459526572857
 10
66.76440021117348
 20
-134.4858479481494
 10
66.76440021117348
 20
-134.2381455827599
 10
66.48293591002857
 20
-134.1895697364179
 10
66.13601479466392
 20
-134.1895697364179
 10
65.81665444318125
 20
-134.1895697364179
 10
65.5078016329286
 20
-134.2278102963042
 10
65.5078016329286
 20
-134.4858479481494
 97
        0
 97
        0
 75
     2
 76
     1
 98
        0
  0
ENDBLK
  5
74
330
71
100
AcDbEntity
  8
0
100
AcDbBlockEnd
  0
BLOCK
  5
7C
330
7A
100
AcDbEntity
  8
0
100
AcDbBlockBegin
  2
block 5
 70
     0
 10
0.0
 20
0.0
 30
0.0
  3
block 5
  1

  0
SPLINE
  5
7E
330
7A
100
AcDbEntity
  8
_U+30EC_U+30A4_U+30E4_U+30FC 1
370
     0
100
AcDbSpline
210
0.0
220
0.0
230
1.0
 70
    11
 71
     3
 72
    44
 73
    40
 74
     0
 42
0.0000000001
 43
0.0000000001
 12
1.0
 22
0.0
 32
0.0
 13
1.0
 23
0.0
 33
0.0
 40
0.0
 40
0.0
 40
0.0
 40
0.0
 40
1.0
 40
1.0
 40
1.0
 40
2.0
 40
2.0
 40
2.0
 40
3.0
 40
3.0
 40
3.0
 40
4.0
 40
4.0
 40
4.0
 40
5.0
 40
5.0
 40
5.0
 40
6.0
 40
6.0
 40
6.0
 40
7.0
 40
7.0
 40
7.0
 40
8.0
 40
8.0
 40
8.0
 40
9.0
 40
9.0
 40
9.0
 40
10.0
 40
10.0
 40
10.0
 40
11.0
 40
11.0
 40
11.0
 40
12.0
 40
12.0
 40
12.0
 40
13.0
 40
13.0
 40
13.0
 40
13.0
 10
66.32652857499824
 20
-115.8752698820555
 30
0.0
 10
66.48517522209399
 20
-116.0931721714975
 30
0.0
 10
66.55924477502685
 20
-116.1863620043735
 30
0.0
 10
66.70307751153604
 20
-116.2349378507156
 30
0.0
 10
66.70307751153604
 20
-116.2349378507156
 30
0.0
 10
66.70307751153604
 20
-115.4565185258234
 30
0.0
 10
66.70307751153604
 20
-115.4565185258234
 30
0.0
 10
66.70307751153604
 20
-115.4565185258234
 30
0.0
 10
66.90823294768266
 20
-115.4565185258234
 30
0.0
 10
66.90823294768266
 20
-115.4565185258234
 30
0.0
 10
66.90823294768266
 20
-115.4565185258234
 30
0.0
 10
66.90823294768266
 20
-116.4845350186219
 30
0.0
 10
66.90823294768266
 20
-116.4845350186219
 30
0.0
 10
66.55063203631373
 20
-116.4528401401576
 30
0.0
 10
66.47242836879856
 20
-116.3873833259379
 30
0.0
 10
66.17408309977593
 20
-116.0022216506869
 30
0.0
 10
65.97530109027701
 20
-115.7462510561329
 30
0.0
 10
65.90760496399186
 20
-115.6807942419131
 30
0.0
 10
65.77014565413039
 20
-115.6807942419131
 30
0.0
 10
65.65163436943779
 20
-115.6807942419131
 30
0.0
 10
65.52037623144977
 20
-115.7526244827806
 30
0.0
 10
65.52037623144977
 20
-115.9493394349884
 30
0.0
 10
65.52037623144977
 20
-116.209616398899
 30
0.0
 10
65.75102537418725
 20
-116.2180568828379
 30
0.0
 10
65.8674696015887
 20
-116.2223632521944
 30
0.0
 10
65.8674696015887
 20
-116.2223632521944
 30
0.0
 10
65.8674696015887
 20
-116.4464667135099
 30
0.0
 10
65.8674696015887
 20
-116.4464667135099
 30
0.0
 10
65.74051783295724
 20
-116.4380262295711
 30
0.0
 10
65.62837997491235
 20
-116.427518688341
 30
0.0
 10
65.50986869021976
 20
-116.3470757087605
 30
0.0
 10
65.34915498583285
 20
-116.237177162781
 30
0.0
 10
65.31522079530315
 20
-116.0509697518032
 30
0.0
 10
65.31522079530315
 20
-115.9345255244018
 30
0.0
 10
65.31522079530315
 20
-115.6573675926134
 30
0.0
 10
65.49936114898975
 20
-115.4501450991757
 30
0.0
 10
65.77221271142153
 20
-115.4501450991757
 30
0.0
 10
66.0006225420936
 20
-115.4501450991757
 30
0.0
 10
66.10018580161731
 20
-115.5664170718028
 30
0.0
 10
66.32652857499824
 20
-115.8752698820555
 30
0.0
  0
HATCH
  5
7F
330
7A
100
AcDbEntity
  8
_U+30EC_U+30A4_U+30E4_U+30FC 1
 62
   179
420
  2234388
100
AcDbHatch
 10
0.0
 20
0.0
 30
0.0
210
0.0
220
0.0
230
1.0
  2
SOLID
 70
     1
 71
     0
 91
        1
 92
        1
 93
        1
 72
     4
 94
        3
 73
     0
 74
     1
 95
       44
 96
       40
 40
0.0
 40
0.0
 40
0.0
 40
0.0
 40
1.0
 40
1.0
 40
1.0
 40
2.0
 40
2.0
 40
2.0
 40
3.0
 40
3.0
 40
3.0
 40
4.0
 40
4.0
 40
4.0
 40
5.0
 40
5.0
 40
5.0
 40
6.0
 40
6.0
 40
6.0
 40
7.0
 40
7.0
 40
7.0
 40
8.0
 40
8.0
 40
8.0
 40
9.0
 40
9.0
 40
9.0
 40
10.0
 40
10.0
 40
10.0
 40
11.0
 40
11.0
 40
11.0
 40
12.0
 40
12.0
 40
12.0
 40
13.0
 40
13.0
 40
13.0
 40
13.0
 10
66.32652857499824
 20
-115.8752698820555
 10
66.48517522209399
 20
-116.0931721714975
 10
66.55924477502685
 20
-116.1863620043735
 10
66.70307751153604
 20
-116.2349378507156
 10
66.70307751153604
 20
-116.2349378507156
 10
66.70307751153604
 20
-115.4565185258234
 10
66.70307751153604
 20
-115.4565185258234
 10
66.70307751153604
 20
-115.4565185258234
 10
66.90823294768266
 20
-115.4565185258234
 10
66.90823294768266
 20
-115.4565185258234
 10
66.90823294768266
 20
-115.4565185258234
 10
66.90823294768266
 20
-116.4845350186219
 10
66.90823294768266
 20
-116.4845350186219
 10
66.55063203631373
 20
-116.4528401401576
 10
66.47242836879856
 20
-116.3873833259379
 10
66.17408309977593
 20
-116.0022216506869
 10
65.97530109027701
 20
-115.7462510561329
 10
65.90760496399186
 20
-115.6807942419131
 10
65.77014565413039
 20
-115.6807942419131
 10
65.65163436943779
 20
-115.6807942419131
 10
65.52037623144977
 20
-115.7526244827806
 10
65.52037623144977
 20
-115.9493394349884
 10
65.52037623144977
 20
-116.209616398899
 10
65.75102537418725
 20
-116.2180568828379
 10
65.8674696015887
 20
-116.2223632521944
 10
65.8674696015887
 20
-116.2223632521944
 10
65.8674696015887
 20
-116.4464667135099
 10
65.8674696015887
 20
-116.4464667135099
 10
65.74051783295724
 20
-116.4380262295711
 10
65.62837997491235
 20
-116.427518688341
 10
65.50986869021976
 20
-116.3470757087605
 10
65.34915498583285
 20
-116.237177162781
 10
65.31522079530315
 20
-116.0509697518032
 10
65.31522079530315
 20
-115.9345255244018
 10
65.31522079530315
 20
-115.6573675926134
 10
65.49936114898975
 20
-115.4501450991757
 10
65.77221271142153
 20
-115.4501450991757
 10
66.0006225420936
 20
-115.4501450991757
 10
66.10018580161731
 20
-115.5664170718028
 10
66.32652857499824
 20
-115.8752698820555
 97
        0
 97
        0
 75
     2
 76
     1
 98
        0
  0
SPLINE
  5
80
330
7A
100
AcDbEntity
  8
_U+30EC_U+30A4_U+30E4_U+30FC 1
370
     0
100
AcDbSpline
210
0.0
220
0.0
230
1.0
 70
    11
 71
     3
 72
    29
 73
    25
 74
     0
 42
0.0000000001
 43
0.0000000001
 12
1.0
 22
0.0
 32
0.0
 13
1.0
 23
0.0
 33
0.0
 40
0.0
 40
0.0
 40
0.0
 40
0.0
 40
1.0
 40
1.0
 40
1.0
 40
2.0
 40
2.0
 40
2.0
 40
3.0
 40
3.0
 40
3.0
 40
4.0
 40
4.0
 40
4.0
 40
5.0
 40
5.0
 40
5.0
 40
6.0
 40
6.0
 40
6.0
 40
7.0
 40
7.0
 40
7.0
 40
8.0
 40
8.0
 40
8.0
 40
8.0
 10
66.73046602064377
 20
-114.3938788233981
 30
0.0
 10
66.93992782614697
 20
-114.5017103120864
 30
0.0
 10
66.95904810609011
 20
-114.6751708697687
 30
0.0
 10
66.95904810609011
 20
-114.7916150971702
 30
0.0
 10
66.95904810609011
 20
-114.9523288015571
 30
0.0
 10
66.91253931703923
 20
-115.0940944807751
 30
0.0
 10
66.73046602064377
 20
-115.1893513709422
 30
0.0
 10
66.53599038050142
 20
-115.292876490274
 30
0.0
 10
66.29896781111623
 20
-115.3119967702171
 30
0.0
 10
66.13601479466392
 20
-115.3119967702171
 30
0.0
 10
65.99218205815474
 20
-115.3119967702171
 30
0.0
 10
65.74051783295724
 20
-115.2951158023394
 30
0.0
 10
65.54156356868405
 20
-115.1893513709422
 30
0.0
 10
65.33847518982859
 20
-115.0813476274797
 30
0.0
 10
65.31522079530315
 20
-114.9206339230928
 30
0.0
 10
65.31522079530315
 20
-114.7916150971702
 30
0.0
 10
65.31522079530315
 20
-114.6329684500744
 30
0.0
 10
65.35966252706287
 20
-114.4891357135652
 30
0.0
 10
65.54156356868405
 20
-114.3938788233981
 30
0.0
 10
65.73414440630953
 20
-114.2944878186486
 30
0.0
 10
65.96255423698159
 20
-114.2712334241232
 30
0.0
 10
66.13601479466392
 20
-114.2712334241232
 30
0.0
 10
66.3074082950551
 20
-114.2712334241232
 30
0.0
 10
66.53805743779257
 20
-114.2922485065832
 30
0.0
 10
66.73046602064377
 20
-114.3938788233981
 30
0.0
  0
SPLINE
  5
81
330
7A
100
AcDbEntity
  8
_U+30EC_U+30A4_U+30E4_U+30FC 1
370
     0
100
AcDbSpline
210
0.0
220
0.0
230
1.0
 70
    11
 71
     3
 72
    17
 73
    13
 74
     0
 42
0.0000000001
 43
0.0000000001
 12
1.0
 22
0.0
 32
0.0
 13
1.0
 23
0.0
 33
0.0
 40
0.0
 40
0.0
 40
0.0
 40
0.0
 40
1.0
 40
1.0
 40
1.0
 40
2.0
 40
2.0
 40
2.0
 40
3.0
 40
3.0
 40
3.0
 40
4.0
 40
4.0
 40
4.0
 40
4.0
 10
65.5078016329286
 20
-114.7916150971702
 30
0.0
 10
65.5078016329286
 20
-115.0412122650765
 30
0.0
 10
65.79116073659041
 20
-115.0877210541274
 30
0.0
 10
66.13601479466392
 20
-115.0877210541274
 30
0.0
 10
66.45554740092084
 20
-115.0877210541274
 30
0.0
 10
66.76440021117348
 20
-115.0517198063065
 30
0.0
 10
66.76440021117348
 20
-114.7916150971702
 30
0.0
 10
66.76440021117348
 20
-114.5440849865549
 30
0.0
 10
66.48293591002857
 20
-114.4953368854387
 30
0.0
 10
66.13601479466392
 20
-114.4953368854387
 30
0.0
 10
65.81665444318125
 20
-114.4953368854387
 30
0.0
 10
65.5078016329286
 20
-114.5335774453249
 30
0.0
 10
65.5078016329286
 20
-114.7916150971702
 30
0.0
  0
HATCH
  5
82
330
7A
100
AcDbEntity
  8
_U+30EC_U+30A4_U+30E4_U+30FC 1
 62
   179
420
  2234388
100
AcDbHatch
 10
0.0
 20
0.0
 30
0.0
210
0.0
220
0.0
230
1.0
  2
SOLID
 70
     1
 71
     0
 91
        2
 92
        1
 93
        1
 72
     4
 94
        3
 73
     0
 74
     1
 95
       29
 96
       25
 40
0.0
 40
0.0
 40
0.0
 40
0.0
 40
1.0
 40
1.0
 40
1.0
 40
2.0
 40
2.0
 40
2.0
 40
3.0
 40
3.0
 40
3.0
 40
4.0
 40
4.0
 40
4.0
 40
5.0
 40
5.0
 40
5.0
 40
6.0
 40
6.0
 40
6.0
 40
7.0
 40
7.0
 40
7.0
 40
8.0
 40
8.0
 40
8.0
 40
8.0
 10
66.73046602064377
 20
-114.3938788233981
 10
66.93992782614697
 20
-114.5017103120864
 10
66.95904810609011
 20
-114.6751708697687
 10
66.95904810609011
 20
-114.7916150971702
 10
66.95904810609011
 20
-114.9523288015571
 10
66.91253931703923
 20
-115.0940944807751
 10
66.73046602064377
 20
-115.1893513709422
 10
66.53599038050142
 20
-115.292876490274
 10
66.29896781111623
 20
-115.3119967702171
 10
66.13601479466392
 20
-115.3119967702171
 10
65.99218205815474
 20
-115.3119967702171
 10
65.74051783295724
 20
-115.2951158023394
 10
65.54156356868405
 20
-115.1893513709422
 10
65.33847518982859
 20
-115.0813476274797
 10
65.31522079530315
 20
-114.9206339230928
 10
65.31522079530315
 20
-114.7916150971702
 10
65.31522079530315
 20
-114.6329684500744
 10
65.35966252706287
 20
-114.4891357135652
 10
65.54156356868405
 20
-114.3938788233981
 10
65.73414440630953
 20
-114.2944878186486
 10
65.96255423698159
 20
-114.2712334241232
 10
66.13601479466392
 20
-114.2712334241232
 10
66.3074082950551
 20
-114.2712334241232
 10
66.53805743779257
 20
-114.2922485065832
 10
66.73046602064377
 20
-114.3938788233981
 97
        0
 97
        0
 92
        1
 93
        1
 72
     4
 94
        3
 73
     0
 74
     1
 95
       17
 96
       13
 40
0.0
 40
0.0
 40
0.0
 40
0.0
 40
1.0
 40
1.0
 40
1.0
 40
2.0
 40
2.0
 40
2.0
 40
3.0
 40
3.0
 40
3.0
 40
4.0
 40
4.0
 40
4.0
 40
4.0
 10
65.5078016329286
 20
-114.7916150971702
 10
65.5078016329286
 20
-115.0412122650765
 10
65.79116073659041
 20
-115.0877210541274
 10
66.13601479466392
 20
-115.0877210541274
 10
66.45554740092084
 20
-115.0877210541274
 10
66.76440021117348
 20
-115.0517198063065
 10
66.76440021117348
 20
-114.7916150971702
 10
66.76440021117348
 20
-114.5440849865549
 10
66.48293591002857
 20
-114.4953368854387
 10
66.13601479466392
 20
-114.4953368854387
 10
65.81665444318125
 20
-114.4953368854387
 10
65.5078016329286
 20
-114.5335774453249
 10
65.5078016329286
 20
-114.7916150971702
 97
        0
 97
        0
 75
     2
 76
     1
 98
        0
  0
ENDBLK
  5
7D
330
7A
100
AcDbEntity
  8
0
100
AcDbBlockEnd
  0
BLOCK
  5
91
330
8F
100
AcDbEntity
  8
0
100
AcDbBlockBegin
  2
block 6
 70
     0
 10
0.0
 20
0.0
 30
0.0
  3
block 6
  1

  0
SPLINE
  5
93
330
8F
100
AcDbEntity
  8
_U+30EC_U+30A4_U+30E4_U+30FC 1
370
     0
100
AcDbSpline
210
0.0
220
0.0
230
1.0
 70
    11
 71
     3
 72
    44
 73
    40
 74
     0
 42
0.0000000001
 43
0.0000000001
 12
1.0
 22
0.0
 32
0.0
 13
1.0
 23
0.0
 33
0.0
 40
0.0
 40
0.0
 40
0.0
 40
0.0
 40
1.0
 40
1.0
 40
1.0
 40
2.0
 40
2.0
 40
2.0
 40
3.0
 40
3.0
 40
3.0
 40
4.0
 40
4.0
 40
4.0
 40
5.0
 40
5.0
 40
5.0
 40
6.0
 40
6.0
 40
6.0
 40
7.0
 40
7.0
 40
7.0
 40
8.0
 40
8.0
 40
8.0
 40
9.0
 40
9.0
 40
9.0
 40
10.0
 40
10.0
 40
10.0
 40
11.0
 40
11.0
 40
11.0
 40
12.0
 40
12.0
 40
12.0
 40
13.0
 40
13.0
 40
13.0
 40
13.0
 10
81.77003036150194
 20
-131.4893038950791
 30
0.0
 10
81.74660371220224
 20
-131.4448621633194
 30
0.0
 10
81.72558862974222
 20
-131.3918076928465
 30
0.0
 10
81.7233493176768
 20
-131.1613308048833
 30
0.0
 10
81.7192152030945
 20
-130.9181070636246
 30
0.0
 10
81.6599595607482
 20
-130.8481716252741
 30
0.0
 10
81.48219263370932
 20
-130.8481716252741
 30
0.0
 10
81.48219263370932
 20
-130.8481716252741
 30
0.0
 10
81.07394881870721
 20
-130.8481716252741
 30
0.0
 10
81.07394881870721
 20
-130.8481716252741
 30
0.0
 10
81.07394881870721
 20
-130.8481716252741
 30
0.0
 10
81.07394881870721
 20
-131.4893038950791
 30
0.0
 10
81.07394881870721
 20
-131.4893038950791
 30
0.0
 10
81.07394881870721
 20
-131.4893038950791
 30
0.0
 10
80.83916556138743
 20
-131.4893038950791
 30
0.0
 10
80.83916556138743
 20
-131.4893038950791
 30
0.0
 10
80.83916556138743
 20
-131.4893038950791
 30
0.0
 10
80.83916556138743
 20
-129.9448675890416
 30
0.0
 10
80.83916556138743
 20
-129.9448675890416
 30
0.0
 10
80.83916556138743
 20
-129.9448675890416
 30
0.0
 10
81.51405976694788
 20
-129.9448675890416
 30
0.0
 10
81.51405976694788
 20
-129.9448675890416
 30
0.0
 10
81.82067326513511
 20
-129.9448675890416
 30
0.0
 10
81.98776039616973
 20
-130.116433344207
 30
0.0
 10
81.98776039616973
 20
-130.3724039387611
 30
0.0
 10
81.98776039616973
 20
-130.4230468423943
 30
0.0
 10
81.97931991223086
 20
-130.5057291340403
 30
0.0
 10
81.93487818047115
 20
-130.5859998588465
 30
0.0
 10
81.87579479289911
 20
-130.6896972329526
 30
0.0
 10
81.8101657239051
 20
-130.7086452581215
 30
0.0
 10
81.74884302426766
 20
-130.7255262259992
 30
0.0
 10
81.88630233412913
 20
-130.7679009004678
 30
0.0
 10
81.95399846041428
 20
-130.8164767468098
 30
0.0
 10
81.95830482977084
 20
-131.1317029837101
 30
0.0
 10
81.96243894435314
 20
-131.4024874888508
 30
0.0
 10
81.998440192174
 20
-131.4345268768636
 30
0.0
 10
82.06613631845916
 20
-131.4893038950791
 30
0.0
 10
82.06613631845916
 20
-131.4893038950791
 30
0.0
 10
81.77003036150194
 20
-131.4893038950791
 30
0.0
 10
81.77003036150194
 20
-131.4893038950791
 30
0.0
  0
SPLINE
  5
94
330
8F
100
AcDbEntity
  8
_U+30EC_U+30A4_U+30E4_U+30FC 1
370
     0
100
AcDbSpline
210
0.0
220
0.0
230
1.0
 70
    11
 71
     3
 72
    20
 73
    16
 74
     0
 42
0.0000000001
 43
0.0000000001
 12
1.0
 22
0.0
 32
0.0
 13
1.0
 23
0.0
 33
0.0
 40
0.0
 40
0.0
 40
0.0
 40
0.0
 40
1.0
 40
1.0
 40
1.0
 40
2.0
 40
2.0
 40
2.0
 40
3.0
 40
3.0
 40
3.0
 40
4.0
 40
4.0
 40
4.0
 40
5.0
 40
5.0
 40
5.0
 40
5.0
 10
81.51819388153018
 20
-130.1563964518359
 30
0.0
 10
81.51819388153018
 20
-130.1563964518359
 30
0.0
 10
81.07394881870721
 20
-130.1563964518359
 30
0.0
 10
81.07394881870721
 20
-130.1563964518359
 30
0.0
 10
81.07394881870721
 20
-130.1563964518359
 30
0.0
 10
81.07394881870721
 20
-130.6366427624797
 30
0.0
 10
81.07394881870721
 20
-130.6366427624797
 30
0.0
 10
81.07394881870721
 20
-130.6366427624797
 30
0.0
 10
81.51612682423902
 20
-130.6366427624797
 30
0.0
 10
81.51612682423902
 20
-130.6366427624797
 30
0.0
 10
81.61551782898849
 20
-130.6366427624797
 30
0.0
 10
81.7509100815588
 20
-130.5608506618042
 30
0.0
 10
81.7509100815588
 20
-130.3892849066388
 30
0.0
 10
81.7509100815588
 20
-130.3107367295751
 30
0.0
 10
81.7169758910291
 20
-130.1563964518359
 30
0.0
 10
81.51819388153018
 20
-130.1563964518359
 30
0.0
  0
HATCH
  5
95
330
8F
100
AcDbEntity
  8
_U+30EC_U+30A4_U+30E4_U+30FC 1
 62
   179
420
  2234388
100
AcDbHatch
 10
0.0
 20
0.0
 30
0.0
210
0.0
220
0.0
230
1.0
  2
SOLID
 70
     1
 71
     0
 91
        2
 92
        1
 93
        1
 72
     4
 94
        3
 73
     0
 74
     1
 95
       44
 96
       40
 40
0.0
 40
0.0
 40
0.0
 40
0.0
 40
1.0
 40
1.0
 40
1.0
 40
2.0
 40
2.0
 40
2.0
 40
3.0
 40
3.0
 40
3.0
 40
4.0
 40
4.0
 40
4.0
 40
5.0
 40
5.0
 40
5.0
 40
6.0
 40
6.0
 40
6.0
 40
7.0
 40
7.0
 40
7.0
 40
8.0
 40
8.0
 40
8.0
 40
9.0
 40
9.0
 40
9.0
 40
10.0
 40
10.0
 40
10.0
 40
11.0
 40
11.0
 40
11.0
 40
12.0
 40
12.0
 40
12.0
 40
13.0
 40
13.0
 40
13.0
 40
13.0
 10
81.77003036150194
 20
-131.4893038950791
 10
81.74660371220224
 20
-131.4448621633194
 10
81.72558862974222
 20
-131.3918076928465
 10
81.7233493176768
 20
-131.1613308048833
 10
81.7192152030945
 20
-130.9181070636246
 10
81.6599595607482
 20
-130.8481716252741
 10
81.48219263370932
 20
-130.8481716252741
 10
81.48219263370932
 20
-130.8481716252741
 10
81.07394881870721
 20
-130.8481716252741
 10
81.07394881870721
 20
-130.8481716252741
 10
81.07394881870721
 20
-130.8481716252741
 10
81.07394881870721
 20
-131.4893038950791
 10
81.07394881870721
 20
-131.4893038950791
 10
81.07394881870721
 20
-131.4893038950791
 10
80.83916556138743
 20
-131.4893038950791
 10
80.83916556138743
 20
-131.4893038950791
 10
80.83916556138743
 20
-131.4893038950791
 10
80.83916556138743
 20
-129.9448675890416
 10
80.83916556138743
 20
-129.9448675890416
 10
80.83916556138743
 20
-129.9448675890416
 10
81.51405976694788
 20
-129.9448675890416
 10
81.51405976694788
 20
-129.9448675890416
 10
81.82067326513511
 20
-129.9448675890416
 10
81.98776039616973
 20
-130.116433344207
 10
81.98776039616973
 20
-130.3724039387611
 10
81.98776039616973
 20
-130.4230468423943
 10
81.97931991223086
 20
-130.5057291340403
 10
81.93487818047115
 20
-130.5859998588465
 10
81.87579479289911
 20
-130.6896972329526
 10
81.8101657239051
 20
-130.7086452581215
 10
81.74884302426766
 20
-130.7255262259992
 10
81.88630233412913
 20
-130.7679009004678
 10
81.95399846041428
 20
-130.8164767468098
 10
81.95830482977084
 20
-131.1317029837101
 10
81.96243894435314
 20
-131.4024874888508
 10
81.998440192174
 20
-131.4345268768636
 10
82.06613631845916
 20
-131.4893038950791
 10
82.06613631845916
 20
-131.4893038950791
 10
81.77003036150194
 20
-131.4893038950791
 10
81.77003036150194
 20
-131.4893038950791
 97
        0
 97
        0
 92
        1
 93
        1
 72
     4
 94
        3
 73
     0
 74
     1
 95
       20
 96
       16
 40
0.0
 40
0.0
 40
0.0
 40
0.0
 40
1.0
 40
1.0
 40
1.0
 40
2.0
 40
2.0
 40
2.0
 40
3.0
 40
3.0
 40
3.0
 40
4.0
 40
4.0
 40
4.0
 40
5.0
 40
5.0
 40
5.0
 40
5.0
 10
81.51819388153018
 20
-130.1563964518359
 10
81.51819388153018
 20
-130.1563964518359
 10
81.07394881870721
 20
-130.1563964518359
 10
81.07394881870721
 20
-130.1563964518359
 10
81.07394881870721
 20
-130.1563964518359
 10
81.07394881870721
 20
-130.6366427624797
 10
81.07394881870721
 20
-130.6366427624797
 10
81.07394881870721
 20
-130.6366427624797
 10
81.51612682423902
 20
-130.6366427624797
 10
81.51612682423902
 20
-130.6366427624797
 10
81.61551782898849
 20
-130.6366427624797
 10
81.7509100815588
 20
-130.5608506618042
 10
81.7509100815588
 20
-130.3892849066388
 10
81.7509100815588
 20
-130.3107367295751
 10
81.7169758910291
 20
-130.1563964518359
 10
81.51819388153018
 20
-130.1563964518359
 97
        0
 97
        0
 75
     2
 76
     1
 98
        0
  0
SPLINE
  5
96
330
8F
100
AcDbEntity
  8
_U+30EC_U+30A4_U+30E4_U+30FC 1
370
     0
100
AcDbSpline
210
0.0
220
0.0
230
1.0
 70
    11
 71
     3
 72
    26
 73
    22
 74
     0
 42
0.0000000001
 43
0.0000000001
 12
1.0
 22
0.0
 32
0.0
 13
1.0
 23
0.0
 33
0.0
 40
0.0
 40
0.0
 40
0.0
 40
0.0
 40
1.0
 40
1.0
 40
1.0
 40
2.0
 40
2.0
 40
2.0
 40
3.0
 40
3.0
 40
3.0
 40
4.0
 40
4.0
 40
4.0
 40
5.0
 40
5.0
 40
5.0
 40
6.0
 40
6.0
 40
6.0
 40
7.0
 40
7.0
 40
7.0
 40
7.0
 10
82.65714244895378
 20
-131.4893038950791
 30
0.0
 10
82.65714244895378
 20
-131.4893038950791
 30
0.0
 10
82.65714244895378
 20
-130.3851507920565
 30
0.0
 10
82.65714244895378
 20
-130.3851507920565
 30
0.0
 10
82.65714244895378
 20
-130.3851507920565
 30
0.0
 10
82.32710230146684
 20
-130.3851507920565
 30
0.0
 10
82.32710230146684
 20
-130.3851507920565
 30
0.0
 10
82.32710230146684
 20
-130.3851507920565
 30
0.0
 10
82.32710230146684
 20
-130.2370116861908
 30
0.0
 10
82.32710230146684
 20
-130.2370116861908
 30
0.0
 10
82.65920950624492
 20
-130.2221977756042
 30
0.0
 10
82.7057182952958
 20
-130.0592447591519
 30
0.0
 10
82.73534611646895
 20
-129.9448675890416
 30
0.0
 10
82.73534611646895
 20
-129.9448675890416
 30
0.0
 10
82.88141816504354
 20
-129.9448675890416
 30
0.0
 10
82.88141816504354
 20
-129.9448675890416
 30
0.0
 10
82.88141816504354
 20
-129.9448675890416
 30
0.0
 10
82.88141816504354
 20
-131.4893038950791
 30
0.0
 10
82.88141816504354
 20
-131.4893038950791
 30
0.0
 10
82.88141816504354
 20
-131.4893038950791
 30
0.0
 10
82.65714244895378
 20
-131.4893038950791
 30
0.0
 10
82.65714244895378
 20
-131.4893038950791
 30
0.0
  0
HATCH
  5
97
330
8F
100
AcDbEntity
  8
_U+30EC_U+30A4_U+30E4_U+30FC 1
 62
   179
420
  2234388
100
AcDbHatch
 10
0.0
 20
0.0
 30
0.0
210
0.0
220
0.0
230
1.0
  2
SOLID
 70
     1
 71
     0
 91
        1
 92
        1
 93
        1
 72
     4
 94
        3
 73
     0
 74
     1
 95
       26
 96
       22
 40
0.0
 40
0.0
 40
0.0
 40
0.0
 40
1.0
 40
1.0
 40
1.0
 40
2.0
 40
2.0
 40
2.0
 40
3.0
 40
3.0
 40
3.0
 40
4.0
 40
4.0
 40
4.0
 40
5.0
 40
5.0
 40
5.0
 40
6.0
 40
6.0
 40
6.0
 40
7.0
 40
7.0
 40
7.0
 40
7.0
 10
82.65714244895378
 20
-131.4893038950791
 10
82.65714244895378
 20
-131.4893038950791
 10
82.65714244895378
 20
-130.3851507920565
 10
82.65714244895378
 20
-130.3851507920565
 10
82.65714244895378
 20
-130.3851507920565
 10
82.32710230146684
 20
-130.3851507920565
 10
82.32710230146684
 20
-130.3851507920565
 10
82.32710230146684
 20
-130.3851507920565
 10
82.32710230146684
 20
-130.2370116861908
 10
82.32710230146684
 20
-130.2370116861908
 10
82.65920950624492
 20
-130.2221977756042
 10
82.7057182952958
 20
-130.0592447591519
 10
82.73534611646895
 20
-129.9448675890416
 10
82.73534611646895
 20
-129.9448675890416
 10
82.88141816504354
 20
-129.9448675890416
 10
82.88141816504354
 20
-129.9448675890416
 10
82.88141816504354
 20
-129.9448675890416
 10
82.88141816504354
 20
-131.4893038950791
 10
82.88141816504354
 20
-131.4893038950791
 10
82.88141816504354
 20
-131.4893038950791
 10
82.65714244895378
 20
-131.4893038950791
 10
82.65714244895378
 20
-131.4893038950791
 97
        0
 97
        0
 75
     2
 76
     1
 98
        0
  0
SPLINE
  5
98
330
8F
100
AcDbEntity
  8
_U+30EC_U+30A4_U+30E4_U+30FC 1
370
     0
100
AcDbSpline
210
0.0
220
0.0
230
1.0
 70
    11
 71
     3
 72
    29
 73
    25
 74
     0
 42
0.0000000001
 43
0.0000000001
 12
1.0
 22
0.0
 32
0.0
 13
1.0
 23
0.0
 33
0.0
 40
0.0
 40
0.0
 40
0.0
 40
0.0
 40
1.0
 40
1.0
 40
1.0
 40
2.0
 40
2.0
 40
2.0
 40
3.0
 40
3.0
 40
3.0
 40
4.0
 40
4.0
 40
4.0
 40
5.0
 40
5.0
 40
5.0
 40
6.0
 40
6.0
 40
6.0
 40
7.0
 40
7.0
 40
7.0
 40
8.0
 40
8.0
 40
8.0
 40
8.0
 10
84.28029918682924
 20
-131.3115369680402
 30
0.0
 10
84.17246769814092
 20
-131.5209987735434
 30
0.0
 10
83.99900714045859
 20
-131.5399467987122
 30
0.0
 10
83.88256291305714
 20
-131.5399467987122
 30
0.0
 10
83.72184920867024
 20
-131.5399467987122
 30
0.0
 10
83.58008352945221
 20
-131.4937825192099
 30
0.0
 10
83.48482663928505
 20
-131.3115369680402
 30
0.0
 10
83.38130151995328
 20
-131.1168890731236
 30
0.0
 10
83.36218124001016
 20
-130.8798665037384
 30
0.0
 10
83.36218124001016
 20
-130.7172579968346
 30
0.0
 10
83.36218124001016
 20
-130.5732530055511
 30
0.0
 10
83.37906220788788
 20
-130.3217610351279
 30
0.0
 10
83.48482663928505
 20
-130.1226345160805
 30
0.0
 10
83.59283038274764
 20
-129.9193738824507
 30
0.0
 10
83.75354408713453
 20
-129.8962917426995
 30
0.0
 10
83.88256291305714
 20
-129.8962917426995
 30
0.0
 10
84.0412095601529
 20
-129.8962917426995
 30
0.0
 10
84.18504229666208
 20
-129.9407334744593
 30
0.0
 10
84.28029918682924
 20
-130.1226345160805
 30
0.0
 10
84.37969019157869
 20
-130.3152153537059
 30
0.0
 10
84.40294458610413
 20
-130.543625184378
 30
0.0
 10
84.40294458610413
 20
-130.7172579968346
 30
0.0
 10
84.40294458610413
 20
-130.8884792424515
 30
0.0
 10
84.3819295036441
 20
-131.1189561304147
 30
0.0
 10
84.28029918682924
 20
-131.3115369680402
 30
0.0
  0
SPLINE
  5
99
330
8F
100
AcDbEntity
  8
_U+30EC_U+30A4_U+30E4_U+30FC 1
370
     0
100
AcDbSpline
210
0.0
220
0.0
230
1.0
 70
    11
 71
     3
 72
    17
 73
    13
 74
     0
 42
0.0000000001
 43
0.0000000001
 12
1.0
 22
0.0
 32
0.0
 13
1.0
 23
0.0
 33
0.0
 40
0.0
 40
0.0
 40
0.0
 40
0.0
 40
1.0
 40
1.0
 40
1.0
 40
2.0
 40
2.0
 40
2.0
 40
3.0
 40
3.0
 40
3.0
 40
4.0
 40
4.0
 40
4.0
 40
4.0
 10
83.88256291305714
 20
-130.088872580325
 30
0.0
 10
83.63296574515078
 20
-130.088872580325
 30
0.0
 10
83.58645695609992
 20
-130.3724039387611
 30
0.0
 10
83.58645695609992
 20
-130.7172579968346
 30
0.0
 10
83.58645695609992
 20
-131.0366183483172
 30
0.0
 10
83.62245820392077
 20
-131.3456434133442
 30
0.0
 10
83.88256291305714
 20
-131.3456434133442
 30
0.0
 10
84.13009302367234
 20
-131.3456434133442
 30
0.0
 10
84.17884112478863
 20
-131.0638346026507
 30
0.0
 10
84.17884112478863
 20
-130.7172579968346
 30
0.0
 10
84.17884112478863
 20
-130.3975531358034
 30
0.0
 10
84.14060056490236
 20
-130.088872580325
 30
0.0
 10
83.88256291305714
 20
-130.088872580325
 30
0.0
  0
HATCH
  5
9A
330
8F
100
AcDbEntity
  8
_U+30EC_U+30A4_U+30E4_U+30FC 1
 62
   179
420
  2234388
100
AcDbHatch
 10
0.0
 20
0.0
 30
0.0
210
0.0
220
0.0
230
1.0
  2
SOLID
 70
     1
 71
     0
 91
        2
 92
        1
 93
        1
 72
     4
 94
        3
 73
     0
 74
     1
 95
       29
 96
       25
 40
0.0
 40
0.0
 40
0.0
 40
0.0
 40
1.0
 40
1.0
 40
1.0
 40
2.0
 40
2.0
 40
2.0
 40
3.0
 40
3.0
 40
3.0
 40
4.0
 40
4.0
 40
4.0
 40
5.0
 40
5.0
 40
5.0
 40
6.0
 40
6.0
 40
6.0
 40
7.0
 40
7.0
 40
7.0
 40
8.0
 40
8.0
 40
8.0
 40
8.0
 10
84.28029918682924
 20
-131.3115369680402
 10
84.17246769814092
 20
-131.5209987735434
 10
83.99900714045859
 20
-131.5399467987122
 10
83.88256291305714
 20
-131.5399467987122
 10
83.72184920867024
 20
-131.5399467987122
 10
83.58008352945221
 20
-131.4937825192099
 10
83.48482663928505
 20
-131.3115369680402
 10
83.38130151995328
 20
-131.1168890731236
 10
83.36218124001016
 20
-130.8798665037384
 10
83.36218124001016
 20
-130.7172579968346
 10
83.36218124001016
 20
-130.5732530055511
 10
83.37906220788788
 20
-130.3217610351279
 10
83.48482663928505
 20
-130.1226345160805
 10
83.59283038274764
 20
-129.9193738824507
 10
83.75354408713453
 20
-129.8962917426995
 10
83.88256291305714
 20
-129.8962917426995
 10
84.0412095601529
 20
-129.8962917426995
 10
84.18504229666208
 20
-129.9407334744593
 10
84.28029918682924
 20
-130.1226345160805
 10
84.37969019157869
 20
-130.3152153537059
 10
84.40294458610413
 20
-130.543625184378
 10
84.40294458610413
 20
-130.7172579968346
 10
84.40294458610413
 20
-130.8884792424515
 10
84.3819295036441
 20
-131.1189561304147
 10
84.28029918682924
 20
-131.3115369680402
 97
        0
 97
        0
 92
        1
 93
        1
 72
     4
 94
        3
 73
     0
 74
     1
 95
       17
 96
       13
 40
0.0
 40
0.0
 40
0.0
 40
0.0
 40
1.0
 40
1.0
 40
1.0
 40
2.0
 40
2.0
 40
2.0
 40
3.0
 40
3.0
 40
3.0
 40
4.0
 40
4.0
 40
4.0
 40
4.0
 10
83.88256291305714
 20
-130.088872580325
 10
83.63296574515078
 20
-130.088872580325
 10
83.58645695609992
 20
-130.3724039387611
 10
83.58645695609992
 20
-130.7172579968346
 10
83.58645695609992
 20
-131.0366183483172
 10
83.62245820392077
 20
-131.3456434133442
 10
83.88256291305714
 20
-131.3456434133442
 10
84.13009302367234
 20
-131.3456434133442
 10
84.17884112478863
 20
-131.0638346026507
 10
84.17884112478863
 20
-130.7172579968346
 10
84.17884112478863
 20
-130.3975531358034
 10
84.14060056490236
 20
-130.088872580325
 10
83.88256291305714
 20
-130.088872580325
 97
        0
 97
        0
 75
     2
 76
     1
 98
        0
  0
ENDBLK
  5
92
330
8F
100
AcDbEntity
  8
0
100
AcDbBlockEnd
  0
BLOCK
  5
B1
330
AF
100
AcDbEntity
  8
0
100
AcDbBlockBegin
  2
block 7
 70
     0
 10
0.0
 20
0.0
 30
0.0
  3
block 7
  1

  0
SPLINE
  5
B3
330
AF
100
AcDbEntity
  8
_U+30EC_U+30A4_U+30E4_U+30FC 1
370
     0
100
AcDbSpline
210
0.0
220
0.0
230
1.0
 70
    11
 71
     3
 72
    32
 73
    28
 74
     0
 42
0.0000000001
 43
0.0000000001
 12
1.0
 22
0.0
 32
0.0
 13
1.0
 23
0.0
 33
0.0
 40
0.0
 40
0.0
 40
0.0
 40
0.0
 40
1.0
 40
1.0
 40
1.0
 40
2.0
 40
2.0
 40
2.0
 40
3.0
 40
3.0
 40
3.0
 40
4.0
 40
4.0
 40
4.0
 40
5.0
 40
5.0
 40
5.0
 40
6.0
 40
6.0
 40
6.0
 40
7.0
 40
7.0
 40
7.0
 40
8.0
 40
8.0
 40
8.0
 40
9.0
 40
9.0
 40
9.0
 40
9.0
 10
115.196413816687
 20
-142.7899061057956
 30
0.0
 10
115.196413816687
 20
-143.3063259190345
 30
0.0
 10
114.6420979531103
 20
-143.3145941481991
 30
0.0
 10
114.4285020330248
 20
-143.3145941481991
 30
0.0
 10
114.1980251450616
 20
-143.3145941481991
 30
0.0
 10
113.5503471938346
 20
-143.2953016134817
 30
0.0
 10
113.5503471938346
 20
-142.7516655459093
 30
0.0
 10
113.5503471938346
 20
-142.5783772430013
 30
0.0
 10
113.6202826321852
 20
-142.3330864444515
 30
0.0
 10
113.9523898369633
 20
-142.2948458845652
 30
0.0
 10
113.9523898369633
 20
-142.2948458845652
 30
0.0
 10
113.9523898369633
 20
-142.5084418046507
 30
0.0
 10
113.9523898369633
 20
-142.5084418046507
 30
0.0
 10
113.8955457614567
 20
-142.519121600655
 30
0.0
 10
113.7474066555909
 20
-142.5508164791192
 30
0.0
 10
113.7474066555909
 20
-142.7537326032005
 30
0.0
 10
113.7474066555909
 20
-143.0458767003497
 30
0.0
 10
114.0753797457867
 20
-143.0861843175271
 30
0.0
 10
114.2803629271591
 20
-143.0989311708225
 30
0.0
 10
114.2021592596439
 20
-143.0059135927208
 30
0.0
 10
114.1429036172976
 20
-142.9380452116613
 30
0.0
 10
114.1429036172976
 20
-142.7561441700401
 30
0.0
 10
114.1429036172976
 20
-142.5763101857101
 30
0.0
 10
114.2507351059859
 20
-142.2738308021052
 30
0.0
 10
114.6569118636969
 20
-142.2738308021052
 30
0.0
 10
114.9762722151795
 20
-142.2738308021052
 30
0.0
 10
115.196413816687
 20
-142.4726128116041
 30
0.0
 10
115.196413816687
 20
-142.7899061057956
 30
0.0
  0
SPLINE
  5
B4
330
AF
100
AcDbEntity
  8
_U+30EC_U+30A4_U+30E4_U+30FC 1
370
     0
100
AcDbSpline
210
0.0
220
0.0
230
1.0
 70
    11
 71
     3
 72
    17
 73
    13
 74
     0
 42
0.0000000001
 43
0.0000000001
 12
1.0
 22
0.0
 32
0.0
 13
1.0
 23
0.0
 33
0.0
 40
0.0
 40
0.0
 40
0.0
 40
0.0
 40
1.0
 40
1.0
 40
1.0
 40
2.0
 40
2.0
 40
2.0
 40
3.0
 40
3.0
 40
3.0
 40
4.0
 40
4.0
 40
4.0
 40
4.0
 10
114.3375515122142
 20
-142.7730251379179
 30
0.0
 10
114.3375515122142
 20
-143.0355414138939
 30
0.0
 10
114.5490803750086
 20
-143.0734374642317
 30
0.0
 10
114.6651800928615
 20
-143.0734374642317
 30
0.0
 10
114.8408799626092
 20
-143.0734374642317
 30
0.0
 10
115.0038329790615
 20
-142.9783528288388
 30
0.0
 10
115.0038329790615
 20
-142.7943847299264
 30
0.0
 10
115.0038329790615
 20
-142.6738063879427
 30
0.0
 10
114.9445773367153
 20
-142.4981065181949
 30
0.0
 10
114.658978920988
 20
-142.4981065181949
 30
0.0
 10
114.4347032048983
 20
-142.4981065181949
 30
0.0
 10
114.3375515122142
 20
-142.6376328853475
 30
0.0
 10
114.3375515122142
 20
-142.7730251379179
 30
0.0
  0
HATCH
  5
B5
330
AF
100
AcDbEntity
  8
_U+30EC_U+30A4_U+30E4_U+30FC 1
 62
   179
420
  2234388
100
AcDbHatch
 10
0.0
 20
0.0
 30
0.0
210
0.0
220
0.0
230
1.0
  2
SOLID
 70
     1
 71
     0
 91
        2
 92
        1
 93
        1
 72
     4
 94
        3
 73
     0
 74
     1
 95
       32
 96
       28
 40
0.0
 40
0.0
 40
0.0
 40
0.0
 40
1.0
 40
1.0
 40
1.0
 40
2.0
 40
2.0
 40
2.0
 40
3.0
 40
3.0
 40
3.0
 40
4.0
 40
4.0
 40
4.0
 40
5.0
 40
5.0
 40
5.0
 40
6.0
 40
6.0
 40
6.0
 40
7.0
 40
7.0
 40
7.0
 40
8.0
 40
8.0
 40
8.0
 40
9.0
 40
9.0
 40
9.0
 40
9.0
 10
115.196413816687
 20
-142.7899061057956
 10
115.196413816687
 20
-143.3063259190345
 10
114.6420979531103
 20
-143.3145941481991
 10
114.4285020330248
 20
-143.3145941481991
 10
114.1980251450616
 20
-143.3145941481991
 10
113.5503471938346
 20
-143.2953016134817
 10
113.5503471938346
 20
-142.7516655459093
 10
113.5503471938346
 20
-142.5783772430013
 10
113.6202826321852
 20
-142.3330864444515
 10
113.9523898369633
 20
-142.2948458845652
 10
113.9523898369633
 20
-142.2948458845652
 10
113.9523898369633
 20
-142.5084418046507
 10
113.9523898369633
 20
-142.5084418046507
 10
113.8955457614567
 20
-142.519121600655
 10
113.7474066555909
 20
-142.5508164791192
 10
113.7474066555909
 20
-142.7537326032005
 10
113.7474066555909
 20
-143.0458767003497
 10
114.0753797457867
 20
-143.0861843175271
 10
114.2803629271591
 20
-143.0989311708225
 10
114.2021592596439
 20
-143.0059135927208
 10
114.1429036172976
 20
-142.9380452116613
 10
114.1429036172976
 20
-142.7561441700401
 10
114.1429036172976
 20
-142.5763101857101
 10
114.2507351059859
 20
-142.2738308021052
 10
114.6569118636969
 20
-142.2738308021052
 10
114.9762722151795
 20
-142.2738308021052
 10
115.196413816687
 20
-142.4726128116041
 10
115.196413816687
 20
-142.7899061057956
 97
        0
 97
        0
 92
        1
 93
        1
 72
     4
 94
        3
 73
     0
 74
     1
 95
       17
 96
       13
 40
0.0
 40
0.0
 40
0.0
 40
0.0
 40
1.0
 40
1.0
 40
1.0
 40
2.0
 40
2.0
 40
2.0
 40
3.0
 40
3.0
 40
3.0
 40
4.0
 40
4.0
 40
4.0
 40
4.0
 10
114.3375515122142
 20
-142.7730251379179
 10
114.3375515122142
 20
-143.0355414138939
 10
114.5490803750086
 20
-143.0734374642317
 10
114.6651800928615
 20
-143.0734374642317
 10
114.8408799626092
 20
-143.0734374642317
 10
115.0038329790615
 20
-142.9783528288388
 10
115.0038329790615
 20
-142.7943847299264
 10
115.0038329790615
 20
-142.6738063879427
 10
114.9445773367153
 20
-142.4981065181949
 10
114.658978920988
 20
-142.4981065181949
 10
114.4347032048983
 20
-142.4981065181949
 10
114.3375515122142
 20
-142.6376328853475
 10
114.3375515122142
 20
-142.7730251379179
 97
        0
 97
        0
 75
     2
 76
     1
 98
        0
  0
POLYLINE
  5
B6
330
AF
100
AcDbEntity
  8
_U+30EC_U+30A4_U+30E4_U+30FC 1
370
     0
100
AcDb2dPolyline
 66
     1
 10
0.0
 20
0.0
 30
0.0
  0
VERTEX
  5
B7
330
B6
100
AcDbEntity
  8
_U+30EC_U+30A4_U+30E4_U+30FC 1
370
     0
100
AcDbVertex
100
AcDb2dVertex
 10
115.1454264035053
 20
-142.0571342960829
 30
0.0
  0
VERTEX
  5
B8
330
B6
100
AcDbEntity
  8
_U+30EC_U+30A4_U+30E4_U+30FC 1
370
     0
100
AcDbVertex
100
AcDb2dVertex
 10
114.8939344330821
 20
-142.0571342960829
 30
0.0
  0
VERTEX
  5
B9
330
B6
100
AcDbEntity
  8
_U+30EC_U+30A4_U+30E4_U+30FC 1
370
     0
100
AcDbVertex
100
AcDb2dVertex
 10
114.8939344330821
 20
-141.8056423256597
 30
0.0
  0
VERTEX
  5
BA
330
B6
100
AcDbEntity
  8
_U+30EC_U+30A4_U+30E4_U+30FC 1
370
     0
100
AcDbVertex
100
AcDb2dVertex
 10
115.1454264035053
 20
-141.8056423256597
 30
0.0
  0
VERTEX
  5
BB
330
B6
100
AcDbEntity
  8
_U+30EC_U+30A4_U+30E4_U+30FC 1
370
     0
100
AcDbVertex
100
AcDb2dVertex
 10
115.1454264035053
 20
-142.0571342960829
 30
0.0
  0
SEQEND
  5
BC
330
B6
100
AcDbEntity
  8
_U+30EC_U+30A4_U+30E4_U+30FC 1
370
     0
  0
HATCH
  5
BD
330
AF
100
AcDbEntity
  8
_U+30EC_U+30A4_U+30E4_U+30FC 1
 62
   179
420
  2234388
100
AcDbHatch
 10
0.0
 20
0.0
 30
0.0
210
0.0
220
0.0
230
1.0
  2
SOLID
 70
     1
 71
     0
 91
        1
 92
        1
 93
        4
 72
     1
 10
115.1454264035053
 20
-142.0571342960829
 11
114.8939344330821
 21
-142.0571342960829
 72
     1
 10
114.8939344330821
 20
-142.0571342960829
 11
114.8939344330821
 21
-141.8056423256597
 72
     1
 10
114.8939344330821
 20
-141.8056423256597
 11
115.1454264035053
 21
-141.8056423256597
 72
     1
 10
115.1454264035053
 20
-141.8056423256597
 11
115.1454264035053
 21
-142.0571342960829
 97
        0
 75
     2
 76
     1
 98
        0
  0
SPLINE
  5
BE
330
AF
100
AcDbEntity
  8
_U+30EC_U+30A4_U+30E4_U+30FC 1
370
     0
100
AcDbSpline
210
0.0
220
0.0
230
1.0
 70
    11
 71
     3
 72
    53
 73
    49
 74
     0
 42
0.0000000001
 43
0.0000000001
 12
1.0
 22
0.0
 32
0.0
 13
1.0
 23
0.0
 33
0.0
 40
0.0
 40
0.0
 40
0.0
 40
0.0
 40
1.0
 40
1.0
 40
1.0
 40
2.0
 40
2.0
 40
2.0
 40
3.0
 40
3.0
 40
3.0
 40
4.0
 40
4.0
 40
4.0
 40
5.0
 40
5.0
 40
5.0
 40
6.0
 40
6.0
 40
6.0
 40
7.0
 40
7.0
 40
7.0
 40
8.0
 40
8.0
 40
8.0
 40
9.0
 40
9.0
 40
9.0
 40
10.0
 40
10.0
 40
10.0
 40
11.0
 40
11.0
 40
11.0
 40
12.0
 40
12.0
 40
12.0
 40
13.0
 40
13.0
 40
13.0
 40
14.0
 40
14.0
 40
14.0
 40
15.0
 40
15.0
 40
15.0
 40
16.0
 40
16.0
 40
16.0
 40
16.0
 10
115.196413816687
 20
-141.0880289360822
 30
0.0
 10
115.196413816687
 20
-141.1662326035973
 30
0.0
 10
115.1795328488093
 20
-141.2678629204122
 30
0.0
 10
115.1157985823322
 20
-141.3694932372271
 30
0.0
 10
115.0059000363527
 20
-141.5431260496837
 30
0.0
 10
114.8746418983647
 20
-141.5641411321437
 30
0.0
 10
114.7671549192249
 20
-141.5830891573126
 30
0.0
 10
114.7671549192249
 20
-141.5830891573126
 30
0.0
 10
114.7671549192249
 20
-141.3612250080625
 30
0.0
 10
114.7671549192249
 20
-141.3612250080625
 30
0.0
 10
114.9655924191753
 20
-141.3061034802985
 30
0.0
 10
114.9952202403484
 20
-141.1789794568928
 30
0.0
 10
114.9952202403484
 20
-141.085961878791
 30
0.0
 10
114.9952202403484
 20
-140.9464355116384
 30
0.0
 10
114.8960014903732
 20
-140.7941622911904
 30
0.0
 10
114.6631130355703
 20
-140.7941622911904
 30
0.0
 10
114.4074869505648
 20
-140.7941622911904
 30
0.0
 10
114.3375515122142
 20
-140.9739962755204
 30
0.0
 10
114.3375515122142
 20
-141.0945746175042
 30
0.0
 10
114.3375515122142
 20
-141.1262694959684
 30
0.0
 10
114.3375515122142
 20
-141.2678629204122
 30
0.0
 10
114.4667425929111
 20
-141.3567463839317
 30
0.0
 10
114.4667425929111
 20
-141.3567463839317
 30
0.0
 10
114.4474500581937
 20
-141.5321017441309
 30
0.0
 10
114.4474500581937
 20
-141.5321017441309
 30
0.0
 10
114.4474500581937
 20
-141.5321017441309
 30
0.0
 10
113.6013346070163
 20
-141.4115234021471
 30
0.0
 10
113.6013346070163
 20
-141.4115234021471
 30
0.0
 10
113.6013346070163
 20
-141.4115234021471
 30
0.0
 10
113.6013346070163
 20
-140.6332763320292
 30
0.0
 10
113.6013346070163
 20
-140.6332763320292
 30
0.0
 10
113.6013346070163
 20
-140.6332763320292
 30
0.0
 10
113.795982501933
 20
-140.6332763320292
 30
0.0
 10
113.795982501933
 20
-140.6332763320292
 30
0.0
 10
113.795982501933
 20
-140.6332763320292
 30
0.0
 10
113.795982501933
 20
-141.2489148952433
 30
0.0
 10
113.795982501933
 20
-141.2489148952433
 30
0.0
 10
113.795982501933
 20
-141.2489148952433
 30
0.0
 10
114.2190402275216
 20
-141.3143717094631
 30
0.0
 10
114.2190402275216
 20
-141.3143717094631
 30
0.0
 10
114.1849337822177
 20
-141.2530490098256
 30
0.0
 10
114.1449706745888
 20
-141.1703667181797
 30
0.0
 10
114.1449706745888
 20
-141.0521999430356
 30
0.0
 10
114.1449706745888
 20
-140.7982964057726
 30
0.0
 10
114.3310058307923
 20
-140.5612738363875
 30
0.0
 10
114.6441650104015
 20
-140.5612738363875
 30
0.0
 10
114.961458304593
 20
-140.5612738363875
 30
0.0
 10
115.196413816687
 20
-140.7855495524772
 30
0.0
 10
115.196413816687
 20
-141.0880289360822
 30
0.0
  0
HATCH
  5
BF
330
AF
100
AcDbEntity
  8
_U+30EC_U+30A4_U+30E4_U+30FC 1
 62
   179
420
  2234388
100
AcDbHatch
 10
0.0
 20
0.0
 30
0.0
210
0.0
220
0.0
230
1.0
  2
SOLID
 70
     1
 71
     0
 91
        1
 92
        1
 93
        1
 72
     4
 94
        3
 73
     0
 74
     1
 95
       53
 96
       49
 40
0.0
 40
0.0
 40
0.0
 40
0.0
 40
1.0
 40
1.0
 40
1.0
 40
2.0
 40
2.0
 40
2.0
 40
3.0
 40
3.0
 40
3.0
 40
4.0
 40
4.0
 40
4.0
 40
5.0
 40
5.0
 40
5.0
 40
6.0
 40
6.0
 40
6.0
 40
7.0
 40
7.0
 40
7.0
 40
8.0
 40
8.0
 40
8.0
 40
9.0
 40
9.0
 40
9.0
 40
10.0
 40
10.0
 40
10.0
 40
11.0
 40
11.0
 40
11.0
 40
12.0
 40
12.0
 40
12.0
 40
13.0
 40
13.0
 40
13.0
 40
14.0
 40
14.0
 40
14.0
 40
15.0
 40
15.0
 40
15.0
 40
16.0
 40
16.0
 40
16.0
 40
16.0
 10
115.196413816687
 20
-141.0880289360822
 10
115.196413816687
 20
-141.1662326035973
 10
115.1795328488093
 20
-141.2678629204122
 10
115.1157985823322
 20
-141.3694932372271
 10
115.0059000363527
 20
-141.5431260496837
 10
114.8746418983647
 20
-141.5641411321437
 10
114.7671549192249
 20
-141.5830891573126
 10
114.7671549192249
 20
-141.5830891573126
 10
114.7671549192249
 20
-141.3612250080625
 10
114.7671549192249
 20
-141.3612250080625
 10
114.9655924191753
 20
-141.3061034802985
 10
114.9952202403484
 20
-141.1789794568928
 10
114.9952202403484
 20
-141.085961878791
 10
114.9952202403484
 20
-140.9464355116384
 10
114.8960014903732
 20
-140.7941622911904
 10
114.6631130355703
 20
-140.7941622911904
 10
114.4074869505648
 20
-140.7941622911904
 10
114.3375515122142
 20
-140.9739962755204
 10
114.3375515122142
 20
-141.0945746175042
 10
114.3375515122142
 20
-141.1262694959684
 10
114.3375515122142
 20
-141.2678629204122
 10
114.4667425929111
 20
-141.3567463839317
 10
114.4667425929111
 20
-141.3567463839317
 10
114.4474500581937
 20
-141.5321017441309
 10
114.4474500581937
 20
-141.5321017441309
 10
114.4474500581937
 20
-141.5321017441309
 10
113.6013346070163
 20
-141.4115234021471
 10
113.6013346070163
 20
-141.4115234021471
 10
113.6013346070163
 20
-141.4115234021471
 10
113.6013346070163
 20
-140.6332763320292
 10
113.6013346070163
 20
-140.6332763320292
 10
113.6013346070163
 20
-140.6332763320292
 10
113.795982501933
 20
-140.6332763320292
 10
113.795982501933
 20
-140.6332763320292
 10
113.795982501933
 20
-140.6332763320292
 10
113.795982501933
 20
-141.2489148952433
 10
113.795982501933
 20
-141.2489148952433
 10
113.795982501933
 20
-141.2489148952433
 10
114.2190402275216
 20
-141.3143717094631
 10
114.2190402275216
 20
-141.3143717094631
 10
114.1849337822177
 20
-141.2530490098256
 10
114.1449706745888
 20
-141.1703667181797
 10
114.1449706745888
 20
-141.0521999430356
 10
114.1449706745888
 20
-140.7982964057726
 10
114.3310058307923
 20
-140.5612738363875
 10
114.6441650104015
 20
-140.5612738363875
 10
114.961458304593
 20
-140.5612738363875
 10
115.196413816687
 20
-140.7855495524772
 10
115.196413816687
 20
-141.0880289360822
 97
        0
 97
        0
 75
     2
 76
     1
 98
        0
  0
ENDBLK
  5
B2
330
AF
100
AcDbEntity
  8
0
100
AcDbBlockEnd
  0
BLOCK
  5
C2
330
C0
100
AcDbEntity
  8
0
100
AcDbBlockBegin
  2
block 8
 70
     0
 10
0.0
 20
0.0
 30
0.0
  3
block 8
  1

  0
SPLINE
  5
C4
330
C0
100
AcDbEntity
  8
_U+30EC_U+30A4_U+30E4_U+30FC 1
370
     0
100
AcDbSpline
210
0.0
220
0.0
230
1.0
 70
    11
 71
     3
 72
    26
 73
    22
 74
     0
 42
0.0000000001
 43
0.0000000001
 12
1.0
 22
0.0
 32
0.0
 13
1.0
 23
0.0
 33
0.0
 40
0.0
 40
0.0
 40
0.0
 40
0.0
 40
1.0
 40
1.0
 40
1.0
 40
2.0
 40
2.0
 40
2.0
 40
3.0
 40
3.0
 40
3.0
 40
4.0
 40
4.0
 40
4.0
 40
5.0
 40
5.0
 40
5.0
 40
6.0
 40
6.0
 40
6.0
 40
7.0
 40
7.0
 40
7.0
 40
7.0
 10
115.1454264035053
 20
-137.0135145056772
 30
0.0
 10
115.1454264035053
 20
-137.0135145056772
 30
0.0
 10
114.0412733004827
 20
-137.0135145056772
 30
0.0
 10
114.0412733004827
 20
-137.0135145056772
 30
0.0
 10
114.0412733004827
 20
-137.0135145056772
 30
0.0
 10
114.0412733004827
 20
-137.3435546531641
 30
0.0
 10
114.0412733004827
 20
-137.3435546531641
 30
0.0
 10
114.0412733004827
 20
-137.3435546531641
 30
0.0
 10
113.893134194617
 20
-137.3435546531641
 30
0.0
 10
113.893134194617
 20
-137.3435546531641
 30
0.0
 10
113.8783202840304
 20
-137.011447448386
 30
0.0
 10
113.7157117771266
 20
-136.9652831688837
 30
0.0
 10
113.6013346070163
 20
-136.9356553477105
 30
0.0
 10
113.6013346070163
 20
-136.9356553477105
 30
0.0
 10
113.6013346070163
 20
-136.789583299136
 30
0.0
 10
113.6013346070163
 20
-136.789583299136
 30
0.0
 10
113.6013346070163
 20
-136.789583299136
 30
0.0
 10
115.1454264035053
 20
-136.789583299136
 30
0.0
 10
115.1454264035053
 20
-136.789583299136
 30
0.0
 10
115.1454264035053
 20
-136.789583299136
 30
0.0
 10
115.1454264035053
 20
-137.0135145056772
 30
0.0
 10
115.1454264035053
 20
-137.0135145056772
 30
0.0
  0
HATCH
  5
C5
330
C0
100
AcDbEntity
  8
_U+30EC_U+30A4_U+30E4_U+30FC 1
 62
   179
420
  2234388
100
AcDbHatch
 10
0.0
 20
0.0
 30
0.0
210
0.0
220
0.0
230
1.0
  2
SOLID
 70
     1
 71
     0
 91
        1
 92
        1
 93
        1
 72
     4
 94
        3
 73
     0
 74
     1
 95
       26
 96
       22
 40
0.0
 40
0.0
 40
0.0
 40
0.0
 40
1.0
 40
1.0
 40
1.0
 40
2.0
 40
2.0
 40
2.0
 40
3.0
 40
3.0
 40
3.0
 40
4.0
 40
4.0
 40
4.0
 40
5.0
 40
5.0
 40
5.0
 40
6.0
 40
6.0
 40
6.0
 40
7.0
 40
7.0
 40
7.0
 40
7.0
 10
115.1454264035053
 20
-137.0135145056772
 10
115.1454264035053
 20
-137.0135145056772
 10
114.0412733004827
 20
-137.0135145056772
 10
114.0412733004827
 20
-137.0135145056772
 10
114.0412733004827
 20
-137.0135145056772
 10
114.0412733004827
 20
-137.3435546531641
 10
114.0412733004827
 20
-137.3435546531641
 10
114.0412733004827
 20
-137.3435546531641
 10
113.893134194617
 20
-137.3435546531641
 10
113.893134194617
 20
-137.3435546531641
 10
113.8783202840304
 20
-137.011447448386
 10
113.7157117771266
 20
-136.9652831688837
 10
113.6013346070163
 20
-136.9356553477105
 10
113.6013346070163
 20
-136.9356553477105
 10
113.6013346070163
 20
-136.789583299136
 10
113.6013346070163
 20
-136.789583299136
 10
113.6013346070163
 20
-136.789583299136
 10
115.1454264035053
 20
-136.789583299136
 10
115.1454264035053
 20
-136.789583299136
 10
115.1454264035053
 20
-136.789583299136
 10
115.1454264035053
 20
-137.0135145056772
 10
115.1454264035053
 20
-137.0135145056772
 97
        0
 97
        0
 75
     2
 76
     1
 98
        0
  0
ENDBLK
  5
C3
330
C0
100
AcDbEntity
  8
0
100
AcDbBlockEnd
  0
ENDSEC
  0
SECTION
  2
ENTITIES
  0
SPLINE
  5
41
330
1F
100
AcDbEntity
  8
_U+30EC_U+30A4_U+30E4_U+30FC 1
 62
   179
420
  2234388
370
    25
100
AcDbSpline
210
0.0
220
0.0
230
1.0
 70
    11
 71
     3
 72
    71
 73
    67
 74
     0
 42
0.0000000001
 43
0.0000000001
 12
1.0
 22
0.0
 32
0.0
 13
1.0
 23
0.0
 33
0.0
 40
0.0
 40
0.0
 40
0.0
 40
0.0
 40
1.0
 40
1.0
 40
1.0
 40
2.0
 40
2.0
 40
2.0
 40
3.0
 40
3.0
 40
3.0
 40
4.0
 40
4.0
 40
4.0
 40
5.0
 40
5.0
 40
5.0
 40
6.0
 40
6.0
 40
6.0
 40
7.0
 40
7.0
 40
7.0
 40
8.0
 40
8.0
 40
8.0
 40
9.0
 40
9.0
 40
9.0
 40
10.0
 40
10.0
 40
10.0
 40
11.0
 40
11.0
 40
11.0
 40
12.0
 40
12.0
 40
12.0
 40
13.0
 40
13.0
 40
13.0
 40
14.0
 40
14.0
 40
14.0
 40
15.0
 40
15.0
 40
15.0
 40
16.0
 40
16.0
 40
16.0
 40
17.0
 40
17.0
 40
17.0
 40
18.0
 40
18.0
 40
18.0
 40
19.0
 40
19.0
 40
19.0
 40
20.0
 40
20.0
 40
20.0
 40
21.0
 40
21.0
 40
21.0
 40
22.0
 40
22.0
 40
22.0
 40
22.0
 10
81.67218097192463
 20
-144.3801616305719
 30
0.0
 10
81.67218097192463
 20
-144.3801616305719
 30
0.0
 10
90.67231796453423
 20
-144.3801616305719
 30
0.0
 10
90.67231796453423
 20
-144.3801616305719
 30
0.0
 10
90.67231796453423
 20
-144.3801616305719
 30
0.0
 10
90.67231796453423
 20
-137.8803016321966
 30
0.0
 10
90.67231796453423
 20
-137.8803016321966
 30
0.0
 10
90.67231796453423
 20
-137.8803016321966
 30
0.0
 10
111.6720849287855
 20
-137.8803016321966
 30
0.0
 10
111.6720849287855
 20
-137.8803016321966
 30
0.0
 10
111.6720849287855
 20
-137.8803016321966
 30
0.0
 10
111.6720849287855
 20
-138.8800738541692
 30
0.0
 10
111.6720849287855
 20
-138.8800738541692
 30
0.0
 10
111.6720849287855
 20
-138.8800738541692
 30
0.0
 10
101.9551740655735
 20
-138.8800738541692
 30
0.0
 10
101.9551740655735
 20
-138.8800738541692
 30
0.0
 10
101.9551740655735
 20
-138.8800738541692
 30
0.0
 10
101.6723521283444
 20
-138.8800738541692
 30
0.0
 10
101.6723521283444
 20
-138.8800738541692
 30
0.0
 10
101.6723521283444
 20
-138.8800738541692
 30
0.0
 10
101.3894949133385
 20
-138.8800738541692
 30
0.0
 10
101.3894949133385
 20
-138.8800738541692
 30
0.0
 10
101.3894949133385
 20
-138.8800738541692
 30
0.0
 10
91.67226655013452
 20
-138.8800738541692
 30
0.0
 10
91.67226655013452
 20
-138.8800738541692
 30
0.0
 10
91.67226655013452
 20
-138.8800738541692
 30
0.0
 10
91.67226655013452
 20
-145.3802866303216
 30
0.0
 10
91.67226655013452
 20
-145.3802866303216
 30
0.0
 10
91.67226655013452
 20
-145.3802866303216
 30
0.0
 10
81.67218097192463
 20
-145.3802866303216
 30
0.0
 10
81.67218097192463
 20
-145.3802866303216
 30
0.0
 10
76.14919998096262
 20
-145.3802866303216
 30
0.0
 10
71.6720972043042
 20
-140.9030427425521
 30
0.0
 10
71.6720972043042
 20
-135.3802007994883
 30
0.0
 10
71.6720972043042
 20
-135.3802007994883
 30
0.0
 10
71.6720972043042
 20
-125.3801149686549
 30
0.0
 10
71.6720972043042
 20
-125.3801149686549
 30
0.0
 10
71.6720972043042
 20
-125.3801149686549
 30
0.0
 10
78.17213161677388
 20
-125.3801149686549
 30
0.0
 10
78.17213161677388
 20
-125.3801149686549
 30
0.0
 10
78.17213161677388
 20
-125.3801149686549
 30
0.0
 10
78.17213161677388
 20
-115.6628863599732
 30
0.0
 10
78.17213161677388
 20
-115.6628863599732
 30
0.0
 10
78.17213161677388
 20
-115.6628863599732
 30
0.0
 10
78.17181411678199
 20
-115.3800291378216
 30
0.0
 10
78.17181411678199
 20
-115.3800291378216
 30
0.0
 10
78.17181411678199
 20
-115.3800291378216
 30
0.0
 10
78.17213161677388
 20
-115.0972071934479
 30
0.0
 10
78.17213161677388
 20
-115.0972071934479
 30
0.0
 10
78.17213161677388
 20
-115.0972071934479
 30
0.0
 10
78.17213161677388
 20
-105.3801196958771
 30
0.0
 10
78.17213161677388
 20
-105.3801196958771
 30
0.0
 10
78.17213161677388
 20
-105.3801196958771
 30
0.0
 10
79.17208020237418
 20
-105.3801196958771
 30
0.0
 10
79.17208020237418
 20
-105.3801196958771
 30
0.0
 10
79.17208020237418
 20
-105.3801196958771
 30
0.0
 10
79.17208020237418
 20
-126.380063579516
 30
0.0
 10
79.17208020237418
 20
-126.380063579516
 30
0.0
 10
79.17208020237418
 20
-126.380063579516
 30
0.0
 10
72.67204397931503
 20
-126.380063579516
 30
0.0
 10
72.67204397931503
 20
-126.380063579516
 30
0.0
 10
72.67204397931503
 20
-126.380063579516
 30
0.0
 10
72.67222220405417
 20
-135.3802007994883
 30
0.0
 10
72.67222220405417
 20
-135.3802007994883
 30
0.0
 10
72.67222220405417
 20
-140.3507691315789
 30
0.0
 10
76.70161276540105
 20
-144.3801616305719
 30
0.0
 10
81.67218097192463
 20
-144.3801616305719
 30
0.0
  0
HATCH
  5
42
330
1F
100
AcDbEntity
  8
_U+30EC_U+30A4_U+30E4_U+30FC 1
 62
     9
420
 12566464
100
AcDbHatch
 10
0.0
 20
0.0
 30
0.0
210
0.0
220
0.0
230
1.0
  2
SOLID
 70
     1
 71
     0
 91
        1
 92
        1
 93
        1
 72
     4
 94
        3
 73
     0
 74
     1
 95
       71
 96
       67
 40
0.0
 40
0.0
 40
0.0
 40
0.0
 40
1.0
 40
1.0
 40
1.0
 40
2.0
 40
2.0
 40
2.0
 40
3.0
 40
3.0
 40
3.0
 40
4.0
 40
4.0
 40
4.0
 40
5.0
 40
5.0
 40
5.0
 40
6.0
 40
6.0
 40
6.0
 40
7.0
 40
7.0
 40
7.0
 40
8.0
 40
8.0
 40
8.0
 40
9.0
 40
9.0
 40
9.0
 40
10.0
 40
10.0
 40
10.0
 40
11.0
 40
11.0
 40
11.0
 40
12.0
 40
12.0
 40
12.0
 40
13.0
 40
13.0
 40
13.0
 40
14.0
 40
14.0
 40
14.0
 40
15.0
 40
15.0
 40
15.0
 40
16.0
 40
16.0
 40
16.0
 40
17.0
 40
17.0
 40
17.0
 40
18.0
 40
18.0
 40
18.0
 40
19.0
 40
19.0
 40
19.0
 40
20.0
 40
20.0
 40
20.0
 40
21.0
 40
21.0
 40
21.0
 40
22.0
 40
22.0
 40
22.0
 40
22.0
 10
81.67218097192463
 20
-144.3801616305719
 10
81.67218097192463
 20
-144.3801616305719
 10
90.67231796453423
 20
-144.3801616305719
 10
90.67231796453423
 20
-144.3801616305719
 10
90.67231796453423
 20
-144.3801616305719
 10
90.67231796453423
 20
-137.8803016321966
 10
90.67231796453423
 20
-137.8803016321966
 10
90.67231796453423
 20
-137.8803016321966
 10
111.6720849287855
 20
-137.8803016321966
 10
111.6720849287855
 20
-137.8803016321966
 10
111.6720849287855
 20
-137.8803016321966
 10
111.6720849287855
 20
-138.8800738541692
 10
111.6720849287855
 20
-138.8800738541692
 10
111.6720849287855
 20
-138.8800738541692
 10
101.9551740655735
 20
-138.8800738541692
 10
101.9551740655735
 20
-138.8800738541692
 10
101.9551740655735
 20
-138.8800738541692
 10
101.6723521283444
 20
-138.8800738541692
 10
101.6723521283444
 20
-138.8800738541692
 10
101.6723521283444
 20
-138.8800738541692
 10
101.3894949133385
 20
-138.8800738541692
 10
101.3894949133385
 20
-138.8800738541692
 10
101.3894949133385
 20
-138.8800738541692
 10
91.67226655013452
 20
-138.8800738541692
 10
91.67226655013452
 20
-138.8800738541692
 10
91.67226655013452
 20
-138.8800738541692
 10
91.67226655013452
 20
-145.3802866303216
 10
91.67226655013452
 20
-145.3802866303216
 10
91.67226655013452
 20
-145.3802866303216
 10
81.67218097192463
 20
-145.3802866303216
 10
81.67218097192463
 20
-145.3802866303216
 10
76.14919998096262
 20
-145.3802866303216
 10
71.6720972043042
 20
-140.9030427425521
 10
71.6720972043042
 20
-135.3802007994883
 10
71.6720972043042
 20
-135.3802007994883
 10
71.6720972043042
 20
-125.3801149686549
 10
71.6720972043042
 20
-125.3801149686549
 10
71.6720972043042
 20
-125.3801149686549
 10
78.17213161677388
 20
-125.3801149686549
 10
78.17213161677388
 20
-125.3801149686549
 10
78.17213161677388
 20
-125.3801149686549
 10
78.17213161677388
 20
-115.6628863599732
 10
78.17213161677388
 20
-115.6628863599732
 10
78.17213161677388
 20
-115.6628863599732
 10
78.17181411678199
 20
-115.3800291378216
 10
78.17181411678199
 20
-115.3800291378216
 10
78.17181411678199
 20
-115.3800291378216
 10
78.17213161677388
 20
-115.0972071934479
 10
78.17213161677388
 20
-115.0972071934479
 10
78.17213161677388
 20
-115.0972071934479
 10
78.17213161677388
 20
-105.3801196958771
 10
78.17213161677388
 20
-105.3801196958771
 10
78.17213161677388
 20
-105.3801196958771
 10
79.17208020237418
 20
-105.3801196958771
 10
79.17208020237418
 20
-105.3801196958771
 10
79.17208020237418
 20
-105.3801196958771
 10
79.17208020237418
 20
-126.380063579516
 10
79.17208020237418
 20
-126.380063579516
 10
79.17208020237418
 20
-126.380063579516
 10
72.67204397931503
 20
-126.380063579516
 10
72.67204397931503
 20
-126.380063579516
 10
72.67204397931503
 20
-126.380063579516
 10
72.67222220405417
 20
-135.3802007994883
 10
72.67222220405417
 20
-135.3802007994883
 10
72.67222220405417
 20
-140.3507691315789
 10
76.70161276540105
 20
-144.3801616305719
 10
81.67218097192463
 20
-144.3801616305719
 97
        0
 97
        0
 75
     2
 76
     1
 98
        0
  0
POLYLINE
  5
43
330
1F
100
AcDbEntity
  8
_U+30EC_U+30A4_U+30E4_U+30FC 1
 62
   179
420
  2234388
370
     9
100
AcDb2dPolyline
 66
     1
 10
0.0
 20
0.0
 30
0.0
  0
VERTEX
  5
44
330
43
100
AcDbEntity
  8
_U+30EC_U+30A4_U+30E4_U+30FC 1
 62
   179
420
  2234388
370
     9
100
AcDbVertex
100
AcDb2dVertex
 10
71.6720972043042
 20
-149.6394432959237
 30
0.0
  0
VERTEX
  5
45
330
43
100
AcDbEntity
  8
_U+30EC_U+30A4_U+30E4_U+30FC 1
 62
   179
420
  2234388
370
     9
100
AcDbVertex
100
AcDb2dVertex
 10
91.57751044144085
 20
-149.6394432959237
 30
0.0
  0
SEQEND
  5
46
330
43
100
AcDbEntity
  8
_U+30EC_U+30A4_U+30E4_U+30FC 1
 62
   179
420
  2234388
370
     9
  0
INSERT
  5
48
330
1F
100
AcDbEntity
  8
_U+30EC_U+30A4_U+30E4_U+30FC 1
100
AcDbBlockReference
  2
block 2
 10
0.0
 20
0.0
 30
0.0
  0
POLYLINE
  5
50
330
1F
100
AcDbEntity
  8
_U+30EC_U+30A4_U+30E4_U+30FC 1
 62
   179
420
  2234388
370
     9
100
AcDb2dPolyline
 66
     1
 10
0.0
 20
0.0
 30
0.0
  0
VERTEX
  5
51
330
50
100
AcDbEntity
  8
_U+30EC_U+30A4_U+30E4_U+30FC 1
 62
   179
420
  2234388
370
     9
100
AcDbVertex
100
AcDb2dVertex
 10
81.67235736080902
 20
-151.5797210732164
 30
0.0
  0
VERTEX
  5
52
330
50
100
AcDbEntity
  8
_U+30EC_U+30A4_U+30E4_U+30FC 1
 62
   179
420
  2234388
370
     9
100
AcDbVertex
100
AcDb2dVertex
 10
81.67235736080902
 20
-148.5969496850729
 30
0.0
  0
SEQEND
  5
53
330
50
100
AcDbEntity
  8
_U+30EC_U+30A4_U+30E4_U+30FC 1
 62
   179
420
  2234388
370
     9
  0
INSERT
  5
55
330
1F
100
AcDbEntity
  8
_U+30EC_U+30A4_U+30E4_U+30FC 1
100
AcDbBlockReference
  2
block 3
 10
0.0
 20
0.0
 30
0.0
  0
POLYLINE
  5
5D
330
1F
100
AcDbEntity
  8
_U+30EC_U+30A4_U+30E4_U+30FC 1
 62
   179
420
  2234388
370
     9
100
AcDb2dPolyline
 66
     1
 10
0.0
 20
0.0
 30
0.0
  0
VERTEX
  5
5E
330
5D
100
AcDbEntity
  8
_U+30EC_U+30A4_U+30E4_U+30FC 1
 62
   179
420
  2234388
370
     9
100
AcDbVertex
100
AcDb2dVertex
 10
67.65116966296377
 20
-125.229549413137
 30
0.0
  0
VERTEX
  5
5F
330
5D
100
AcDbEntity
  8
_U+30EC_U+30A4_U+30E4_U+30FC 1
 62
   179
420
  2234388
370
     9
100
AcDbVertex
100
AcDb2dVertex
 10
67.65116966296377
 20
-105.5423974736144
 30
0.0
  0
SEQEND
  5
60
330
5D
100
AcDbEntity
  8
_U+30EC_U+30A4_U+30E4_U+30FC 1
 62
   179
420
  2234388
370
     9
  0
POLYLINE
  5
61
330
1F
100
AcDbEntity
  8
_U+30EC_U+30A4_U+30E4_U+30FC 1
 62
   179
420
  2234388
370
     9
100
AcDb2dPolyline
 66
     1
 10
0.0
 20
0.0
 30
0.0
  0
VERTEX
  5
62
330
61
100
AcDbEntity
  8
_U+30EC_U+30A4_U+30E4_U+30FC 1
 62
   179
420
  2234388
370
     9
100
AcDbVertex
100
AcDb2dVertex
 10
67.65116966296377
 20
-145.4147177414238
 30
0.0
  0
VERTEX
  5
63
330
61
100
AcDbEntity
  8
_U+30EC_U+30A4_U+30E4_U+30FC 1
 62
   179
420
  2234388
370
     9
100
AcDbVertex
100
AcDb2dVertex
 10
67.65116966296377
 20
-125.229549413137
 30
0.0
  0
SEQEND
  5
64
330
61
100
AcDbEntity
  8
_U+30EC_U+30A4_U+30E4_U+30FC 1
 62
   179
420
  2234388
370
     9
  0
POLYLINE
  5
65
330
1F
100
AcDbEntity
  8
_U+30EC_U+30A4_U+30E4_U+30FC 1
 62
   179
420
  2234388
370
     9
100
AcDb2dPolyline
 66
     1
 10
0.0
 20
0.0
 30
0.0
  0
VERTEX
  5
66
330
65
100
AcDbEntity
  8
_U+30EC_U+30A4_U+30E4_U+30FC 1
 62
   179
420
  2234388
370
     9
100
AcDbVertex
100
AcDb2dVertex
 10
78.18850050524517
 20
-145.3768294081003
 30
0.0
  0
VERTEX
  5
67
330
65
100
AcDbEntity
  8
_U+30EC_U+30A4_U+30E4_U+30FC 1
 62
   179
420
  2234388
370
     9
100
AcDbVertex
100
AcDb2dVertex
 10
66.17856942275515
 20
-145.3768294081003
 30
0.0
  0
SEQEND
  5
68
330
65
100
AcDbEntity
  8
_U+30EC_U+30A4_U+30E4_U+30FC 1
 62
   179
420
  2234388
370
     9
  0
POLYLINE
  5
69
330
1F
100
AcDbEntity
  8
_U+30EC_U+30A4_U+30E4_U+30FC 1
 62
   179
420
  2234388
370
     9
100
AcDb2dPolyline
 66
     1
 10
0.0
 20
0.0
 30
0.0
  0
VERTEX
  5
6A
330
69
100
AcDbEntity
  8
_U+30EC_U+30A4_U+30E4_U+30FC 1
 62
   179
420
  2234388
370
     9
100
AcDbVertex
100
AcDb2dVertex
 10
71.06182513150625
 20
-125.3801149686549
 30
0.0
  0
VERTEX
  5
6B
330
69
100
AcDbEntity
  8
_U+30EC_U+30A4_U+30E4_U+30FC 1
 62
   179
420
  2234388
370
     9
100
AcDbVertex
100
AcDb2dVertex
 10
66.05693331681896
 20
-125.3801149686549
 30
0.0
  0
SEQEND
  5
6C
330
69
100
AcDbEntity
  8
_U+30EC_U+30A4_U+30E4_U+30FC 1
 62
   179
420
  2234388
370
     9
  0
POLYLINE
  5
6D
330
1F
100
AcDbEntity
  8
_U+30EC_U+30A4_U+30E4_U+30FC 1
 62
   179
420
  2234388
370
     9
100
AcDb2dPolyline
 66
     1
 10
0.0
 20
0.0
 30
0.0
  0
VERTEX
  5
6E
330
6D
100
AcDbEntity
  8
_U+30EC_U+30A4_U+30E4_U+30FC 1
 62
   179
420
  2234388
370
     9
100
AcDbVertex
100
AcDb2dVertex
 10
77.02218192388932
 20
-105.3801196958771
 30
0.0
  0
VERTEX
  5
6F
330
6D
100
AcDbEntity
  8
_U+30EC_U+30A4_U+30E4_U+30FC 1
 62
   179
420
  2234388
370
     9
100
AcDbVertex
100
AcDb2dVertex
 10
66.05710803696499
 20
-105.3801196958771
 30
0.0
  0
SEQEND
  5
70
330
6D
100
AcDbEntity
  8
_U+30EC_U+30A4_U+30E4_U+30FC 1
 62
   179
420
  2234388
370
     9
  0
INSERT
  5
72
330
1F
100
AcDbEntity
  8
_U+30EC_U+30A4_U+30E4_U+30FC 1
100
AcDbBlockReference
  2
block 4
 10
0.0
 20
0.0
 30
0.0
  0
INSERT
  5
7B
330
1F
100
AcDbEntity
  8
_U+30EC_U+30A4_U+30E4_U+30FC 1
100
AcDbBlockReference
  2
block 5
 10
0.0
 20
0.0
 30
0.0
  0
POLYLINE
  5
83
330
1F
100
AcDbEntity
  8
_U+30EC_U+30A4_U+30E4_U+30FC 1
 62
   179
420
  2234388
370
     9
100
AcDb2dPolyline
 66
     1
 10
0.0
 20
0.0
 30
0.0
  0
VERTEX
  5
84
330
83
100
AcDbEntity
  8
_U+30EC_U+30A4_U+30E4_U+30FC 1
 62
   179
420
  2234388
370
     9
100
AcDbVertex
100
AcDb2dVertex
 10
74.74789420413346
 20
-142.5952471865735
 30
0.0
  0
VERTEX
  5
85
330
83
100
AcDbEntity
  8
_U+30EC_U+30A4_U+30E4_U+30FC 1
 62
   179
420
  2234388
370
     9
100
AcDbVertex
100
AcDb2dVertex
 10
75.65100529220429
 20
-142.073312464482
 30
0.0
  0
SEQEND
  5
86
330
83
100
AcDbEntity
  8
_U+30EC_U+30A4_U+30E4_U+30FC 1
 62
   179
420
  2234388
370
     9
  0
POLYLINE
  5
87
330
1F
100
AcDbEntity
  8
_U+30EC_U+30A4_U+30E4_U+30FC 1
 62
   179
420
  2234388
370
     9
100
AcDb2dPolyline
 66
     1
 10
0.0
 20
0.0
 30
0.0
  0
VERTEX
  5
88
330
87
100
AcDbEntity
  8
_U+30EC_U+30A4_U+30E4_U+30FC 1
 62
   179
420
  2234388
370
     9
100
AcDbVertex
100
AcDb2dVertex
 10
74.74789420413346
 20
-142.5952471865735
 30
0.0
  0
VERTEX
  5
89
330
87
100
AcDbEntity
  8
_U+30EC_U+30A4_U+30E4_U+30FC 1
 62
   179
420
  2234388
370
     9
100
AcDbVertex
100
AcDb2dVertex
 10
88.93548717551114
 20
-127.8817680235851
 30
0.0
  0
SEQEND
  5
8A
330
87
100
AcDbEntity
  8
_U+30EC_U+30A4_U+30E4_U+30FC 1
 62
   179
420
  2234388
370
     9
  0
POLYLINE
  5
8B
330
1F
100
AcDbEntity
  8
_U+30EC_U+30A4_U+30E4_U+30FC 1
 62
   179
420
  2234388
370
     9
100
AcDb2dPolyline
 66
     1
 10
0.0
 20
0.0
 30
0.0
  0
VERTEX
  5
8C
330
8B
100
AcDbEntity
  8
_U+30EC_U+30A4_U+30E4_U+30FC 1
 62
   179
420
  2234388
370
     9
100
AcDbVertex
100
AcDb2dVertex
 10
74.74789420413346
 20
-142.5952471865735
 30
0.0
  0
VERTEX
  5
8D
330
8B
100
AcDbEntity
  8
_U+30EC_U+30A4_U+30E4_U+30FC 1
 62
   179
420
  2234388
370
     9
100
AcDbVertex
100
AcDb2dVertex
 10
75.26965252415563
 20
-141.6923124645766
 30
0.0
  0
SEQEND
  5
8E
330
8B
100
AcDbEntity
  8
_U+30EC_U+30A4_U+30E4_U+30FC 1
 62
   179
420
  2234388
370
     9
  0
INSERT
  5
90
330
1F
100
AcDbEntity
  8
_U+30EC_U+30A4_U+30E4_U+30FC 1
100
AcDbBlockReference
  2
block 6
 10
0.0
 20
0.0
 30
0.0
  0
POLYLINE
  5
9B
330
1F
100
AcDbEntity
  8
_U+30EC_U+30A4_U+30E4_U+30FC 1
 62
   179
420
  2234388
370
     9
100
AcDb2dPolyline
 66
     1
 10
0.0
 20
0.0
 30
0.0
  0
VERTEX
  5
9C
330
9B
100
AcDbEntity
  8
_U+30EC_U+30A4_U+30E4_U+30FC 1
 62
   179
420
  2234388
370
     9
100
AcDbVertex
100
AcDb2dVertex
 10
115.8888728767619
 20
-139.0908938541162
 30
0.0
  0
VERTEX
  5
9D
330
9B
100
AcDbEntity
  8
_U+30EC_U+30A4_U+30E4_U+30FC 1
 62
   179
420
  2234388
370
     9
100
AcDbVertex
100
AcDb2dVertex
 10
115.8888728767619
 20
-137.9388627432929
 30
0.0
  0
SEQEND
  5
9E
330
9B
100
AcDbEntity
  8
_U+30EC_U+30A4_U+30E4_U+30FC 1
 62
   179
420
  2234388
370
     9
  0
POLYLINE
  5
9F
330
1F
100
AcDbEntity
  8
_U+30EC_U+30A4_U+30E4_U+30FC 1
 62
   179
420
  2234388
370
     9
100
AcDb2dPolyline
 66
     1
 10
0.0
 20
0.0
 30
0.0
  0
VERTEX
  5
A0
330
9F
100
AcDbEntity
  8
_U+30EC_U+30A4_U+30E4_U+30FC 1
 62
   179
420
  2234388
370
     9
100
AcDbVertex
100
AcDb2dVertex
 10
115.8882055265836
 20
-145.3713260747681
 30
0.0
  0
VERTEX
  5
A1
330
9F
100
AcDbEntity
  8
_U+30EC_U+30A4_U+30E4_U+30FC 1
 62
   179
420
  2234388
370
     9
100
AcDbVertex
100
AcDb2dVertex
 10
115.8882055265836
 20
-139.0908938541162
 30
0.0
  0
SEQEND
  5
A2
330
9F
100
AcDbEntity
  8
_U+30EC_U+30A4_U+30E4_U+30FC 1
 62
   179
420
  2234388
370
     9
  0
POLYLINE
  5
A3
330
1F
100
AcDbEntity
  8
_U+30EC_U+30A4_U+30E4_U+30FC 1
 62
   179
420
  2234388
370
     9
100
AcDb2dPolyline
 66
     1
 10
0.0
 20
0.0
 30
0.0
  0
VERTEX
  5
A4
330
A3
100
AcDbEntity
  8
_U+30EC_U+30A4_U+30E4_U+30FC 1
 62
   179
420
  2234388
370
     9
100
AcDbVertex
100
AcDb2dVertex
 10
117.2407172867179
 20
-145.3802866303216
 30
0.0
  0
VERTEX
  5
A5
330
A3
100
AcDbEntity
  8
_U+30EC_U+30A4_U+30E4_U+30FC 1
 62
   179
420
  2234388
370
     9
100
AcDbVertex
100
AcDb2dVertex
 10
92.82225152079596
 20
-145.3802866303216
 30
0.0
  0
SEQEND
  5
A6
330
A3
100
AcDbEntity
  8
_U+30EC_U+30A4_U+30E4_U+30FC 1
 62
   179
420
  2234388
370
     9
  0
POLYLINE
  5
A7
330
1F
100
AcDbEntity
  8
_U+30EC_U+30A4_U+30E4_U+30FC 1
 62
   179
420
  2234388
370
     9
100
AcDb2dPolyline
 66
     1
 10
0.0
 20
0.0
 30
0.0
  0
VERTEX
  5
A8
330
A7
100
AcDbEntity
  8
_U+30EC_U+30A4_U+30E4_U+30FC 1
 62
   179
420
  2234388
370
     9
100
AcDbVertex
100
AcDb2dVertex
 10
117.2407172867179
 20
-138.8800738541692
 30
0.0
  0
VERTEX
  5
A9
330
A7
100
AcDbEntity
  8
_U+30EC_U+30A4_U+30E4_U+30FC 1
 62
   179
420
  2234388
370
     9
100
AcDbVertex
100
AcDb2dVertex
 10
112.8220346216701
 20
-138.8800738541692
 30
0.0
  0
SEQEND
  5
AA
330
A7
100
AcDbEntity
  8
_U+30EC_U+30A4_U+30E4_U+30FC 1
 62
   179
420
  2234388
370
     9
  0
POLYLINE
  5
AB
330
1F
100
AcDbEntity
  8
_U+30EC_U+30A4_U+30E4_U+30FC 1
 62
   179
420
  2234388
370
     9
100
AcDb2dPolyline
 66
     1
 10
0.0
 20
0.0
 30
0.0
  0
VERTEX
  5
AC
330
AB
100
AcDbEntity
  8
_U+30EC_U+30A4_U+30E4_U+30FC 1
 62
   179
420
  2234388
370
     9
100
AcDbVertex
100
AcDb2dVertex
 10
117.2407172867179
 20
-137.9388627432929
 30
0.0
  0
VERTEX
  5
AD
330
AB
100
AcDbEntity
  8
_U+30EC_U+30A4_U+30E4_U+30FC 1
 62
   179
420
  2234388
370
     9
100
AcDbVertex
100
AcDb2dVertex
 10
112.8220346216701
 20
-137.9388627432929
 30
0.0
  0
SEQEND
  5
AE
330
AB
100
AcDbEntity
  8
_U+30EC_U+30A4_U+30E4_U+30FC 1
 62
   179
420
  2234388
370
     9
  0
INSERT
  5
B0
330
1F
100
AcDbEntity
  8
_U+30EC_U+30A4_U+30E4_U+30FC 1
100
AcDbBlockReference
  2
block 7
 10
0.0
 20
0.0
 30
0.0
  0
INSERT
  5
C1
330
1F
100
AcDbEntity
  8
_U+30EC_U+30A4_U+30E4_U+30FC 1
100
AcDbBlockReference
  2
block 8
 10
0.0
 20
0.0
 30
0.0
  0
SPLINE
  5
C6
330
1F
100
AcDbEntity
  8
_U+30EC_U+30A4_U+30E4_U+30FC 1
 62
   179
420
  2234388
370
     9
100
AcDbSpline
210
0.0
220
0.0
230
1.0
 70
    11
 71
     3
 72
    17
 73
    13
 74
     0
 42
0.0000000001
 43
0.0000000001
 12
1.0
 22
0.0
 32
0.0
 13
1.0
 23
0.0
 33
0.0
 40
0.0
 40
0.0
 40
0.0
 40
0.0
 40
1.0
 40
1.0
 40
1.0
 40
2.0
 40
2.0
 40
2.0
 40
3.0
 40
3.0
 40
3.0
 40
4.0
 40
4.0
 40
4.0
 40
4.0
 10
67.75555831639448
 20
-105.4109524736473
 30
0.0
 10
67.75555831639448
 20
-105.356024973661
 30
0.0
 10
67.71075553862777
 20
-105.311574973672
 30
0.0
 10
67.65529716285846
 20
-105.311574973672
 30
0.0
 10
67.60068887198865
 20
-105.311574973672
 30
0.0
 10
67.55591966539379
 20
-105.356024973661
 30
0.0
 10
67.55591966539379
 20
-105.4109524736473
 30
0.0
 10
67.55591966539379
 20
-105.466268029189
 30
0.0
 10
67.60068887198865
 20
-105.5112119180667
 30
0.0
 10
67.65529716285846
 20
-105.5112119180667
 30
0.0
 10
67.71075553862777
 20
-105.5112119180667
 30
0.0
 10
67.75555831639448
 20
-105.466268029189
 30
0.0
 10
67.75555831639448
 20
-105.4109524736473
 30
0.0
  0
SPLINE
  5
C7
330
1F
100
AcDbEntity
  8
_U+30EC_U+30A4_U+30E4_U+30FC 1
 62
   179
420
  2234388
370
     9
100
AcDbSpline
210
0.0
220
0.0
230
1.0
 70
    11
 71
     3
 72
    17
 73
    13
 74
     0
 42
0.0000000001
 43
0.0000000001
 12
1.0
 22
0.0
 32
0.0
 13
1.0
 23
0.0
 33
0.0
 40
0.0
 40
0.0
 40
0.0
 40
0.0
 40
1.0
 40
1.0
 40
1.0
 40
2.0
 40
2.0
 40
2.0
 40
3.0
 40
3.0
 40
3.0
 40
4.0
 40
4.0
 40
4.0
 40
4.0
 10
67.77241938209265
 20
-125.3785627464332
 30
0.0
 10
67.77241938209265
 20
-125.323599968669
 30
0.0
 10
67.72765188323476
 20
-125.2786560797915
 30
0.0
 10
67.67251271797481
 20
-125.2786560797915
 30
0.0
 10
67.61758521937612
 20
-125.2786560797915
 30
0.0
 10
67.57278244274137
 20
-125.323599968669
 30
0.0
 10
67.57278244274137
 20
-125.3785627464332
 30
0.0
 10
67.57278244274137
 20
-125.4343721908636
 30
0.0
 10
67.61758521937612
 20
-125.4784694130748
 30
0.0
 10
67.67251271797481
 20
-125.4784694130748
 30
0.0
 10
67.72765188323476
 20
-125.4784694130748
 30
0.0
 10
67.77241938209265
 20
-125.4343721908636
 30
0.0
 10
67.77241938209265
 20
-125.3785627464332
 30
0.0
  0
SPLINE
  5
C8
330
1F
100
AcDbEntity
  8
_U+30EC_U+30A4_U+30E4_U+30FC 1
 62
   179
420
  2234388
370
     9
100
AcDbSpline
210
0.0
220
0.0
230
1.0
 70
    11
 71
     3
 72
    17
 73
    13
 74
     0
 42
0.0000000001
 43
0.0000000001
 12
1.0
 22
0.0
 32
0.0
 13
1.0
 23
0.0
 33
0.0
 40
0.0
 40
0.0
 40
0.0
 40
0.0
 40
1.0
 40
1.0
 40
1.0
 40
2.0
 40
2.0
 40
2.0
 40
3.0
 40
3.0
 40
3.0
 40
4.0
 40
4.0
 40
4.0
 40
4.0
 10
67.74469104946672
 20
-145.3754535747674
 30
0.0
 10
67.74469104946672
 20
-145.3203144081143
 30
0.0
 10
67.70027632837761
 20
-145.2758996859035
 30
0.0
 10
67.64478609419984
 20
-145.2758996859035
 30
0.0
 10
67.58950410898143
 20
-145.2758996859035
 30
0.0
 10
67.54505411011544
 20
-145.3203144081143
 30
0.0
 10
67.54505411011544
 20
-145.3754535747674
 30
0.0
 10
67.54505411011544
 20
-145.4312630191978
 30
0.0
 10
67.58950410898143
 20
-145.4760305191864
 30
0.0
 10
67.64478609419984
 20
-145.4760305191864
 30
0.0
 10
67.70027632837761
 20
-145.4760305191864
 30
0.0
 10
67.74469104946672
 20
-145.4312630191978
 30
0.0
 10
67.74469104946672
 20
-145.3754535747674
 30
0.0
  0
SPLINE
  5
C9
330
1F
100
AcDbEntity
  8
_U+30EC_U+30A4_U+30E4_U+30FC 1
 62
   179
420
  2234388
370
     9
100
AcDbSpline
210
0.0
220
0.0
230
1.0
 70
    11
 71
     3
 72
    17
 73
    13
 74
     0
 42
0.0000000001
 43
0.0000000001
 12
1.0
 22
0.0
 32
0.0
 13
1.0
 23
0.0
 33
0.0
 40
0.0
 40
0.0
 40
0.0
 40
0.0
 40
1.0
 40
1.0
 40
1.0
 40
2.0
 40
2.0
 40
2.0
 40
3.0
 40
3.0
 40
3.0
 40
4.0
 40
4.0
 40
4.0
 40
4.0
 10
71.78787705742756
 20
-149.6277310737045
 30
0.0
 10
71.78787705742756
 20
-149.5726271848289
 30
0.0
 10
71.7430742807928
 20
-149.5278244070622
 30
0.0
 10
71.68761942652249
 20
-149.5278244070622
 30
0.0
 10
71.63300761693417
 20
-149.5278244070622
 30
0.0
 10
71.58820484029941
 20
-149.5726271848289
 30
0.0
 10
71.58820484029941
 20
-149.6277310737045
 30
0.0
 10
71.58820484029941
 20
-149.6831877403572
 30
0.0
 10
71.63300761693417
 20
-149.7279905181239
 30
0.0
 10
71.68761942652249
 20
-149.7279905181239
 30
0.0
 10
71.7430742807928
 20
-149.7279905181239
 30
0.0
 10
71.78787705742756
 20
-149.6831877403572
 30
0.0
 10
71.78787705742756
 20
-149.6277310737045
 30
0.0
  0
SPLINE
  5
CA
330
1F
100
AcDbEntity
  8
_U+30EC_U+30A4_U+30E4_U+30FC 1
 62
   179
420
  2234388
370
     9
100
AcDbSpline
210
0.0
220
0.0
230
1.0
 70
    11
 71
     3
 72
    17
 73
    13
 74
     0
 42
0.0000000001
 43
0.0000000001
 12
1.0
 22
0.0
 32
0.0
 13
1.0
 23
0.0
 33
0.0
 40
0.0
 40
0.0
 40
0.0
 40
0.0
 40
1.0
 40
1.0
 40
1.0
 40
2.0
 40
2.0
 40
2.0
 40
3.0
 40
3.0
 40
3.0
 40
4.0
 40
4.0
 40
4.0
 40
4.0
 10
91.76010821456016
 20
-149.621169407039
 30
0.0
 10
91.76010821456016
 20
-149.6763085736921
 30
0.0
 10
91.71534071570228
 20
-149.7211113514588
 30
0.0
 10
91.66020155044232
 20
-149.7211113514588
 30
0.0
 10
91.60509997709862
 20
-149.7211113514588
 30
0.0
 10
91.56029719933188
 20
-149.6763085736921
 30
0.0
 10
91.56029719933188
 20
-149.621169407039
 30
0.0
 10
91.56029719933188
 20
-149.5660655181641
 30
0.0
 10
91.60509997709862
 20
-149.5212627403974
 30
0.0
 10
91.66020155044232
 20
-149.5212627403974
 30
0.0
 10
91.71534071570228
 20
-149.5212627403974
 30
0.0
 10
91.76010821456016
 20
-149.5660655181641
 30
0.0
 10
91.76010821456016
 20
-149.621169407039
 30
0.0
  0
HATCH
  5
CB
330
1F
100
AcDbEntity
  8
_U+30EC_U+30A4_U+30E4_U+30FC 1
 62
   179
420
  2234388
100
AcDbHatch
 10
0.0
 20
0.0
 30
0.0
210
0.0
220
0.0
230
1.0
  2
SOLID
 70
     1
 71
     0
 91
        1
 92
        1
 93
        1
 72
     4
 94
        3
 73
     0
 74
     1
 95
       17
 96
       13
 40
0.0
 40
0.0
 40
0.0
 40
0.0
 40
1.0
 40
1.0
 40
1.0
 40
2.0
 40
2.0
 40
2.0
 40
3.0
 40
3.0
 40
3.0
 40
4.0
 40
4.0
 40
4.0
 40
4.0
 10
91.76010821456016
 20
-149.621169407039
 10
91.76010821456016
 20
-149.6763085736921
 10
91.71534071570228
 20
-149.7211113514588
 10
91.66020155044232
 20
-149.7211113514588
 10
91.60509997709862
 20
-149.7211113514588
 10
91.56029719933188
 20
-149.6763085736921
 10
91.56029719933188
 20
-149.621169407039
 10
91.56029719933188
 20
-149.5660655181641
 10
91.60509997709862
 20
-149.5212627403974
 10
91.66020155044232
 20
-149.5212627403974
 10
91.71534071570228
 20
-149.5212627403974
 10
91.76010821456016
 20
-149.5660655181641
 10
91.76010821456016
 20
-149.621169407039
 97
        0
 97
        0
 75
     2
 76
     1
 98
        0
  0
SPLINE
  5
CC
330
1F
100
AcDbEntity
  8
_U+30EC_U+30A4_U+30E4_U+30FC 1
 62
   179
420
  2234388
370
     9
100
AcDbSpline
210
0.0
220
0.0
230
1.0
 70
    11
 71
     3
 72
    17
 73
    13
 74
     0
 42
0.0000000001
 43
0.0000000001
 12
1.0
 22
0.0
 32
0.0
 13
1.0
 23
0.0
 33
0.0
 40
0.0
 40
0.0
 40
0.0
 40
0.0
 40
1.0
 40
1.0
 40
1.0
 40
2.0
 40
2.0
 40
2.0
 40
3.0
 40
3.0
 40
3.0
 40
4.0
 40
4.0
 40
4.0
 40
4.0
 10
115.988109263119
 20
-145.3713260747681
 30
0.0
 10
115.988109263119
 20
-145.4264299636437
 30
0.0
 10
115.9433064864843
 20
-145.4712327414098
 30
0.0
 10
115.8882055265836
 20
-145.4712327414098
 30
0.0
 10
115.8330634337412
 20
-145.4712327414098
 30
0.0
 10
115.7882959348834
 20
-145.4264299636437
 30
0.0
 10
115.7882959348834
 20
-145.3713260747681
 30
0.0
 10
115.7882959348834
 20
-145.3161869081157
 30
0.0
 10
115.8330634337412
 20
-145.2714194081265
 30
0.0
 10
115.8882055265836
 20
-145.2714194081265
 30
0.0
 10
115.9433064864843
 20
-145.2714194081265
 30
0.0
 10
115.988109263119
 20
-145.3161869081157
 30
0.0
 10
115.988109263119
 20
-145.3713260747681
 30
0.0
  0
HATCH
  5
CD
330
1F
100
AcDbEntity
  8
_U+30EC_U+30A4_U+30E4_U+30FC 1
 62
   179
420
  2234388
100
AcDbHatch
 10
0.0
 20
0.0
 30
0.0
210
0.0
220
0.0
230
1.0
  2
SOLID
 70
     1
 71
     0
 91
        1
 92
        1
 93
        1
 72
     4
 94
        3
 73
     0
 74
     1
 95
       17
 96
       13
 40
0.0
 40
0.0
 40
0.0
 40
0.0
 40
1.0
 40
1.0
 40
1.0
 40
2.0
 40
2.0
 40
2.0
 40
3.0
 40
3.0
 40
3.0
 40
4.0
 40
4.0
 40
4.0
 40
4.0
 10
115.988109263119
 20
-145.3713260747681
 10
115.988109263119
 20
-145.4264299636437
 10
115.9433064864843
 20
-145.4712327414098
 10
115.8882055265836
 20
-145.4712327414098
 10
115.8330634337412
 20
-145.4712327414098
 10
115.7882959348834
 20
-145.4264299636437
 10
115.7882959348834
 20
-145.3713260747681
 10
115.7882959348834
 20
-145.3161869081157
 10
115.8330634337412
 20
-145.2714194081265
 10
115.8882055265836
 20
-145.2714194081265
 10
115.9433064864843
 20
-145.2714194081265
 10
115.988109263119
 20
-145.3161869081157
 10
115.988109263119
 20
-145.3713260747681
 97
        0
 97
        0
 75
     2
 76
     1
 98
        0
  0
SPLINE
  5
CE
330
1F
100
AcDbEntity
  8
_U+30EC_U+30A4_U+30E4_U+30FC 1
 62
   179
420
  2234388
370
     9
100
AcDbSpline
210
0.0
220
0.0
230
1.0
 70
    11
 71
     3
 72
    17
 73
    13
 74
     0
 42
0.0000000001
 43
0.0000000001
 12
1.0
 22
0.0
 32
0.0
 13
1.0
 23
0.0
 33
0.0
 40
0.0
 40
0.0
 40
0.0
 40
0.0
 40
1.0
 40
1.0
 40
1.0
 40
2.0
 40
2.0
 40
2.0
 40
3.0
 40
3.0
 40
3.0
 40
4.0
 40
4.0
 40
4.0
 40
4.0
 10
115.988109263119
 20
-138.8800738541692
 30
0.0
 10
115.988109263119
 20
-138.9351777430441
 30
0.0
 10
115.9433064864843
 20
-138.9799805208108
 30
0.0
 10
115.8882055265836
 20
-138.9799805208108
 30
0.0
 10
115.8330634337412
 20
-138.9799805208108
 30
0.0
 10
115.7882959348834
 20
-138.9351777430441
 30
0.0
 10
115.7882959348834
 20
-138.8800738541692
 30
0.0
 10
115.7882959348834
 20
-138.8249346875161
 30
0.0
 10
115.8330634337412
 20
-138.7801671875269
 30
0.0
 10
115.8882055265836
 20
-138.7801671875269
 30
0.0
 10
115.9433064864843
 20
-138.7801671875269
 30
0.0
 10
115.988109263119
 20
-138.8249346875161
 30
0.0
 10
115.988109263119
 20
-138.8800738541692
 30
0.0
  0
HATCH
  5
CF
330
1F
100
AcDbEntity
  8
_U+30EC_U+30A4_U+30E4_U+30FC 1
 62
   179
420
  2234388
100
AcDbHatch
 10
0.0
 20
0.0
 30
0.0
210
0.0
220
0.0
230
1.0
  2
SOLID
 70
     1
 71
     0
 91
        1
 92
        1
 93
        1
 72
     4
 94
        3
 73
     0
 74
     1
 95
       17
 96
       13
 40
0.0
 40
0.0
 40
0.0
 40
0.0
 40
1.0
 40
1.0
 40
1.0
 40
2.0
 40
2.0
 40
2.0
 40
3.0
 40
3.0
 40
3.0
 40
4.0
 40
4.0
 40
4.0
 40
4.0
 10
115.988109263119
 20
-138.8800738541692
 10
115.988109263119
 20
-138.9351777430441
 10
115.9433064864843
 20
-138.9799805208108
 10
115.8882055265836
 20
-138.9799805208108
 10
115.8330634337412
 20
-138.9799805208108
 10
115.7882959348834
 20
-138.9351777430441
 10
115.7882959348834
 20
-138.8800738541692
 10
115.7882959348834
 20
-138.8249346875161
 10
115.8330634337412
 20
-138.7801671875269
 10
115.8882055265836
 20
-138.7801671875269
 10
115.9433064864843
 20
-138.7801671875269
 10
115.988109263119
 20
-138.8249346875161
 10
115.988109263119
 20
-138.8800738541692
 97
        0
 97
        0
 75
     2
 76
     1
 98
        0
  0
SPLINE
  5
D0
330
1F
100
AcDbEntity
  8
_U+30EC_U+30A4_U+30E4_U+30FC 1
 62
   179
420
  2234388
370
     9
100
AcDbSpline
210
0.0
220
0.0
230
1.0
 70
    11
 71
     3
 72
    17
 73
    13
 74
     0
 42
0.0000000001
 43
0.0000000001
 12
1.0
 22
0.0
 32
0.0
 13
1.0
 23
0.0
 33
0.0
 40
0.0
 40
0.0
 40
0.0
 40
0.0
 40
1.0
 40
1.0
 40
1.0
 40
2.0
 40
2.0
 40
2.0
 40
3.0
 40
3.0
 40
3.0
 40
4.0
 40
4.0
 40
4.0
 40
4.0
 10
115.988109263119
 20
-137.9388627432929
 30
0.0
 10
115.988109263119
 20
-137.994001909946
 30
0.0
 10
115.9433064864843
 20
-138.0387694099345
 30
0.0
 10
115.8882055265836
 20
-138.0387694099345
 30
0.0
 10
115.8330634337412
 20
-138.0387694099345
 30
0.0
 10
115.7882959348834
 20
-137.994001909946
 30
0.0
 10
115.7882959348834
 20
-137.9388627432929
 30
0.0
 10
115.7882959348834
 20
-137.8837588544179
 30
0.0
 10
115.8330634337412
 20
-137.8389560766512
 30
0.0
 10
115.8882055265836
 20
-137.8389560766512
 30
0.0
 10
115.9433064864843
 20
-137.8389560766512
 30
0.0
 10
115.988109263119
 20
-137.8837588544179
 30
0.0
 10
115.988109263119
 20
-137.9388627432929
 30
0.0
  0
HATCH
  5
D1
330
1F
100
AcDbEntity
  8
_U+30EC_U+30A4_U+30E4_U+30FC 1
 62
   179
420
  2234388
100
AcDbHatch
 10
0.0
 20
0.0
 30
0.0
210
0.0
220
0.0
230
1.0
  2
SOLID
 70
     1
 71
     0
 91
        1
 92
        1
 93
        1
 72
     4
 94
        3
 73
     0
 74
     1
 95
       17
 96
       13
 40
0.0
 40
0.0
 40
0.0
 40
0.0
 40
1.0
 40
1.0
 40
1.0
 40
2.0
 40
2.0
 40
2.0
 40
3.0
 40
3.0
 40
3.0
 40
4.0
 40
4.0
 40
4.0
 40
4.0
 10
115.988109263119
 20
-137.9388627432929
 10
115.988109263119
 20
-137.994001909946
 10
115.9433064864843
 20
-138.0387694099345
 10
115.8882055265836
 20
-138.0387694099345
 10
115.8330634337412
 20
-138.0387694099345
 10
115.7882959348834
 20
-137.994001909946
 10
115.7882959348834
 20
-137.9388627432929
 10
115.7882959348834
 20
-137.8837588544179
 10
115.8330634337412
 20
-137.8389560766512
 10
115.8882055265836
 20
-137.8389560766512
 10
115.9433064864843
 20
-137.8389560766512
 10
115.988109263119
 20
-137.8837588544179
 10
115.988109263119
 20
-137.9388627432929
 97
        0
 97
        0
 75
     2
 76
     1
 98
        0
  0
SPLINE
  5
D2
330
1F
100
AcDbEntity
  8
_U+30EC_U+30A4_U+30E4_U+30FC 1
 62
   179
420
  2234388
370
     9
100
AcDbSpline
210
0.0
220
0.0
230
1.0
 70
    11
 71
     3
 72
    17
 73
    13
 74
     0
 42
0.0000000001
 43
0.0000000001
 12
1.0
 22
0.0
 32
0.0
 13
1.0
 23
0.0
 33
0.0
 40
0.0
 40
0.0
 40
0.0
 40
0.0
 40
1.0
 40
1.0
 40
1.0
 40
2.0
 40
2.0
 40
2.0
 40
3.0
 40
3.0
 40
3.0
 40
4.0
 40
4.0
 40
4.0
 40
4.0
 10
81.76175124741728
 20
-149.621169407039
 30
0.0
 10
81.76175124741728
 20
-149.6763085736921
 30
0.0
 10
81.7169837485594
 20
-149.7211113514588
 30
0.0
 10
81.66184458329944
 20
-149.7211113514588
 30
0.0
 10
81.60656430693199
 20
-149.7211113514588
 30
0.0
 10
81.56176153029722
 20
-149.6763085736921
 30
0.0
 10
81.56176153029722
 20
-149.621169407039
 30
0.0
 10
81.56176153029722
 20
-149.5660655181641
 30
0.0
 10
81.60656430693199
 20
-149.5212627403974
 30
0.0
 10
81.66184458329944
 20
-149.5212627403974
 30
0.0
 10
81.7169837485594
 20
-149.5212627403974
 30
0.0
 10
81.76175124741728
 20
-149.5660655181641
 30
0.0
 10
81.76175124741728
 20
-149.621169407039
 30
0.0
  0
HATCH
  5
D3
330
1F
100
AcDbEntity
  8
_U+30EC_U+30A4_U+30E4_U+30FC 1
 62
   179
420
  2234388
100
AcDbHatch
 10
0.0
 20
0.0
 30
0.0
210
0.0
220
0.0
230
1.0
  2
SOLID
 70
     1
 71
     0
 91
        1
 92
        1
 93
        1
 72
     4
 94
        3
 73
     0
 74
     1
 95
       17
 96
       13
 40
0.0
 40
0.0
 40
0.0
 40
0.0
 40
1.0
 40
1.0
 40
1.0
 40
2.0
 40
2.0
 40
2.0
 40
3.0
 40
3.0
 40
3.0
 40
4.0
 40
4.0
 40
4.0
 40
4.0
 10
81.76175124741728
 20
-149.621169407039
 10
81.76175124741728
 20
-149.6763085736921
 10
81.7169837485594
 20
-149.7211113514588
 10
81.66184458329944
 20
-149.7211113514588
 10
81.60656430693199
 20
-149.7211113514588
 10
81.56176153029722
 20
-149.6763085736921
 10
81.56176153029722
 20
-149.621169407039
 10
81.56176153029722
 20
-149.5660655181641
 10
81.60656430693199
 20
-149.5212627403974
 10
81.66184458329944
 20
-149.5212627403974
 10
81.7169837485594
 20
-149.5212627403974
 10
81.76175124741728
 20
-149.5660655181641
 10
81.76175124741728
 20
-149.621169407039
 97
        0
 97
        0
 75
     2
 76
     1
 98
        0
  0
POLYLINE
  5
D4
330
1F
100
AcDbEntity
  8
_U+30EC_U+30A4_U+30E4_U+30FC 1
 62
   179
420
  2234388
370
     9
100
AcDb2dPolyline
 66
     1
 10
0.0
 20
0.0
 30
0.0
  0
VERTEX
  5
D5
330
D4
100
AcDbEntity
  8
_U+30EC_U+30A4_U+30E4_U+30FC 1
 62
   179
420
  2234388
370
     9
100
AcDbVertex
100
AcDb2dVertex
 10
71.6720972043042
 20
-151.7892005176081
 30
0.0
  0
VERTEX
  5
D6
330
D4
100
AcDbEntity
  8
_U+30EC_U+30A4_U+30E4_U+30FC 1
 62
   179
420
  2234388
370
     9
100
AcDbVertex
100
AcDb2dVertex
 10
71.6720972043042
 20
-138.8800738541692
 30
0.0
  0
SEQEND
  5
D7
330
D4
100
AcDbEntity
  8
_U+30EC_U+30A4_U+30E4_U+30FC 1
 62
   179
420
  2234388
370
     9
  0
POLYLINE
  5
D8
330
1F
100
AcDbEntity
  8
_U+30EC_U+30A4_U+30E4_U+30FC 1
 62
   179
420
  2234388
370
     9
100
AcDb2dPolyline
 66
     1
 10
0.0
 20
0.0
 30
0.0
  0
VERTEX
  5
D9
330
D8
100
AcDbEntity
  8
_U+30EC_U+30A4_U+30E4_U+30FC 1
 62
   179
420
  2234388
370
     9
100
AcDbVertex
100
AcDb2dVertex
 10
91.67226655013452
 20
-151.5797210732164
 30
0.0
  0
VERTEX
  5
DA
330
D8
100
AcDbEntity
  8
_U+30EC_U+30A4_U+30E4_U+30FC 1
 62
   179
420
  2234388
370
     9
100
AcDbVertex
100
AcDb2dVertex
 10
91.67226655013452
 20
-148.5969496850729
 30
0.0
  0
SEQEND
  5
DB
330
D8
100
AcDbEntity
  8
_U+30EC_U+30A4_U+30E4_U+30FC 1
 62
   179
420
  2234388
370
     9
  0
ENDSEC
  0
SECTION
  2
OBJECTS
  0
DICTIONARY
  5
C
330
0
100
AcDbDictionary
281
     1
  3
ACAD_GROUP
350
D
  3
ACAD_LAYOUT
350
1A
  3
ACAD_MATERIAL
350
3B
  3
ACAD_MLEADERSTYLE
350
DD
  3
ACAD_MLINESTYLE
350
17
  3
ACAD_PLOTSETTINGS
350
19
  3
ACAD_PLOTSTYLENAME
350
E
  3
ACAD_TABLESTYLE
350
DC
  3
ACAD_VISUALSTYLE
350
2A
  0
SUN
  5
3F
330
29
100
AcDbSun
 90
        1
290
     0
 63
     7
421
 16777215
 40
1.0
291
     1
 91
  2455826
 92
 54000000
292
     0
 70
     2
 71
   256
280
     1
  0
DICTIONARY
  5
D
102
{ACAD_REACTORS
330
C
102
}
330
C
100
AcDbDictionary
281
     1
  0
DICTIONARY
  5
1A
102
{ACAD_REACTORS
330
C
102
}
330
C
100
AcDbDictionary
281
     1
  3
Layout1
350
1E
  3
Layout2
350
26
  3
Model
350
22
  0
DICTIONARY
  5
3B
102
{ACAD_REACTORS
330
C
102
}
330
C
100
AcDbDictionary
281
     1
  3
ByBlock
350
3D
  3
ByLayer
350
3C
  3
Global
350
3E
  0
DICTIONARY
  5
DD
102
{ACAD_REACTORS
330
C
102
}
330
C
100
AcDbDictionary
281
     1
  0
DICTIONARY
  5
17
102
{ACAD_REACTORS
330
C
102
}
330
C
100
AcDbDictionary
281
     1
  3
Standard
350
18
  0
DICTIONARY
  5
19
102
{ACAD_REACTORS
330
C
102
}
330
C
100
AcDbDictionary
281
     1
  0
ACDBDICTIONARYWDFLT
  5
E
102
{ACAD_REACTORS
330
C
102
}
330
C
100
AcDbDictionary
281
     1
  3
Normal
350
F
100
AcDbDictionaryWithDefault
340
F
  0
DICTIONARY
  5
DC
102
{ACAD_REACTORS
330
C
102
}
330
C
100
AcDbDictionary
281
     1
  0
DICTIONARY
  5
2A
102
{ACAD_REACTORS
330
C
102
}
330
C
100
AcDbDictionary
281
     1
  3
2dWireframe
350
2F
  3
3D Hidden
350
31
  3
3dWireframe
350
30
  3
Basic
350
32
  3
Brighten
350
36
  3
ColorChange
350
3A
  3
Conceptual
350
34
  3
Dim
350
35
  3
Facepattern
350
39
  3
Flat
350
2B
  3
FlatWithEdges
350
2C
  3
Gouraud
350
2D
  3
GouraudWithEdges
350
2E
  3
Linepattern
350
38
  3
Realistic
350
33
  3
Thicken
350
37
  0
LAYOUT
  5
1E
102
{ACAD_REACTORS
330
1A
102
}
330
1A
100
AcDbPlotSettings
  1

  2
none_device
  4

  6

 40
0.0
 41
0.0
 42
0.0
 43
0.0
 44
0.0
 45
0.0
 46
0.0
 47
0.0
 48
0.0
 49
0.0
140
0.0
141
0.0
142
1.0
143
1.0
 70
   688
 72
     0
 73
     0
 74
     5
  7

 75
    16
 76
     0
 77
     2
 78
   300
147
1.0
148
0.0
149
0.0
100
AcDbLayout
  1
Layout1
 70
     1
 71
     1
 10
0.0
 20
0.0
 11
12.0
 21
9.0
 12
0.0
 22
0.0
 32
0.0
 14
1.000000000000000E+20
 24
1.000000000000000E+20
 34
1.000000000000000E+20
 15
-1.000000000000000E+20
 25
-1.000000000000000E+20
 35
-1.000000000000000E+20
146
0.0
 13
0.0
 23
0.0
 33
0.0
 16
1.0
 26
0.0
 36
0.0
 17
0.0
 27
1.0
 37
0.0
 76
     0
330
1B
  0
LAYOUT
  5
26
102
{ACAD_REACTORS
330
1A
102
}
330
1A
100
AcDbPlotSettings
  1

  2
none_device
  4

  6

 40
0.0
 41
0.0
 42
0.0
 43
0.0
 44
0.0
 45
0.0
 46
0.0
 47
0.0
 48
0.0
 49
0.0
140
0.0
141
0.0
142
1.0
143
1.0
 70
   688
 72
     0
 73
     0
 74
     5
  7

 75
    16
 76
     0
 77
     2
 78
   300
147
1.0
148
0.0
149
0.0
100
AcDbLayout
  1
Layout2
 70
     1
 71
     2
 10
0.0
 20
0.0
 11
0.0
 21
0.0
 12
0.0
 22
0.0
 32
0.0
 14
0.0
 24
0.0
 34
0.0
 15
0.0
 25
0.0
 35
0.0
146
0.0
 13
0.0
 23
0.0
 33
0.0
 16
1.0
 26
0.0
 36
0.0
 17
0.0
 27
1.0
 37
0.0
 76
     0
330
23
  0
LAYOUT
  5
22
102
{ACAD_REACTORS
330
1A
102
}
330
1A
100
AcDbPlotSettings
  1

  2
none_device
  4

  6

 40
0.0
 41
0.0
 42
0.0
 43
0.0
 44
0.0
 45
0.0
 46
0.0
 47
0.0
 48
0.0
 49
0.0
140
0.0
141
0.0
142
1.0
143
1.0
 70
  1712
 72
     0
 73
     0
 74
     0
  7

 75
     0
 76
     0
 77
     2
 78
   300
147
1.0
148
0.0
149
0.0
100
AcDbLayout
  1
Model
 70
     1
 71
     0
 10
0.0
 20
0.0
 11
12.0
 21
9.0
 12
0.0
 22
0.0
 32
0.0
 14
1.000000000000000E+20
 24
1.000000000000000E+20
 34
1.000000000000000E+20
 15
-1.000000000000000E+20
 25
-1.000000000000000E+20
 35
-1.000000000000000E+20
146
0.0
 13
0.0
 23
0.0
 33
0.0
 16
1.0
 26
0.0
 36
0.0
 17
0.0
 27
1.0
 37
0.0
 76
     0
330
1F
331
29
  0
MATERIAL
  5
3D
102
{ACAD_REACTORS
330
3B
102
}
330
3B
100
AcDbMaterial
  1
ByBlock
 72
     1
 94
      127
  0
MATERIAL
  5
3C
102
{ACAD_REACTORS
330
3B
102
}
330
3B
100
AcDbMaterial
  1
ByLayer
 72
     1
 94
      127
  0
MATERIAL
  5
3E
102
{ACAD_REACTORS
330
3B
102
}
330
3B
100
AcDbMaterial
  1
Global
 72
     1
 94
      127
  0
MLINESTYLE
  5
18
102
{ACAD_REACTORS
330
17
102
}
330
17
100
AcDbMlineStyle
  2
Standard
 70
     0
  3

 62
   256
 51
90.0
 52
90.0
 71
     2
 49
0.5
 62
   256
  6
BYLAYER
 49
-0.5
 62
   256
  6
BYLAYER
  0
ACDBPLACEHOLDER
  5
F
102
{ACAD_REACTORS
330
E
102
}
330
E
  0
VISUALSTYLE
  5
2F
102
{ACAD_REACTORS
330
2A
102
}
330
2A
100
AcDbVisualStyle
  2
2dWireframe
 70
     4
177
     2
291
     0
 71
     0
176
     1
 72
     2
176
     1
 73
     0
176
     1
 90
        0
176
     1
 40
-0.6
176
     1
 41
-30.0
176
     1
 62
     5
 63
     7
421
 16777215
176
     1
 74
     1
176
     1
 91
        4
176
     1
 64
     7
176
     1
 65
   257
176
     1
 75
     1
176
     1
175
     1
176
     1
 42
1.0
176
     1
 92
        0
176
     1
 66
   257
176
     1
 43
1.0
176
     1
 76
     1
176
     1
 77
     6
176
     1
 78
     2
176
     1
 67
     7
176
     1
 79
     5
176
     1
170
     0
176
     1
171
     0
176
     1
290
     0
176
     1
 93
        1
176
     1
 44
0.0
176
     1
173
     0
176
     1
  0
VISUALSTYLE
  5
31
102
{ACAD_REACTORS
330
2A
102
}
330
2A
100
AcDbVisualStyle
  2
3D Hidden
 70
     6
177
     2
291
     0
 71
     1
176
     1
 72
     2
176
     1
 73
     2
176
     1
 90
        0
176
     1
 40
-0.6
176
     1
 41
-30.0
176
     1
 62
     5
 63
     7
421
 16777215
176
     1
 74
     2
176
     1
 91
        2
176
     1
 64
     7
176
     1
 65
   257
176
     1
 75
     2
176
     1
175
     1
176
     1
 42
40.0
176
     1
 92
        0
176
     1
 66
   257
176
     1
 43
1.0
176
     1
 76
     1
176
     1
 77
     6
176
     1
 78
     2
176
     1
 67
     7
176
     1
 79
     3
176
     1
170
     0
176
     1
171
     0
176
     1
290
     0
176
     1
 93
        1
176
     1
 44
0.0
176
     1
173
     0
176
     1
  0
VISUALSTYLE
  5
30
102
{ACAD_REACTORS
330
2A
102
}
330
2A
100
AcDbVisualStyle
  2
3dWireframe
 70
     5
177
     2
291
     0
 71
     0
176
     1
 72
     2
176
     1
 73
     0
176
     1
 90
        0
176
     1
 40
-0.6
176
     1
 41
-30.0
176
     1
 62
     5
 63
     7
421
 16777215
176
     1
 74
     1
176
     1
 91
        4
176
     1
 64
     7
176
     1
 65
   257
176
     1
 75
     1
176
     1
175
     1
176
     1
 42
1.0
176
     1
 92
        0
176
     1
 66
   257
176
     1
 43
1.0
176
     1
 76
     1
176
     1
 77
     6
176
     1
 78
     2
176
     1
 67
     7
176
     1
 79
     5
176
     1
170
     0
176
     1
171
     0
176
     1
290
     0
176
     1
 93
        1
176
     1
 44
0.0
176
     1
173
     0
176
     1
  0
VISUALSTYLE
  5
32
102
{ACAD_REACTORS
330
2A
102
}
330
2A
100
AcDbVisualStyle
  2
Basic
 70
     7
177
     2
291
     1
 71
     1
176
     1
 72
     0
176
     1
 73
     1
176
     1
 90
        0
176
     1
 40
-0.6
176
     1
 41
-30.0
176
     1
 62
     5
 63
     7
421
 16777215
176
     1
 74
     0
176
     1
 91
        4
176
     1
 64
     7
176
     1
 65
   257
176
     1
 75
     1
176
     1
175
     1
176
     1
 42
1.0
176
     1
 92
        8
176
     1
 66
     7
176
     1
 43
1.0
176
     1
 76
     1
176
     1
 77
     6
176
     1
 78
     2
176
     1
 67
     7
176
     1
 79
     5
176
     1
170
     0
176
     1
171
     0
176
     1
290
     0
176
     1
 93
        1
176
     1
 44
0.0
176
     1
173
     0
176
     1
  0
VISUALSTYLE
  5
36
102
{ACAD_REACTORS
330
2A
102
}
330
2A
100
AcDbVisualStyle
  2
Brighten
 70
    12
177
     2
291
     1
 71
     2
176
     1
 72
     2
176
     1
 73
     0
176
     1
 90
        0
176
     1
 40
-0.6
176
     1
 41
-30.0
176
     1
 62
     5
 63
     7
421
 16777215
176
     1
 74
     1
176
     1
 91
        4
176
     1
 64
     7
176
     1
 65
   257
176
     1
 75
     1
176
     1
175
     1
176
     1
 42
1.0
176
     1
 92
        8
176
     1
 66
     7
176
     1
 43
1.0
176
     1
 76
     1
176
     1
 77
     6
176
     1
 78
     2
176
     1
 67
     7
176
     1
 79
     5
176
     1
170
     0
176
     1
171
     0
176
     1
290
     0
176
     1
 93
        1
176
     1
 44
50.0
176
     1
173
     0
176
     1
  0
VISUALSTYLE
  5
3A
102
{ACAD_REACTORS
330
2A
102
}
330
2A
100
AcDbVisualStyle
  2
ColorChange
 70
    16
177
     2
291
     1
 71
     2
176
     1
 72
     2
176
     1
 73
     3
176
     1
 90
        0
176
     1
 40
-0.6
176
     1
 41
-30.0
176
     1
 62
     5
 63
     8
421
  8421504
176
     1
 74
     1
176
     1
 91
        4
176
     1
 64
     7
176
     1
 65
   257
176
     1
 75
     1
176
     1
175
     1
176
     1
 42
1.0
176
     1
 92
        8
176
     1
 66
     8
424
  8421504
176
     1
 43
1.0
176
     1
 76
     1
176
     1
 77
     6
176
     1
 78
     2
176
     1
 67
     7
176
     1
 79
     5
176
     1
170
     0
176
     1
171
     0
176
     1
290
     0
176
     1
 93
        1
176
     1
 44
0.0
176
     1
173
     0
176
     1
  0
VISUALSTYLE
  5
34
102
{ACAD_REACTORS
330
2A
102
}
330
2A
100
AcDbVisualStyle
  2
Conceptual
 70
     9
177
     2
291
     0
 71
     3
176
     1
 72
     2
176
     1
 73
     0
176
     1
 90
        0
176
     1
 40
-0.6
176
     1
 41
-30.0
176
     1
 62
     5
 63
     7
421
 16777215
176
     1
 74
     2
176
     1
 91
        2
176
     1
 64
     7
176
     1
 65
   257
176
     1
 75
     1
176
     1
175
     1
176
     1
 42
40.0
176
     1
 92
        8
176
     1
 66
     7
176
     1
 43
1.0
176
     1
 76
     1
176
     1
 77
     6
176
     1
 78
     2
176
     1
 67
     7
176
     1
 79
     3
176
     1
170
     0
176
     1
171
     0
176
     1
290
     0
176
     1
 93
        1
176
     1
 44
0.0
176
     1
173
     0
176
     1
  0
VISUALSTYLE
  5
35
102
{ACAD_REACTORS
330
2A
102
}
330
2A
100
AcDbVisualStyle
  2
Dim
 70
    11
177
     2
291
     1
 71
     2
176
     1
 72
     2
176
     1
 73
     0
176
     1
 90
        0
176
     1
 40
-0.6
176
     1
 41
-30.0
176
     1
 62
     5
 63
     7
421
 16777215
176
     1
 74
     1
176
     1
 91
        4
176
     1
 64
     7
176
     1
 65
   257
176
     1
 75
     1
176
     1
175
     1
176
     1
 42
1.0
176
     1
 92
        8
176
     1
 66
     7
176
     1
 43
1.0
176
     1
 76
     1
176
     1
 77
     6
176
     1
 78
     2
176
     1
 67
     7
176
     1
 79
     5
176
     1
170
     0
176
     1
171
     0
176
     1
290
     0
176
     1
 93
        1
176
     1
 44
-50.0
176
     1
173
     0
176
     1
  0
VISUALSTYLE
  5
39
102
{ACAD_REACTORS
330
2A
102
}
330
2A
100
AcDbVisualStyle
  2
Facepattern
 70
    15
177
     2
291
     1
 71
     2
176
     1
 72
     2
176
     1
 73
     0
176
     1
 90
        0
176
     1
 40
-0.6
176
     1
 41
-30.0
176
     1
 62
     5
 63
     7
421
 16777215
176
     1
 74
     1
176
     1
 91
        4
176
     1
 64
     7
176
     1
 65
   257
176
     1
 75
     1
176
     1
175
     1
176
     1
 42
1.0
176
     1
 92
        8
176
     1
 66
     7
176
     1
 43
1.0
176
     1
 76
     1
176
     1
 77
     6
176
     1
 78
     2
176
     1
 67
     7
176
     1
 79
     5
176
     1
170
     0
176
     1
171
     0
176
     1
290
     0
176
     1
 93
        1
176
     1
 44
0.0
176
     1
173
     0
176
     1
  0
VISUALSTYLE
  5
2B
102
{ACAD_REACTORS
330
2A
102
}
330
2A
100
AcDbVisualStyle
  2
Flat
 70
     0
177
     2
291
     1
 71
     2
176
     1
 72
     1
176
     1
 73
     1
176
     1
 90
        2
176
     1
 40
-0.6
176
     1
 41
30.0
176
     1
 62
     5
 63
     7
421
 16777215
176
     1
 74
     0
176
     1
 91
        4
176
     1
 64
     7
176
     1
 65
   257
176
     1
 75
     1
176
     1
175
     1
176
     1
 42
1.0
176
     1
 92
        8
176
     1
 66
     7
176
     1
 43
1.0
176
     1
 76
     1
176
     1
 77
     6
176
     1
 78
     2
176
     1
 67
     7
176
     1
 79
     5
176
     1
170
     0
176
     1
171
     0
176
     1
290
     0
176
     1
 93
       13
176
     1
 44
0.0
176
     1
173
     0
176
     1
  0
VISUALSTYLE
  5
2C
102
{ACAD_REACTORS
330
2A
102
}
330
2A
100
AcDbVisualStyle
  2
FlatWithEdges
 70
     1
177
     2
291
     1
 71
     2
176
     1
 72
     1
176
     1
 73
     1
176
     1
 90
        2
176
     1
 40
-0.6
176
     1
 41
30.0
176
     1
 62
     5
 63
     7
421
 16777215
176
     1
 74
     1
176
     1
 91
        4
176
     1
 64
     7
176
     1
 65
   257
176
     1
 75
     1
176
     1
175
     1
176
     1
 42
1.0
176
     1
 92
        0
176
     1
 66
   257
176
     1
 43
1.0
176
     1
 76
     1
176
     1
 77
     6
176
     1
 78
     2
176
     1
 67
     7
176
     1
 79
     5
176
     1
170
     0
176
     1
171
     0
176
     1
290
     0
176
     1
 93
       13
176
     1
 44
0.0
176
     1
173
     0
176
     1
  0
VISUALSTYLE
  5
2D
102
{ACAD_REACTORS
330
2A
102
}
330
2A
100
AcDbVisualStyle
  2
Gouraud
 70
     2
177
     2
291
     1
 71
     2
176
     1
 72
     2
176
     1
 73
     1
176
     1
 90
        2
176
     1
 40
-0.6
176
     1
 41
30.0
176
     1
 62
     5
 63
     7
421
 16777215
176
     1
 74
     0
176
     1
 91
        4
176
     1
 64
     7
176
     1
 65
   257
176
     1
 75
     1
176
     1
175
     1
176
     1
 42
1.0
176
     1
 92
        0
176
     1
 66
     7
176
     1
 43
1.0
176
     1
 76
     1
176
     1
 77
     6
176
     1
 78
     2
176
     1
 67
     7
176
     1
 79
     5
176
     1
170
     0
176
     1
171
     0
176
     1
290
     0
176
     1
 93
       13
176
     1
 44
0.0
176
     1
173
     0
176
     1
  0
VISUALSTYLE
  5
2E
102
{ACAD_REACTORS
330
2A
102
}
330
2A
100
AcDbVisualStyle
  2
GouraudWithEdges
 70
     3
177
     2
291
     1
 71
     2
176
     1
 72
     2
176
     1
 73
     1
176
     1
 90
        2
176
     1
 40
-0.6
176
     1
 41
30.0
176
     1
 62
     5
 63
     7
421
 16777215
176
     1
 74
     1
176
     1
 91
        4
176
     1
 64
     7
176
     1
 65
   257
176
     1
 75
     1
176
     1
175
     1
176
     1
 42
1.0
176
     1
 92
        0
176
     1
 66
   257
176
     1
 43
1.0
176
     1
 76
     1
176
     1
 77
     6
176
     1
 78
     2
176
     1
 67
     7
176
     1
 79
     5
176
     1
170
     0
176
     1
171
     0
176
     1
290
     0
176
     1
 93
       13
176
     1
 44
0.0
176
     1
173
     0
176
     1
  0
VISUALSTYLE
  5
38
102
{ACAD_REACTORS
330
2A
102
}
330
2A
100
AcDbVisualStyle
  2
Linepattern
 70
    14
177
     2
291
     1
 71
     2
176
     1
 72
     2
176
     1
 73
     0
176
     1
 90
        0
176
     1
 40
-0.6
176
     1
 41
-30.0
176
     1
 62
     5
 63
     7
421
 16777215
176
     1
 74
     1
176
     1
 91
        4
176
     1
 64
     7
176
     1
 65
   257
176
     1
 75
     7
176
     1
175
     7
176
     1
 42
1.0
176
     1
 92
        8
176
     1
 66
     7
176
     1
 43
1.0
176
     1
 76
     1
176
     1
 77
     6
176
     1
 78
     2
176
     1
 67
     7
176
     1
 79
     5
176
     1
170
     0
176
     1
171
     0
176
     1
290
     0
176
     1
 93
        1
176
     1
 44
0.0
176
     1
173
     0
176
     1
  0
VISUALSTYLE
  5
33
102
{ACAD_REACTORS
330
2A
102
}
330
2A
100
AcDbVisualStyle
  2
Realistic
 70
     8
177
     2
291
     0
 71
     2
176
     1
 72
     2
176
     1
 73
     0
176
     1
 90
        0
176
     1
 40
-0.6
176
     1
 41
-30.0
176
     1
 62
     5
 63
     7
421
 16777215
176
     1
 74
     1
176
     1
 91
        0
176
     1
 64
     7
176
     1
 65
   257
176
     1
 75
     1
176
     1
175
     1
176
     1
 42
1.0
176
     1
 92
        8
176
     1
 66
     8
424
  7895160
176
     1
 43
1.0
176
     1
 76
     1
176
     1
 77
     6
176
     1
 78
     2
176
     1
 67
     7
176
     1
 79
     5
176
     1
170
     0
176
     1
171
     0
176
     1
290
     0
176
     1
 93
       13
176
     1
 44
0.0
176
     1
173
     0
176
     1
  0
VISUALSTYLE
  5
37
102
{ACAD_REACTORS
330
2A
102
}
330
2A
100
AcDbVisualStyle
  2
Thicken
 70
    13
177
     2
291
     1
 71
     2
176
     1
 72
     2
176
     1
 73
     0
176
     1
 90
        0
176
     1
 40
-0.6
176
     1
 41
-30.0
176
     1
 62
     5
 63
     7
421
 16777215
176
     1
 74
     1
176
     1
 91
        4
176
     1
 64
     7
176
     1
 65
   257
176
     1
 75
     1
176
     1
175
     1
176
     1
 42
1.0
176
     1
 92
       12
176
     1
 66
     7
176
     1
 43
1.0
176
     1
 76
     1
176
     1
 77
     6
176
     1
 78
     2
176
     1
 67
     7
176
     1
 79
     5
176
     1
170
     0
176
     1
171
     0
176
     1
290
     0
176
     1
 93
        1
176
     1
 44
0.0
176
     1
173
     0
176
     1
  0
ENDSEC
  0
EOF
