  0
SECTION
  2
HEADER
  9
$ACADVER
  1
AC1024
  9
$ACADMAINTVER
 70
     6
  9
$DWGCODEPAGE
  3
UNDEFINED
  9
$INSBASE
 10
0.0
 20
0.0
 30
0.0
  9
$EXTMIN
 10
1.000000000000000E+20
 20
1.000000000000000E+20
 30
1.000000000000000E+20
  9
$EXTMAX
 10
-1.000000000000000E+20
 20
-1.000000000000000E+20
 30
-1.000000000000000E+20
  9
$LIMMIN
 10
0.0
 20
0.0
  9
$LIMMAX
 10
12.0
 20
9.0
  9
$ORTHOMODE
 70
     0
  9
$REGENMODE
 70
     1
  9
$FILLMODE
 70
     1
  9
$QTEXTMODE
 70
     0
  9
$MIRRTEXT
 70
     1
  9
$LTSCALE
 40
1.0
  9
$ATTMODE
 70
     1
  9
$TEXTSIZE
 40
0.2
  9
$TRACEWID
 40
0.05
  9
$TEXTSTYLE
  7
Standard
  9
$CLAYER
  8
0
  9
$CELTYPE
  6
ByLayer
  9
$CECOLOR
 62
   256
  9
$CELTSCALE
 40
1.0
  9
$DISPSILH
 70
     0
  9
$DIMSCALE
 40
1.0
  9
$DIMASZ
 40
0.18
  9
$DIMEXO
 40
0.0625
  9
$DIMDLI
 40
0.38
  9
$DIMRND
 40
0.0
  9
$DIMDLE
 40
0.0
  9
$DIMEXE
 40
0.18
  9
$DIMTP
 40
0.0
  9
$DIMTM
 40
0.0
  9
$DIMTXT
 40
0.18
  9
$DIMCEN
 40
0.09
  9
$DIMTSZ
 40
0.0
  9
$DIMTOL
 70
     0
  9
$DIMLIM
 70
     0
  9
$DIMTIH
 70
     1
  9
$DIMTOH
 70
     1
  9
$DIMSE1
 70
     0
  9
$DIMSE2
 70
     0
  9
$DIMTAD
 70
     0
  9
$DIMZIN
 70
     0
  9
$DIMBLK
  1

  9
$DIMASO
 70
     1
  9
$DIMSHO
 70
     1
  9
$DIMPOST
  1

  9
$DIMAPOST
  1

  9
$DIMALT
 70
     0
  9
$DIMALTD
 70
     2
  9
$DIMALTF
 40
25.4
  9
$DIMLFAC
 40
1.0
  9
$DIMTOFL
 70
     0
  9
$DIMTVP
 40
0.0
  9
$DIMTIX
 70
     0
  9
$DIMSOXD
 70
     0
  9
$DIMSAH
 70
     0
  9
$DIMBLK1
  1

  9
$DIMBLK2
  1

  9
$DIMSTYLE
  2
Standard
  9
$DIMCLRD
 70
     0
  9
$DIMCLRE
 70
     0
  9
$DIMCLRT
 70
     0
  9
$DIMTFAC
 40
1.0
  9
$DIMGAP
 40
0.09
  9
$DIMJUST
 70
     0
  9
$DIMSD1
 70
     0
  9
$DIMSD2
 70
     0
  9
$DIMTOLJ
 70
     1
  9
$DIMTZIN
 70
     0
  9
$DIMALTZ
 70
     0
  9
$DIMALTTZ
 70
     0
  9
$DIMUPT
 70
     0
  9
$DIMDEC
 70
     4
  9
$DIMTDEC
 70
     4
  9
$DIMALTU
 70
     2
  9
$DIMALTTD
 70
     2
  9
$DIMTXSTY
  7
Standard
  9
$DIMAUNIT
 70
     0
  9
$DIMADEC
 70
     0
  9
$DIMALTRND
 40
0.0
  9
$DIMAZIN
 70
     0
  9
$DIMDSEP
 70
    46
  9
$DIMATFIT
 70
     3
  9
$DIMFRAC
 70
     0
  9
$DIMLDRBLK
  1

  9
$DIMLUNIT
 70
     2
  9
$DIMLWD
 70
    -2
  9
$DIMLWE
 70
    -2
  9
$DIMTMOVE
 70
     0
  9
$DIMFXL
 40
1.0
  9
$DIMFXLON
 70
     0
  9
$DIMJOGANG
 40
0.7853981633974483
  9
$DIMTFILL
 70
     0
  9
$DIMTFILLCLR
 70
     0
  9
$DIMARCSYM
 70
     0
  9
$DIMLTYPE
  6

  9
$DIMLTEX1
  6

  9
$DIMLTEX2
  6

  9
$DIMTXTDIRECTION
 70
     0
  9
$LUNITS
 70
     2
  9
$LUPREC
 70
     4
  9
$SKETCHINC
 40
0.1
  9
$FILLETRAD
 40
0.5
  9
$AUNITS
 70
     0
  9
$AUPREC
 70
     0
  9
$MENU
  1
.
  9
$ELEVATION
 40
0.0
  9
$PELEVATION
 40
0.0
  9
$THICKNESS
 40
0.0
  9
$LIMCHECK
 70
     0
  9
$CHAMFERA
 40
0.5
  9
$CHAMFERB
 40
0.5
  9
$CHAMFERC
 40
1.0
  9
$CHAMFERD
 40
0.0
  9
$SKPOLY
 70
     0
  9
$TDCREATE
 40
2457917.618194445
  9
$TDUCREATE
 40
2457917.243194445
  9
$TDUPDATE
 40
2457917.618194445
  9
$TDUUPDATE
 40
2457917.243194445
  9
$TDINDWG
 40
0.0000000116
  9
$TDUSRTIMER
 40
0.0000000116
  9
$USRTIMER
 70
     1
  9
$ANGBASE
 50
0.0
  9
$ANGDIR
 70
     0
  9
$PDMODE
 70
     0
  9
$PDSIZE
 40
0.0
  9
$PLINEWID
 40
0.0
  9
$SPLFRAME
 70
     0
  9
$SPLINETYPE
 70
     6
  9
$SPLINESEGS
 70
     8
  9
$HANDSEED
  5
CC
  9
$SURFTAB1
 70
     6
  9
$SURFTAB2
 70
     6
  9
$SURFTYPE
 70
     6
  9
$SURFU
 70
     6
  9
$SURFV
 70
     6
  9
$UCSBASE
  2

  9
$UCSNAME
  2

  9
$UCSORG
 10
0.0
 20
0.0
 30
0.0
  9
$UCSXDIR
 10
1.0
 20
0.0
 30
0.0
  9
$UCSYDIR
 10
0.0
 20
1.0
 30
0.0
  9
$UCSORTHOREF
  2

  9
$UCSORTHOVIEW
 70
     0
  9
$UCSORGTOP
 10
0.0
 20
0.0
 30
0.0
  9
$UCSORGBOTTOM
 10
0.0
 20
0.0
 30
0.0
  9
$UCSORGLEFT
 10
0.0
 20
0.0
 30
0.0
  9
$UCSORGRIGHT
 10
0.0
 20
0.0
 30
0.0
  9
$UCSORGFRONT
 10
0.0
 20
0.0
 30
0.0
  9
$UCSORGBACK
 10
0.0
 20
0.0
 30
0.0
  9
$PUCSBASE
  2

  9
$PUCSNAME
  2

  9
$PUCSORG
 10
0.0
 20
0.0
 30
0.0
  9
$PUCSXDIR
 10
1.0
 20
0.0
 30
0.0
  9
$PUCSYDIR
 10
0.0
 20
1.0
 30
0.0
  9
$PUCSORTHOREF
  2

  9
$PUCSORTHOVIEW
 70
     0
  9
$PUCSORGTOP
 10
0.0
 20
0.0
 30
0.0
  9
$PUCSORGBOTTOM
 10
0.0
 20
0.0
 30
0.0
  9
$PUCSORGLEFT
 10
0.0
 20
0.0
 30
0.0
  9
$PUCSORGRIGHT
 10
0.0
 20
0.0
 30
0.0
  9
$PUCSORGFRONT
 10
0.0
 20
0.0
 30
0.0
  9
$PUCSORGBACK
 10
0.0
 20
0.0
 30
0.0
  9
$USERI1
 70
     0
  9
$USERI2
 70
     0
  9
$USERI3
 70
     0
  9
$USERI4
 70
     0
  9
$USERI5
 70
     0
  9
$USERR1
 40
0.0
  9
$USERR2
 40
0.0
  9
$USERR3
 40
0.0
  9
$USERR4
 40
0.0
  9
$USERR5
 40
0.0
  9
$WORLDVIEW
 70
     1
  9
$SHADEDGE
 70
     3
  9
$SHADEDIF
 70
    70
  9
$TILEMODE
 70
     1
  9
$MAXACTVP
 70
    64
  9
$PINSBASE
 10
0.0
 20
0.0
 30
0.0
  9
$PLIMCHECK
 70
     0
  9
$PEXTMIN
 10
1.000000000000000E+20
 20
1.000000000000000E+20
 30
1.000000000000000E+20
  9
$PEXTMAX
 10
-1.000000000000000E+20
 20
-1.000000000000000E+20
 30
-1.000000000000000E+20
  9
$PLIMMIN
 10
0.0
 20
0.0
  9
$PLIMMAX
 10
12.0
 20
9.0
  9
$UNITMODE
 70
     0
  9
$VISRETAIN
 70
     1
  9
$PLINEGEN
 70
     0
  9
$PSLTSCALE
 70
     1
  9
$TREEDEPTH
 70
  3020
  9
$CMLSTYLE
  2
Standard
  9
$CMLJUST
 70
     0
  9
$CMLSCALE
 40
1.0
  9
$PROXYGRAPHICS
 70
     1
  9
$MEASUREMENT
 70
     0
  9
$CELWEIGHT
370
    -1
  9
$ENDCAPS
280
     0
  9
$JOINSTYLE
280
     0
  9
$LWDISPLAY
290
     1
  9
$INSUNITS
 70
     1
  9
$HYPERLINKBASE
  1

  9
$STYLESHEET
  1

  9
$XEDIT
290
     1
  9
$CEPSNTYPE
380
     0
  9
$PSTYLEMODE
290
     1
  9
$FINGERPRINTGUID
  2
{B672FD05-98F8-59F3-2072-C1043C48C8D0}
  9
$VERSIONGUID
  2
{FAEB1C32-E019-11D5-929B-00C0DF256EC4}
  9
$EXTNAMES
290
     1
  9
$PSVPSCALE
 40
0.0
  9
$OLESTARTUP
290
     0
  9
$SORTENTS
280
   127
  9
$INDEXCTL
280
     0
  9
$HIDETEXT
280
     1
  9
$XCLIPFRAME
280
     2
  9
$HALOGAP
280
     0
  9
$OBSCOLOR
 70
   257
  9
$OBSLTYPE
280
     0
  9
$INTERSECTIONDISPLAY
280
     0
  9
$INTERSECTIONCOLOR
 70
   257
  9
$DIMASSOC
280
     2
  9
$PROJECTNAME
  1

  9
$CAMERADISPLAY
290
     0
  9
$LENSLENGTH
 40
50.0
  9
$CAMERAHEIGHT
 40
0.0
  9
$STEPSPERSEC
 40
2.0
  9
$STEPSIZE
 40
6.0
  9
$3DDWFPREC
 40
2.0
  9
$PSOLWIDTH
 40
0.25
  9
$PSOLHEIGHT
 40
4.0
  9
$LOFTANG1
 40
1.570796326794897
  9
$LOFTANG2
 40
1.570796326794897
  9
$LOFTMAG1
 40
0.0
  9
$LOFTMAG2
 40
0.0
  9
$LOFTPARAM
 70
     7
  9
$LOFTNORMALS
280
     1
  9
$LATITUDE
 40
37.795
  9
$LONGITUDE
 40
-122.394
  9
$NORTHDIRECTION
 40
0.0
  9
$TIMEZONE
 70
 -8000
  9
$LIGHTGLYPHDISPLAY
280
     1
  9
$TILEMODELIGHTSYNCH
280
     1
  9
$CMATERIAL
347
3C
  9
$SOLIDHIST
280
     1
  9
$SHOWHIST
280
     1
  9
$DWFFRAME
280
     2
  9
$DGNFRAME
280
     2
  9
$REALWORLDSCALE
290
     1
  9
$INTERFERECOLOR
 62
   256
  9
$CSHADOW
280
     0
  9
$SHADOWPLANELOCATION
 40
0.0
  0
ENDSEC
  0
SECTION
  2
CLASSES
  0
CLASS
  1
ACDBDICTIONARYWDFLT
  2
AcDbDictionaryWithDefault
  3
ObjectDBX Classes
 90
        0
 91
        4
280
     0
281
     0
  0
CLASS
  1
VISUALSTYLE
  2
AcDbVisualStyle
  3
ObjectDBX Classes
 90
     4095
 91
        4
280
     0
281
     0
  0
CLASS
  1
MATERIAL
  2
AcDbMaterial
  3
ObjectDBX Classes
 90
     1153
 91
        4
280
     0
281
     0
  0
CLASS
  1
SUN
  2
AcDbSun
  3
SCENEOE
 90
     1024
 91
        4
280
     0
281
     0
  0
ENDSEC
  0
SECTION
  2
TABLES
  0
TABLE
  2
VPORT
  5
8
330
0
100
AcDbSymbolTable
 70
     1
  0
VPORT
  5
29
330
8
100
AcDbSymbolTableRecord
100
AcDbViewportTableRecord
  2
*Active
 70
     0
 10
0.0
 20
0.0
 11
1.0
 21
1.0
 12
0.0
 22
0.0
 13
0.0
 23
0.0
 14
0.5
 24
0.5
 15
0.5
 25
0.5
 16
0.0
 26
0.0
 36
1.0
 17
91.00082462281999
 27
-128.4993055234307
 37
0.0
 40
256.9986110468615
 41
0.7081814508812795
 42
50.0
 43
0.0
 44
0.0
 50
0.0
 51
0.0
 71
     0
 72
   100
 73
     1
 74
     3
 75
     0
 76
     0
 77
     0
 78
     0
281
     0
 65
     1
110
0.0
120
0.0
130
0.0
111
1.0
121
0.0
131
0.0
112
0.0
122
1.0
132
0.0
 79
     0
146
0.0
 60
     3
 61
     5
292
     1
282
     1
141
0.0
142
0.0
 63
   250
361
3F
  0
ENDTAB
  0
TABLE
  2
LTYPE
  5
5
330
0
100
AcDbSymbolTable
 70
     1
  0
LTYPE
  5
14
330
5
100
AcDbSymbolTableRecord
100
AcDbLinetypeTableRecord
  2
ByBlock
 70
     0
  3

 72
    65
 73
     0
 40
0.0
  0
LTYPE
  5
15
330
5
100
AcDbSymbolTableRecord
100
AcDbLinetypeTableRecord
  2
ByLayer
 70
     0
  3

 72
    65
 73
     0
 40
0.0
  0
LTYPE
  5
16
330
5
100
AcDbSymbolTableRecord
100
AcDbLinetypeTableRecord
  2
Continuous
 70
     0
  3
Solid line
 72
    65
 73
     0
 40
0.0
  0
ENDTAB
  0
TABLE
  2
LAYER
  5
2
330
0
100
AcDbSymbolTable
 70
     2
  0
LAYER
  5
10
330
2
100
AcDbSymbolTableRecord
100
AcDbLayerTableRecord
  2
0
 70
     0
 62
     7
  6
Continuous
370
    -3
390
F
347
3E
  0
LAYER
  5
40
330
2
100
AcDbSymbolTableRecord
100
AcDbLayerTableRecord
  2
_U+30EC_U+30A4_U+30E4_U+30FC 1
 70
     0
 62
     7
  6
Continuous
370
    -3
390
F
347
3E
  0
ENDTAB
  0
TABLE
  2
STYLE
  5
3
330
0
100
AcDbSymbolTable
 70
     1
  0
STYLE
  5
11
330
3
100
AcDbSymbolTableRecord
100
AcDbTextStyleTableRecord
  2
Standard
 70
     0
 40
0.0
 41
1.0
 50
0.0
 71
     0
 42
0.2
  3
txt
  4

  0
ENDTAB
  0
TABLE
  2
VIEW
  5
6
330
0
100
AcDbSymbolTable
 70
     0
  0
ENDTAB
  0
TABLE
  2
UCS
  5
7
330
0
100
AcDbSymbolTable
 70
     0
  0
ENDTAB
  0
TABLE
  2
APPID
  5
9
330
0
100
AcDbSymbolTable
 70
     1
  0
APPID
  5
12
330
9
100
AcDbSymbolTableRecord
100
AcDbRegAppTableRecord
  2
ACAD
 70
     0
  0
ENDTAB
  0
TABLE
  2
DIMSTYLE
  5
A
330
0
100
AcDbSymbolTable
 70
     1
100
AcDbDimStyleTable
  0
DIMSTYLE
105
27
330
A
100
AcDbSymbolTableRecord
100
AcDbDimStyleTableRecord
  2
Standard
 70
     0
178
     0
340
11
  0
ENDTAB
  0
TABLE
  2
BLOCK_RECORD
  5
1
330
0
100
AcDbSymbolTable
 70
     5
  0
BLOCK_RECORD
  5
1F
330
1
100
AcDbSymbolTableRecord
100
AcDbBlockTableRecord
  2
*Model_Space
340
22
 70
     0
280
     1
281
     0
  0
BLOCK_RECORD
  5
1B
330
1
100
AcDbSymbolTableRecord
100
AcDbBlockTableRecord
  2
*Paper_Space
340
1E
 70
     0
280
     1
281
     0
  0
BLOCK_RECORD
  5
23
330
1
100
AcDbSymbolTableRecord
100
AcDbBlockTableRecord
  2
*Paper_Space0
340
26
 70
     0
280
     1
281
     0
  0
BLOCK_RECORD
  5
51
330
1
100
AcDbSymbolTableRecord
100
AcDbBlockTableRecord
  2
block 2
340
0
102
{BLKREFS
331
52
102
}
 70
     0
280
     1
281
     0
  0
BLOCK_RECORD
  5
78
330
1
100
AcDbSymbolTableRecord
100
AcDbBlockTableRecord
  2
block 3
340
0
102
{BLKREFS
331
79
102
}
 70
     0
280
     1
281
     0
  0
BLOCK_RECORD
  5
98
330
1
100
AcDbSymbolTableRecord
100
AcDbBlockTableRecord
  2
block 4
340
0
102
{BLKREFS
331
99
102
}
 70
     0
280
     1
281
     0
  0
BLOCK_RECORD
  5
A1
330
1
100
AcDbSymbolTableRecord
100
AcDbBlockTableRecord
  2
block 5
340
0
102
{BLKREFS
331
A2
102
}
 70
     0
280
     1
281
     0
  0
ENDTAB
  0
ENDSEC
  0
SECTION
  2
BLOCKS
  0
BLOCK
  5
20
330
1F
100
AcDbEntity
  8
0
100
AcDbBlockBegin
  2
*Model_Space
 70
     0
 10
0.0
 20
0.0
 30
0.0
  3
*Model_Space
  1

  0
ENDBLK
  5
21
330
1F
100
AcDbEntity
  8
0
100
AcDbBlockEnd
  0
BLOCK
  5
1C
330
1B
100
AcDbEntity
 67
     1
  8
0
100
AcDbBlockBegin
  2
*Paper_Space
 70
     0
 10
0.0
 20
0.0
 30
0.0
  3
*Paper_Space
  1

  0
ENDBLK
  5
1D
330
1B
100
AcDbEntity
 67
     1
  8
0
100
AcDbBlockEnd
  0
BLOCK
  5
24
330
23
100
AcDbEntity
  8
0
100
AcDbBlockBegin
  2
*Paper_Space0
 70
     0
 10
0.0
 20
0.0
 30
0.0
  3
*Paper_Space0
  1

  0
ENDBLK
  5
25
330
23
100
AcDbEntity
  8
0
100
AcDbBlockEnd
  0
BLOCK
  5
53
330
51
100
AcDbEntity
  8
0
100
AcDbBlockBegin
  2
block 2
 70
     0
 10
0.0
 20
0.0
 30
0.0
  3
block 2
  1

  0
SPLINE
  5
55
330
51
100
AcDbEntity
  8
_U+30EC_U+30A4_U+30E4_U+30FC 1
370
     0
100
AcDbSpline
210
0.0
220
0.0
230
1.0
 70
    11
 71
     3
 72
    26
 73
    22
 74
     0
 42
0.0000000001
 43
0.0000000001
 12
1.0
 22
0.0
 32
0.0
 13
1.0
 23
0.0
 33
0.0
 40
0.0
 40
0.0
 40
0.0
 40
0.0
 40
1.0
 40
1.0
 40
1.0
 40
2.0
 40
2.0
 40
2.0
 40
3.0
 40
3.0
 40
3.0
 40
4.0
 40
4.0
 40
4.0
 40
5.0
 40
5.0
 40
5.0
 40
6.0
 40
6.0
 40
6.0
 40
7.0
 40
7.0
 40
7.0
 40
7.0
 10
63.27107338913015
 20
-113.8693630357688
 30
0.0
 10
63.27107338913015
 20
-113.8693630357688
 30
0.0
 10
62.16674803133331
 20
-113.8693630357688
 30
0.0
 10
62.16674803133331
 20
-113.8693630357688
 30
0.0
 10
62.16674803133331
 20
-113.8693630357688
 30
0.0
 10
62.16674803133331
 20
-114.1994031832557
 30
0.0
 10
62.16674803133331
 20
-114.1994031832557
 30
0.0
 10
62.16674803133331
 20
-114.1994031832557
 30
0.0
 10
62.01878118024184
 20
-114.1994031832557
 30
0.0
 10
62.01878118024184
 20
-114.1994031832557
 30
0.0
 10
62.00396726965526
 20
-113.8672959784776
 30
0.0
 10
61.84101425320294
 20
-113.8207871894268
 30
0.0
 10
61.72680933786691
 20
-113.7911593682536
 30
0.0
 10
61.72680933786691
 20
-113.7911593682536
 30
0.0
 10
61.72680933786691
 20
-113.645087319679
 30
0.0
 10
61.72680933786691
 20
-113.645087319679
 30
0.0
 10
61.72680933786691
 20
-113.645087319679
 30
0.0
 10
63.27107338913015
 20
-113.645087319679
 30
0.0
 10
63.27107338913015
 20
-113.645087319679
 30
0.0
 10
63.27107338913015
 20
-113.645087319679
 30
0.0
 10
63.27107338913015
 20
-113.8693630357688
 30
0.0
 10
63.27107338913015
 20
-113.8693630357688
 30
0.0
  0
HATCH
  5
56
330
51
100
AcDbEntity
  8
_U+30EC_U+30A4_U+30E4_U+30FC 1
 62
   179
420
  2234388
100
AcDbHatch
 10
0.0
 20
0.0
 30
0.0
210
0.0
220
0.0
230
1.0
  2
SOLID
 70
     1
 71
     0
 91
        1
 92
        1
 93
        1
 72
     4
 94
        3
 73
     0
 74
     1
 95
       26
 96
       22
 40
0.0
 40
0.0
 40
0.0
 40
0.0
 40
1.0
 40
1.0
 40
1.0
 40
2.0
 40
2.0
 40
2.0
 40
3.0
 40
3.0
 40
3.0
 40
4.0
 40
4.0
 40
4.0
 40
5.0
 40
5.0
 40
5.0
 40
6.0
 40
6.0
 40
6.0
 40
7.0
 40
7.0
 40
7.0
 40
7.0
 10
63.27107338913015
 20
-113.8693630357688
 10
63.27107338913015
 20
-113.8693630357688
 10
62.16674803133331
 20
-113.8693630357688
 10
62.16674803133331
 20
-113.8693630357688
 10
62.16674803133331
 20
-113.8693630357688
 10
62.16674803133331
 20
-114.1994031832557
 10
62.16674803133331
 20
-114.1994031832557
 10
62.16674803133331
 20
-114.1994031832557
 10
62.01878118024184
 20
-114.1994031832557
 10
62.01878118024184
 20
-114.1994031832557
 10
62.00396726965526
 20
-113.8672959784776
 10
61.84101425320294
 20
-113.8207871894268
 10
61.72680933786691
 20
-113.7911593682536
 10
61.72680933786691
 20
-113.7911593682536
 10
61.72680933786691
 20
-113.645087319679
 10
61.72680933786691
 20
-113.645087319679
 10
61.72680933786691
 20
-113.645087319679
 10
63.27107338913015
 20
-113.645087319679
 10
63.27107338913015
 20
-113.645087319679
 10
63.27107338913015
 20
-113.645087319679
 10
63.27107338913015
 20
-113.8693630357688
 10
63.27107338913015
 20
-113.8693630357688
 97
        0
 97
        0
 75
     2
 76
     1
 98
        0
  0
POLYLINE
  5
57
330
51
100
AcDbEntity
  8
_U+30EC_U+30A4_U+30E4_U+30FC 1
370
     0
100
AcDb2dPolyline
 66
     1
 10
0.0
 20
0.0
 30
0.0
  0
VERTEX
  5
58
330
57
100
AcDbEntity
  8
_U+30EC_U+30A4_U+30E4_U+30FC 1
370
     0
100
AcDbVertex
100
AcDb2dVertex
 10
62.92415227376549
 20
-112.3118353668873
 30
0.0
  0
VERTEX
  5
59
330
57
100
AcDbEntity
  8
_U+30EC_U+30A4_U+30E4_U+30FC 1
370
     0
100
AcDbVertex
100
AcDb2dVertex
 10
63.27107338913015
 20
-112.3118353668873
 30
0.0
  0
VERTEX
  5
5A
330
57
100
AcDbEntity
  8
_U+30EC_U+30A4_U+30E4_U+30FC 1
370
     0
100
AcDbVertex
100
AcDb2dVertex
 10
63.27107338913015
 20
-112.5295654015551
 30
0.0
  0
VERTEX
  5
5B
330
57
100
AcDbEntity
  8
_U+30EC_U+30A4_U+30E4_U+30FC 1
370
     0
100
AcDbVertex
100
AcDb2dVertex
 10
62.92415227376549
 20
-112.5295654015551
 30
0.0
  0
VERTEX
  5
5C
330
57
100
AcDbEntity
  8
_U+30EC_U+30A4_U+30E4_U+30FC 1
370
     0
100
AcDbVertex
100
AcDb2dVertex
 10
62.92415227376549
 20
-113.1855115819467
 30
0.0
  0
VERTEX
  5
5D
330
57
100
AcDbEntity
  8
_U+30EC_U+30A4_U+30E4_U+30FC 1
370
     0
100
AcDbVertex
100
AcDb2dVertex
 10
62.69987655767573
 20
-113.1855115819467
 30
0.0
  0
VERTEX
  5
5E
330
57
100
AcDbEntity
  8
_U+30EC_U+30A4_U+30E4_U+30FC 1
370
     0
100
AcDbVertex
100
AcDb2dVertex
 10
61.72680933786691
 20
-112.5064832618039
 30
0.0
  0
VERTEX
  5
5F
330
57
100
AcDbEntity
  8
_U+30EC_U+30A4_U+30E4_U+30FC 1
370
     0
100
AcDbVertex
100
AcDb2dVertex
 10
61.72680933786691
 20
-112.3118353668873
 30
0.0
  0
VERTEX
  5
60
330
57
100
AcDbEntity
  8
_U+30EC_U+30A4_U+30E4_U+30FC 1
370
     0
100
AcDbVertex
100
AcDb2dVertex
 10
62.72519800949232
 20
-112.3118353668873
 30
0.0
  0
VERTEX
  5
61
330
57
100
AcDbEntity
  8
_U+30EC_U+30A4_U+30E4_U+30FC 1
370
     0
100
AcDbVertex
100
AcDb2dVertex
 10
62.72519800949232
 20
-112.1044406186753
 30
0.0
  0
VERTEX
  5
62
330
57
100
AcDbEntity
  8
_U+30EC_U+30A4_U+30E4_U+30FC 1
370
     0
100
AcDbVertex
100
AcDb2dVertex
 10
62.92415227376549
 20
-112.1044406186753
 30
0.0
  0
VERTEX
  5
63
330
57
100
AcDbEntity
  8
_U+30EC_U+30A4_U+30E4_U+30FC 1
370
     0
100
AcDbVertex
100
AcDb2dVertex
 10
62.92415227376549
 20
-112.3118353668873
 30
0.0
  0
SEQEND
  5
64
330
57
100
AcDbEntity
  8
_U+30EC_U+30A4_U+30E4_U+30FC 1
370
     0
  0
POLYLINE
  5
65
330
51
100
AcDbEntity
  8
_U+30EC_U+30A4_U+30E4_U+30FC 1
370
     0
100
AcDb2dPolyline
 66
     1
 10
0.0
 20
0.0
 30
0.0
  0
VERTEX
  5
66
330
65
100
AcDbEntity
  8
_U+30EC_U+30A4_U+30E4_U+30FC 1
370
     0
100
AcDbVertex
100
AcDb2dVertex
 10
62.06942408387501
 20
-112.5295654015551
 30
0.0
  0
VERTEX
  5
67
330
65
100
AcDbEntity
  8
_U+30EC_U+30A4_U+30E4_U+30FC 1
370
     0
100
AcDbVertex
100
AcDb2dVertex
 10
62.72519800949232
 20
-112.9867295724478
 30
0.0
  0
VERTEX
  5
68
330
65
100
AcDbEntity
  8
_U+30EC_U+30A4_U+30E4_U+30FC 1
370
     0
100
AcDbVertex
100
AcDb2dVertex
 10
62.72519800949232
 20
-112.5295654015551
 30
0.0
  0
VERTEX
  5
69
330
65
100
AcDbEntity
  8
_U+30EC_U+30A4_U+30E4_U+30FC 1
370
     0
100
AcDbVertex
100
AcDb2dVertex
 10
62.06942408387501
 20
-112.5295654015551
 30
0.0
  0
SEQEND
  5
6A
330
65
100
AcDbEntity
  8
_U+30EC_U+30A4_U+30E4_U+30FC 1
370
     0
  0
HATCH
  5
6B
330
51
100
AcDbEntity
  8
_U+30EC_U+30A4_U+30E4_U+30FC 1
 62
   179
420
  2234388
100
AcDbHatch
 10
0.0
 20
0.0
 30
0.0
210
0.0
220
0.0
230
1.0
  2
SOLID
 70
     1
 71
     0
 91
        2
 92
        1
 93
       11
 72
     1
 10
62.92415227376549
 20
-112.3118353668873
 11
63.27107338913015
 21
-112.3118353668873
 72
     1
 10
63.27107338913015
 20
-112.3118353668873
 11
63.27107338913015
 21
-112.5295654015551
 72
     1
 10
63.27107338913015
 20
-112.5295654015551
 11
62.92415227376549
 21
-112.5295654015551
 72
     1
 10
62.92415227376549
 20
-112.5295654015551
 11
62.92415227376549
 21
-113.1855115819467
 72
     1
 10
62.92415227376549
 20
-113.1855115819467
 11
62.69987655767573
 21
-113.1855115819467
 72
     1
 10
62.69987655767573
 20
-113.1855115819467
 11
61.72680933786691
 21
-112.5064832618039
 72
     1
 10
61.72680933786691
 20
-112.5064832618039
 11
61.72680933786691
 21
-112.3118353668873
 72
     1
 10
61.72680933786691
 20
-112.3118353668873
 11
62.72519800949232
 21
-112.3118353668873
 72
     1
 10
62.72519800949232
 20
-112.3118353668873
 11
62.72519800949232
 21
-112.1044406186753
 72
     1
 10
62.72519800949232
 20
-112.1044406186753
 11
62.92415227376549
 21
-112.1044406186753
 72
     1
 10
62.92415227376549
 20
-112.1044406186753
 11
62.92415227376549
 21
-112.3118353668873
 97
        0
 92
        1
 93
        3
 72
     1
 10
62.06942408387501
 20
-112.5295654015551
 11
62.72519800949232
 21
-112.9867295724478
 72
     1
 10
62.72519800949232
 20
-112.9867295724478
 11
62.72519800949232
 21
-112.5295654015551
 72
     1
 10
62.72519800949232
 20
-112.5295654015551
 11
62.06942408387501
 21
-112.5295654015551
 97
        0
 75
     2
 76
     1
 98
        0
  0
ENDBLK
  5
54
330
51
100
AcDbEntity
  8
0
100
AcDbBlockEnd
  0
BLOCK
  5
7A
330
78
100
AcDbEntity
  8
0
100
AcDbBlockBegin
  2
block 3
 70
     0
 10
0.0
 20
0.0
 30
0.0
  3
block 3
  1

  0
SPLINE
  5
7C
330
78
100
AcDbEntity
  8
_U+30EC_U+30A4_U+30E4_U+30FC 1
370
     0
100
AcDbSpline
210
0.0
220
0.0
230
1.0
 70
    11
 71
     3
 72
    44
 73
    40
 74
     0
 42
0.0000000001
 43
0.0000000001
 12
1.0
 22
0.0
 32
0.0
 13
1.0
 23
0.0
 33
0.0
 40
0.0
 40
0.0
 40
0.0
 40
0.0
 40
1.0
 40
1.0
 40
1.0
 40
2.0
 40
2.0
 40
2.0
 40
3.0
 40
3.0
 40
3.0
 40
4.0
 40
4.0
 40
4.0
 40
5.0
 40
5.0
 40
5.0
 40
6.0
 40
6.0
 40
6.0
 40
7.0
 40
7.0
 40
7.0
 40
8.0
 40
8.0
 40
8.0
 40
9.0
 40
9.0
 40
9.0
 40
10.0
 40
10.0
 40
10.0
 40
11.0
 40
11.0
 40
11.0
 40
12.0
 40
12.0
 40
12.0
 40
13.0
 40
13.0
 40
13.0
 40
13.0
 10
81.57968883594188
 20
-132.6168836474014
 30
0.0
 10
81.55660669619071
 20
-132.5724419156416
 30
0.0
 10
81.53524710418216
 20
-132.5197319547173
 30
0.0
 10
81.53318004689102
 20
-132.2889105572056
 30
0.0
 10
81.52904593230872
 20
-132.0456868159469
 30
0.0
 10
81.46979028996242
 20
-131.9757513775963
 30
0.0
 10
81.29202336292353
 20
-131.9757513775963
 30
0.0
 10
81.29202336292353
 20
-131.9757513775963
 30
0.0
 10
80.88377954792142
 20
-131.9757513775963
 30
0.0
 10
80.88377954792142
 20
-131.9757513775963
 30
0.0
 10
80.88377954792142
 20
-131.9757513775963
 30
0.0
 10
80.88377954792142
 20
-132.6168836474014
 30
0.0
 10
80.88377954792142
 20
-132.6168836474014
 30
0.0
 10
80.88377954792142
 20
-132.6168836474014
 30
0.0
 10
80.64882403582737
 20
-132.6168836474014
 30
0.0
 10
80.64882403582737
 20
-132.6168836474014
 30
0.0
 10
80.64882403582737
 20
-132.6168836474014
 30
0.0
 10
80.64882403582737
 20
-131.0724473413638
 30
0.0
 10
80.64882403582737
 20
-131.0724473413638
 30
0.0
 10
80.64882403582737
 20
-131.0724473413638
 30
0.0
 10
81.32371824138782
 20
-131.0724473413638
 30
0.0
 10
81.32371824138782
 20
-131.0724473413638
 30
0.0
 10
81.63067624912358
 20
-131.0724473413638
 30
0.0
 10
81.7977633801582
 20
-131.2440130965293
 30
0.0
 10
81.7977633801582
 20
-131.4999836910833
 30
0.0
 10
81.7977633801582
 20
-131.5506265947165
 30
0.0
 10
81.78915064144508
 20
-131.6333088863625
 30
0.0
 10
81.74470890968536
 20
-131.7135796111688
 30
0.0
 10
81.68545326733906
 20
-131.8172769852748
 30
0.0
 10
81.61999645311931
 20
-131.8362250104437
 30
0.0
 10
81.55867375348187
 20
-131.8531059783215
 30
0.0
 10
81.69613306334332
 20
-131.89548065279
 30
0.0
 10
81.76400144440275
 20
-131.944056499132
 30
0.0
 10
81.76813555898505
 20
-132.2592827360324
 30
0.0
 10
81.77226967356735
 20
-132.530067241173
 30
0.0
 10
81.80809866661396
 20
-132.5617621196373
 30
0.0
 10
81.87596704767337
 20
-132.6168836474014
 30
0.0
 10
81.87596704767337
 20
-132.6168836474014
 30
0.0
 10
81.57968883594188
 20
-132.6168836474014
 30
0.0
 10
81.57968883594188
 20
-132.6168836474014
 30
0.0
  0
SPLINE
  5
7D
330
78
100
AcDbEntity
  8
_U+30EC_U+30A4_U+30E4_U+30FC 1
370
     0
100
AcDbSpline
210
0.0
220
0.0
230
1.0
 70
    11
 71
     3
 72
    20
 73
    16
 74
     0
 42
0.0000000001
 43
0.0000000001
 12
1.0
 22
0.0
 32
0.0
 13
1.0
 23
0.0
 33
0.0
 40
0.0
 40
0.0
 40
0.0
 40
0.0
 40
1.0
 40
1.0
 40
1.0
 40
2.0
 40
2.0
 40
2.0
 40
3.0
 40
3.0
 40
3.0
 40
4.0
 40
4.0
 40
4.0
 40
5.0
 40
5.0
 40
5.0
 40
5.0
 10
81.32819686551865
 20
-131.2839762041582
 30
0.0
 10
81.32819686551865
 20
-131.2839762041582
 30
0.0
 10
80.88377954792142
 20
-131.2839762041582
 30
0.0
 10
80.88377954792142
 20
-131.2839762041582
 30
0.0
 10
80.88377954792142
 20
-131.2839762041582
 30
0.0
 10
80.88377954792142
 20
-131.764222514802
 30
0.0
 10
80.88377954792142
 20
-131.764222514802
 30
0.0
 10
80.88377954792142
 20
-131.764222514802
 30
0.0
 10
81.32578529867898
 20
-131.764222514802
 30
0.0
 10
81.32578529867898
 20
-131.764222514802
 30
0.0
 10
81.4253485582027
 20
-131.764222514802
 30
0.0
 10
81.56074081077301
 20
-131.688085904578
 30
0.0
 10
81.56074081077301
 20
-131.5168646589611
 30
0.0
 10
81.56074081077301
 20
-131.4386609914459
 30
0.0
 10
81.52697887501756
 20
-131.2839762041582
 30
0.0
 10
81.32819686551865
 20
-131.2839762041582
 30
0.0
  0
HATCH
  5
7E
330
78
100
AcDbEntity
  8
_U+30EC_U+30A4_U+30E4_U+30FC 1
 62
   179
420
  2234388
100
AcDbHatch
 10
0.0
 20
0.0
 30
0.0
210
0.0
220
0.0
230
1.0
  2
SOLID
 70
     1
 71
     0
 91
        2
 92
        1
 93
        1
 72
     4
 94
        3
 73
     0
 74
     1
 95
       44
 96
       40
 40
0.0
 40
0.0
 40
0.0
 40
0.0
 40
1.0
 40
1.0
 40
1.0
 40
2.0
 40
2.0
 40
2.0
 40
3.0
 40
3.0
 40
3.0
 40
4.0
 40
4.0
 40
4.0
 40
5.0
 40
5.0
 40
5.0
 40
6.0
 40
6.0
 40
6.0
 40
7.0
 40
7.0
 40
7.0
 40
8.0
 40
8.0
 40
8.0
 40
9.0
 40
9.0
 40
9.0
 40
10.0
 40
10.0
 40
10.0
 40
11.0
 40
11.0
 40
11.0
 40
12.0
 40
12.0
 40
12.0
 40
13.0
 40
13.0
 40
13.0
 40
13.0
 10
81.57968883594188
 20
-132.6168836474014
 10
81.55660669619071
 20
-132.5724419156416
 10
81.53524710418216
 20
-132.5197319547173
 10
81.53318004689102
 20
-132.2889105572056
 10
81.52904593230872
 20
-132.0456868159469
 10
81.46979028996242
 20
-131.9757513775963
 10
81.29202336292353
 20
-131.9757513775963
 10
81.29202336292353
 20
-131.9757513775963
 10
80.88377954792142
 20
-131.9757513775963
 10
80.88377954792142
 20
-131.9757513775963
 10
80.88377954792142
 20
-131.9757513775963
 10
80.88377954792142
 20
-132.6168836474014
 10
80.88377954792142
 20
-132.6168836474014
 10
80.88377954792142
 20
-132.6168836474014
 10
80.64882403582737
 20
-132.6168836474014
 10
80.64882403582737
 20
-132.6168836474014
 10
80.64882403582737
 20
-132.6168836474014
 10
80.64882403582737
 20
-131.0724473413638
 10
80.64882403582737
 20
-131.0724473413638
 10
80.64882403582737
 20
-131.0724473413638
 10
81.32371824138782
 20
-131.0724473413638
 10
81.32371824138782
 20
-131.0724473413638
 10
81.63067624912358
 20
-131.0724473413638
 10
81.7977633801582
 20
-131.2440130965293
 10
81.7977633801582
 20
-131.4999836910833
 10
81.7977633801582
 20
-131.5506265947165
 10
81.78915064144508
 20
-131.6333088863625
 10
81.74470890968536
 20
-131.7135796111688
 10
81.68545326733906
 20
-131.8172769852748
 10
81.61999645311931
 20
-131.8362250104437
 10
81.55867375348187
 20
-131.8531059783215
 10
81.69613306334332
 20
-131.89548065279
 10
81.76400144440275
 20
-131.944056499132
 10
81.76813555898505
 20
-132.2592827360324
 10
81.77226967356735
 20
-132.530067241173
 10
81.80809866661396
 20
-132.5617621196373
 10
81.87596704767337
 20
-132.6168836474014
 10
81.87596704767337
 20
-132.6168836474014
 10
81.57968883594188
 20
-132.6168836474014
 10
81.57968883594188
 20
-132.6168836474014
 97
        0
 97
        0
 92
        1
 93
        1
 72
     4
 94
        3
 73
     0
 74
     1
 95
       20
 96
       16
 40
0.0
 40
0.0
 40
0.0
 40
0.0
 40
1.0
 40
1.0
 40
1.0
 40
2.0
 40
2.0
 40
2.0
 40
3.0
 40
3.0
 40
3.0
 40
4.0
 40
4.0
 40
4.0
 40
5.0
 40
5.0
 40
5.0
 40
5.0
 10
81.32819686551865
 20
-131.2839762041582
 10
81.32819686551865
 20
-131.2839762041582
 10
80.88377954792142
 20
-131.2839762041582
 10
80.88377954792142
 20
-131.2839762041582
 10
80.88377954792142
 20
-131.2839762041582
 10
80.88377954792142
 20
-131.764222514802
 10
80.88377954792142
 20
-131.764222514802
 10
80.88377954792142
 20
-131.764222514802
 10
81.32578529867898
 20
-131.764222514802
 10
81.32578529867898
 20
-131.764222514802
 10
81.4253485582027
 20
-131.764222514802
 10
81.56074081077301
 20
-131.688085904578
 10
81.56074081077301
 20
-131.5168646589611
 10
81.56074081077301
 20
-131.4386609914459
 10
81.52697887501756
 20
-131.2839762041582
 10
81.32819686551865
 20
-131.2839762041582
 97
        0
 97
        0
 75
     2
 76
     1
 98
        0
  0
SPLINE
  5
7F
330
78
100
AcDbEntity
  8
_U+30EC_U+30A4_U+30E4_U+30FC 1
370
     0
100
AcDbSpline
210
0.0
220
0.0
230
1.0
 70
    11
 71
     3
 72
    62
 73
    58
 74
     0
 42
0.0000000001
 43
0.0000000001
 12
1.0
 22
0.0
 32
0.0
 13
1.0
 23
0.0
 33
0.0
 40
0.0
 40
0.0
 40
0.0
 40
0.0
 40
1.0
 40
1.0
 40
1.0
 40
2.0
 40
2.0
 40
2.0
 40
3.0
 40
3.0
 40
3.0
 40
4.0
 40
4.0
 40
4.0
 40
5.0
 40
5.0
 40
5.0
 40
6.0
 40
6.0
 40
6.0
 40
7.0
 40
7.0
 40
7.0
 40
8.0
 40
8.0
 40
8.0
 40
9.0
 40
9.0
 40
9.0
 40
10.0
 40
10.0
 40
10.0
 40
11.0
 40
11.0
 40
11.0
 40
12.0
 40
12.0
 40
12.0
 40
13.0
 40
13.0
 40
13.0
 40
14.0
 40
14.0
 40
14.0
 40
15.0
 40
15.0
 40
15.0
 40
16.0
 40
16.0
 40
16.0
 40
17.0
 40
17.0
 40
17.0
 40
18.0
 40
18.0
 40
18.0
 40
19.0
 40
19.0
 40
19.0
 40
19.0
 10
82.50745305011966
 20
-132.6675265510345
 30
0.0
 10
82.41202390517824
 20
-132.6675265510345
 30
0.0
 10
82.19429387051046
 20
-132.6465114685745
 30
0.0
 10
82.0692369043959
 20
-132.460476312371
 30
0.0
 10
81.99551186101154
 20
-132.3481661995519
 30
0.0
 10
81.99103323688072
 20
-132.2489474495767
 30
0.0
 10
81.98689912229842
 20
-132.1641981006395
 30
0.0
 10
81.98689912229842
 20
-132.1641981006395
 30
0.0
 10
82.20704072380589
 20
-132.1641981006395
 30
0.0
 10
82.20704072380589
 20
-132.1641981006395
 30
0.0
 10
82.20910778109703
 20
-132.2382676535724
 30
0.0
 10
82.21944306755279
 20
-132.4728786561179
 30
0.0
 10
82.50297442598884
 20
-132.4728786561179
 30
0.0
 10
82.64043373585031
 20
-132.4728786561179
 30
0.0
 10
82.79305146584689
 20
-132.4032877273158
 30
0.0
 10
82.79305146584689
 20
-132.1748778966438
 30
0.0
 10
82.79305146584689
 20
-132.0584336692423
 30
0.0
 10
82.75481090596061
 20
-132.0098578229003
 30
0.0
 10
82.7231160274963
 20
-131.978162944436
 30
0.0
 10
82.64904647456343
 20
-131.9040933915032
 30
0.0
 10
82.53260224716199
 20
-131.8913465382077
 30
0.0
 10
82.47782522894651
 20
-131.8913465382077
 30
0.0
 10
82.45853269422912
 20
-131.8913465382077
 30
0.0
 10
82.42270370118253
 20
-131.8934135954989
 30
0.0
 10
82.39514293730052
 20
-131.8975477100812
 30
0.0
 10
82.39514293730052
 20
-131.8975477100812
 30
0.0
 10
82.39514293730052
 20
-131.7028998151646
 30
0.0
 10
82.39514293730052
 20
-131.7028998151646
 30
0.0
 10
82.4333834971868
 20
-131.7094454965865
 30
0.0
 10
82.47541366210685
 20
-131.7115125538777
 30
0.0
 10
82.48195934352881
 20
-131.7115125538777
 30
0.0
 10
82.54741615774857
 20
-131.7115125538777
 30
0.0
 10
82.74619816724748
 20
-131.6901529618691
 30
0.0
 10
82.74619816724748
 20
-131.4534749020325
 30
0.0
 10
82.74619816724748
 20
-131.2757079749936
 30
0.0
 10
82.61528453880798
 20
-131.2205864472296
 30
0.0
 10
82.50504148328
 20
-131.2205864472296
 30
0.0
 10
82.24080265956133
 20
-131.2205864472296
 30
0.0
 10
82.2321899208482
 20
-131.4534749020325
 30
0.0
 10
82.2280558062659
 20
-131.5251328881257
 30
0.0
 10
82.2280558062659
 20
-131.5251328881257
 30
0.0
 10
82.02479517263616
 20
-131.5251328881257
 30
0.0
 10
82.02479517263616
 20
-131.5251328881257
 30
0.0
 10
82.03340791134929
 20
-131.4004204315596
 30
0.0
 10
82.0609686752313
 20
-131.0238714950218
 30
0.0
 10
82.51778833657542
 20
-131.0238714950218
 30
0.0
 10
82.74206405266519
 20
-131.0238714950218
 30
0.0
 10
82.98322073663267
 20
-131.1509955184275
 30
0.0
 10
82.98322073663267
 20
-131.4469292206105
 30
0.0
 10
82.98322073663267
 20
-131.6333088863625
 30
0.0
 10
82.88813610123978
 20
-131.71564666846
 30
0.0
 10
82.78857284171606
 20
-131.7769693680974
 30
0.0
 10
82.8498955413535
 20
-131.8045301319794
 30
0.0
 10
83.03179658297469
 20
-131.8848008567857
 30
0.0
 10
83.03179658297469
 20
-132.1621310433484
 30
0.0
 10
83.03179658297469
 20
-132.5004394199999
 30
0.0
 10
82.78443872713376
 20
-132.6675265510345
 30
0.0
 10
82.50745305011966
 20
-132.6675265510345
 30
0.0
  0
HATCH
  5
80
330
78
100
AcDbEntity
  8
_U+30EC_U+30A4_U+30E4_U+30FC 1
 62
   179
420
  2234388
100
AcDbHatch
 10
0.0
 20
0.0
 30
0.0
210
0.0
220
0.0
230
1.0
  2
SOLID
 70
     1
 71
     0
 91
        1
 92
        1
 93
        1
 72
     4
 94
        3
 73
     0
 74
     1
 95
       62
 96
       58
 40
0.0
 40
0.0
 40
0.0
 40
0.0
 40
1.0
 40
1.0
 40
1.0
 40
2.0
 40
2.0
 40
2.0
 40
3.0
 40
3.0
 40
3.0
 40
4.0
 40
4.0
 40
4.0
 40
5.0
 40
5.0
 40
5.0
 40
6.0
 40
6.0
 40
6.0
 40
7.0
 40
7.0
 40
7.0
 40
8.0
 40
8.0
 40
8.0
 40
9.0
 40
9.0
 40
9.0
 40
10.0
 40
10.0
 40
10.0
 40
11.0
 40
11.0
 40
11.0
 40
12.0
 40
12.0
 40
12.0
 40
13.0
 40
13.0
 40
13.0
 40
14.0
 40
14.0
 40
14.0
 40
15.0
 40
15.0
 40
15.0
 40
16.0
 40
16.0
 40
16.0
 40
17.0
 40
17.0
 40
17.0
 40
18.0
 40
18.0
 40
18.0
 40
19.0
 40
19.0
 40
19.0
 40
19.0
 10
82.50745305011966
 20
-132.6675265510345
 10
82.41202390517824
 20
-132.6675265510345
 10
82.19429387051046
 20
-132.6465114685745
 10
82.0692369043959
 20
-132.460476312371
 10
81.99551186101154
 20
-132.3481661995519
 10
81.99103323688072
 20
-132.2489474495767
 10
81.98689912229842
 20
-132.1641981006395
 10
81.98689912229842
 20
-132.1641981006395
 10
82.20704072380589
 20
-132.1641981006395
 10
82.20704072380589
 20
-132.1641981006395
 10
82.20910778109703
 20
-132.2382676535724
 10
82.21944306755279
 20
-132.4728786561179
 10
82.50297442598884
 20
-132.4728786561179
 10
82.64043373585031
 20
-132.4728786561179
 10
82.79305146584689
 20
-132.4032877273158
 10
82.79305146584689
 20
-132.1748778966438
 10
82.79305146584689
 20
-132.0584336692423
 10
82.75481090596061
 20
-132.0098578229003
 10
82.7231160274963
 20
-131.978162944436
 10
82.64904647456343
 20
-131.9040933915032
 10
82.53260224716199
 20
-131.8913465382077
 10
82.47782522894651
 20
-131.8913465382077
 10
82.45853269422912
 20
-131.8913465382077
 10
82.42270370118253
 20
-131.8934135954989
 10
82.39514293730052
 20
-131.8975477100812
 10
82.39514293730052
 20
-131.8975477100812
 10
82.39514293730052
 20
-131.7028998151646
 10
82.39514293730052
 20
-131.7028998151646
 10
82.4333834971868
 20
-131.7094454965865
 10
82.47541366210685
 20
-131.7115125538777
 10
82.48195934352881
 20
-131.7115125538777
 10
82.54741615774857
 20
-131.7115125538777
 10
82.74619816724748
 20
-131.6901529618691
 10
82.74619816724748
 20
-131.4534749020325
 10
82.74619816724748
 20
-131.2757079749936
 10
82.61528453880798
 20
-131.2205864472296
 10
82.50504148328
 20
-131.2205864472296
 10
82.24080265956133
 20
-131.2205864472296
 10
82.2321899208482
 20
-131.4534749020325
 10
82.2280558062659
 20
-131.5251328881257
 10
82.2280558062659
 20
-131.5251328881257
 10
82.02479517263616
 20
-131.5251328881257
 10
82.02479517263616
 20
-131.5251328881257
 10
82.03340791134929
 20
-131.4004204315596
 10
82.0609686752313
 20
-131.0238714950218
 10
82.51778833657542
 20
-131.0238714950218
 10
82.74206405266519
 20
-131.0238714950218
 10
82.98322073663267
 20
-131.1509955184275
 10
82.98322073663267
 20
-131.4469292206105
 10
82.98322073663267
 20
-131.6333088863625
 10
82.88813610123978
 20
-131.71564666846
 10
82.78857284171606
 20
-131.7769693680974
 10
82.8498955413535
 20
-131.8045301319794
 10
83.03179658297469
 20
-131.8848008567857
 10
83.03179658297469
 20
-132.1621310433484
 10
83.03179658297469
 20
-132.5004394199999
 10
82.78443872713376
 20
-132.6675265510345
 10
82.50745305011966
 20
-132.6675265510345
 97
        0
 97
        0
 75
     2
 76
     1
 98
        0
  0
SPLINE
  5
81
330
78
100
AcDbEntity
  8
_U+30EC_U+30A4_U+30E4_U+30FC 1
370
     0
100
AcDbSpline
210
0.0
220
0.0
230
1.0
 70
    11
 71
     3
 72
    29
 73
    25
 74
     0
 42
0.0000000001
 43
0.0000000001
 12
1.0
 22
0.0
 32
0.0
 13
1.0
 23
0.0
 33
0.0
 40
0.0
 40
0.0
 40
0.0
 40
0.0
 40
1.0
 40
1.0
 40
1.0
 40
2.0
 40
2.0
 40
2.0
 40
3.0
 40
3.0
 40
3.0
 40
4.0
 40
4.0
 40
4.0
 40
5.0
 40
5.0
 40
5.0
 40
6.0
 40
6.0
 40
6.0
 40
7.0
 40
7.0
 40
7.0
 40
8.0
 40
8.0
 40
8.0
 40
8.0
 10
84.09047442559196
 20
-132.4391167203624
 30
0.0
 10
83.98229842735512
 20
-132.6485785258656
 30
0.0
 10
83.80901012444706
 20
-132.6675265510345
 30
0.0
 10
83.69256589704561
 20
-132.6675265510345
 30
0.0
 10
83.53167993788445
 20
-132.6675265510345
 30
0.0
 10
83.39008651344068
 20
-132.6210177619836
 30
0.0
 10
83.29500187804778
 20
-132.4391167203624
 30
0.0
 10
83.19130450394177
 20
-132.2444688254458
 30
0.0
 10
83.17235647877288
 20
-132.0077907656092
 30
0.0
 10
83.17235647877288
 20
-131.8448377491569
 30
0.0
 10
83.17235647877288
 20
-131.7008327578734
 30
0.0
 10
83.18923744665061
 20
-131.4489962779016
 30
0.0
 10
83.29500187804778
 20
-131.2502142684027
 30
0.0
 10
83.4028333667361
 20
-131.0472981443215
 30
0.0
 10
83.56371932589727
 20
-131.0238714950218
 30
0.0
 10
83.69256589704561
 20
-131.0238714950218
 30
0.0
 10
83.85138479891563
 20
-131.0238714950218
 30
0.0
 10
83.99504528065054
 20
-131.0683132267815
 30
0.0
 10
84.09047442559196
 20
-131.2502142684027
 30
0.0
 10
84.18969317556716
 20
-131.4427951060282
 30
0.0
 10
84.21311982486687
 20
-131.6712049367003
 30
0.0
 10
84.21311982486687
 20
-131.8448377491569
 30
0.0
 10
84.21311982486687
 20
-132.0160589947738
 30
0.0
 10
84.19176023285831
 20
-132.246535882737
 30
0.0
 10
84.09047442559196
 20
-132.4391167203624
 30
0.0
  0
SPLINE
  5
82
330
78
100
AcDbEntity
  8
_U+30EC_U+30A4_U+30E4_U+30FC 1
370
     0
100
AcDbSpline
210
0.0
220
0.0
230
1.0
 70
    11
 71
     3
 72
    17
 73
    13
 74
     0
 42
0.0000000001
 43
0.0000000001
 12
1.0
 22
0.0
 32
0.0
 13
1.0
 23
0.0
 33
0.0
 40
0.0
 40
0.0
 40
0.0
 40
0.0
 40
1.0
 40
1.0
 40
1.0
 40
2.0
 40
2.0
 40
2.0
 40
3.0
 40
3.0
 40
3.0
 40
4.0
 40
4.0
 40
4.0
 40
4.0
 10
83.69256589704561
 20
-131.2164523326473
 30
0.0
 10
83.44314098391352
 20
-131.2164523326473
 30
0.0
 10
83.39628768531412
 20
-131.4999836910833
 30
0.0
 10
83.39628768531412
 20
-131.8448377491569
 30
0.0
 10
83.39628768531412
 20
-132.1641981006395
 30
0.0
 10
83.43246118790925
 20
-132.4728786561179
 30
0.0
 10
83.69256589704561
 20
-132.4728786561179
 30
0.0
 10
83.94026826243507
 20
-132.4728786561179
 30
0.0
 10
83.9888441087771
 20
-132.1917588645215
 30
0.0
 10
83.9888441087771
 20
-131.8448377491569
 30
0.0
 10
83.9888441087771
 20
-131.5251328881257
 30
0.0
 10
83.95060354889083
 20
-131.2164523326473
 30
0.0
 10
83.69256589704561
 20
-131.2164523326473
 30
0.0
  0
HATCH
  5
83
330
78
100
AcDbEntity
  8
_U+30EC_U+30A4_U+30E4_U+30FC 1
 62
   179
420
  2234388
100
AcDbHatch
 10
0.0
 20
0.0
 30
0.0
210
0.0
220
0.0
230
1.0
  2
SOLID
 70
     1
 71
     0
 91
        2
 92
        1
 93
        1
 72
     4
 94
        3
 73
     0
 74
     1
 95
       29
 96
       25
 40
0.0
 40
0.0
 40
0.0
 40
0.0
 40
1.0
 40
1.0
 40
1.0
 40
2.0
 40
2.0
 40
2.0
 40
3.0
 40
3.0
 40
3.0
 40
4.0
 40
4.0
 40
4.0
 40
5.0
 40
5.0
 40
5.0
 40
6.0
 40
6.0
 40
6.0
 40
7.0
 40
7.0
 40
7.0
 40
8.0
 40
8.0
 40
8.0
 40
8.0
 10
84.09047442559196
 20
-132.4391167203624
 10
83.98229842735512
 20
-132.6485785258656
 10
83.80901012444706
 20
-132.6675265510345
 10
83.69256589704561
 20
-132.6675265510345
 10
83.53167993788445
 20
-132.6675265510345
 10
83.39008651344068
 20
-132.6210177619836
 10
83.29500187804778
 20
-132.4391167203624
 10
83.19130450394177
 20
-132.2444688254458
 10
83.17235647877288
 20
-132.0077907656092
 10
83.17235647877288
 20
-131.8448377491569
 10
83.17235647877288
 20
-131.7008327578734
 10
83.18923744665061
 20
-131.4489962779016
 10
83.29500187804778
 20
-131.2502142684027
 10
83.4028333667361
 20
-131.0472981443215
 10
83.56371932589727
 20
-131.0238714950218
 10
83.69256589704561
 20
-131.0238714950218
 10
83.85138479891563
 20
-131.0238714950218
 10
83.99504528065054
 20
-131.0683132267815
 10
84.09047442559196
 20
-131.2502142684027
 10
84.18969317556716
 20
-131.4427951060282
 10
84.21311982486687
 20
-131.6712049367003
 10
84.21311982486687
 20
-131.8448377491569
 10
84.21311982486687
 20
-132.0160589947738
 10
84.19176023285831
 20
-132.246535882737
 10
84.09047442559196
 20
-132.4391167203624
 97
        0
 97
        0
 92
        1
 93
        1
 72
     4
 94
        3
 73
     0
 74
     1
 95
       17
 96
       13
 40
0.0
 40
0.0
 40
0.0
 40
0.0
 40
1.0
 40
1.0
 40
1.0
 40
2.0
 40
2.0
 40
2.0
 40
3.0
 40
3.0
 40
3.0
 40
4.0
 40
4.0
 40
4.0
 40
4.0
 10
83.69256589704561
 20
-131.2164523326473
 10
83.44314098391352
 20
-131.2164523326473
 10
83.39628768531412
 20
-131.4999836910833
 10
83.39628768531412
 20
-131.8448377491569
 10
83.39628768531412
 20
-132.1641981006395
 10
83.43246118790925
 20
-132.4728786561179
 10
83.69256589704561
 20
-132.4728786561179
 10
83.94026826243507
 20
-132.4728786561179
 10
83.9888441087771
 20
-132.1917588645215
 10
83.9888441087771
 20
-131.8448377491569
 10
83.9888441087771
 20
-131.5251328881257
 10
83.95060354889083
 20
-131.2164523326473
 10
83.69256589704561
 20
-131.2164523326473
 97
        0
 97
        0
 75
     2
 76
     1
 98
        0
  0
ENDBLK
  5
7B
330
78
100
AcDbEntity
  8
0
100
AcDbBlockEnd
  0
BLOCK
  5
9A
330
98
100
AcDbEntity
  8
0
100
AcDbBlockBegin
  2
block 4
 70
     0
 10
0.0
 20
0.0
 30
0.0
  3
block 4
  1

  0
SPLINE
  5
9C
330
98
100
AcDbEntity
  8
_U+30EC_U+30A4_U+30E4_U+30FC 1
370
     0
100
AcDbSpline
210
0.0
220
0.0
230
1.0
 70
    11
 71
     3
 72
    26
 73
    22
 74
     0
 42
0.0000000001
 43
0.0000000001
 12
1.0
 22
0.0
 32
0.0
 13
1.0
 23
0.0
 33
0.0
 40
0.0
 40
0.0
 40
0.0
 40
0.0
 40
1.0
 40
1.0
 40
1.0
 40
2.0
 40
2.0
 40
2.0
 40
3.0
 40
3.0
 40
3.0
 40
4.0
 40
4.0
 40
4.0
 40
5.0
 40
5.0
 40
5.0
 40
6.0
 40
6.0
 40
6.0
 40
7.0
 40
7.0
 40
7.0
 40
7.0
 10
117.8236436337385
 20
-145.6452012439707
 30
0.0
 10
117.8236436337385
 20
-145.6452012439707
 30
0.0
 10
116.7198350402645
 20
-145.6452012439707
 30
0.0
 10
116.7198350402645
 20
-145.6452012439707
 30
0.0
 10
116.7198350402645
 20
-145.6452012439707
 30
0.0
 10
116.7198350402645
 20
-145.9752413914576
 30
0.0
 10
116.7198350402645
 20
-145.9752413914576
 30
0.0
 10
116.7198350402645
 20
-145.9752413914576
 30
0.0
 10
116.5716959343987
 20
-145.9752413914576
 30
0.0
 10
116.5716959343987
 20
-145.9752413914576
 30
0.0
 10
116.5565375142637
 20
-145.6431341866795
 30
0.0
 10
116.3939290073599
 20
-145.5966253976286
 30
0.0
 10
116.2795518372496
 20
-145.5669975764555
 30
0.0
 10
116.2795518372496
 20
-145.5669975764555
 30
0.0
 10
116.2795518372496
 20
-145.4209255278809
 30
0.0
 10
116.2795518372496
 20
-145.4209255278809
 30
0.0
 10
116.2795518372496
 20
-145.4209255278809
 30
0.0
 10
117.8236436337385
 20
-145.4209255278809
 30
0.0
 10
117.8236436337385
 20
-145.4209255278809
 30
0.0
 10
117.8236436337385
 20
-145.4209255278809
 30
0.0
 10
117.8236436337385
 20
-145.6452012439707
 30
0.0
 10
117.8236436337385
 20
-145.6452012439707
 30
0.0
  0
HATCH
  5
9D
330
98
100
AcDbEntity
  8
_U+30EC_U+30A4_U+30E4_U+30FC 1
 62
   179
420
  2234388
100
AcDbHatch
 10
0.0
 20
0.0
 30
0.0
210
0.0
220
0.0
230
1.0
  2
SOLID
 70
     1
 71
     0
 91
        1
 92
        1
 93
        1
 72
     4
 94
        3
 73
     0
 74
     1
 95
       26
 96
       22
 40
0.0
 40
0.0
 40
0.0
 40
0.0
 40
1.0
 40
1.0
 40
1.0
 40
2.0
 40
2.0
 40
2.0
 40
3.0
 40
3.0
 40
3.0
 40
4.0
 40
4.0
 40
4.0
 40
5.0
 40
5.0
 40
5.0
 40
6.0
 40
6.0
 40
6.0
 40
7.0
 40
7.0
 40
7.0
 40
7.0
 10
117.8236436337385
 20
-145.6452012439707
 10
117.8236436337385
 20
-145.6452012439707
 10
116.7198350402645
 20
-145.6452012439707
 10
116.7198350402645
 20
-145.6452012439707
 10
116.7198350402645
 20
-145.6452012439707
 10
116.7198350402645
 20
-145.9752413914576
 10
116.7198350402645
 20
-145.9752413914576
 10
116.7198350402645
 20
-145.9752413914576
 10
116.5716959343987
 20
-145.9752413914576
 10
116.5716959343987
 20
-145.9752413914576
 10
116.5565375142637
 20
-145.6431341866795
 10
116.3939290073599
 20
-145.5966253976286
 10
116.2795518372496
 20
-145.5669975764555
 10
116.2795518372496
 20
-145.5669975764555
 10
116.2795518372496
 20
-145.4209255278809
 10
116.2795518372496
 20
-145.4209255278809
 10
116.2795518372496
 20
-145.4209255278809
 10
117.8236436337385
 20
-145.4209255278809
 10
117.8236436337385
 20
-145.4209255278809
 10
117.8236436337385
 20
-145.4209255278809
 10
117.8236436337385
 20
-145.6452012439707
 10
117.8236436337385
 20
-145.6452012439707
 97
        0
 97
        0
 75
     2
 76
     1
 98
        0
  0
SPLINE
  5
9E
330
98
100
AcDbEntity
  8
_U+30EC_U+30A4_U+30E4_U+30FC 1
370
     0
100
AcDbSpline
210
0.0
220
0.0
230
1.0
 70
    11
 71
     3
 72
    29
 73
    25
 74
     0
 42
0.0000000001
 43
0.0000000001
 12
1.0
 22
0.0
 32
0.0
 13
1.0
 23
0.0
 33
0.0
 40
0.0
 40
0.0
 40
0.0
 40
0.0
 40
1.0
 40
1.0
 40
1.0
 40
2.0
 40
2.0
 40
2.0
 40
3.0
 40
3.0
 40
3.0
 40
4.0
 40
4.0
 40
4.0
 40
5.0
 40
5.0
 40
5.0
 40
6.0
 40
6.0
 40
6.0
 40
7.0
 40
7.0
 40
7.0
 40
8.0
 40
8.0
 40
8.0
 40
8.0
 10
117.6458767066997
 20
-144.0218722513209
 30
0.0
 10
117.8553385122028
 20
-144.1300482495578
 30
0.0
 10
117.8746310469202
 20
-144.3033365524659
 30
0.0
 10
117.8746310469202
 20
-144.4197807798673
 30
0.0
 10
117.8746310469202
 20
-144.5806667390285
 30
0.0
 10
117.8277777483208
 20
-144.7222601634722
 30
0.0
 10
117.6458767066997
 20
-144.8173447988651
 30
0.0
 10
117.4515733213316
 20
-144.9210421729711
 30
0.0
 10
117.2145507519464
 20
-144.93999019814
 30
0.0
 10
117.0519422450426
 20
-144.93999019814
 30
0.0
 10
116.9079372537591
 20
-144.93999019814
 30
0.0
 10
116.6557562642388
 20
-144.9231092302623
 30
0.0
 10
116.4573187642885
 20
-144.8173447988651
 30
0.0
 10
116.2540581306587
 20
-144.7095133101768
 30
0.0
 10
116.230631481359
 20
-144.5486273510156
 30
0.0
 10
116.230631481359
 20
-144.4197807798673
 30
0.0
 10
116.230631481359
 20
-144.2609618779973
 30
0.0
 10
116.2754177226673
 20
-144.1173013962623
 30
0.0
 10
116.4573187642885
 20
-144.0218722513209
 30
0.0
 10
116.6495550923654
 20
-143.9226535013457
 30
0.0
 10
116.878309432586
 20
-143.899226852046
 30
0.0
 10
117.0519422450426
 20
-143.899226852046
 30
0.0
 10
117.222818981111
 20
-143.899226852046
 30
0.0
 10
117.4536403786227
 20
-143.9205864440546
 30
0.0
 10
117.6458767066997
 20
-144.0218722513209
 30
0.0
  0
SPLINE
  5
9F
330
98
100
AcDbEntity
  8
_U+30EC_U+30A4_U+30E4_U+30FC 1
370
     0
100
AcDbSpline
210
0.0
220
0.0
230
1.0
 70
    11
 71
     3
 72
    17
 73
    13
 74
     0
 42
0.0000000001
 43
0.0000000001
 12
1.0
 22
0.0
 32
0.0
 13
1.0
 23
0.0
 33
0.0
 40
0.0
 40
0.0
 40
0.0
 40
0.0
 40
1.0
 40
1.0
 40
1.0
 40
2.0
 40
2.0
 40
2.0
 40
3.0
 40
3.0
 40
3.0
 40
4.0
 40
4.0
 40
4.0
 40
4.0
 10
116.423556828533
 20
-144.4197807798673
 30
0.0
 10
116.423556828533
 20
-144.6692056929994
 30
0.0
 10
116.7067436774205
 20
-144.7160589915988
 30
0.0
 10
117.0519422450426
 20
-144.7160589915988
 30
0.0
 10
117.3709580869767
 20
-144.7160589915988
 30
0.0
 10
117.6796386424551
 20
-144.6798854890037
 30
0.0
 10
117.6796386424551
 20
-144.4197807798673
 30
0.0
 10
117.6796386424551
 20
-144.1720784144778
 30
0.0
 10
117.3985188508587
 20
-144.1235025681358
 30
0.0
 10
117.0519422450426
 20
-144.1235025681358
 30
0.0
 10
116.7322373840114
 20
-144.1235025681358
 30
0.0
 10
116.423556828533
 20
-144.1617431280221
 30
0.0
 10
116.423556828533
 20
-144.4197807798673
 30
0.0
  0
HATCH
  5
A0
330
98
100
AcDbEntity
  8
_U+30EC_U+30A4_U+30E4_U+30FC 1
 62
   179
420
  2234388
100
AcDbHatch
 10
0.0
 20
0.0
 30
0.0
210
0.0
220
0.0
230
1.0
  2
SOLID
 70
     1
 71
     0
 91
        2
 92
        1
 93
        1
 72
     4
 94
        3
 73
     0
 74
     1
 95
       29
 96
       25
 40
0.0
 40
0.0
 40
0.0
 40
0.0
 40
1.0
 40
1.0
 40
1.0
 40
2.0
 40
2.0
 40
2.0
 40
3.0
 40
3.0
 40
3.0
 40
4.0
 40
4.0
 40
4.0
 40
5.0
 40
5.0
 40
5.0
 40
6.0
 40
6.0
 40
6.0
 40
7.0
 40
7.0
 40
7.0
 40
8.0
 40
8.0
 40
8.0
 40
8.0
 10
117.6458767066997
 20
-144.0218722513209
 10
117.8553385122028
 20
-144.1300482495578
 10
117.8746310469202
 20
-144.3033365524659
 10
117.8746310469202
 20
-144.4197807798673
 10
117.8746310469202
 20
-144.5806667390285
 10
117.8277777483208
 20
-144.7222601634722
 10
117.6458767066997
 20
-144.8173447988651
 10
117.4515733213316
 20
-144.9210421729711
 10
117.2145507519464
 20
-144.93999019814
 10
117.0519422450426
 20
-144.93999019814
 10
116.9079372537591
 20
-144.93999019814
 10
116.6557562642388
 20
-144.9231092302623
 10
116.4573187642885
 20
-144.8173447988651
 10
116.2540581306587
 20
-144.7095133101768
 10
116.230631481359
 20
-144.5486273510156
 10
116.230631481359
 20
-144.4197807798673
 10
116.230631481359
 20
-144.2609618779973
 10
116.2754177226673
 20
-144.1173013962623
 10
116.4573187642885
 20
-144.0218722513209
 10
116.6495550923654
 20
-143.9226535013457
 10
116.878309432586
 20
-143.899226852046
 10
117.0519422450426
 20
-143.899226852046
 10
117.222818981111
 20
-143.899226852046
 10
117.4536403786227
 20
-143.9205864440546
 10
117.6458767066997
 20
-144.0218722513209
 97
        0
 97
        0
 92
        1
 93
        1
 72
     4
 94
        3
 73
     0
 74
     1
 95
       17
 96
       13
 40
0.0
 40
0.0
 40
0.0
 40
0.0
 40
1.0
 40
1.0
 40
1.0
 40
2.0
 40
2.0
 40
2.0
 40
3.0
 40
3.0
 40
3.0
 40
4.0
 40
4.0
 40
4.0
 40
4.0
 10
116.423556828533
 20
-144.4197807798673
 10
116.423556828533
 20
-144.6692056929994
 10
116.7067436774205
 20
-144.7160589915988
 10
117.0519422450426
 20
-144.7160589915988
 10
117.3709580869767
 20
-144.7160589915988
 10
117.6796386424551
 20
-144.6798854890037
 10
117.6796386424551
 20
-144.4197807798673
 10
117.6796386424551
 20
-144.1720784144778
 10
117.3985188508587
 20
-144.1235025681358
 10
117.0519422450426
 20
-144.1235025681358
 10
116.7322373840114
 20
-144.1235025681358
 10
116.423556828533
 20
-144.1617431280221
 10
116.423556828533
 20
-144.4197807798673
 97
        0
 97
        0
 75
     2
 76
     1
 98
        0
  0
ENDBLK
  5
9B
330
98
100
AcDbEntity
  8
0
100
AcDbBlockEnd
  0
BLOCK
  5
A3
330
A1
100
AcDbEntity
  8
0
100
AcDbBlockBegin
  2
block 5
 70
     0
 10
0.0
 20
0.0
 30
0.0
  3
block 5
  1

  0
SPLINE
  5
A5
330
A1
100
AcDbEntity
  8
_U+30EC_U+30A4_U+30E4_U+30FC 1
370
     0
100
AcDbSpline
210
0.0
220
0.0
230
1.0
 70
    11
 71
     3
 72
    26
 73
    22
 74
     0
 42
0.0000000001
 43
0.0000000001
 12
1.0
 22
0.0
 32
0.0
 13
1.0
 23
0.0
 33
0.0
 40
0.0
 40
0.0
 40
0.0
 40
0.0
 40
1.0
 40
1.0
 40
1.0
 40
2.0
 40
2.0
 40
2.0
 40
3.0
 40
3.0
 40
3.0
 40
4.0
 40
4.0
 40
4.0
 40
5.0
 40
5.0
 40
5.0
 40
6.0
 40
6.0
 40
6.0
 40
7.0
 40
7.0
 40
7.0
 40
7.0
 10
117.8236436337385
 20
-138.3391872484013
 30
0.0
 10
117.8236436337385
 20
-138.3391872484013
 30
0.0
 10
116.7198350402645
 20
-138.3391872484013
 30
0.0
 10
116.7198350402645
 20
-138.3391872484013
 30
0.0
 10
116.7198350402645
 20
-138.3391872484013
 30
0.0
 10
116.7198350402645
 20
-138.6692273958882
 30
0.0
 10
116.7198350402645
 20
-138.6692273958882
 30
0.0
 10
116.7198350402645
 20
-138.6692273958882
 30
0.0
 10
116.5716959343987
 20
-138.6692273958882
 30
0.0
 10
116.5716959343987
 20
-138.6692273958882
 30
0.0
 10
116.5565375142637
 20
-138.3371201911102
 30
0.0
 10
116.3939290073599
 20
-138.2906114020593
 30
0.0
 10
116.2795518372496
 20
-138.2609835808861
 30
0.0
 10
116.2795518372496
 20
-138.2609835808861
 30
0.0
 10
116.2795518372496
 20
-138.1149115323116
 30
0.0
 10
116.2795518372496
 20
-138.1149115323116
 30
0.0
 10
116.2795518372496
 20
-138.1149115323116
 30
0.0
 10
117.8236436337385
 20
-138.1149115323116
 30
0.0
 10
117.8236436337385
 20
-138.1149115323116
 30
0.0
 10
117.8236436337385
 20
-138.1149115323116
 30
0.0
 10
117.8236436337385
 20
-138.3391872484013
 30
0.0
 10
117.8236436337385
 20
-138.3391872484013
 30
0.0
  0
HATCH
  5
A6
330
A1
100
AcDbEntity
  8
_U+30EC_U+30A4_U+30E4_U+30FC 1
 62
   179
420
  2234388
100
AcDbHatch
 10
0.0
 20
0.0
 30
0.0
210
0.0
220
0.0
230
1.0
  2
SOLID
 70
     1
 71
     0
 91
        1
 92
        1
 93
        1
 72
     4
 94
        3
 73
     0
 74
     1
 95
       26
 96
       22
 40
0.0
 40
0.0
 40
0.0
 40
0.0
 40
1.0
 40
1.0
 40
1.0
 40
2.0
 40
2.0
 40
2.0
 40
3.0
 40
3.0
 40
3.0
 40
4.0
 40
4.0
 40
4.0
 40
5.0
 40
5.0
 40
5.0
 40
6.0
 40
6.0
 40
6.0
 40
7.0
 40
7.0
 40
7.0
 40
7.0
 10
117.8236436337385
 20
-138.3391872484013
 10
117.8236436337385
 20
-138.3391872484013
 10
116.7198350402645
 20
-138.3391872484013
 10
116.7198350402645
 20
-138.3391872484013
 10
116.7198350402645
 20
-138.3391872484013
 10
116.7198350402645
 20
-138.6692273958882
 10
116.7198350402645
 20
-138.6692273958882
 10
116.7198350402645
 20
-138.6692273958882
 10
116.5716959343987
 20
-138.6692273958882
 10
116.5716959343987
 20
-138.6692273958882
 10
116.5565375142637
 20
-138.3371201911102
 10
116.3939290073599
 20
-138.2906114020593
 10
116.2795518372496
 20
-138.2609835808861
 10
116.2795518372496
 20
-138.2609835808861
 10
116.2795518372496
 20
-138.1149115323116
 10
116.2795518372496
 20
-138.1149115323116
 10
116.2795518372496
 20
-138.1149115323116
 10
117.8236436337385
 20
-138.1149115323116
 10
117.8236436337385
 20
-138.1149115323116
 10
117.8236436337385
 20
-138.1149115323116
 10
117.8236436337385
 20
-138.3391872484013
 10
117.8236436337385
 20
-138.3391872484013
 97
        0
 97
        0
 75
     2
 76
     1
 98
        0
  0
POLYLINE
  5
A7
330
A1
100
AcDbEntity
  8
_U+30EC_U+30A4_U+30E4_U+30FC 1
370
     0
100
AcDb2dPolyline
 66
     1
 10
0.0
 20
0.0
 30
0.0
  0
VERTEX
  5
A8
330
A7
100
AcDbEntity
  8
_U+30EC_U+30A4_U+30E4_U+30FC 1
370
     0
100
AcDbVertex
100
AcDb2dVertex
 10
117.8236436337385
 20
-137.5537054777644
 30
0.0
  0
VERTEX
  5
A9
330
A7
100
AcDbEntity
  8
_U+30EC_U+30A4_U+30E4_U+30FC 1
370
     0
100
AcDbVertex
100
AcDb2dVertex
 10
117.5721516633153
 20
-137.5537054777644
 30
0.0
  0
VERTEX
  5
AA
330
A7
100
AcDbEntity
  8
_U+30EC_U+30A4_U+30E4_U+30FC 1
370
     0
100
AcDbVertex
100
AcDb2dVertex
 10
117.5721516633153
 20
-137.3018689977926
 30
0.0
  0
VERTEX
  5
AB
330
A7
100
AcDbEntity
  8
_U+30EC_U+30A4_U+30E4_U+30FC 1
370
     0
100
AcDbVertex
100
AcDb2dVertex
 10
117.8236436337385
 20
-137.3018689977926
 30
0.0
  0
VERTEX
  5
AC
330
A7
100
AcDbEntity
  8
_U+30EC_U+30A4_U+30E4_U+30FC 1
370
     0
100
AcDbVertex
100
AcDb2dVertex
 10
117.8236436337385
 20
-137.5537054777644
 30
0.0
  0
SEQEND
  5
AD
330
A7
100
AcDbEntity
  8
_U+30EC_U+30A4_U+30E4_U+30FC 1
370
     0
  0
HATCH
  5
AE
330
A1
100
AcDbEntity
  8
_U+30EC_U+30A4_U+30E4_U+30FC 1
 62
   179
420
  2234388
100
AcDbHatch
 10
0.0
 20
0.0
 30
0.0
210
0.0
220
0.0
230
1.0
  2
SOLID
 70
     1
 71
     0
 91
        1
 92
        1
 93
        4
 72
     1
 10
117.8236436337385
 20
-137.5537054777644
 11
117.5721516633153
 21
-137.5537054777644
 72
     1
 10
117.5721516633153
 20
-137.5537054777644
 11
117.5721516633153
 21
-137.3018689977926
 72
     1
 10
117.5721516633153
 20
-137.3018689977926
 11
117.8236436337385
 21
-137.3018689977926
 72
     1
 10
117.8236436337385
 20
-137.3018689977926
 11
117.8236436337385
 21
-137.5537054777644
 97
        0
 75
     2
 76
     1
 98
        0
  0
SPLINE
  5
AF
330
A1
100
AcDbEntity
  8
_U+30EC_U+30A4_U+30E4_U+30FC 1
370
     0
100
AcDbSpline
210
0.0
220
0.0
230
1.0
 70
    11
 71
     3
 72
    44
 73
    40
 74
     0
 42
0.0000000001
 43
0.0000000001
 12
1.0
 22
0.0
 32
0.0
 13
1.0
 23
0.0
 33
0.0
 40
0.0
 40
0.0
 40
0.0
 40
0.0
 40
1.0
 40
1.0
 40
1.0
 40
2.0
 40
2.0
 40
2.0
 40
3.0
 40
3.0
 40
3.0
 40
4.0
 40
4.0
 40
4.0
 40
5.0
 40
5.0
 40
5.0
 40
6.0
 40
6.0
 40
6.0
 40
7.0
 40
7.0
 40
7.0
 40
8.0
 40
8.0
 40
8.0
 40
9.0
 40
9.0
 40
9.0
 40
10.0
 40
10.0
 40
10.0
 40
11.0
 40
11.0
 40
11.0
 40
12.0
 40
12.0
 40
12.0
 40
13.0
 40
13.0
 40
13.0
 40
13.0
 10
117.2421115158284
 20
-136.472634514493
 30
0.0
 10
117.4005859081499
 20
-136.6903645491608
 30
0.0
 10
117.4749999706313
 20
-136.7833821272625
 30
0.0
 10
117.6183159428176
 20
-136.832302483153
 30
0.0
 10
117.6183159428176
 20
-136.832302483153
 30
0.0
 10
117.6183159428176
 20
-136.0537109034866
 30
0.0
 10
117.6183159428176
 20
-136.0537109034866
 30
0.0
 10
117.6183159428176
 20
-136.0537109034866
 30
0.0
 10
117.8236436337385
 20
-136.0537109034866
 30
0.0
 10
117.8236436337385
 20
-136.0537109034866
 30
0.0
 10
117.8236436337385
 20
-136.0537109034866
 30
0.0
 10
117.8236436337385
 20
-137.0817273962851
 30
0.0
 10
117.8236436337385
 20
-137.0817273962851
 30
0.0
 10
117.4660427223696
 20
-137.0500325178208
 30
0.0
 10
117.388183564403
 20
-136.9845757036011
 30
0.0
 10
117.0898382953803
 20
-136.5994140283501
 30
0.0
 10
116.8907117763329
 20
-136.3434434337961
 30
0.0
 10
116.823187904822
 20
-136.2779866195764
 30
0.0
 10
116.685384085412
 20
-136.2779866195764
 30
0.0
 10
116.5668728007194
 20
-136.2779866195764
 30
0.0
 10
116.4359591722799
 20
-136.3499891152181
 30
0.0
 10
116.4359591722799
 20
-136.5467040674258
 30
0.0
 10
116.4359591722799
 20
-136.8068087765622
 30
0.0
 10
116.6667805697916
 20
-136.8150770057268
 30
0.0
 10
116.7832247971931
 20
-136.8195556298576
 30
0.0
 10
116.7832247971931
 20
-136.8195556298576
 30
0.0
 10
116.7832247971931
 20
-137.0438313459474
 30
0.0
 10
116.7832247971931
 20
-137.0438313459474
 30
0.0
 10
116.6557562642388
 20
-137.0352186072343
 30
0.0
 10
116.5441351705168
 20
-137.02453881123
 30
0.0
 10
116.4256238858242
 20
-136.9442680864236
 30
0.0
 10
116.2643934171145
 20
-136.8343695404442
 30
0.0
 10
116.230631481359
 20
-136.6479898746922
 30
0.0
 10
116.230631481359
 20
-136.5318901568393
 30
0.0
 10
116.230631481359
 20
-136.2545599702766
 30
0.0
 10
116.4145995802714
 20
-136.0471652220646
 30
0.0
 10
116.6874511427031
 20
-136.0471652220646
 30
0.0
 10
116.9162054829237
 20
-136.0471652220646
 30
0.0
 10
117.0154242328989
 20
-136.163609449466
 30
0.0
 10
117.2421115158284
 20
-136.472634514493
 30
0.0
  0
HATCH
  5
B0
330
A1
100
AcDbEntity
  8
_U+30EC_U+30A4_U+30E4_U+30FC 1
 62
   179
420
  2234388
100
AcDbHatch
 10
0.0
 20
0.0
 30
0.0
210
0.0
220
0.0
230
1.0
  2
SOLID
 70
     1
 71
     0
 91
        1
 92
        1
 93
        1
 72
     4
 94
        3
 73
     0
 74
     1
 95
       44
 96
       40
 40
0.0
 40
0.0
 40
0.0
 40
0.0
 40
1.0
 40
1.0
 40
1.0
 40
2.0
 40
2.0
 40
2.0
 40
3.0
 40
3.0
 40
3.0
 40
4.0
 40
4.0
 40
4.0
 40
5.0
 40
5.0
 40
5.0
 40
6.0
 40
6.0
 40
6.0
 40
7.0
 40
7.0
 40
7.0
 40
8.0
 40
8.0
 40
8.0
 40
9.0
 40
9.0
 40
9.0
 40
10.0
 40
10.0
 40
10.0
 40
11.0
 40
11.0
 40
11.0
 40
12.0
 40
12.0
 40
12.0
 40
13.0
 40
13.0
 40
13.0
 40
13.0
 10
117.2421115158284
 20
-136.472634514493
 10
117.4005859081499
 20
-136.6903645491608
 10
117.4749999706313
 20
-136.7833821272625
 10
117.6183159428176
 20
-136.832302483153
 10
117.6183159428176
 20
-136.832302483153
 10
117.6183159428176
 20
-136.0537109034866
 10
117.6183159428176
 20
-136.0537109034866
 10
117.6183159428176
 20
-136.0537109034866
 10
117.8236436337385
 20
-136.0537109034866
 10
117.8236436337385
 20
-136.0537109034866
 10
117.8236436337385
 20
-136.0537109034866
 10
117.8236436337385
 20
-137.0817273962851
 10
117.8236436337385
 20
-137.0817273962851
 10
117.4660427223696
 20
-137.0500325178208
 10
117.388183564403
 20
-136.9845757036011
 10
117.0898382953803
 20
-136.5994140283501
 10
116.8907117763329
 20
-136.3434434337961
 10
116.823187904822
 20
-136.2779866195764
 10
116.685384085412
 20
-136.2779866195764
 10
116.5668728007194
 20
-136.2779866195764
 10
116.4359591722799
 20
-136.3499891152181
 10
116.4359591722799
 20
-136.5467040674258
 10
116.4359591722799
 20
-136.8068087765622
 10
116.6667805697916
 20
-136.8150770057268
 10
116.7832247971931
 20
-136.8195556298576
 10
116.7832247971931
 20
-136.8195556298576
 10
116.7832247971931
 20
-137.0438313459474
 10
116.7832247971931
 20
-137.0438313459474
 10
116.6557562642388
 20
-137.0352186072343
 10
116.5441351705168
 20
-137.02453881123
 10
116.4256238858242
 20
-136.9442680864236
 10
116.2643934171145
 20
-136.8343695404442
 10
116.230631481359
 20
-136.6479898746922
 10
116.230631481359
 20
-136.5318901568393
 10
116.230631481359
 20
-136.2545599702766
 10
116.4145995802714
 20
-136.0471652220646
 10
116.6874511427031
 20
-136.0471652220646
 10
116.9162054829237
 20
-136.0471652220646
 10
117.0154242328989
 20
-136.163609449466
 10
117.2421115158284
 20
-136.472634514493
 97
        0
 97
        0
 75
     2
 76
     1
 98
        0
  0
ENDBLK
  5
A4
330
A1
100
AcDbEntity
  8
0
100
AcDbBlockEnd
  0
ENDSEC
  0
SECTION
  2
ENTITIES
  0
SPLINE
  5
41
330
1F
100
AcDbEntity
  8
_U+30EC_U+30A4_U+30E4_U+30FC 1
 62
   253
420
 10855845
370
     9
100
AcDbSpline
210
0.0
220
0.0
230
1.0
 70
    11
 71
     3
 72
    86
 73
    82
 74
     0
 42
0.0000000001
 43
0.0000000001
 12
1.0
 22
0.0
 32
0.0
 13
1.0
 23
0.0
 33
0.0
 40
0.0
 40
0.0
 40
0.0
 40
0.0
 40
1.0
 40
1.0
 40
1.0
 40
2.0
 40
2.0
 40
2.0
 40
3.0
 40
3.0
 40
3.0
 40
4.0
 40
4.0
 40
4.0
 40
5.0
 40
5.0
 40
5.0
 40
6.0
 40
6.0
 40
6.0
 40
7.0
 40
7.0
 40
7.0
 40
8.0
 40
8.0
 40
8.0
 40
9.0
 40
9.0
 40
9.0
 40
10.0
 40
10.0
 40
10.0
 40
11.0
 40
11.0
 40
11.0
 40
12.0
 40
12.0
 40
12.0
 40
13.0
 40
13.0
 40
13.0
 40
14.0
 40
14.0
 40
14.0
 40
15.0
 40
15.0
 40
15.0
 40
16.0
 40
16.0
 40
16.0
 40
17.0
 40
17.0
 40
17.0
 40
18.0
 40
18.0
 40
18.0
 40
19.0
 40
19.0
 40
19.0
 40
20.0
 40
20.0
 40
20.0
 40
21.0
 40
21.0
 40
21.0
 40
22.0
 40
22.0
 40
22.0
 40
23.0
 40
23.0
 40
23.0
 40
24.0
 40
24.0
 40
24.0
 40
25.0
 40
25.0
 40
25.0
 40
26.0
 40
26.0
 40
26.0
 40
27.0
 40
27.0
 40
27.0
 40
27.0
 10
78.61846604983138
 20
-112.939547749543
 30
0.0
 10
78.61846604983138
 20
-112.939547749543
 30
0.0
 10
78.61846604983138
 20
-106.1657910845696
 30
0.0
 10
78.61846604983138
 20
-106.1657910845696
 30
0.0
 10
78.61846604983138
 20
-106.1657910845696
 30
0.0
 10
79.90691629473807
 20
-106.1657910845696
 30
0.0
 10
79.90691629473807
 20
-106.1657910845696
 30
0.0
 10
79.90691629473807
 20
-106.1657910845696
 30
0.0
 10
79.90691629473807
 20
-121.4461488585274
 30
0.0
 10
79.90691629473807
 20
-121.4461488585274
 30
0.0
 10
79.90691629473807
 20
-121.4461488585274
 30
0.0
 10
69.96369849285513
 20
-121.4461488585274
 30
0.0
 10
69.96369849285513
 20
-121.4461488585274
 30
0.0
 10
69.96369849285513
 20
-121.4461488585274
 30
0.0
 10
70.07461182335882
 20
-123.877034691253
 30
0.0
 10
70.29580348438242
 20
-124.6866244132728
 30
0.0
 10
70.29580348438242
 20
-124.6866244132728
 30
0.0
 10
71.95220275978967
 20
-132.1996974669498
 30
0.0
 10
73.97792144599933
 20
-135.1810577439823
 30
0.0
 10
73.97792144599933
 20
-135.1810577439823
 30
0.0
 10
77.6607096853769
 20
-140.3741935760173
 30
0.0
 10
78.028656898212
 20
-140.6318977426201
 30
0.0
 10
78.028656898212
 20
-140.6318977426201
 30
0.0
 10
82.77873899924954
 20
-144.6826332971626
 30
0.0
 10
83.73649536370402
 20
-145.0512507970707
 30
0.0
 10
83.73649536370402
 20
-145.0512507970707
 30
0.0
 10
89.5559527152373
 20
-148.0340221852136
 30
0.0
 10
92.5380184724918
 20
-148.2923966295938
 30
0.0
 10
92.5380184724918
 20
-148.2923966295938
 30
0.0
 10
97.58302278822747
 20
-148.9917785738634
 30
0.0
 10
97.58302278822747
 20
-148.9917785738634
 30
0.0
 10
97.58302278822747
 20
-148.9917785738634
 30
0.0
 10
97.21507557539235
 20
-139.0485252430156
 30
0.0
 10
97.21507557539235
 20
-139.0485252430156
 30
0.0
 10
97.21507557539235
 20
-139.0485252430156
 30
0.0
 10
114.118775144143
 20
-139.0485252430156
 30
0.0
 10
114.118775144143
 20
-139.0485252430156
 30
0.0
 10
114.118775144143
 20
-139.0485252430156
 30
0.0
 10
114.0815923673139
 20
-140.3004630204806
 30
0.0
 10
114.0815923673139
 20
-140.3004630204806
 30
0.0
 10
114.0815923673139
 20
-140.3004630204806
 30
0.0
 10
105.9063583068569
 20
-140.3383866315822
 30
0.0
 10
105.9063583068569
 20
-140.3383866315822
 30
0.0
 10
105.9063583068569
 20
-140.3383866315822
 30
0.0
 10
105.6858721958009
 20
-140.0062816316654
 30
0.0
 10
105.6858721958009
 20
-140.0062816316654
 30
0.0
 10
105.6858721958009
 20
-140.0062816316654
 30
0.0
 10
105.3902770334923
 20
-140.3748991315729
 30
0.0
 10
105.3902770334923
 20
-140.3748991315729
 30
0.0
 10
105.3902770334923
 20
-140.3748991315729
 30
0.0
 10
98.46771887676809
 20
-140.2281435760543
 30
0.0
 10
98.46771887676809
 20
-140.2281435760543
 30
0.0
 10
98.46771887676809
 20
-140.2281435760543
 30
0.0
 10
98.76122998039111
 20
-150.3539594068557
 30
0.0
 10
98.76122998039111
 20
-150.3539594068557
 30
0.0
 10
98.76122998039111
 20
-150.3539594068557
 30
0.0
 10
90.18089853262694
 20
-150.0962552402536
 30
0.0
 10
84.4737303448956
 20
-146.9295455188235
 30
0.0
 10
84.4737303448956
 20
-146.9295455188235
 30
0.0
 10
77.03438803468903
 20
-142.3620257977425
 30
0.0
 10
75.70942529071387
 20
-139.9690635761186
 30
0.0
 10
75.70942529071387
 20
-139.9690635761186
 30
0.0
 10
71.47401067654607
 20
-133.7830346887768
 30
0.0
 10
70.11182987796487
 20
-129.3264635787794
 30
0.0
 10
70.11182987796487
 20
-129.3264635787794
 30
0.0
 10
68.85851629882845
 20
-123.4711991357987
 30
0.0
 10
68.63870047110309
 20
-121.6673405251386
 30
0.0
 10
68.63870047110309
 20
-121.6673405251386
 30
0.0
 10
68.56496991742856
 20
-120.0095671922197
 30
0.0
 10
68.56496991742856
 20
-120.0095671922197
 30
0.0
 10
68.56496991742856
 20
-120.0095671922197
 30
0.0
 10
78.61846604983138
 20
-120.1569930255163
 30
0.0
 10
78.61846604983138
 20
-120.1569930255163
 30
0.0
 10
78.61846604983138
 20
-120.1569930255163
 30
0.0
 10
78.5440299406193
 20
-113.5644583049422
 30
0.0
 10
78.5440299406193
 20
-113.5644583049422
 30
0.0
 10
78.5440299406193
 20
-113.5644583049422
 30
0.0
 10
78.83895215531743
 20
-113.3439721938862
 30
0.0
 10
78.83895215531743
 20
-113.3439721938862
 30
0.0
 10
78.83895215531743
 20
-113.3439721938862
 30
0.0
 10
78.61846604983138
 20
-112.939547749543
 30
0.0
 10
78.61846604983138
 20
-112.939547749543
 30
0.0
  0
HATCH
  5
42
330
1F
100
AcDbEntity
  8
_U+30EC_U+30A4_U+30E4_U+30FC 1
 62
   253
420
 10855845
100
AcDbHatch
 10
0.0
 20
0.0
 30
0.0
210
0.0
220
0.0
230
1.0
  2
SOLID
 70
     1
 71
     0
 91
        1
 92
        1
 93
        1
 72
     4
 94
        3
 73
     0
 74
     1
 95
       86
 96
       82
 40
0.0
 40
0.0
 40
0.0
 40
0.0
 40
1.0
 40
1.0
 40
1.0
 40
2.0
 40
2.0
 40
2.0
 40
3.0
 40
3.0
 40
3.0
 40
4.0
 40
4.0
 40
4.0
 40
5.0
 40
5.0
 40
5.0
 40
6.0
 40
6.0
 40
6.0
 40
7.0
 40
7.0
 40
7.0
 40
8.0
 40
8.0
 40
8.0
 40
9.0
 40
9.0
 40
9.0
 40
10.0
 40
10.0
 40
10.0
 40
11.0
 40
11.0
 40
11.0
 40
12.0
 40
12.0
 40
12.0
 40
13.0
 40
13.0
 40
13.0
 40
14.0
 40
14.0
 40
14.0
 40
15.0
 40
15.0
 40
15.0
 40
16.0
 40
16.0
 40
16.0
 40
17.0
 40
17.0
 40
17.0
 40
18.0
 40
18.0
 40
18.0
 40
19.0
 40
19.0
 40
19.0
 40
20.0
 40
20.0
 40
20.0
 40
21.0
 40
21.0
 40
21.0
 40
22.0
 40
22.0
 40
22.0
 40
23.0
 40
23.0
 40
23.0
 40
24.0
 40
24.0
 40
24.0
 40
25.0
 40
25.0
 40
25.0
 40
26.0
 40
26.0
 40
26.0
 40
27.0
 40
27.0
 40
27.0
 40
27.0
 10
78.61846604983138
 20
-112.939547749543
 10
78.61846604983138
 20
-112.939547749543
 10
78.61846604983138
 20
-106.1657910845696
 10
78.61846604983138
 20
-106.1657910845696
 10
78.61846604983138
 20
-106.1657910845696
 10
79.90691629473807
 20
-106.1657910845696
 10
79.90691629473807
 20
-106.1657910845696
 10
79.90691629473807
 20
-106.1657910845696
 10
79.90691629473807
 20
-121.4461488585274
 10
79.90691629473807
 20
-121.4461488585274
 10
79.90691629473807
 20
-121.4461488585274
 10
69.96369849285513
 20
-121.4461488585274
 10
69.96369849285513
 20
-121.4461488585274
 10
69.96369849285513
 20
-121.4461488585274
 10
70.07461182335882
 20
-123.877034691253
 10
70.29580348438242
 20
-124.6866244132728
 10
70.29580348438242
 20
-124.6866244132728
 10
71.95220275978967
 20
-132.1996974669498
 10
73.97792144599933
 20
-135.1810577439823
 10
73.97792144599933
 20
-135.1810577439823
 10
77.6607096853769
 20
-140.3741935760173
 10
78.028656898212
 20
-140.6318977426201
 10
78.028656898212
 20
-140.6318977426201
 10
82.77873899924954
 20
-144.6826332971626
 10
83.73649536370402
 20
-145.0512507970707
 10
83.73649536370402
 20
-145.0512507970707
 10
89.5559527152373
 20
-148.0340221852136
 10
92.5380184724918
 20
-148.2923966295938
 10
92.5380184724918
 20
-148.2923966295938
 10
97.58302278822747
 20
-148.9917785738634
 10
97.58302278822747
 20
-148.9917785738634
 10
97.58302278822747
 20
-148.9917785738634
 10
97.21507557539235
 20
-139.0485252430156
 10
97.21507557539235
 20
-139.0485252430156
 10
97.21507557539235
 20
-139.0485252430156
 10
114.118775144143
 20
-139.0485252430156
 10
114.118775144143
 20
-139.0485252430156
 10
114.118775144143
 20
-139.0485252430156
 10
114.0815923673139
 20
-140.3004630204806
 10
114.0815923673139
 20
-140.3004630204806
 10
114.0815923673139
 20
-140.3004630204806
 10
105.9063583068569
 20
-140.3383866315822
 10
105.9063583068569
 20
-140.3383866315822
 10
105.9063583068569
 20
-140.3383866315822
 10
105.6858721958009
 20
-140.0062816316654
 10
105.6858721958009
 20
-140.0062816316654
 10
105.6858721958009
 20
-140.0062816316654
 10
105.3902770334923
 20
-140.3748991315729
 10
105.3902770334923
 20
-140.3748991315729
 10
105.3902770334923
 20
-140.3748991315729
 10
98.46771887676809
 20
-140.2281435760543
 10
98.46771887676809
 20
-140.2281435760543
 10
98.46771887676809
 20
-140.2281435760543
 10
98.76122998039111
 20
-150.3539594068557
 10
98.76122998039111
 20
-150.3539594068557
 10
98.76122998039111
 20
-150.3539594068557
 10
90.18089853262694
 20
-150.0962552402536
 10
84.4737303448956
 20
-146.9295455188235
 10
84.4737303448956
 20
-146.9295455188235
 10
77.03438803468903
 20
-142.3620257977425
 10
75.70942529071387
 20
-139.9690635761186
 10
75.70942529071387
 20
-139.9690635761186
 10
71.47401067654607
 20
-133.7830346887768
 10
70.11182987796487
 20
-129.3264635787794
 10
70.11182987796487
 20
-129.3264635787794
 10
68.85851629882845
 20
-123.4711991357987
 10
68.63870047110309
 20
-121.6673405251386
 10
68.63870047110309
 20
-121.6673405251386
 10
68.56496991742856
 20
-120.0095671922197
 10
68.56496991742856
 20
-120.0095671922197
 10
68.56496991742856
 20
-120.0095671922197
 10
78.61846604983138
 20
-120.1569930255163
 10
78.61846604983138
 20
-120.1569930255163
 10
78.61846604983138
 20
-120.1569930255163
 10
78.5440299406193
 20
-113.5644583049422
 10
78.5440299406193
 20
-113.5644583049422
 10
78.5440299406193
 20
-113.5644583049422
 10
78.83895215531743
 20
-113.3439721938862
 10
78.83895215531743
 20
-113.3439721938862
 10
78.83895215531743
 20
-113.3439721938862
 10
78.61846604983138
 20
-112.939547749543
 10
78.61846604983138
 20
-112.939547749543
 97
        0
 97
        0
 75
     2
 76
     1
 98
        0
  0
SPLINE
  5
43
330
1F
100
AcDbEntity
  8
_U+30EC_U+30A4_U+30E4_U+30FC 1
 62
   179
420
  2234388
370
    25
100
AcDbSpline
210
0.0
220
0.0
230
1.0
 70
     8
 71
     3
 72
    32
 73
    28
 74
     0
 42
0.0000000001
 43
0.0000000001
 12
1.0
 22
0.0
 32
0.0
 13
1.0
 23
0.0
 33
0.0
 40
0.0
 40
0.0
 40
0.0
 40
0.0
 40
1.0
 40
1.0
 40
1.0
 40
2.0
 40
2.0
 40
2.0
 40
3.0
 40
3.0
 40
3.0
 40
4.0
 40
4.0
 40
4.0
 40
5.0
 40
5.0
 40
5.0
 40
6.0
 40
6.0
 40
6.0
 40
7.0
 40
7.0
 40
7.0
 40
8.0
 40
8.0
 40
8.0
 40
9.0
 40
9.0
 40
9.0
 40
9.0
 10
78.59779327258101
 20
-113.0401246939623
 30
0.0
 10
78.59779327258101
 20
-113.0401246939623
 30
0.0
 10
78.59779327258101
 20
-106.1230696956913
 30
0.0
 10
78.59779327258101
 20
-106.1230696956913
 30
0.0
 10
78.59779327258101
 20
-106.1230696956913
 30
0.0
 10
79.89382823951641
 20
-106.1230696956913
 30
0.0
 10
79.89382823951641
 20
-106.1230696956913
 30
0.0
 10
79.89382823951641
 20
-106.1230696956913
 30
0.0
 10
79.89382823951641
 20
-121.3896691363193
 30
0.0
 10
79.89382823951641
 20
-121.3896691363193
 30
0.0
 10
79.89382823951641
 20
-121.3896691363193
 30
0.0
 10
69.93611127133671
 20
-121.3896691363193
 30
0.0
 10
69.93611127133671
 20
-121.3896691363193
 30
0.0
 10
69.93611127133671
 20
-121.3896691363193
 30
0.0
 10
70.70163902958426
 20
-147.0804285743407
 30
0.0
 10
97.57060501076649
 20
-149.0248338516327
 30
0.0
 10
97.57060501076649
 20
-149.0248338516327
 30
0.0
 10
97.21645140869059
 20
-139.0664463541226
 30
0.0
 10
97.21645140869059
 20
-139.0664463541226
 30
0.0
 10
97.21645140869059
 20
-139.0664463541226
 30
0.0
 10
114.1862968090871
 20
-139.0664463541226
 30
0.0
 10
114.1862968090871
 20
-139.0664463541226
 30
0.0
 10
114.1862968090871
 20
-139.0664463541226
 30
0.0
 10
114.1862968090871
 20
-140.3039202427019
 30
0.0
 10
114.1862968090871
 20
-140.3039202427019
 30
0.0
 10
114.1862968090871
 20
-140.3039202427019
 30
0.0
 10
105.9428681305056
 20
-140.3039202427019
 30
0.0
 10
105.9428681305056
 20
-140.3039202427019
 30
0.0
  0
SPLINE
  5
44
330
1F
100
AcDbEntity
  8
_U+30EC_U+30A4_U+30E4_U+30FC 1
 62
   179
420
  2234388
370
    25
100
AcDbSpline
210
0.0
220
0.0
230
1.0
 70
     8
 71
     3
 72
    20
 73
    16
 74
     0
 42
0.0000000001
 43
0.0000000001
 12
1.0
 22
0.0
 32
0.0
 13
1.0
 23
0.0
 33
0.0
 40
0.0
 40
0.0
 40
0.0
 40
0.0
 40
1.0
 40
1.0
 40
1.0
 40
2.0
 40
2.0
 40
2.0
 40
3.0
 40
3.0
 40
3.0
 40
4.0
 40
4.0
 40
4.0
 40
5.0
 40
5.0
 40
5.0
 40
5.0
 10
105.3654767563472
 20
-140.3039202427019
 30
0.0
 10
105.3654767563472
 20
-140.3039202427019
 30
0.0
 10
98.51248886426063
 20
-140.3039202427019
 30
0.0
 10
98.51248886426063
 20
-140.3039202427019
 30
0.0
 10
98.51248886426063
 20
-140.3039202427019
 30
0.0
 10
98.806705530854
 20
-150.3801355179606
 30
0.0
 10
98.806705530854
 20
-150.3801355179606
 30
0.0
 10
98.806705530854
 20
-150.3801355179606
 30
0.0
 10
70.5838112548125
 20
-151.1456280177689
 30
0.0
 10
68.58080963924667
 20
-119.9764766366725
 30
0.0
 10
68.58080963924667
 20
-119.9764766366725
 30
0.0
 10
78.59779327258101
 20
-120.2114266366139
 30
0.0
 10
78.59779327258101
 20
-120.2114266366139
 30
0.0
 10
78.59779327258101
 20
-120.2114266366139
 30
0.0
 10
78.59779327258101
 20
-113.5927158049352
 30
0.0
 10
78.59779327258101
 20
-113.5927158049352
 30
0.0
  0
POLYLINE
  5
45
330
1F
100
AcDbEntity
  8
_U+30EC_U+30A4_U+30E4_U+30FC 1
 62
   179
420
  2234388
370
     9
100
AcDb2dPolyline
 66
     1
 10
0.0
 20
0.0
 30
0.0
  0
VERTEX
  5
46
330
45
100
AcDbEntity
  8
_U+30EC_U+30A4_U+30E4_U+30FC 1
 62
   179
420
  2234388
370
     9
100
AcDbVertex
100
AcDb2dVertex
 10
63.86724165069992
 20
-120.1170585810819
 30
0.0
  0
VERTEX
  5
47
330
45
100
AcDbEntity
  8
_U+30EC_U+30A4_U+30E4_U+30FC 1
 62
   179
420
  2234388
370
     9
100
AcDbVertex
100
AcDb2dVertex
 10
63.86724165069992
 20
-106.1175663623595
 30
0.0
  0
SEQEND
  5
48
330
45
100
AcDbEntity
  8
_U+30EC_U+30A4_U+30E4_U+30FC 1
 62
   179
420
  2234388
370
     9
  0
POLYLINE
  5
49
330
1F
100
AcDbEntity
  8
_U+30EC_U+30A4_U+30E4_U+30FC 1
 62
   179
420
  2234388
370
     9
100
AcDb2dPolyline
 66
     1
 10
0.0
 20
0.0
 30
0.0
  0
VERTEX
  5
4A
330
49
100
AcDbEntity
  8
_U+30EC_U+30A4_U+30E4_U+30FC 1
 62
   179
420
  2234388
370
     9
100
AcDbVertex
100
AcDb2dVertex
 10
66.9140757928797
 20
-119.9764766366725
 30
0.0
  0
VERTEX
  5
4B
330
49
100
AcDbEntity
  8
_U+30EC_U+30A4_U+30E4_U+30FC 1
 62
   179
420
  2234388
370
     9
100
AcDbVertex
100
AcDb2dVertex
 10
62.33554952079875
 20
-119.9764766366725
 30
0.0
  0
SEQEND
  5
4C
330
49
100
AcDbEntity
  8
_U+30EC_U+30A4_U+30E4_U+30FC 1
 62
   179
420
  2234388
370
     9
  0
POLYLINE
  5
4D
330
1F
100
AcDbEntity
  8
_U+30EC_U+30A4_U+30E4_U+30FC 1
 62
   179
420
  2234388
370
     9
100
AcDb2dPolyline
 66
     1
 10
0.0
 20
0.0
 30
0.0
  0
VERTEX
  5
4E
330
4D
100
AcDbEntity
  8
_U+30EC_U+30A4_U+30E4_U+30FC 1
 62
   179
420
  2234388
370
     9
100
AcDbVertex
100
AcDb2dVertex
 10
76.73466804233553
 20
-106.0817241401462
 30
0.0
  0
VERTEX
  5
4F
330
4D
100
AcDbEntity
  8
_U+30EC_U+30A4_U+30E4_U+30FC 1
 62
   179
420
  2234388
370
     9
100
AcDbVertex
100
AcDb2dVertex
 10
62.33554952079875
 20
-106.0975638623644
 30
0.0
  0
SEQEND
  5
50
330
4D
100
AcDbEntity
  8
_U+30EC_U+30A4_U+30E4_U+30FC 1
 62
   179
420
  2234388
370
     9
  0
INSERT
  5
52
330
1F
100
AcDbEntity
  8
_U+30EC_U+30A4_U+30E4_U+30FC 1
100
AcDbBlockReference
  2
block 2
 10
0.0
 20
0.0
 30
0.0
  0
POLYLINE
  5
6C
330
1F
100
AcDbEntity
  8
_U+30EC_U+30A4_U+30E4_U+30FC 1
 62
   179
420
  2234388
370
     9
100
AcDb2dPolyline
 66
     1
 10
0.0
 20
0.0
 30
0.0
  0
VERTEX
  5
6D
330
6C
100
AcDbEntity
  8
_U+30EC_U+30A4_U+30E4_U+30FC 1
 62
   179
420
  2234388
370
     9
100
AcDbVertex
100
AcDb2dVertex
 10
77.33343774928186
 20
-141.4359841313074
 30
0.0
  0
VERTEX
  5
6E
330
6C
100
AcDbEntity
  8
_U+30EC_U+30A4_U+30E4_U+30FC 1
 62
   179
420
  2234388
370
     9
100
AcDbVertex
100
AcDb2dVertex
 10
78.20091828270614
 20
-140.9357452425437
 30
0.0
  0
SEQEND
  5
6F
330
6C
100
AcDbEntity
  8
_U+30EC_U+30A4_U+30E4_U+30FC 1
 62
   179
420
  2234388
370
     9
  0
POLYLINE
  5
70
330
1F
100
AcDbEntity
  8
_U+30EC_U+30A4_U+30E4_U+30FC 1
 62
   179
420
  2234388
370
     9
100
AcDb2dPolyline
 66
     1
 10
0.0
 20
0.0
 30
0.0
  0
VERTEX
  5
71
330
70
100
AcDbEntity
  8
_U+30EC_U+30A4_U+30E4_U+30FC 1
 62
   179
420
  2234388
370
     9
100
AcDbVertex
100
AcDb2dVertex
 10
77.33343774928186
 20
-141.4359841313074
 30
0.0
  0
VERTEX
  5
72
330
70
100
AcDbEntity
  8
_U+30EC_U+30A4_U+30E4_U+30FC 1
 62
   179
420
  2234388
370
     9
100
AcDbVertex
100
AcDb2dVertex
 10
100.7187610859316
 20
-118.0513683038204
 30
0.0
  0
SEQEND
  5
73
330
70
100
AcDbEntity
  8
_U+30EC_U+30A4_U+30E4_U+30FC 1
 62
   179
420
  2234388
370
     9
  0
POLYLINE
  5
74
330
1F
100
AcDbEntity
  8
_U+30EC_U+30A4_U+30E4_U+30FC 1
 62
   179
420
  2234388
370
     9
100
AcDb2dPolyline
 66
     1
 10
0.0
 20
0.0
 30
0.0
  0
VERTEX
  5
75
330
74
100
AcDbEntity
  8
_U+30EC_U+30A4_U+30E4_U+30FC 1
 62
   179
420
  2234388
370
     9
100
AcDbVertex
100
AcDb2dVertex
 10
77.33343774928186
 20
-141.4359841313074
 30
0.0
  0
VERTEX
  5
76
330
74
100
AcDbEntity
  8
_U+30EC_U+30A4_U+30E4_U+30FC 1
 62
   179
420
  2234388
370
     9
100
AcDbVertex
100
AcDb2dVertex
 10
77.8357227364675
 20
-140.5685035759691
 30
0.0
  0
SEQEND
  5
77
330
74
100
AcDbEntity
  8
_U+30EC_U+30A4_U+30E4_U+30FC 1
 62
   179
420
  2234388
370
     9
  0
INSERT
  5
79
330
1F
100
AcDbEntity
  8
_U+30EC_U+30A4_U+30E4_U+30FC 1
100
AcDbBlockReference
  2
block 3
 10
0.0
 20
0.0
 30
0.0
  0
POLYLINE
  5
84
330
1F
100
AcDbEntity
  8
_U+30EC_U+30A4_U+30E4_U+30FC 1
 62
   179
420
  2234388
370
     9
100
AcDb2dPolyline
 66
     1
 10
0.0
 20
0.0
 30
0.0
  0
VERTEX
  5
85
330
84
100
AcDbEntity
  8
_U+30EC_U+30A4_U+30E4_U+30FC 1
 62
   179
420
  2234388
370
     9
100
AcDbVertex
100
AcDb2dVertex
 10
118.5381633647284
 20
-140.3190896871424
 30
0.0
  0
VERTEX
  5
86
330
84
100
AcDbEntity
  8
_U+30EC_U+30A4_U+30E4_U+30FC 1
 62
   179
420
  2234388
370
     9
100
AcDbVertex
100
AcDb2dVertex
 10
118.5381633647284
 20
-139.160849687432
 30
0.0
  0
SEQEND
  5
87
330
84
100
AcDbEntity
  8
_U+30EC_U+30A4_U+30E4_U+30FC 1
 62
   179
420
  2234388
370
     9
  0
POLYLINE
  5
88
330
1F
100
AcDbEntity
  8
_U+30EC_U+30A4_U+30E4_U+30FC 1
 62
   179
420
  2234388
370
     9
100
AcDb2dPolyline
 66
     1
 10
0.0
 20
0.0
 30
0.0
  0
VERTEX
  5
89
330
88
100
AcDbEntity
  8
_U+30EC_U+30A4_U+30E4_U+30FC 1
 62
   179
420
  2234388
370
     9
100
AcDbVertex
100
AcDb2dVertex
 10
118.5381633647284
 20
-150.3842630179593
 30
0.0
  0
VERTEX
  5
8A
330
88
100
AcDbEntity
  8
_U+30EC_U+30A4_U+30E4_U+30FC 1
 62
   179
420
  2234388
370
     9
100
AcDbVertex
100
AcDb2dVertex
 10
118.5381633647284
 20
-140.3190896871424
 30
0.0
  0
SEQEND
  5
8B
330
88
100
AcDbEntity
  8
_U+30EC_U+30A4_U+30E4_U+30FC 1
 62
   179
420
  2234388
370
     9
  0
POLYLINE
  5
8C
330
1F
100
AcDbEntity
  8
_U+30EC_U+30A4_U+30E4_U+30FC 1
 62
   179
420
  2234388
370
     9
100
AcDb2dPolyline
 66
     1
 10
0.0
 20
0.0
 30
0.0
  0
VERTEX
  5
8D
330
8C
100
AcDbEntity
  8
_U+30EC_U+30A4_U+30E4_U+30FC 1
 62
   179
420
  2234388
370
     9
100
AcDbVertex
100
AcDb2dVertex
 10
119.8376555537978
 20
-150.3842630179593
 30
0.0
  0
VERTEX
  5
8E
330
8C
100
AcDbEntity
  8
_U+30EC_U+30A4_U+30E4_U+30FC 1
 62
   179
420
  2234388
370
     9
100
AcDbVertex
100
AcDb2dVertex
 10
100.2226471653295
 20
-150.3842630179593
 30
0.0
  0
SEQEND
  5
8F
330
8C
100
AcDbEntity
  8
_U+30EC_U+30A4_U+30E4_U+30FC 1
 62
   179
420
  2234388
370
     9
  0
POLYLINE
  5
90
330
1F
100
AcDbEntity
  8
_U+30EC_U+30A4_U+30E4_U+30FC 1
 62
   179
420
  2234388
370
     9
100
AcDb2dPolyline
 66
     1
 10
0.0
 20
0.0
 30
0.0
  0
VERTEX
  5
91
330
90
100
AcDbEntity
  8
_U+30EC_U+30A4_U+30E4_U+30FC 1
 62
   179
420
  2234388
370
     9
100
AcDbVertex
100
AcDb2dVertex
 10
120.4026291504952
 20
-140.3680199649078
 30
0.0
  0
VERTEX
  5
92
330
90
100
AcDbEntity
  8
_U+30EC_U+30A4_U+30E4_U+30FC 1
 62
   179
420
  2234388
370
     9
100
AcDbVertex
100
AcDb2dVertex
 10
115.5919045510048
 20
-140.3680199649078
 30
0.0
  0
SEQEND
  5
93
330
90
100
AcDbEntity
  8
_U+30EC_U+30A4_U+30E4_U+30FC 1
 62
   179
420
  2234388
370
     9
  0
POLYLINE
  5
94
330
1F
100
AcDbEntity
  8
_U+30EC_U+30A4_U+30E4_U+30FC 1
 62
   179
420
  2234388
370
     9
100
AcDb2dPolyline
 66
     1
 10
0.0
 20
0.0
 30
0.0
  0
VERTEX
  5
95
330
94
100
AcDbEntity
  8
_U+30EC_U+30A4_U+30E4_U+30FC 1
 62
   179
420
  2234388
370
     9
100
AcDbVertex
100
AcDb2dVertex
 10
120.4026291504952
 20
-139.2490441318544
 30
0.0
  0
VERTEX
  5
96
330
94
100
AcDbEntity
  8
_U+30EC_U+30A4_U+30E4_U+30FC 1
 62
   179
420
  2234388
370
     9
100
AcDbVertex
100
AcDb2dVertex
 10
115.5919045510048
 20
-139.2490441318544
 30
0.0
  0
SEQEND
  5
97
330
94
100
AcDbEntity
  8
_U+30EC_U+30A4_U+30E4_U+30FC 1
 62
   179
420
  2234388
370
     9
  0
INSERT
  5
99
330
1F
100
AcDbEntity
  8
_U+30EC_U+30A4_U+30E4_U+30FC 1
100
AcDbBlockReference
  2
block 4
 10
0.0
 20
0.0
 30
0.0
  0
INSERT
  5
A2
330
1F
100
AcDbEntity
  8
_U+30EC_U+30A4_U+30E4_U+30FC 1
100
AcDbBlockReference
  2
block 5
 10
0.0
 20
0.0
 30
0.0
  0
SPLINE
  5
B1
330
1F
100
AcDbEntity
  8
_U+30EC_U+30A4_U+30E4_U+30FC 1
 62
   179
420
  2234388
370
     9
100
AcDbSpline
210
0.0
220
0.0
230
1.0
 70
    11
 71
     3
 72
    17
 73
    13
 74
     0
 42
0.0000000001
 43
0.0000000001
 12
1.0
 22
0.0
 32
0.0
 13
1.0
 23
0.0
 33
0.0
 40
0.0
 40
0.0
 40
0.0
 40
0.0
 40
1.0
 40
1.0
 40
1.0
 40
2.0
 40
2.0
 40
2.0
 40
3.0
 40
3.0
 40
3.0
 40
4.0
 40
4.0
 40
4.0
 40
4.0
 10
63.96510059033655
 20
-106.1168608068043
 30
0.0
 10
63.96510059033655
 20
-106.061756917929
 30
0.0
 10
63.92029781370179
 20
-106.0176596957178
 30
0.0
 10
63.86519392621872
 20
-106.0176596957178
 30
0.0
 10
63.81005476095877
 20
-106.0176596957178
 30
0.0
 10
63.76528887294771
 20
-106.061756917929
 30
0.0
 10
63.76528887294771
 20
-106.1168608068043
 30
0.0
 10
63.76528887294771
 20
-106.171999973457
 30
0.0
 10
63.81005476095877
 20
-106.2167674734459
 30
0.0
 10
63.86519392621872
 20
-106.2167674734459
 30
0.0
 10
63.92029781370179
 20
-106.2167674734459
 30
0.0
 10
63.96510059033655
 20
-106.171999973457
 30
0.0
 10
63.96510059033655
 20
-106.1168608068043
 30
0.0
  0
SPLINE
  5
B2
330
1F
100
AcDbEntity
  8
_U+30EC_U+30A4_U+30E4_U+30FC 1
 62
   179
420
  2234388
370
     9
100
AcDbSpline
210
0.0
220
0.0
230
1.0
 70
    11
 71
     3
 72
    17
 73
    13
 74
     0
 42
0.0000000001
 43
0.0000000001
 12
1.0
 22
0.0
 32
0.0
 13
1.0
 23
0.0
 33
0.0
 40
0.0
 40
0.0
 40
0.0
 40
0.0
 40
1.0
 40
1.0
 40
1.0
 40
2.0
 40
2.0
 40
2.0
 40
3.0
 40
3.0
 40
3.0
 40
4.0
 40
4.0
 40
4.0
 40
4.0
 10
63.96510059033655
 20
-120.0274883033263
 30
0.0
 10
63.96510059033655
 20
-119.9723491366736
 30
0.0
 10
63.92029781370179
 20
-119.9282519144624
 30
0.0
 10
63.86519392621872
 20
-119.9282519144624
 30
0.0
 10
63.81005476095877
 20
-119.9282519144624
 30
0.0
 10
63.76528887294771
 20
-119.9723491366736
 30
0.0
 10
63.76528887294771
 20
-120.0274883033263
 30
0.0
 10
63.76528887294771
 20
-120.0832977477571
 30
0.0
 10
63.81005476095877
 20
-120.1273949699683
 30
0.0
 10
63.86519392621872
 20
-120.1273949699683
 30
0.0
 10
63.92029781370179
 20
-120.1273949699683
 30
0.0
 10
63.96510059033655
 20
-120.0832977477571
 30
0.0
 10
63.96510059033655
 20
-120.0274883033263
 30
0.0
  0
SPLINE
  5
B3
330
1F
100
AcDbEntity
  8
_U+30EC_U+30A4_U+30E4_U+30FC 1
 62
   179
420
  2234388
370
     9
100
AcDbSpline
210
0.0
220
0.0
230
1.0
 70
    11
 71
     3
 72
    17
 73
    13
 74
     0
 42
0.0000000001
 43
0.0000000001
 12
1.0
 22
0.0
 32
0.0
 13
1.0
 23
0.0
 33
0.0
 40
0.0
 40
0.0
 40
0.0
 40
0.0
 40
1.0
 40
1.0
 40
1.0
 40
2.0
 40
2.0
 40
2.0
 40
3.0
 40
3.0
 40
3.0
 40
4.0
 40
4.0
 40
4.0
 40
4.0
 10
118.6236061403263
 20
-139.2490441318544
 30
0.0
 10
118.6236061403263
 20
-139.1939049652013
 30
0.0
 10
118.5781360814667
 20
-139.1491374652128
 30
0.0
 10
118.5236994762085
 20
-139.1491374652128
 30
0.0
 10
118.4678900331879
 20
-139.1491374652128
 30
0.0
 10
118.4237928120907
 20
-139.1939049652013
 30
0.0
 10
118.4237928120907
 20
-139.2490441318544
 30
0.0
 10
118.4237928120907
 20
-139.3048535762849
 30
0.0
 10
118.4678900331879
 20
-139.3489507984961
 30
0.0
 10
118.5236994762085
 20
-139.3489507984961
 30
0.0
 10
118.5781360814667
 20
-139.3489507984961
 30
0.0
 10
118.6236061403263
 20
-139.3048535762849
 30
0.0
 10
118.6236061403263
 20
-139.2490441318544
 30
0.0
  0
SPLINE
  5
B4
330
1F
100
AcDbEntity
  8
_U+30EC_U+30A4_U+30E4_U+30FC 1
 62
   179
420
  2234388
370
     9
100
AcDbSpline
210
0.0
220
0.0
230
1.0
 70
    11
 71
     3
 72
    17
 73
    13
 74
     0
 42
0.0000000001
 43
0.0000000001
 12
1.0
 22
0.0
 32
0.0
 13
1.0
 23
0.0
 33
0.0
 40
0.0
 40
0.0
 40
0.0
 40
0.0
 40
1.0
 40
1.0
 40
1.0
 40
2.0
 40
2.0
 40
2.0
 40
3.0
 40
3.0
 40
3.0
 40
4.0
 40
4.0
 40
4.0
 40
4.0
 10
118.6236061403263
 20
-140.3686902426858
 30
0.0
 10
118.6236061403263
 20
-140.3135863538103
 30
0.0
 10
118.5781360814667
 20
-140.2681132982662
 30
0.0
 10
118.5236994762085
 20
-140.2681132982662
 30
0.0
 10
118.4678900331879
 20
-140.2681132982662
 30
0.0
 10
118.4237928120907
 20
-140.3135863538103
 30
0.0
 10
118.4237928120907
 20
-140.3686902426858
 30
0.0
 10
118.4237928120907
 20
-140.4238294093382
 30
0.0
 10
118.4678900331879
 20
-140.4679266315494
 30
0.0
 10
118.5236994762085
 20
-140.4679266315494
 30
0.0
 10
118.5781360814667
 20
-140.4679266315494
 30
0.0
 10
118.6236061403263
 20
-140.4238294093382
 30
0.0
 10
118.6236061403263
 20
-140.3686902426858
 30
0.0
  0
SPLINE
  5
B5
330
1F
100
AcDbEntity
  8
_U+30EC_U+30A4_U+30E4_U+30FC 1
 62
   179
420
  2234388
370
     9
100
AcDbSpline
210
0.0
220
0.0
230
1.0
 70
    11
 71
     3
 72
    17
 73
    13
 74
     0
 42
0.0000000001
 43
0.0000000001
 12
1.0
 22
0.0
 32
0.0
 13
1.0
 23
0.0
 33
0.0
 40
0.0
 40
0.0
 40
0.0
 40
0.0
 40
1.0
 40
1.0
 40
1.0
 40
2.0
 40
2.0
 40
2.0
 40
3.0
 40
3.0
 40
3.0
 40
4.0
 40
4.0
 40
4.0
 40
4.0
 10
118.6236061403263
 20
-150.3835927401819
 30
0.0
 10
118.6236061403263
 20
-150.3291591290844
 30
0.0
 10
118.5781360814667
 20
-150.2843563513176
 30
0.0
 10
118.5236994762085
 20
-150.2843563513176
 30
0.0
 10
118.4678900331879
 20
-150.2843563513176
 30
0.0
 10
118.4237928120907
 20
-150.3291591290844
 30
0.0
 10
118.4237928120907
 20
-150.3835927401819
 30
0.0
 10
118.4237928120907
 20
-150.4394021846123
 30
0.0
 10
118.4678900331879
 20
-150.4841696846009
 30
0.0
 10
118.5236994762085
 20
-150.4841696846009
 30
0.0
 10
118.5781360814667
 20
-150.4841696846009
 30
0.0
 10
118.6236061403263
 20
-150.4394021846123
 30
0.0
 10
118.6236061403263
 20
-150.3835927401819
 30
0.0
  0
POLYLINE
  5
B6
330
1F
100
AcDbEntity
  8
_U+30EC_U+30A4_U+30E4_U+30FC 1
 62
   179
420
  2234388
370
    25
100
AcDb2dPolyline
 66
     1
 10
0.0
 20
0.0
 30
0.0
  0
VERTEX
  5
B7
330
B6
100
AcDbEntity
  8
_U+30EC_U+30A4_U+30E4_U+30FC 1
 62
   179
420
  2234388
370
    25
100
AcDbVertex
100
AcDb2dVertex
 10
69.89063821694127
 20
-121.4489005251935
 30
0.0
  0
VERTEX
  5
B8
330
B6
100
AcDbEntity
  8
_U+30EC_U+30A4_U+30E4_U+30FC 1
 62
   179
420
  2234388
370
    25
100
AcDbVertex
100
AcDb2dVertex
 10
79.83318574106353
 20
-121.3752052474339
 30
0.0
  0
SEQEND
  5
B9
330
B6
100
AcDbEntity
  8
_U+30EC_U+30A4_U+30E4_U+30FC 1
 62
   179
420
  2234388
370
    25
  0
POLYLINE
  5
BA
330
1F
100
AcDbEntity
  8
_U+30EC_U+30A4_U+30E4_U+30FC 1
 62
   179
420
  2234388
370
    25
100
AcDb2dPolyline
 66
     1
 10
0.0
 20
0.0
 30
0.0
  0
VERTEX
  5
BB
330
BA
100
AcDbEntity
  8
_U+30EC_U+30A4_U+30E4_U+30FC 1
 62
   179
420
  2234388
370
    25
100
AcDbVertex
100
AcDb2dVertex
 10
105.6624450821042
 20
-139.9890307983358
 30
0.0
  0
VERTEX
  5
BC
330
BA
100
AcDbEntity
  8
_U+30EC_U+30A4_U+30E4_U+30FC 1
 62
   179
420
  2234388
370
    25
100
AcDbVertex
100
AcDb2dVertex
 10
105.4178642550107
 20
-140.3039202427019
 30
0.0
  0
SEQEND
  5
BD
330
BA
100
AcDbEntity
  8
_U+30EC_U+30A4_U+30E4_U+30FC 1
 62
   179
420
  2234388
370
    25
  0
POLYLINE
  5
BE
330
1F
100
AcDbEntity
  8
_U+30EC_U+30A4_U+30E4_U+30FC 1
 62
   179
420
  2234388
370
    25
100
AcDb2dPolyline
 66
     1
 10
0.0
 20
0.0
 30
0.0
  0
VERTEX
  5
BF
330
BE
100
AcDbEntity
  8
_U+30EC_U+30A4_U+30E4_U+30FC 1
 62
   179
420
  2234388
370
    25
100
AcDbVertex
100
AcDb2dVertex
 10
105.9070638624124
 20
-140.3039202427019
 30
0.0
  0
VERTEX
  5
C0
330
BE
100
AcDbEntity
  8
_U+30EC_U+30A4_U+30E4_U+30FC 1
 62
   179
420
  2234388
370
    25
100
AcDbVertex
100
AcDb2dVertex
 10
105.6624450821042
 20
-139.9890307983358
 30
0.0
  0
SEQEND
  5
C1
330
BE
100
AcDbEntity
  8
_U+30EC_U+30A4_U+30E4_U+30FC 1
 62
   179
420
  2234388
370
    25
  0
POLYLINE
  5
C2
330
1F
100
AcDbEntity
  8
_U+30EC_U+30A4_U+30E4_U+30FC 1
 62
   179
420
  2234388
370
    25
100
AcDb2dPolyline
 66
     1
 10
0.0
 20
0.0
 30
0.0
  0
VERTEX
  5
C3
330
C2
100
AcDbEntity
  8
_U+30EC_U+30A4_U+30E4_U+30FC 1
 62
   179
420
  2234388
370
    25
100
AcDbVertex
100
AcDb2dVertex
 10
78.91268270899197
 20
-113.3288380272232
 30
0.0
  0
VERTEX
  5
C4
330
C2
100
AcDbEntity
  8
_U+30EC_U+30A4_U+30E4_U+30FC 1
 62
   179
420
  2234388
370
    25
100
AcDbVertex
100
AcDb2dVertex
 10
78.59779327258101
 20
-113.0849274717287
 30
0.0
  0
SEQEND
  5
C5
330
C2
100
AcDbEntity
  8
_U+30EC_U+30A4_U+30E4_U+30FC 1
 62
   179
420
  2234388
370
    25
  0
POLYLINE
  5
C6
330
1F
100
AcDbEntity
  8
_U+30EC_U+30A4_U+30E4_U+30FC 1
 62
   179
420
  2234388
370
    25
100
AcDb2dPolyline
 66
     1
 10
0.0
 20
0.0
 30
0.0
  0
VERTEX
  5
C7
330
C6
100
AcDbEntity
  8
_U+30EC_U+30A4_U+30E4_U+30FC 1
 62
   179
420
  2234388
370
    25
100
AcDbVertex
100
AcDb2dVertex
 10
78.59779327258101
 20
-113.5741244160509
 30
0.0
  0
VERTEX
  5
C8
330
C6
100
AcDbEntity
  8
_U+30EC_U+30A4_U+30E4_U+30FC 1
 62
   179
420
  2234388
370
    25
100
AcDbVertex
100
AcDb2dVertex
 10
78.91268270899197
 20
-113.3288380272232
 30
0.0
  0
SEQEND
  5
C9
330
C6
100
AcDbEntity
  8
_U+30EC_U+30A4_U+30E4_U+30FC 1
 62
   179
420
  2234388
370
    25
  0
ENDSEC
  0
SECTION
  2
OBJECTS
  0
DICTIONARY
  5
C
330
0
100
AcDbDictionary
281
     1
  3
ACAD_GROUP
350
D
  3
ACAD_LAYOUT
350
1A
  3
ACAD_MATERIAL
350
3B
  3
ACAD_MLEADERSTYLE
350
CB
  3
ACAD_MLINESTYLE
350
17
  3
ACAD_PLOTSETTINGS
350
19
  3
ACAD_PLOTSTYLENAME
350
E
  3
ACAD_TABLESTYLE
350
CA
  3
ACAD_VISUALSTYLE
350
2A
  0
SUN
  5
3F
330
29
100
AcDbSun
 90
        1
290
     0
 63
     7
421
 16777215
 40
1.0
291
     1
 91
  2455826
 92
 54000000
292
     0
 70
     2
 71
   256
280
     1
  0
DICTIONARY
  5
D
102
{ACAD_REACTORS
330
C
102
}
330
C
100
AcDbDictionary
281
     1
  0
DICTIONARY
  5
1A
102
{ACAD_REACTORS
330
C
102
}
330
C
100
AcDbDictionary
281
     1
  3
Layout1
350
1E
  3
Layout2
350
26
  3
Model
350
22
  0
DICTIONARY
  5
3B
102
{ACAD_REACTORS
330
C
102
}
330
C
100
AcDbDictionary
281
     1
  3
ByBlock
350
3D
  3
ByLayer
350
3C
  3
Global
350
3E
  0
DICTIONARY
  5
CB
102
{ACAD_REACTORS
330
C
102
}
330
C
100
AcDbDictionary
281
     1
  0
DICTIONARY
  5
17
102
{ACAD_REACTORS
330
C
102
}
330
C
100
AcDbDictionary
281
     1
  3
Standard
350
18
  0
DICTIONARY
  5
19
102
{ACAD_REACTORS
330
C
102
}
330
C
100
AcDbDictionary
281
     1
  0
ACDBDICTIONARYWDFLT
  5
E
102
{ACAD_REACTORS
330
C
102
}
330
C
100
AcDbDictionary
281
     1
  3
Normal
350
F
100
AcDbDictionaryWithDefault
340
F
  0
DICTIONARY
  5
CA
102
{ACAD_REACTORS
330
C
102
}
330
C
100
AcDbDictionary
281
     1
  0
DICTIONARY
  5
2A
102
{ACAD_REACTORS
330
C
102
}
330
C
100
AcDbDictionary
281
     1
  3
2dWireframe
350
2F
  3
3D Hidden
350
31
  3
3dWireframe
350
30
  3
Basic
350
32
  3
Brighten
350
36
  3
ColorChange
350
3A
  3
Conceptual
350
34
  3
Dim
350
35
  3
Facepattern
350
39
  3
Flat
350
2B
  3
FlatWithEdges
350
2C
  3
Gouraud
350
2D
  3
GouraudWithEdges
350
2E
  3
Linepattern
350
38
  3
Realistic
350
33
  3
Thicken
350
37
  0
LAYOUT
  5
1E
102
{ACAD_REACTORS
330
1A
102
}
330
1A
100
AcDbPlotSettings
  1

  2
none_device
  4

  6

 40
0.0
 41
0.0
 42
0.0
 43
0.0
 44
0.0
 45
0.0
 46
0.0
 47
0.0
 48
0.0
 49
0.0
140
0.0
141
0.0
142
1.0
143
1.0
 70
   688
 72
     0
 73
     0
 74
     5
  7

 75
    16
 76
     0
 77
     2
 78
   300
147
1.0
148
0.0
149
0.0
100
AcDbLayout
  1
Layout1
 70
     1
 71
     1
 10
0.0
 20
0.0
 11
12.0
 21
9.0
 12
0.0
 22
0.0
 32
0.0
 14
1.000000000000000E+20
 24
1.000000000000000E+20
 34
1.000000000000000E+20
 15
-1.000000000000000E+20
 25
-1.000000000000000E+20
 35
-1.000000000000000E+20
146
0.0
 13
0.0
 23
0.0
 33
0.0
 16
1.0
 26
0.0
 36
0.0
 17
0.0
 27
1.0
 37
0.0
 76
     0
330
1B
  0
LAYOUT
  5
26
102
{ACAD_REACTORS
330
1A
102
}
330
1A
100
AcDbPlotSettings
  1

  2
none_device
  4

  6

 40
0.0
 41
0.0
 42
0.0
 43
0.0
 44
0.0
 45
0.0
 46
0.0
 47
0.0
 48
0.0
 49
0.0
140
0.0
141
0.0
142
1.0
143
1.0
 70
   688
 72
     0
 73
     0
 74
     5
  7

 75
    16
 76
     0
 77
     2
 78
   300
147
1.0
148
0.0
149
0.0
100
AcDbLayout
  1
Layout2
 70
     1
 71
     2
 10
0.0
 20
0.0
 11
0.0
 21
0.0
 12
0.0
 22
0.0
 32
0.0
 14
0.0
 24
0.0
 34
0.0
 15
0.0
 25
0.0
 35
0.0
146
0.0
 13
0.0
 23
0.0
 33
0.0
 16
1.0
 26
0.0
 36
0.0
 17
0.0
 27
1.0
 37
0.0
 76
     0
330
23
  0
LAYOUT
  5
22
102
{ACAD_REACTORS
330
1A
102
}
330
1A
100
AcDbPlotSettings
  1

  2
none_device
  4

  6

 40
0.0
 41
0.0
 42
0.0
 43
0.0
 44
0.0
 45
0.0
 46
0.0
 47
0.0
 48
0.0
 49
0.0
140
0.0
141
0.0
142
1.0
143
1.0
 70
  1712
 72
     0
 73
     0
 74
     0
  7

 75
     0
 76
     0
 77
     2
 78
   300
147
1.0
148
0.0
149
0.0
100
AcDbLayout
  1
Model
 70
     1
 71
     0
 10
0.0
 20
0.0
 11
12.0
 21
9.0
 12
0.0
 22
0.0
 32
0.0
 14
1.000000000000000E+20
 24
1.000000000000000E+20
 34
1.000000000000000E+20
 15
-1.000000000000000E+20
 25
-1.000000000000000E+20
 35
-1.000000000000000E+20
146
0.0
 13
0.0
 23
0.0
 33
0.0
 16
1.0
 26
0.0
 36
0.0
 17
0.0
 27
1.0
 37
0.0
 76
     0
330
1F
331
29
  0
MATERIAL
  5
3D
102
{ACAD_REACTORS
330
3B
102
}
330
3B
100
AcDbMaterial
  1
ByBlock
 72
     1
 94
      127
  0
MATERIAL
  5
3C
102
{ACAD_REACTORS
330
3B
102
}
330
3B
100
AcDbMaterial
  1
ByLayer
 72
     1
 94
      127
  0
MATERIAL
  5
3E
102
{ACAD_REACTORS
330
3B
102
}
330
3B
100
AcDbMaterial
  1
Global
 72
     1
 94
      127
  0
MLINESTYLE
  5
18
102
{ACAD_REACTORS
330
17
102
}
330
17
100
AcDbMlineStyle
  2
Standard
 70
     0
  3

 62
   256
 51
90.0
 52
90.0
 71
     2
 49
0.5
 62
   256
  6
BYLAYER
 49
-0.5
 62
   256
  6
BYLAYER
  0
ACDBPLACEHOLDER
  5
F
102
{ACAD_REACTORS
330
E
102
}
330
E
  0
VISUALSTYLE
  5
2F
102
{ACAD_REACTORS
330
2A
102
}
330
2A
100
AcDbVisualStyle
  2
2dWireframe
 70
     4
177
     2
291
     0
 71
     0
176
     1
 72
     2
176
     1
 73
     0
176
     1
 90
        0
176
     1
 40
-0.6
176
     1
 41
-30.0
176
     1
 62
     5
 63
     7
421
 16777215
176
     1
 74
     1
176
     1
 91
        4
176
     1
 64
     7
176
     1
 65
   257
176
     1
 75
     1
176
     1
175
     1
176
     1
 42
1.0
176
     1
 92
        0
176
     1
 66
   257
176
     1
 43
1.0
176
     1
 76
     1
176
     1
 77
     6
176
     1
 78
     2
176
     1
 67
     7
176
     1
 79
     5
176
     1
170
     0
176
     1
171
     0
176
     1
290
     0
176
     1
 93
        1
176
     1
 44
0.0
176
     1
173
     0
176
     1
  0
VISUALSTYLE
  5
31
102
{ACAD_REACTORS
330
2A
102
}
330
2A
100
AcDbVisualStyle
  2
3D Hidden
 70
     6
177
     2
291
     0
 71
     1
176
     1
 72
     2
176
     1
 73
     2
176
     1
 90
        0
176
     1
 40
-0.6
176
     1
 41
-30.0
176
     1
 62
     5
 63
     7
421
 16777215
176
     1
 74
     2
176
     1
 91
        2
176
     1
 64
     7
176
     1
 65
   257
176
     1
 75
     2
176
     1
175
     1
176
     1
 42
40.0
176
     1
 92
        0
176
     1
 66
   257
176
     1
 43
1.0
176
     1
 76
     1
176
     1
 77
     6
176
     1
 78
     2
176
     1
 67
     7
176
     1
 79
     3
176
     1
170
     0
176
     1
171
     0
176
     1
290
     0
176
     1
 93
        1
176
     1
 44
0.0
176
     1
173
     0
176
     1
  0
VISUALSTYLE
  5
30
102
{ACAD_REACTORS
330
2A
102
}
330
2A
100
AcDbVisualStyle
  2
3dWireframe
 70
     5
177
     2
291
     0
 71
     0
176
     1
 72
     2
176
     1
 73
     0
176
     1
 90
        0
176
     1
 40
-0.6
176
     1
 41
-30.0
176
     1
 62
     5
 63
     7
421
 16777215
176
     1
 74
     1
176
     1
 91
        4
176
     1
 64
     7
176
     1
 65
   257
176
     1
 75
     1
176
     1
175
     1
176
     1
 42
1.0
176
     1
 92
        0
176
     1
 66
   257
176
     1
 43
1.0
176
     1
 76
     1
176
     1
 77
     6
176
     1
 78
     2
176
     1
 67
     7
176
     1
 79
     5
176
     1
170
     0
176
     1
171
     0
176
     1
290
     0
176
     1
 93
        1
176
     1
 44
0.0
176
     1
173
     0
176
     1
  0
VISUALSTYLE
  5
32
102
{ACAD_REACTORS
330
2A
102
}
330
2A
100
AcDbVisualStyle
  2
Basic
 70
     7
177
     2
291
     1
 71
     1
176
     1
 72
     0
176
     1
 73
     1
176
     1
 90
        0
176
     1
 40
-0.6
176
     1
 41
-30.0
176
     1
 62
     5
 63
     7
421
 16777215
176
     1
 74
     0
176
     1
 91
        4
176
     1
 64
     7
176
     1
 65
   257
176
     1
 75
     1
176
     1
175
     1
176
     1
 42
1.0
176
     1
 92
        8
176
     1
 66
     7
176
     1
 43
1.0
176
     1
 76
     1
176
     1
 77
     6
176
     1
 78
     2
176
     1
 67
     7
176
     1
 79
     5
176
     1
170
     0
176
     1
171
     0
176
     1
290
     0
176
     1
 93
        1
176
     1
 44
0.0
176
     1
173
     0
176
     1
  0
VISUALSTYLE
  5
36
102
{ACAD_REACTORS
330
2A
102
}
330
2A
100
AcDbVisualStyle
  2
Brighten
 70
    12
177
     2
291
     1
 71
     2
176
     1
 72
     2
176
     1
 73
     0
176
     1
 90
        0
176
     1
 40
-0.6
176
     1
 41
-30.0
176
     1
 62
     5
 63
     7
421
 16777215
176
     1
 74
     1
176
     1
 91
        4
176
     1
 64
     7
176
     1
 65
   257
176
     1
 75
     1
176
     1
175
     1
176
     1
 42
1.0
176
     1
 92
        8
176
     1
 66
     7
176
     1
 43
1.0
176
     1
 76
     1
176
     1
 77
     6
176
     1
 78
     2
176
     1
 67
     7
176
     1
 79
     5
176
     1
170
     0
176
     1
171
     0
176
     1
290
     0
176
     1
 93
        1
176
     1
 44
50.0
176
     1
173
     0
176
     1
  0
VISUALSTYLE
  5
3A
102
{ACAD_REACTORS
330
2A
102
}
330
2A
100
AcDbVisualStyle
  2
ColorChange
 70
    16
177
     2
291
     1
 71
     2
176
     1
 72
     2
176
     1
 73
     3
176
     1
 90
        0
176
     1
 40
-0.6
176
     1
 41
-30.0
176
     1
 62
     5
 63
     8
421
  8421504
176
     1
 74
     1
176
     1
 91
        4
176
     1
 64
     7
176
     1
 65
   257
176
     1
 75
     1
176
     1
175
     1
176
     1
 42
1.0
176
     1
 92
        8
176
     1
 66
     8
424
  8421504
176
     1
 43
1.0
176
     1
 76
     1
176
     1
 77
     6
176
     1
 78
     2
176
     1
 67
     7
176
     1
 79
     5
176
     1
170
     0
176
     1
171
     0
176
     1
290
     0
176
     1
 93
        1
176
     1
 44
0.0
176
     1
173
     0
176
     1
  0
VISUALSTYLE
  5
34
102
{ACAD_REACTORS
330
2A
102
}
330
2A
100
AcDbVisualStyle
  2
Conceptual
 70
     9
177
     2
291
     0
 71
     3
176
     1
 72
     2
176
     1
 73
     0
176
     1
 90
        0
176
     1
 40
-0.6
176
     1
 41
-30.0
176
     1
 62
     5
 63
     7
421
 16777215
176
     1
 74
     2
176
     1
 91
        2
176
     1
 64
     7
176
     1
 65
   257
176
     1
 75
     1
176
     1
175
     1
176
     1
 42
40.0
176
     1
 92
        8
176
     1
 66
     7
176
     1
 43
1.0
176
     1
 76
     1
176
     1
 77
     6
176
     1
 78
     2
176
     1
 67
     7
176
     1
 79
     3
176
     1
170
     0
176
     1
171
     0
176
     1
290
     0
176
     1
 93
        1
176
     1
 44
0.0
176
     1
173
     0
176
     1
  0
VISUALSTYLE
  5
35
102
{ACAD_REACTORS
330
2A
102
}
330
2A
100
AcDbVisualStyle
  2
Dim
 70
    11
177
     2
291
     1
 71
     2
176
     1
 72
     2
176
     1
 73
     0
176
     1
 90
        0
176
     1
 40
-0.6
176
     1
 41
-30.0
176
     1
 62
     5
 63
     7
421
 16777215
176
     1
 74
     1
176
     1
 91
        4
176
     1
 64
     7
176
     1
 65
   257
176
     1
 75
     1
176
     1
175
     1
176
     1
 42
1.0
176
     1
 92
        8
176
     1
 66
     7
176
     1
 43
1.0
176
     1
 76
     1
176
     1
 77
     6
176
     1
 78
     2
176
     1
 67
     7
176
     1
 79
     5
176
     1
170
     0
176
     1
171
     0
176
     1
290
     0
176
     1
 93
        1
176
     1
 44
-50.0
176
     1
173
     0
176
     1
  0
VISUALSTYLE
  5
39
102
{ACAD_REACTORS
330
2A
102
}
330
2A
100
AcDbVisualStyle
  2
Facepattern
 70
    15
177
     2
291
     1
 71
     2
176
     1
 72
     2
176
     1
 73
     0
176
     1
 90
        0
176
     1
 40
-0.6
176
     1
 41
-30.0
176
     1
 62
     5
 63
     7
421
 16777215
176
     1
 74
     1
176
     1
 91
        4
176
     1
 64
     7
176
     1
 65
   257
176
     1
 75
     1
176
     1
175
     1
176
     1
 42
1.0
176
     1
 92
        8
176
     1
 66
     7
176
     1
 43
1.0
176
     1
 76
     1
176
     1
 77
     6
176
     1
 78
     2
176
     1
 67
     7
176
     1
 79
     5
176
     1
170
     0
176
     1
171
     0
176
     1
290
     0
176
     1
 93
        1
176
     1
 44
0.0
176
     1
173
     0
176
     1
  0
VISUALSTYLE
  5
2B
102
{ACAD_REACTORS
330
2A
102
}
330
2A
100
AcDbVisualStyle
  2
Flat
 70
     0
177
     2
291
     1
 71
     2
176
     1
 72
     1
176
     1
 73
     1
176
     1
 90
        2
176
     1
 40
-0.6
176
     1
 41
30.0
176
     1
 62
     5
 63
     7
421
 16777215
176
     1
 74
     0
176
     1
 91
        4
176
     1
 64
     7
176
     1
 65
   257
176
     1
 75
     1
176
     1
175
     1
176
     1
 42
1.0
176
     1
 92
        8
176
     1
 66
     7
176
     1
 43
1.0
176
     1
 76
     1
176
     1
 77
     6
176
     1
 78
     2
176
     1
 67
     7
176
     1
 79
     5
176
     1
170
     0
176
     1
171
     0
176
     1
290
     0
176
     1
 93
       13
176
     1
 44
0.0
176
     1
173
     0
176
     1
  0
VISUALSTYLE
  5
2C
102
{ACAD_REACTORS
330
2A
102
}
330
2A
100
AcDbVisualStyle
  2
FlatWithEdges
 70
     1
177
     2
291
     1
 71
     2
176
     1
 72
     1
176
     1
 73
     1
176
     1
 90
        2
176
     1
 40
-0.6
176
     1
 41
30.0
176
     1
 62
     5
 63
     7
421
 16777215
176
     1
 74
     1
176
     1
 91
        4
176
     1
 64
     7
176
     1
 65
   257
176
     1
 75
     1
176
     1
175
     1
176
     1
 42
1.0
176
     1
 92
        0
176
     1
 66
   257
176
     1
 43
1.0
176
     1
 76
     1
176
     1
 77
     6
176
     1
 78
     2
176
     1
 67
     7
176
     1
 79
     5
176
     1
170
     0
176
     1
171
     0
176
     1
290
     0
176
     1
 93
       13
176
     1
 44
0.0
176
     1
173
     0
176
     1
  0
VISUALSTYLE
  5
2D
102
{ACAD_REACTORS
330
2A
102
}
330
2A
100
AcDbVisualStyle
  2
Gouraud
 70
     2
177
     2
291
     1
 71
     2
176
     1
 72
     2
176
     1
 73
     1
176
     1
 90
        2
176
     1
 40
-0.6
176
     1
 41
30.0
176
     1
 62
     5
 63
     7
421
 16777215
176
     1
 74
     0
176
     1
 91
        4
176
     1
 64
     7
176
     1
 65
   257
176
     1
 75
     1
176
     1
175
     1
176
     1
 42
1.0
176
     1
 92
        0
176
     1
 66
     7
176
     1
 43
1.0
176
     1
 76
     1
176
     1
 77
     6
176
     1
 78
     2
176
     1
 67
     7
176
     1
 79
     5
176
     1
170
     0
176
     1
171
     0
176
     1
290
     0
176
     1
 93
       13
176
     1
 44
0.0
176
     1
173
     0
176
     1
  0
VISUALSTYLE
  5
2E
102
{ACAD_REACTORS
330
2A
102
}
330
2A
100
AcDbVisualStyle
  2
GouraudWithEdges
 70
     3
177
     2
291
     1
 71
     2
176
     1
 72
     2
176
     1
 73
     1
176
     1
 90
        2
176
     1
 40
-0.6
176
     1
 41
30.0
176
     1
 62
     5
 63
     7
421
 16777215
176
     1
 74
     1
176
     1
 91
        4
176
     1
 64
     7
176
     1
 65
   257
176
     1
 75
     1
176
     1
175
     1
176
     1
 42
1.0
176
     1
 92
        0
176
     1
 66
   257
176
     1
 43
1.0
176
     1
 76
     1
176
     1
 77
     6
176
     1
 78
     2
176
     1
 67
     7
176
     1
 79
     5
176
     1
170
     0
176
     1
171
     0
176
     1
290
     0
176
     1
 93
       13
176
     1
 44
0.0
176
     1
173
     0
176
     1
  0
VISUALSTYLE
  5
38
102
{ACAD_REACTORS
330
2A
102
}
330
2A
100
AcDbVisualStyle
  2
Linepattern
 70
    14
177
     2
291
     1
 71
     2
176
     1
 72
     2
176
     1
 73
     0
176
     1
 90
        0
176
     1
 40
-0.6
176
     1
 41
-30.0
176
     1
 62
     5
 63
     7
421
 16777215
176
     1
 74
     1
176
     1
 91
        4
176
     1
 64
     7
176
     1
 65
   257
176
     1
 75
     7
176
     1
175
     7
176
     1
 42
1.0
176
     1
 92
        8
176
     1
 66
     7
176
     1
 43
1.0
176
     1
 76
     1
176
     1
 77
     6
176
     1
 78
     2
176
     1
 67
     7
176
     1
 79
     5
176
     1
170
     0
176
     1
171
     0
176
     1
290
     0
176
     1
 93
        1
176
     1
 44
0.0
176
     1
173
     0
176
     1
  0
VISUALSTYLE
  5
33
102
{ACAD_REACTORS
330
2A
102
}
330
2A
100
AcDbVisualStyle
  2
Realistic
 70
     8
177
     2
291
     0
 71
     2
176
     1
 72
     2
176
     1
 73
     0
176
     1
 90
        0
176
     1
 40
-0.6
176
     1
 41
-30.0
176
     1
 62
     5
 63
     7
421
 16777215
176
     1
 74
     1
176
     1
 91
        0
176
     1
 64
     7
176
     1
 65
   257
176
     1
 75
     1
176
     1
175
     1
176
     1
 42
1.0
176
     1
 92
        8
176
     1
 66
     8
424
  7895160
176
     1
 43
1.0
176
     1
 76
     1
176
     1
 77
     6
176
     1
 78
     2
176
     1
 67
     7
176
     1
 79
     5
176
     1
170
     0
176
     1
171
     0
176
     1
290
     0
176
     1
 93
       13
176
     1
 44
0.0
176
     1
173
     0
176
     1
  0
VISUALSTYLE
  5
37
102
{ACAD_REACTORS
330
2A
102
}
330
2A
100
AcDbVisualStyle
  2
Thicken
 70
    13
177
     2
291
     1
 71
     2
176
     1
 72
     2
176
     1
 73
     0
176
     1
 90
        0
176
     1
 40
-0.6
176
     1
 41
-30.0
176
     1
 62
     5
 63
     7
421
 16777215
176
     1
 74
     1
176
     1
 91
        4
176
     1
 64
     7
176
     1
 65
   257
176
     1
 75
     1
176
     1
175
     1
176
     1
 42
1.0
176
     1
 92
       12
176
     1
 66
     7
176
     1
 43
1.0
176
     1
 76
     1
176
     1
 77
     6
176
     1
 78
     2
176
     1
 67
     7
176
     1
 79
     5
176
     1
170
     0
176
     1
171
     0
176
     1
290
     0
176
     1
 93
        1
176
     1
 44
0.0
176
     1
173
     0
176
     1
  0
ENDSEC
  0
EOF
