  0
SECTION
  2
HEADER
  9
$ACADVER
  1
AC1024
  9
$ACADMAINTVER
 70
     6
  9
$DWGCODEPAGE
  3
UNDEFINED
  9
$INSBASE
 10
0.0
 20
0.0
 30
0.0
  9
$EXTMIN
 10
1.000000000000000E+20
 20
1.000000000000000E+20
 30
1.000000000000000E+20
  9
$EXTMAX
 10
-1.000000000000000E+20
 20
-1.000000000000000E+20
 30
-1.000000000000000E+20
  9
$LIMMIN
 10
0.0
 20
0.0
  9
$LIMMAX
 10
12.0
 20
9.0
  9
$ORTHOMODE
 70
     0
  9
$REGENMODE
 70
     1
  9
$FILLMODE
 70
     1
  9
$QTEXTMODE
 70
     0
  9
$MIRRTEXT
 70
     1
  9
$LTSCALE
 40
1.0
  9
$ATTMODE
 70
     1
  9
$TEXTSIZE
 40
0.2
  9
$TRACEWID
 40
0.05
  9
$TEXTSTYLE
  7
Standard
  9
$CLAYER
  8
0
  9
$CELTYPE
  6
ByLayer
  9
$CECOLOR
 62
   256
  9
$CELTSCALE
 40
1.0
  9
$DISPSILH
 70
     0
  9
$DIMSCALE
 40
1.0
  9
$DIMASZ
 40
0.18
  9
$DIMEXO
 40
0.0625
  9
$DIMDLI
 40
0.38
  9
$DIMRND
 40
0.0
  9
$DIMDLE
 40
0.0
  9
$DIMEXE
 40
0.18
  9
$DIMTP
 40
0.0
  9
$DIMTM
 40
0.0
  9
$DIMTXT
 40
0.18
  9
$DIMCEN
 40
0.09
  9
$DIMTSZ
 40
0.0
  9
$DIMTOL
 70
     0
  9
$DIMLIM
 70
     0
  9
$DIMTIH
 70
     1
  9
$DIMTOH
 70
     1
  9
$DIMSE1
 70
     0
  9
$DIMSE2
 70
     0
  9
$DIMTAD
 70
     0
  9
$DIMZIN
 70
     0
  9
$DIMBLK
  1

  9
$DIMASO
 70
     1
  9
$DIMSHO
 70
     1
  9
$DIMPOST
  1

  9
$DIMAPOST
  1

  9
$DIMALT
 70
     0
  9
$DIMALTD
 70
     2
  9
$DIMALTF
 40
25.4
  9
$DIMLFAC
 40
1.0
  9
$DIMTOFL
 70
     0
  9
$DIMTVP
 40
0.0
  9
$DIMTIX
 70
     0
  9
$DIMSOXD
 70
     0
  9
$DIMSAH
 70
     0
  9
$DIMBLK1
  1

  9
$DIMBLK2
  1

  9
$DIMSTYLE
  2
Standard
  9
$DIMCLRD
 70
     0
  9
$DIMCLRE
 70
     0
  9
$DIMCLRT
 70
     0
  9
$DIMTFAC
 40
1.0
  9
$DIMGAP
 40
0.09
  9
$DIMJUST
 70
     0
  9
$DIMSD1
 70
     0
  9
$DIMSD2
 70
     0
  9
$DIMTOLJ
 70
     1
  9
$DIMTZIN
 70
     0
  9
$DIMALTZ
 70
     0
  9
$DIMALTTZ
 70
     0
  9
$DIMUPT
 70
     0
  9
$DIMDEC
 70
     4
  9
$DIMTDEC
 70
     4
  9
$DIMALTU
 70
     2
  9
$DIMALTTD
 70
     2
  9
$DIMTXSTY
  7
Standard
  9
$DIMAUNIT
 70
     0
  9
$DIMADEC
 70
     0
  9
$DIMALTRND
 40
0.0
  9
$DIMAZIN
 70
     0
  9
$DIMDSEP
 70
    46
  9
$DIMATFIT
 70
     3
  9
$DIMFRAC
 70
     0
  9
$DIMLDRBLK
  1

  9
$DIMLUNIT
 70
     2
  9
$DIMLWD
 70
    -2
  9
$DIMLWE
 70
    -2
  9
$DIMTMOVE
 70
     0
  9
$DIMFXL
 40
1.0
  9
$DIMFXLON
 70
     0
  9
$DIMJOGANG
 40
0.7853981633974483
  9
$DIMTFILL
 70
     0
  9
$DIMTFILLCLR
 70
     0
  9
$DIMARCSYM
 70
     0
  9
$DIMLTYPE
  6

  9
$DIMLTEX1
  6

  9
$DIMLTEX2
  6

  9
$DIMTXTDIRECTION
 70
     0
  9
$LUNITS
 70
     2
  9
$LUPREC
 70
     4
  9
$SKETCHINC
 40
0.1
  9
$FILLETRAD
 40
0.5
  9
$AUNITS
 70
     0
  9
$AUPREC
 70
     0
  9
$MENU
  1
.
  9
$ELEVATION
 40
0.0
  9
$PELEVATION
 40
0.0
  9
$THICKNESS
 40
0.0
  9
$LIMCHECK
 70
     0
  9
$CHAMFERA
 40
0.5
  9
$CHAMFERB
 40
0.5
  9
$CHAMFERC
 40
1.0
  9
$CHAMFERD
 40
0.0
  9
$SKPOLY
 70
     0
  9
$TDCREATE
 40
2457917.618148136
  9
$TDUCREATE
 40
2457917.243148148
  9
$TDUPDATE
 40
2457917.618148136
  9
$TDUUPDATE
 40
2457917.243148148
  9
$TDINDWG
 40
0.0000000116
  9
$TDUSRTIMER
 40
0.0000000116
  9
$USRTIMER
 70
     1
  9
$ANGBASE
 50
0.0
  9
$ANGDIR
 70
     0
  9
$PDMODE
 70
     0
  9
$PDSIZE
 40
0.0
  9
$PLINEWID
 40
0.0
  9
$SPLFRAME
 70
     0
  9
$SPLINETYPE
 70
     6
  9
$SPLINESEGS
 70
     8
  9
$HANDSEED
  5
D0
  9
$SURFTAB1
 70
     6
  9
$SURFTAB2
 70
     6
  9
$SURFTYPE
 70
     6
  9
$SURFU
 70
     6
  9
$SURFV
 70
     6
  9
$UCSBASE
  2

  9
$UCSNAME
  2

  9
$UCSORG
 10
0.0
 20
0.0
 30
0.0
  9
$UCSXDIR
 10
1.0
 20
0.0
 30
0.0
  9
$UCSYDIR
 10
0.0
 20
1.0
 30
0.0
  9
$UCSORTHOREF
  2

  9
$UCSORTHOVIEW
 70
     0
  9
$UCSORGTOP
 10
0.0
 20
0.0
 30
0.0
  9
$UCSORGBOTTOM
 10
0.0
 20
0.0
 30
0.0
  9
$UCSORGLEFT
 10
0.0
 20
0.0
 30
0.0
  9
$UCSORGRIGHT
 10
0.0
 20
0.0
 30
0.0
  9
$UCSORGFRONT
 10
0.0
 20
0.0
 30
0.0
  9
$UCSORGBACK
 10
0.0
 20
0.0
 30
0.0
  9
$PUCSBASE
  2

  9
$PUCSNAME
  2

  9
$PUCSORG
 10
0.0
 20
0.0
 30
0.0
  9
$PUCSXDIR
 10
1.0
 20
0.0
 30
0.0
  9
$PUCSYDIR
 10
0.0
 20
1.0
 30
0.0
  9
$PUCSORTHOREF
  2

  9
$PUCSORTHOVIEW
 70
     0
  9
$PUCSORGTOP
 10
0.0
 20
0.0
 30
0.0
  9
$PUCSORGBOTTOM
 10
0.0
 20
0.0
 30
0.0
  9
$PUCSORGLEFT
 10
0.0
 20
0.0
 30
0.0
  9
$PUCSORGRIGHT
 10
0.0
 20
0.0
 30
0.0
  9
$PUCSORGFRONT
 10
0.0
 20
0.0
 30
0.0
  9
$PUCSORGBACK
 10
0.0
 20
0.0
 30
0.0
  9
$USERI1
 70
     0
  9
$USERI2
 70
     0
  9
$USERI3
 70
     0
  9
$USERI4
 70
     0
  9
$USERI5
 70
     0
  9
$USERR1
 40
0.0
  9
$USERR2
 40
0.0
  9
$USERR3
 40
0.0
  9
$USERR4
 40
0.0
  9
$USERR5
 40
0.0
  9
$WORLDVIEW
 70
     1
  9
$SHADEDGE
 70
     3
  9
$SHADEDIF
 70
    70
  9
$TILEMODE
 70
     1
  9
$MAXACTVP
 70
    64
  9
$PINSBASE
 10
0.0
 20
0.0
 30
0.0
  9
$PLIMCHECK
 70
     0
  9
$PEXTMIN
 10
1.000000000000000E+20
 20
1.000000000000000E+20
 30
1.000000000000000E+20
  9
$PEXTMAX
 10
-1.000000000000000E+20
 20
-1.000000000000000E+20
 30
-1.000000000000000E+20
  9
$PLIMMIN
 10
0.0
 20
0.0
  9
$PLIMMAX
 10
12.0
 20
9.0
  9
$UNITMODE
 70
     0
  9
$VISRETAIN
 70
     1
  9
$PLINEGEN
 70
     0
  9
$PSLTSCALE
 70
     1
  9
$TREEDEPTH
 70
  3020
  9
$CMLSTYLE
  2
Standard
  9
$CMLJUST
 70
     0
  9
$CMLSCALE
 40
1.0
  9
$PROXYGRAPHICS
 70
     1
  9
$MEASUREMENT
 70
     0
  9
$CELWEIGHT
370
    -1
  9
$ENDCAPS
280
     0
  9
$JOINSTYLE
280
     0
  9
$LWDISPLAY
290
     1
  9
$INSUNITS
 70
     1
  9
$HYPERLINKBASE
  1

  9
$STYLESHEET
  1

  9
$XEDIT
290
     1
  9
$CEPSNTYPE
380
     0
  9
$PSTYLEMODE
290
     1
  9
$FINGERPRINTGUID
  2
{A7FA7F68-FCBA-3A04-E39F-3C12E44B1464}
  9
$VERSIONGUID
  2
{FAEB1C32-E019-11D5-929B-00C0DF256EC4}
  9
$EXTNAMES
290
     1
  9
$PSVPSCALE
 40
0.0
  9
$OLESTARTUP
290
     0
  9
$SORTENTS
280
   127
  9
$INDEXCTL
280
     0
  9
$HIDETEXT
280
     1
  9
$XCLIPFRAME
280
     2
  9
$HALOGAP
280
     0
  9
$OBSCOLOR
 70
   257
  9
$OBSLTYPE
280
     0
  9
$INTERSECTIONDISPLAY
280
     0
  9
$INTERSECTIONCOLOR
 70
   257
  9
$DIMASSOC
280
     2
  9
$PROJECTNAME
  1

  9
$CAMERADISPLAY
290
     0
  9
$LENSLENGTH
 40
50.0
  9
$CAMERAHEIGHT
 40
0.0
  9
$STEPSPERSEC
 40
2.0
  9
$STEPSIZE
 40
6.0
  9
$3DDWFPREC
 40
2.0
  9
$PSOLWIDTH
 40
0.25
  9
$PSOLHEIGHT
 40
4.0
  9
$LOFTANG1
 40
1.570796326794897
  9
$LOFTANG2
 40
1.570796326794897
  9
$LOFTMAG1
 40
0.0
  9
$LOFTMAG2
 40
0.0
  9
$LOFTPARAM
 70
     7
  9
$LOFTNORMALS
280
     1
  9
$LATITUDE
 40
37.795
  9
$LONGITUDE
 40
-122.394
  9
$NORTHDIRECTION
 40
0.0
  9
$TIMEZONE
 70
 -8000
  9
$LIGHTGLYPHDISPLAY
280
     1
  9
$TILEMODELIGHTSYNCH
280
     1
  9
$CMATERIAL
347
3C
  9
$SOLIDHIST
280
     1
  9
$SHOWHIST
280
     1
  9
$DWFFRAME
280
     2
  9
$DGNFRAME
280
     2
  9
$REALWORLDSCALE
290
     1
  9
$INTERFERECOLOR
 62
   256
  9
$CSHADOW
280
     0
  9
$SHADOWPLANELOCATION
 40
0.0
  0
ENDSEC
  0
SECTION
  2
CLASSES
  0
CLASS
  1
ACDBDICTIONARYWDFLT
  2
AcDbDictionaryWithDefault
  3
ObjectDBX Classes
 90
        0
 91
        4
280
     0
281
     0
  0
CLASS
  1
VISUALSTYLE
  2
AcDbVisualStyle
  3
ObjectDBX Classes
 90
     4095
 91
        4
280
     0
281
     0
  0
CLASS
  1
MATERIAL
  2
AcDbMaterial
  3
ObjectDBX Classes
 90
     1153
 91
        4
280
     0
281
     0
  0
CLASS
  1
SUN
  2
AcDbSun
  3
SCENEOE
 90
     1024
 91
        4
280
     0
281
     0
  0
ENDSEC
  0
SECTION
  2
TABLES
  0
TABLE
  2
VPORT
  5
8
330
0
100
AcDbSymbolTable
 70
     1
  0
VPORT
  5
29
330
8
100
AcDbSymbolTableRecord
100
AcDbViewportTableRecord
  2
*Active
 70
     0
 10
0.0
 20
0.0
 11
1.0
 21
1.0
 12
0.0
 22
0.0
 13
0.0
 23
0.0
 14
0.5
 24
0.5
 15
0.5
 25
0.5
 16
0.0
 26
0.0
 36
1.0
 17
91.00082462281999
 27
-128.4993055234307
 37
0.0
 40
256.9986110468615
 41
0.7081814508812795
 42
50.0
 43
0.0
 44
0.0
 50
0.0
 51
0.0
 71
     0
 72
   100
 73
     1
 74
     3
 75
     0
 76
     0
 77
     0
 78
     0
281
     0
 65
     1
110
0.0
120
0.0
130
0.0
111
1.0
121
0.0
131
0.0
112
0.0
122
1.0
132
0.0
 79
     0
146
0.0
 60
     3
 61
     5
292
     1
282
     1
141
0.0
142
0.0
 63
   250
361
3F
  0
ENDTAB
  0
TABLE
  2
LTYPE
  5
5
330
0
100
AcDbSymbolTable
 70
     1
  0
LTYPE
  5
14
330
5
100
AcDbSymbolTableRecord
100
AcDbLinetypeTableRecord
  2
ByBlock
 70
     0
  3

 72
    65
 73
     0
 40
0.0
  0
LTYPE
  5
15
330
5
100
AcDbSymbolTableRecord
100
AcDbLinetypeTableRecord
  2
ByLayer
 70
     0
  3

 72
    65
 73
     0
 40
0.0
  0
LTYPE
  5
16
330
5
100
AcDbSymbolTableRecord
100
AcDbLinetypeTableRecord
  2
Continuous
 70
     0
  3
Solid line
 72
    65
 73
     0
 40
0.0
  0
ENDTAB
  0
TABLE
  2
LAYER
  5
2
330
0
100
AcDbSymbolTable
 70
     2
  0
LAYER
  5
10
330
2
100
AcDbSymbolTableRecord
100
AcDbLayerTableRecord
  2
0
 70
     0
 62
     7
  6
Continuous
370
    -3
390
F
347
3E
  0
LAYER
  5
40
330
2
100
AcDbSymbolTableRecord
100
AcDbLayerTableRecord
  2
_U+30EC_U+30A4_U+30E4_U+30FC 1
 70
     0
 62
     7
  6
Continuous
370
    -3
390
F
347
3E
  0
ENDTAB
  0
TABLE
  2
STYLE
  5
3
330
0
100
AcDbSymbolTable
 70
     1
  0
STYLE
  5
11
330
3
100
AcDbSymbolTableRecord
100
AcDbTextStyleTableRecord
  2
Standard
 70
     0
 40
0.0
 41
1.0
 50
0.0
 71
     0
 42
0.2
  3
txt
  4

  0
ENDTAB
  0
TABLE
  2
VIEW
  5
6
330
0
100
AcDbSymbolTable
 70
     0
  0
ENDTAB
  0
TABLE
  2
UCS
  5
7
330
0
100
AcDbSymbolTable
 70
     0
  0
ENDTAB
  0
TABLE
  2
APPID
  5
9
330
0
100
AcDbSymbolTable
 70
     1
  0
APPID
  5
12
330
9
100
AcDbSymbolTableRecord
100
AcDbRegAppTableRecord
  2
ACAD
 70
     0
  0
ENDTAB
  0
TABLE
  2
DIMSTYLE
  5
A
330
0
100
AcDbSymbolTable
 70
     1
100
AcDbDimStyleTable
  0
DIMSTYLE
105
27
330
A
100
AcDbSymbolTableRecord
100
AcDbDimStyleTableRecord
  2
Standard
 70
     0
178
     0
340
11
  0
ENDTAB
  0
TABLE
  2
BLOCK_RECORD
  5
1
330
0
100
AcDbSymbolTable
 70
     8
  0
BLOCK_RECORD
  5
1F
330
1
100
AcDbSymbolTableRecord
100
AcDbBlockTableRecord
  2
*Model_Space
340
22
 70
     0
280
     1
281
     0
  0
BLOCK_RECORD
  5
1B
330
1
100
AcDbSymbolTableRecord
100
AcDbBlockTableRecord
  2
*Paper_Space
340
1E
 70
     0
280
     1
281
     0
  0
BLOCK_RECORD
  5
23
330
1
100
AcDbSymbolTableRecord
100
AcDbBlockTableRecord
  2
*Paper_Space0
340
26
 70
     0
280
     1
281
     0
  0
BLOCK_RECORD
  5
4B
330
1
100
AcDbSymbolTableRecord
100
AcDbBlockTableRecord
  2
block 2
340
0
102
{BLKREFS
331
4C
102
}
 70
     0
280
     1
281
     0
  0
BLOCK_RECORD
  5
5C
330
1
100
AcDbSymbolTableRecord
100
AcDbBlockTableRecord
  2
block 3
340
0
102
{BLKREFS
331
5D
102
}
 70
     0
280
     1
281
     0
  0
BLOCK_RECORD
  5
79
330
1
100
AcDbSymbolTableRecord
100
AcDbBlockTableRecord
  2
block 4
340
0
102
{BLKREFS
331
7A
102
}
 70
     0
280
     1
281
     0
  0
BLOCK_RECORD
  5
82
330
1
100
AcDbSymbolTableRecord
100
AcDbBlockTableRecord
  2
block 5
340
0
102
{BLKREFS
331
83
102
}
 70
     0
280
     1
281
     0
  0
BLOCK_RECORD
  5
96
330
1
100
AcDbSymbolTableRecord
100
AcDbBlockTableRecord
  2
block 6
340
0
102
{BLKREFS
331
97
102
}
 70
     0
280
     1
281
     0
  0
BLOCK_RECORD
  5
B6
330
1
100
AcDbSymbolTableRecord
100
AcDbBlockTableRecord
  2
block 7
340
0
102
{BLKREFS
331
B7
102
}
 70
     0
280
     1
281
     0
  0
BLOCK_RECORD
  5
BF
330
1
100
AcDbSymbolTableRecord
100
AcDbBlockTableRecord
  2
block 8
340
0
102
{BLKREFS
331
C0
102
}
 70
     0
280
     1
281
     0
  0
ENDTAB
  0
ENDSEC
  0
SECTION
  2
BLOCKS
  0
BLOCK
  5
20
330
1F
100
AcDbEntity
  8
0
100
AcDbBlockBegin
  2
*Model_Space
 70
     0
 10
0.0
 20
0.0
 30
0.0
  3
*Model_Space
  1

  0
ENDBLK
  5
21
330
1F
100
AcDbEntity
  8
0
100
AcDbBlockEnd
  0
BLOCK
  5
1C
330
1B
100
AcDbEntity
 67
     1
  8
0
100
AcDbBlockBegin
  2
*Paper_Space
 70
     0
 10
0.0
 20
0.0
 30
0.0
  3
*Paper_Space
  1

  0
ENDBLK
  5
1D
330
1B
100
AcDbEntity
 67
     1
  8
0
100
AcDbBlockEnd
  0
BLOCK
  5
24
330
23
100
AcDbEntity
  8
0
100
AcDbBlockBegin
  2
*Paper_Space0
 70
     0
 10
0.0
 20
0.0
 30
0.0
  3
*Paper_Space0
  1

  0
ENDBLK
  5
25
330
23
100
AcDbEntity
  8
0
100
AcDbBlockEnd
  0
BLOCK
  5
4D
330
4B
100
AcDbEntity
  8
0
100
AcDbBlockBegin
  2
block 2
 70
     0
 10
0.0
 20
0.0
 30
0.0
  3
block 2
  1

  0
SPLINE
  5
4F
330
4B
100
AcDbEntity
  8
_U+30EC_U+30A4_U+30E4_U+30FC 1
370
     0
100
AcDbSpline
210
0.0
220
0.0
230
1.0
 70
    11
 71
     3
 72
    44
 73
    40
 74
     0
 42
0.0000000001
 43
0.0000000001
 12
1.0
 22
0.0
 32
0.0
 13
1.0
 23
0.0
 33
0.0
 40
0.0
 40
0.0
 40
0.0
 40
0.0
 40
1.0
 40
1.0
 40
1.0
 40
2.0
 40
2.0
 40
2.0
 40
3.0
 40
3.0
 40
3.0
 40
4.0
 40
4.0
 40
4.0
 40
5.0
 40
5.0
 40
5.0
 40
6.0
 40
6.0
 40
6.0
 40
7.0
 40
7.0
 40
7.0
 40
8.0
 40
8.0
 40
8.0
 40
9.0
 40
9.0
 40
9.0
 40
10.0
 40
10.0
 40
10.0
 40
11.0
 40
11.0
 40
11.0
 40
12.0
 40
12.0
 40
12.0
 40
13.0
 40
13.0
 40
13.0
 40
13.0
 10
78.74316946816144
 20
-150.6684949710134
 30
0.0
 10
78.52526717871937
 20
-150.8269693633349
 30
0.0
 10
78.43207734584337
 20
-150.9010389162678
 30
0.0
 10
78.38350149950135
 20
-151.0446993980027
 30
0.0
 10
78.38350149950135
 20
-151.0446993980027
 30
0.0
 10
79.16192082439355
 20
-151.0446993980027
 30
0.0
 10
79.16192082439355
 20
-151.0446993980027
 30
0.0
 10
79.16192082439355
 20
-151.0446993980027
 30
0.0
 10
79.16192082439355
 20
-151.2500270889236
 30
0.0
 10
79.16192082439355
 20
-151.2500270889236
 30
0.0
 10
79.16192082439355
 20
-151.2500270889236
 30
0.0
 10
78.133904331595
 20
-151.2500270889236
 30
0.0
 10
78.133904331595
 20
-151.2500270889236
 30
0.0
 10
78.1655992100593
 20
-150.8924261775547
 30
0.0
 10
78.23122827905331
 20
-150.8142225100395
 30
0.0
 10
78.61621769952998
 20
-150.5158772410169
 30
0.0
 10
78.87218829408404
 20
-150.317095231518
 30
0.0
 10
78.93764510830378
 20
-150.2495713600071
 30
0.0
 10
78.93764510830378
 20
-150.1117675405971
 30
0.0
 10
78.93764510830378
 20
-149.9932562559045
 30
0.0
 10
78.86581486743633
 20
-149.862342627465
 30
0.0
 10
78.66909991522856
 20
-149.862342627465
 30
0.0
 10
78.40882295131793
 20
-149.862342627465
 30
0.0
 10
78.40038246737907
 20
-150.0928195154282
 30
0.0
 10
78.39607609802252
 20
-150.2092637428296
 30
0.0
 10
78.39607609802252
 20
-150.2092637428296
 30
0.0
 10
78.17197263670701
 20
-150.2092637428296
 30
0.0
 10
78.17197263670701
 20
-150.2092637428296
 30
0.0
 10
78.18041312064587
 20
-150.0821397194239
 30
0.0
 10
78.19092066187588
 20
-149.9701741161533
 30
0.0
 10
78.27136364145647
 20
-149.8516628314607
 30
0.0
 10
78.38126218743594
 20
-149.6907768722995
 30
0.0
 10
78.5674695984137
 20
-149.6570149365441
 30
0.0
 10
78.68391382581514
 20
-149.6570149365441
 30
0.0
 10
78.96107175760349
 20
-149.6570149365441
 30
0.0
 10
79.16829425104126
 20
-149.8409830354564
 30
0.0
 10
79.16829425104126
 20
-150.1138345978882
 30
0.0
 10
79.16829425104126
 20
-150.3425889381088
 30
0.0
 10
79.05202227841409
 20
-150.441807688084
 30
0.0
 10
78.74316946816144
 20
-150.6684949710134
 30
0.0
  0
HATCH
  5
50
330
4B
100
AcDbEntity
  8
_U+30EC_U+30A4_U+30E4_U+30FC 1
 62
   179
420
  2234388
100
AcDbHatch
 10
0.0
 20
0.0
 30
0.0
210
0.0
220
0.0
230
1.0
  2
SOLID
 70
     1
 71
     0
 91
        1
 92
        1
 93
        1
 72
     4
 94
        3
 73
     0
 74
     1
 95
       44
 96
       40
 40
0.0
 40
0.0
 40
0.0
 40
0.0
 40
1.0
 40
1.0
 40
1.0
 40
2.0
 40
2.0
 40
2.0
 40
3.0
 40
3.0
 40
3.0
 40
4.0
 40
4.0
 40
4.0
 40
5.0
 40
5.0
 40
5.0
 40
6.0
 40
6.0
 40
6.0
 40
7.0
 40
7.0
 40
7.0
 40
8.0
 40
8.0
 40
8.0
 40
9.0
 40
9.0
 40
9.0
 40
10.0
 40
10.0
 40
10.0
 40
11.0
 40
11.0
 40
11.0
 40
12.0
 40
12.0
 40
12.0
 40
13.0
 40
13.0
 40
13.0
 40
13.0
 10
78.74316946816144
 20
-150.6684949710134
 10
78.52526717871937
 20
-150.8269693633349
 10
78.43207734584337
 20
-150.9010389162678
 10
78.38350149950135
 20
-151.0446993980027
 10
78.38350149950135
 20
-151.0446993980027
 10
79.16192082439355
 20
-151.0446993980027
 10
79.16192082439355
 20
-151.0446993980027
 10
79.16192082439355
 20
-151.0446993980027
 10
79.16192082439355
 20
-151.2500270889236
 10
79.16192082439355
 20
-151.2500270889236
 10
79.16192082439355
 20
-151.2500270889236
 10
78.133904331595
 20
-151.2500270889236
 10
78.133904331595
 20
-151.2500270889236
 10
78.1655992100593
 20
-150.8924261775547
 10
78.23122827905331
 20
-150.8142225100395
 10
78.61621769952998
 20
-150.5158772410169
 10
78.87218829408404
 20
-150.317095231518
 10
78.93764510830378
 20
-150.2495713600071
 10
78.93764510830378
 20
-150.1117675405971
 10
78.93764510830378
 20
-149.9932562559045
 10
78.86581486743633
 20
-149.862342627465
 10
78.66909991522856
 20
-149.862342627465
 10
78.40882295131793
 20
-149.862342627465
 10
78.40038246737907
 20
-150.0928195154282
 10
78.39607609802252
 20
-150.2092637428296
 10
78.39607609802252
 20
-150.2092637428296
 10
78.17197263670701
 20
-150.2092637428296
 10
78.17197263670701
 20
-150.2092637428296
 10
78.18041312064587
 20
-150.0821397194239
 10
78.19092066187588
 20
-149.9701741161533
 10
78.27136364145647
 20
-149.8516628314607
 10
78.38126218743594
 20
-149.6907768722995
 10
78.5674695984137
 20
-149.6570149365441
 10
78.68391382581514
 20
-149.6570149365441
 10
78.96107175760349
 20
-149.6570149365441
 10
79.16829425104126
 20
-149.8409830354564
 10
79.16829425104126
 20
-150.1138345978882
 10
79.16829425104126
 20
-150.3425889381088
 10
79.05202227841409
 20
-150.441807688084
 10
78.74316946816144
 20
-150.6684949710134
 97
        0
 97
        0
 75
     2
 76
     1
 98
        0
  0
SPLINE
  5
51
330
4B
100
AcDbEntity
  8
_U+30EC_U+30A4_U+30E4_U+30FC 1
370
     0
100
AcDbSpline
210
0.0
220
0.0
230
1.0
 70
    11
 71
     3
 72
    29
 73
    25
 74
     0
 42
0.0000000001
 43
0.0000000001
 12
1.0
 22
0.0
 32
0.0
 13
1.0
 23
0.0
 33
0.0
 40
0.0
 40
0.0
 40
0.0
 40
0.0
 40
1.0
 40
1.0
 40
1.0
 40
2.0
 40
2.0
 40
2.0
 40
3.0
 40
3.0
 40
3.0
 40
4.0
 40
4.0
 40
4.0
 40
5.0
 40
5.0
 40
5.0
 40
6.0
 40
6.0
 40
6.0
 40
7.0
 40
7.0
 40
7.0
 40
8.0
 40
8.0
 40
8.0
 40
8.0
 10
80.22456052681886
 20
-151.0722601618847
 30
0.0
 10
80.11672903813054
 20
-151.2817219673879
 30
0.0
 10
79.94326848044821
 20
-151.3010145021053
 30
0.0
 10
79.82682425304677
 20
-151.3010145021053
 30
0.0
 10
79.66611054865986
 20
-151.3010145021053
 30
0.0
 10
79.52434486944183
 20
-151.2541612035059
 30
0.0
 10
79.42908797927467
 20
-151.0722601618847
 30
0.0
 10
79.32556285994292
 20
-150.8776122669681
 30
0.0
 10
79.30644257999978
 20
-150.6409342071314
 30
0.0
 10
79.30644257999978
 20
-150.4776366811306
 30
0.0
 10
79.30644257999978
 20
-150.3339761993957
 30
0.0
 10
79.32332354787751
 20
-150.0821397194239
 30
0.0
 10
79.42908797927467
 20
-149.883357709925
 30
0.0
 10
79.53709172273726
 20
-149.6804415858438
 30
0.0
 10
79.69780542712417
 20
-149.6570149365441
 30
0.0
 10
79.82682425304677
 20
-149.6570149365441
 30
0.0
 10
79.98547090014253
 20
-149.6570149365441
 30
0.0
 10
80.1293036366517
 20
-149.7014566683038
 30
0.0
 10
80.22456052681886
 20
-149.883357709925
 30
0.0
 10
80.32395153156833
 20
-150.0759385475505
 30
0.0
 10
80.34720592609376
 20
-150.3043483782225
 30
0.0
 10
80.34720592609376
 20
-150.4776366811306
 30
0.0
 10
80.34720592609376
 20
-150.649202436296
 30
0.0
 10
80.32619084363374
 20
-150.8800238338078
 30
0.0
 10
80.22456052681886
 20
-151.0722601618847
 30
0.0
  0
SPLINE
  5
52
330
4B
100
AcDbEntity
  8
_U+30EC_U+30A4_U+30E4_U+30FC 1
370
     0
100
AcDbSpline
210
0.0
220
0.0
230
1.0
 70
    11
 71
     3
 72
    17
 73
    13
 74
     0
 42
0.0000000001
 43
0.0000000001
 12
1.0
 22
0.0
 32
0.0
 13
1.0
 23
0.0
 33
0.0
 40
0.0
 40
0.0
 40
0.0
 40
0.0
 40
1.0
 40
1.0
 40
1.0
 40
2.0
 40
2.0
 40
2.0
 40
3.0
 40
3.0
 40
3.0
 40
4.0
 40
4.0
 40
4.0
 40
4.0
 10
79.82682425304677
 20
-149.8495957741696
 30
0.0
 10
79.57722708514042
 20
-149.8495957741696
 30
0.0
 10
79.53071829608955
 20
-150.1331271326056
 30
0.0
 10
79.53071829608955
 20
-150.4776366811306
 30
0.0
 10
79.53071829608955
 20
-150.7973415421618
 30
0.0
 10
79.56671954391041
 20
-151.1060220976402
 30
0.0
 10
79.82682425304677
 20
-151.1060220976402
 30
0.0
 10
80.07435436366197
 20
-151.1060220976402
 30
0.0
 10
80.12310246477826
 20
-150.8249023060438
 30
0.0
 10
80.12310246477826
 20
-150.4776366811306
 30
0.0
 10
80.12310246477826
 20
-150.1586208391965
 30
0.0
 10
80.08503415966625
 20
-149.8495957741696
 30
0.0
 10
79.82682425304677
 20
-149.8495957741696
 30
0.0
  0
HATCH
  5
53
330
4B
100
AcDbEntity
  8
_U+30EC_U+30A4_U+30E4_U+30FC 1
 62
   179
420
  2234388
100
AcDbHatch
 10
0.0
 20
0.0
 30
0.0
210
0.0
220
0.0
230
1.0
  2
SOLID
 70
     1
 71
     0
 91
        2
 92
        1
 93
        1
 72
     4
 94
        3
 73
     0
 74
     1
 95
       29
 96
       25
 40
0.0
 40
0.0
 40
0.0
 40
0.0
 40
1.0
 40
1.0
 40
1.0
 40
2.0
 40
2.0
 40
2.0
 40
3.0
 40
3.0
 40
3.0
 40
4.0
 40
4.0
 40
4.0
 40
5.0
 40
5.0
 40
5.0
 40
6.0
 40
6.0
 40
6.0
 40
7.0
 40
7.0
 40
7.0
 40
8.0
 40
8.0
 40
8.0
 40
8.0
 10
80.22456052681886
 20
-151.0722601618847
 10
80.11672903813054
 20
-151.2817219673879
 10
79.94326848044821
 20
-151.3010145021053
 10
79.82682425304677
 20
-151.3010145021053
 10
79.66611054865986
 20
-151.3010145021053
 10
79.52434486944183
 20
-151.2541612035059
 10
79.42908797927467
 20
-151.0722601618847
 10
79.32556285994292
 20
-150.8776122669681
 10
79.30644257999978
 20
-150.6409342071314
 10
79.30644257999978
 20
-150.4776366811306
 10
79.30644257999978
 20
-150.3339761993957
 10
79.32332354787751
 20
-150.0821397194239
 10
79.42908797927467
 20
-149.883357709925
 10
79.53709172273726
 20
-149.6804415858438
 10
79.69780542712417
 20
-149.6570149365441
 10
79.82682425304677
 20
-149.6570149365441
 10
79.98547090014253
 20
-149.6570149365441
 10
80.1293036366517
 20
-149.7014566683038
 10
80.22456052681886
 20
-149.883357709925
 10
80.32395153156833
 20
-150.0759385475505
 10
80.34720592609376
 20
-150.3043483782225
 10
80.34720592609376
 20
-150.4776366811306
 10
80.34720592609376
 20
-150.649202436296
 10
80.32619084363374
 20
-150.8800238338078
 10
80.22456052681886
 20
-151.0722601618847
 97
        0
 97
        0
 92
        1
 93
        1
 72
     4
 94
        3
 73
     0
 74
     1
 95
       17
 96
       13
 40
0.0
 40
0.0
 40
0.0
 40
0.0
 40
1.0
 40
1.0
 40
1.0
 40
2.0
 40
2.0
 40
2.0
 40
3.0
 40
3.0
 40
3.0
 40
4.0
 40
4.0
 40
4.0
 40
4.0
 10
79.82682425304677
 20
-149.8495957741696
 10
79.57722708514042
 20
-149.8495957741696
 10
79.53071829608955
 20
-150.1331271326056
 10
79.53071829608955
 20
-150.4776366811306
 10
79.53071829608955
 20
-150.7973415421618
 10
79.56671954391041
 20
-151.1060220976402
 10
79.82682425304677
 20
-151.1060220976402
 10
80.07435436366197
 20
-151.1060220976402
 10
80.12310246477826
 20
-150.8249023060438
 10
80.12310246477826
 20
-150.4776366811306
 10
80.12310246477826
 20
-150.1586208391965
 10
80.08503415966625
 20
-149.8495957741696
 10
79.82682425304677
 20
-149.8495957741696
 97
        0
 97
        0
 75
     2
 76
     1
 98
        0
  0
ENDBLK
  5
4E
330
4B
100
AcDbEntity
  8
0
100
AcDbBlockEnd
  0
BLOCK
  5
5E
330
5C
100
AcDbEntity
  8
0
100
AcDbBlockBegin
  2
block 3
 70
     0
 10
0.0
 20
0.0
 30
0.0
  3
block 3
  1

  0
SPLINE
  5
60
330
5C
100
AcDbEntity
  8
_U+30EC_U+30A4_U+30E4_U+30FC 1
370
     0
100
AcDbSpline
210
0.0
220
0.0
230
1.0
 70
    11
 71
     3
 72
    26
 73
    22
 74
     0
 42
0.0000000001
 43
0.0000000001
 12
1.0
 22
0.0
 32
0.0
 13
1.0
 23
0.0
 33
0.0
 40
0.0
 40
0.0
 40
0.0
 40
0.0
 40
1.0
 40
1.0
 40
1.0
 40
2.0
 40
2.0
 40
2.0
 40
3.0
 40
3.0
 40
3.0
 40
4.0
 40
4.0
 40
4.0
 40
5.0
 40
5.0
 40
5.0
 40
6.0
 40
6.0
 40
6.0
 40
7.0
 40
7.0
 40
7.0
 40
7.0
 10
93.28009437772165
 20
-151.2500270889236
 30
0.0
 10
93.28009437772165
 20
-151.2500270889236
 30
0.0
 10
93.28009437772165
 20
-150.1455294763525
 30
0.0
 10
93.28009437772165
 20
-150.1455294763525
 30
0.0
 10
93.28009437772165
 20
-150.1455294763525
 30
0.0
 10
92.95005423023471
 20
-150.1455294763525
 30
0.0
 10
92.95005423023471
 20
-150.1455294763525
 30
0.0
 10
92.95005423023471
 20
-150.1455294763525
 30
0.0
 10
92.95005423023471
 20
-149.9977348800353
 30
0.0
 10
92.95005423023471
 20
-149.9977348800353
 30
0.0
 10
93.2821614350128
 20
-149.9829209694487
 30
0.0
 10
93.32832571451515
 20
-149.8199679529964
 30
0.0
 10
93.3579535356883
 20
-149.7059352924346
 30
0.0
 10
93.3579535356883
 20
-149.7059352924346
 30
0.0
 10
93.50402558426289
 20
-149.7059352924346
 30
0.0
 10
93.50402558426289
 20
-149.7059352924346
 30
0.0
 10
93.50402558426289
 20
-149.7059352924346
 30
0.0
 10
93.50402558426289
 20
-151.2500270889236
 30
0.0
 10
93.50402558426289
 20
-151.2500270889236
 30
0.0
 10
93.50402558426289
 20
-151.2500270889236
 30
0.0
 10
93.28009437772165
 20
-151.2500270889236
 30
0.0
 10
93.28009437772165
 20
-151.2500270889236
 30
0.0
  0
HATCH
  5
61
330
5C
100
AcDbEntity
  8
_U+30EC_U+30A4_U+30E4_U+30FC 1
 62
   179
420
  2234388
100
AcDbHatch
 10
0.0
 20
0.0
 30
0.0
210
0.0
220
0.0
230
1.0
  2
SOLID
 70
     1
 71
     0
 91
        1
 92
        1
 93
        1
 72
     4
 94
        3
 73
     0
 74
     1
 95
       26
 96
       22
 40
0.0
 40
0.0
 40
0.0
 40
0.0
 40
1.0
 40
1.0
 40
1.0
 40
2.0
 40
2.0
 40
2.0
 40
3.0
 40
3.0
 40
3.0
 40
4.0
 40
4.0
 40
4.0
 40
5.0
 40
5.0
 40
5.0
 40
6.0
 40
6.0
 40
6.0
 40
7.0
 40
7.0
 40
7.0
 40
7.0
 10
93.28009437772165
 20
-151.2500270889236
 10
93.28009437772165
 20
-151.2500270889236
 10
93.28009437772165
 20
-150.1455294763525
 10
93.28009437772165
 20
-150.1455294763525
 10
93.28009437772165
 20
-150.1455294763525
 10
92.95005423023471
 20
-150.1455294763525
 10
92.95005423023471
 20
-150.1455294763525
 10
92.95005423023471
 20
-150.1455294763525
 10
92.95005423023471
 20
-149.9977348800353
 10
92.95005423023471
 20
-149.9977348800353
 10
93.2821614350128
 20
-149.9829209694487
 10
93.32832571451515
 20
-149.8199679529964
 10
93.3579535356883
 20
-149.7059352924346
 10
93.3579535356883
 20
-149.7059352924346
 10
93.50402558426289
 20
-149.7059352924346
 10
93.50402558426289
 20
-149.7059352924346
 10
93.50402558426289
 20
-149.7059352924346
 10
93.50402558426289
 20
-151.2500270889236
 10
93.50402558426289
 20
-151.2500270889236
 10
93.50402558426289
 20
-151.2500270889236
 10
93.28009437772165
 20
-151.2500270889236
 10
93.28009437772165
 20
-151.2500270889236
 97
        0
 97
        0
 75
     2
 76
     1
 98
        0
  0
SPLINE
  5
62
330
5C
100
AcDbEntity
  8
_U+30EC_U+30A4_U+30E4_U+30FC 1
370
     0
100
AcDbSpline
210
0.0
220
0.0
230
1.0
 70
    11
 71
     3
 72
    29
 73
    25
 74
     0
 42
0.0000000001
 43
0.0000000001
 12
1.0
 22
0.0
 32
0.0
 13
1.0
 23
0.0
 33
0.0
 40
0.0
 40
0.0
 40
0.0
 40
0.0
 40
1.0
 40
1.0
 40
1.0
 40
2.0
 40
2.0
 40
2.0
 40
3.0
 40
3.0
 40
3.0
 40
4.0
 40
4.0
 40
4.0
 40
5.0
 40
5.0
 40
5.0
 40
6.0
 40
6.0
 40
6.0
 40
7.0
 40
7.0
 40
7.0
 40
8.0
 40
8.0
 40
8.0
 40
8.0
 10
94.90307886082284
 20
-151.0722601618847
 30
0.0
 10
94.79524737213453
 20
-151.2817219673879
 30
0.0
 10
94.62161455967794
 20
-151.3010145021053
 30
0.0
 10
94.50517033227649
 20
-151.3010145021053
 30
0.0
 10
94.34462888266384
 20
-151.3010145021053
 30
0.0
 10
94.20269094867156
 20
-151.2541612035059
 30
0.0
 10
94.10760631327865
 20
-151.0722601618847
 30
0.0
 10
94.00425344872116
 20
-150.8776122669681
 30
0.0
 10
93.98496091400376
 20
-150.6409342071314
 30
0.0
 10
93.98496091400376
 20
-150.4776366811306
 30
0.0
 10
93.98496091400376
 20
-150.3339761993957
 30
0.0
 10
94.00184188188149
 20
-150.0821397194239
 30
0.0
 10
94.10760631327865
 20
-149.883357709925
 30
0.0
 10
94.2157823115155
 20
-149.6804415858438
 30
0.0
 10
94.37632376112815
 20
-149.6570149365441
 30
0.0
 10
94.50517033227649
 20
-149.6570149365441
 30
0.0
 10
94.66398923414651
 20
-149.6570149365441
 30
0.0
 10
94.80764971588142
 20
-149.7014566683038
 30
0.0
 10
94.90307886082284
 20
-149.883357709925
 30
0.0
 10
95.00264212034656
 20
-150.0759385475505
 30
0.0
 10
95.02572426009775
 20
-150.3043483782225
 30
0.0
 10
95.02572426009775
 20
-150.4776366811306
 30
0.0
 10
95.02572426009775
 20
-150.649202436296
 30
0.0
 10
95.00470917763772
 20
-150.8800238338078
 30
0.0
 10
94.90307886082284
 20
-151.0722601618847
 30
0.0
  0
SPLINE
  5
63
330
5C
100
AcDbEntity
  8
_U+30EC_U+30A4_U+30E4_U+30FC 1
370
     0
100
AcDbSpline
210
0.0
220
0.0
230
1.0
 70
    11
 71
     3
 72
    17
 73
    13
 74
     0
 42
0.0000000001
 43
0.0000000001
 12
1.0
 22
0.0
 32
0.0
 13
1.0
 23
0.0
 33
0.0
 40
0.0
 40
0.0
 40
0.0
 40
0.0
 40
1.0
 40
1.0
 40
1.0
 40
2.0
 40
2.0
 40
2.0
 40
3.0
 40
3.0
 40
3.0
 40
4.0
 40
4.0
 40
4.0
 40
4.0
 10
94.50517033227649
 20
-149.8495957741696
 30
0.0
 10
94.2557454191444
 20
-149.8495957741696
 30
0.0
 10
94.20923663009353
 20
-150.1331271326056
 30
0.0
 10
94.20923663009353
 20
-150.4776366811306
 30
0.0
 10
94.20923663009353
 20
-150.7973415421618
 30
0.0
 10
94.24541013268865
 20
-151.1060220976402
 30
0.0
 10
94.50517033227649
 20
-151.1060220976402
 30
0.0
 10
94.75287269766595
 20
-151.1060220976402
 30
0.0
 10
94.80144854400798
 20
-150.8249023060438
 30
0.0
 10
94.80144854400798
 20
-150.4776366811306
 30
0.0
 10
94.80144854400798
 20
-150.1586208391965
 30
0.0
 10
94.76355249367023
 20
-149.8495957741696
 30
0.0
 10
94.50517033227649
 20
-149.8495957741696
 30
0.0
  0
HATCH
  5
64
330
5C
100
AcDbEntity
  8
_U+30EC_U+30A4_U+30E4_U+30FC 1
 62
   179
420
  2234388
100
AcDbHatch
 10
0.0
 20
0.0
 30
0.0
210
0.0
220
0.0
230
1.0
  2
SOLID
 70
     1
 71
     0
 91
        2
 92
        1
 93
        1
 72
     4
 94
        3
 73
     0
 74
     1
 95
       29
 96
       25
 40
0.0
 40
0.0
 40
0.0
 40
0.0
 40
1.0
 40
1.0
 40
1.0
 40
2.0
 40
2.0
 40
2.0
 40
3.0
 40
3.0
 40
3.0
 40
4.0
 40
4.0
 40
4.0
 40
5.0
 40
5.0
 40
5.0
 40
6.0
 40
6.0
 40
6.0
 40
7.0
 40
7.0
 40
7.0
 40
8.0
 40
8.0
 40
8.0
 40
8.0
 10
94.90307886082284
 20
-151.0722601618847
 10
94.79524737213453
 20
-151.2817219673879
 10
94.62161455967794
 20
-151.3010145021053
 10
94.50517033227649
 20
-151.3010145021053
 10
94.34462888266384
 20
-151.3010145021053
 10
94.20269094867156
 20
-151.2541612035059
 10
94.10760631327865
 20
-151.0722601618847
 10
94.00425344872116
 20
-150.8776122669681
 10
93.98496091400376
 20
-150.6409342071314
 10
93.98496091400376
 20
-150.4776366811306
 10
93.98496091400376
 20
-150.3339761993957
 10
94.00184188188149
 20
-150.0821397194239
 10
94.10760631327865
 20
-149.883357709925
 10
94.2157823115155
 20
-149.6804415858438
 10
94.37632376112815
 20
-149.6570149365441
 10
94.50517033227649
 20
-149.6570149365441
 10
94.66398923414651
 20
-149.6570149365441
 10
94.80764971588142
 20
-149.7014566683038
 10
94.90307886082284
 20
-149.883357709925
 10
95.00264212034656
 20
-150.0759385475505
 10
95.02572426009775
 20
-150.3043483782225
 10
95.02572426009775
 20
-150.4776366811306
 10
95.02572426009775
 20
-150.649202436296
 10
95.00470917763772
 20
-150.8800238338078
 10
94.90307886082284
 20
-151.0722601618847
 97
        0
 97
        0
 92
        1
 93
        1
 72
     4
 94
        3
 73
     0
 74
     1
 95
       17
 96
       13
 40
0.0
 40
0.0
 40
0.0
 40
0.0
 40
1.0
 40
1.0
 40
1.0
 40
2.0
 40
2.0
 40
2.0
 40
3.0
 40
3.0
 40
3.0
 40
4.0
 40
4.0
 40
4.0
 40
4.0
 10
94.50517033227649
 20
-149.8495957741696
 10
94.2557454191444
 20
-149.8495957741696
 10
94.20923663009353
 20
-150.1331271326056
 10
94.20923663009353
 20
-150.4776366811306
 10
94.20923663009353
 20
-150.7973415421618
 10
94.24541013268865
 20
-151.1060220976402
 10
94.50517033227649
 20
-151.1060220976402
 10
94.75287269766595
 20
-151.1060220976402
 10
94.80144854400798
 20
-150.8249023060438
 10
94.80144854400798
 20
-150.4776366811306
 10
94.80144854400798
 20
-150.1586208391965
 10
94.76355249367023
 20
-149.8495957741696
 10
94.50517033227649
 20
-149.8495957741696
 97
        0
 97
        0
 75
     2
 76
     1
 98
        0
  0
ENDBLK
  5
5F
330
5C
100
AcDbEntity
  8
0
100
AcDbBlockEnd
  0
BLOCK
  5
7B
330
79
100
AcDbEntity
  8
0
100
AcDbBlockBegin
  2
block 4
 70
     0
 10
0.0
 20
0.0
 30
0.0
  3
block 4
  1

  0
SPLINE
  5
7D
330
79
100
AcDbEntity
  8
_U+30EC_U+30A4_U+30E4_U+30FC 1
370
     0
100
AcDbSpline
210
0.0
220
0.0
230
1.0
 70
    11
 71
     3
 72
    62
 73
    58
 74
     0
 42
0.0000000001
 43
0.0000000001
 12
1.0
 22
0.0
 32
0.0
 13
1.0
 23
0.0
 33
0.0
 40
0.0
 40
0.0
 40
0.0
 40
0.0
 40
1.0
 40
1.0
 40
1.0
 40
2.0
 40
2.0
 40
2.0
 40
3.0
 40
3.0
 40
3.0
 40
4.0
 40
4.0
 40
4.0
 40
5.0
 40
5.0
 40
5.0
 40
6.0
 40
6.0
 40
6.0
 40
7.0
 40
7.0
 40
7.0
 40
8.0
 40
8.0
 40
8.0
 40
9.0
 40
9.0
 40
9.0
 40
10.0
 40
10.0
 40
10.0
 40
11.0
 40
11.0
 40
11.0
 40
12.0
 40
12.0
 40
12.0
 40
13.0
 40
13.0
 40
13.0
 40
14.0
 40
14.0
 40
14.0
 40
15.0
 40
15.0
 40
15.0
 40
16.0
 40
16.0
 40
16.0
 40
17.0
 40
17.0
 40
17.0
 40
18.0
 40
18.0
 40
18.0
 40
19.0
 40
19.0
 40
19.0
 40
19.0
 10
64.13234726044261
 20
-132.7174804355706
 30
0.0
 10
64.13234726044261
 20
-132.8129095805121
 30
0.0
 10
64.11115992320832
 20
-133.0309841247284
 30
0.0
 10
63.92495251223057
 20
-133.1556965812944
 30
0.0
 10
63.81281465418569
 20
-133.2294216246788
 30
0.0
 10
63.71342364943623
 20
-133.2339002488096
 30
0.0
 10
63.62884655527335
 20
-133.2380343633919
 30
0.0
 10
63.62884655527335
 20
-133.2380343633919
 30
0.0
 10
63.62884655527335
 20
-133.0178927618844
 30
0.0
 10
63.62884655527335
 20
-133.0178927618844
 30
0.0
 10
63.70291610820622
 20
-133.0158257045933
 30
0.0
 10
63.93769936552599
 20
-133.0054904181375
 30
0.0
 10
63.93769936552599
 20
-132.7219590597014
 30
0.0
 10
63.93769936552599
 20
-132.58449974984
 30
0.0
 10
63.86793618194969
 20
-132.432226529392
 30
0.0
 10
63.63935409650336
 20
-132.432226529392
 30
0.0
 10
63.52308212387618
 20
-132.432226529392
 30
0.0
 10
63.47433402275989
 20
-132.4701225797297
 30
0.0
 10
63.44263914429559
 20
-132.501817458194
 30
0.0
 10
63.36856959136272
 20
-132.5758870111269
 30
0.0
 10
63.35599499284156
 20
-132.6923312385283
 30
0.0
 10
63.35599499284156
 20
-132.7471082567438
 30
0.0
 10
63.35599499284156
 20
-132.7664007914612
 30
0.0
 10
63.35806205013271
 20
-132.8022297845078
 30
0.0
 10
63.36219616471501
 20
-132.8297905483898
 30
0.0
 10
63.36219616471501
 20
-132.8297905483898
 30
0.0
 10
63.1675482697984
 20
-132.8297905483898
 30
0.0
 10
63.1675482697984
 20
-132.8297905483898
 30
0.0
 10
63.17392169644611
 20
-132.791894498052
 30
0.0
 10
63.17616100851152
 20
-132.7491753140349
 30
0.0
 10
63.17616100851152
 20
-132.7429741421615
 30
0.0
 10
63.17616100851152
 20
-132.6775173279417
 30
0.0
 10
63.15497367127723
 20
-132.4783908088943
 30
0.0
 10
62.91795110189204
 20
-132.4783908088943
 30
0.0
 10
62.74035642962741
 20
-132.4783908088943
 30
0.0
 10
62.68523490186342
 20
-132.6099934564308
 30
0.0
 10
62.68523490186342
 20
-132.7195474928618
 30
0.0
 10
62.68523490186342
 20
-132.984130826129
 30
0.0
 10
62.91795110189204
 20
-132.9927435648421
 30
0.0
 10
62.98995359753376
 20
-132.9968776794244
 30
0.0
 10
62.98995359753376
 20
-132.9968776794244
 30
0.0
 10
62.98995359753376
 20
-133.1997938035056
 30
0.0
 10
62.98995359753376
 20
-133.1997938035056
 30
0.0
 10
62.86506888619346
 20
-133.191525574341
 30
0.0
 10
62.48851994965565
 20
-133.163964810459
 30
0.0
 10
62.48851994965565
 20
-132.7071451491149
 30
0.0
 10
62.48851994965565
 20
-132.4828694330251
 30
0.0
 10
62.6154717182871
 20
-132.2417127490576
 30
0.0
 10
62.91157767524433
 20
-132.2417127490576
 30
0.0
 10
63.09778508622208
 20
-132.2417127490576
 30
0.0
 10
63.18029512309382
 20
-132.3367973844505
 30
0.0
 10
63.24161782273126
 20
-132.4363606439742
 30
0.0
 10
63.26917858661326
 20
-132.3750379443368
 30
0.0
 10
63.34962156619385
 20
-132.1931369027156
 30
0.0
 10
63.6267794979822
 20
-132.1931369027156
 30
0.0
 10
63.96526012940799
 20
-132.1931369027156
 30
0.0
 10
64.13234726044261
 20
-132.4404947585566
 30
0.0
 10
64.13234726044261
 20
-132.7174804355706
 30
0.0
  0
HATCH
  5
7E
330
79
100
AcDbEntity
  8
_U+30EC_U+30A4_U+30E4_U+30FC 1
 62
   179
420
  2234388
100
AcDbHatch
 10
0.0
 20
0.0
 30
0.0
210
0.0
220
0.0
230
1.0
  2
SOLID
 70
     1
 71
     0
 91
        1
 92
        1
 93
        1
 72
     4
 94
        3
 73
     0
 74
     1
 95
       62
 96
       58
 40
0.0
 40
0.0
 40
0.0
 40
0.0
 40
1.0
 40
1.0
 40
1.0
 40
2.0
 40
2.0
 40
2.0
 40
3.0
 40
3.0
 40
3.0
 40
4.0
 40
4.0
 40
4.0
 40
5.0
 40
5.0
 40
5.0
 40
6.0
 40
6.0
 40
6.0
 40
7.0
 40
7.0
 40
7.0
 40
8.0
 40
8.0
 40
8.0
 40
9.0
 40
9.0
 40
9.0
 40
10.0
 40
10.0
 40
10.0
 40
11.0
 40
11.0
 40
11.0
 40
12.0
 40
12.0
 40
12.0
 40
13.0
 40
13.0
 40
13.0
 40
14.0
 40
14.0
 40
14.0
 40
15.0
 40
15.0
 40
15.0
 40
16.0
 40
16.0
 40
16.0
 40
17.0
 40
17.0
 40
17.0
 40
18.0
 40
18.0
 40
18.0
 40
19.0
 40
19.0
 40
19.0
 40
19.0
 10
64.13234726044261
 20
-132.7174804355706
 10
64.13234726044261
 20
-132.8129095805121
 10
64.11115992320832
 20
-133.0309841247284
 10
63.92495251223057
 20
-133.1556965812944
 10
63.81281465418569
 20
-133.2294216246788
 10
63.71342364943623
 20
-133.2339002488096
 10
63.62884655527335
 20
-133.2380343633919
 10
63.62884655527335
 20
-133.2380343633919
 10
63.62884655527335
 20
-133.0178927618844
 10
63.62884655527335
 20
-133.0178927618844
 10
63.70291610820622
 20
-133.0158257045933
 10
63.93769936552599
 20
-133.0054904181375
 10
63.93769936552599
 20
-132.7219590597014
 10
63.93769936552599
 20
-132.58449974984
 10
63.86793618194969
 20
-132.432226529392
 10
63.63935409650336
 20
-132.432226529392
 10
63.52308212387618
 20
-132.432226529392
 10
63.47433402275989
 20
-132.4701225797297
 10
63.44263914429559
 20
-132.501817458194
 10
63.36856959136272
 20
-132.5758870111269
 10
63.35599499284156
 20
-132.6923312385283
 10
63.35599499284156
 20
-132.7471082567438
 10
63.35599499284156
 20
-132.7664007914612
 10
63.35806205013271
 20
-132.8022297845078
 10
63.36219616471501
 20
-132.8297905483898
 10
63.36219616471501
 20
-132.8297905483898
 10
63.1675482697984
 20
-132.8297905483898
 10
63.1675482697984
 20
-132.8297905483898
 10
63.17392169644611
 20
-132.791894498052
 10
63.17616100851152
 20
-132.7491753140349
 10
63.17616100851152
 20
-132.7429741421615
 10
63.17616100851152
 20
-132.6775173279417
 10
63.15497367127723
 20
-132.4783908088943
 10
62.91795110189204
 20
-132.4783908088943
 10
62.74035642962741
 20
-132.4783908088943
 10
62.68523490186342
 20
-132.6099934564308
 10
62.68523490186342
 20
-132.7195474928618
 10
62.68523490186342
 20
-132.984130826129
 10
62.91795110189204
 20
-132.9927435648421
 10
62.98995359753376
 20
-132.9968776794244
 10
62.98995359753376
 20
-132.9968776794244
 10
62.98995359753376
 20
-133.1997938035056
 10
62.98995359753376
 20
-133.1997938035056
 10
62.86506888619346
 20
-133.191525574341
 10
62.48851994965565
 20
-133.163964810459
 10
62.48851994965565
 20
-132.7071451491149
 10
62.48851994965565
 20
-132.4828694330251
 10
62.6154717182871
 20
-132.2417127490576
 10
62.91157767524433
 20
-132.2417127490576
 10
63.09778508622208
 20
-132.2417127490576
 10
63.18029512309382
 20
-132.3367973844505
 10
63.24161782273126
 20
-132.4363606439742
 10
63.26917858661326
 20
-132.3750379443368
 10
63.34962156619385
 20
-132.1931369027156
 10
63.6267794979822
 20
-132.1931369027156
 10
63.96526012940799
 20
-132.1931369027156
 10
64.13234726044261
 20
-132.4404947585566
 10
64.13234726044261
 20
-132.7174804355706
 97
        0
 97
        0
 75
     2
 76
     1
 98
        0
  0
SPLINE
  5
7F
330
79
100
AcDbEntity
  8
_U+30EC_U+30A4_U+30E4_U+30FC 1
370
     0
100
AcDbSpline
210
0.0
220
0.0
230
1.0
 70
    11
 71
     3
 72
    29
 73
    25
 74
     0
 42
0.0000000001
 43
0.0000000001
 12
1.0
 22
0.0
 32
0.0
 13
1.0
 23
0.0
 33
0.0
 40
0.0
 40
0.0
 40
0.0
 40
0.0
 40
1.0
 40
1.0
 40
1.0
 40
2.0
 40
2.0
 40
2.0
 40
3.0
 40
3.0
 40
3.0
 40
4.0
 40
4.0
 40
4.0
 40
5.0
 40
5.0
 40
5.0
 40
6.0
 40
6.0
 40
6.0
 40
7.0
 40
7.0
 40
7.0
 40
8.0
 40
8.0
 40
8.0
 40
8.0
 10
63.90376517499628
 20
-131.1348035696469
 30
0.0
 10
64.11322698049948
 20
-131.2422905487867
 30
0.0
 10
64.13234726044261
 20
-131.4159233612432
 30
0.0
 10
64.13234726044261
 20
-131.5323675886447
 30
0.0
 10
64.13234726044261
 20
-131.6929090382573
 30
0.0
 10
64.08583847139174
 20
-131.8348469722496
 30
0.0
 10
63.90376517499628
 20
-131.9299316076425
 30
0.0
 10
63.70911728007967
 20
-132.0336289817485
 30
0.0
 10
63.47226696546874
 20
-132.0525770069174
 30
0.0
 10
63.30931394901643
 20
-132.0525770069174
 30
0.0
 10
63.16548121250725
 20
-132.0525770069174
 30
0.0
 10
62.91381698730974
 20
-132.0360405485882
 30
0.0
 10
62.71486272303657
 20
-131.9299316076425
 30
0.0
 10
62.51177434418108
 20
-131.8221001189542
 30
0.0
 10
62.48851994965565
 20
-131.661214159793
 30
0.0
 10
62.48851994965565
 20
-131.5323675886447
 30
0.0
 10
62.48851994965565
 20
-131.3738931963232
 30
0.0
 10
62.53296168141537
 20
-131.2298882050397
 30
0.0
 10
62.71486272303657
 20
-131.1348035696469
 30
0.0
 10
62.90744356066203
 20
-131.0352403101231
 30
0.0
 10
63.13585339133409
 20
-131.012158170372
 30
0.0
 10
63.30931394901643
 20
-131.012158170372
 30
0.0
 10
63.4807074494076
 20
-131.012158170372
 30
0.0
 10
63.71135659214508
 20
-131.0328287432835
 30
0.0
 10
63.90376517499628
 20
-131.1348035696469
 30
0.0
  0
SPLINE
  5
80
330
79
100
AcDbEntity
  8
_U+30EC_U+30A4_U+30E4_U+30FC 1
370
     0
100
AcDbSpline
210
0.0
220
0.0
230
1.0
 70
    11
 71
     3
 72
    17
 73
    13
 74
     0
 42
0.0000000001
 43
0.0000000001
 12
1.0
 22
0.0
 32
0.0
 13
1.0
 23
0.0
 33
0.0
 40
0.0
 40
0.0
 40
0.0
 40
0.0
 40
1.0
 40
1.0
 40
1.0
 40
2.0
 40
2.0
 40
2.0
 40
3.0
 40
3.0
 40
3.0
 40
4.0
 40
4.0
 40
4.0
 40
4.0
 10
62.68110078728112
 20
-131.5323675886447
 30
0.0
 10
62.68110078728112
 20
-131.7817925017768
 30
0.0
 10
62.96463214571718
 20
-131.8286458003762
 30
0.0
 10
63.30931394901643
 20
-131.8286458003762
 30
0.0
 10
63.62884655527335
 20
-131.8286458003762
 30
0.0
 10
63.93769936552599
 20
-131.792472297781
 30
0.0
 10
63.93769936552599
 20
-131.5323675886447
 30
0.0
 10
63.93769936552599
 20
-131.2850097328038
 30
0.0
 10
63.65623506438109
 20
-131.2360893769132
 30
0.0
 10
63.30931394901643
 20
-131.2360893769132
 30
0.0
 10
62.98995359753376
 20
-131.2360893769132
 30
0.0
 10
62.68110078728112
 20
-131.2743299367995
 30
0.0
 10
62.68110078728112
 20
-131.5323675886447
 30
0.0
  0
HATCH
  5
81
330
79
100
AcDbEntity
  8
_U+30EC_U+30A4_U+30E4_U+30FC 1
 62
   179
420
  2234388
100
AcDbHatch
 10
0.0
 20
0.0
 30
0.0
210
0.0
220
0.0
230
1.0
  2
SOLID
 70
     1
 71
     0
 91
        2
 92
        1
 93
        1
 72
     4
 94
        3
 73
     0
 74
     1
 95
       29
 96
       25
 40
0.0
 40
0.0
 40
0.0
 40
0.0
 40
1.0
 40
1.0
 40
1.0
 40
2.0
 40
2.0
 40
2.0
 40
3.0
 40
3.0
 40
3.0
 40
4.0
 40
4.0
 40
4.0
 40
5.0
 40
5.0
 40
5.0
 40
6.0
 40
6.0
 40
6.0
 40
7.0
 40
7.0
 40
7.0
 40
8.0
 40
8.0
 40
8.0
 40
8.0
 10
63.90376517499628
 20
-131.1348035696469
 10
64.11322698049948
 20
-131.2422905487867
 10
64.13234726044261
 20
-131.4159233612432
 10
64.13234726044261
 20
-131.5323675886447
 10
64.13234726044261
 20
-131.6929090382573
 10
64.08583847139174
 20
-131.8348469722496
 10
63.90376517499628
 20
-131.9299316076425
 10
63.70911728007967
 20
-132.0336289817485
 10
63.47226696546874
 20
-132.0525770069174
 10
63.30931394901643
 20
-132.0525770069174
 10
63.16548121250725
 20
-132.0525770069174
 10
62.91381698730974
 20
-132.0360405485882
 10
62.71486272303657
 20
-131.9299316076425
 10
62.51177434418108
 20
-131.8221001189542
 10
62.48851994965565
 20
-131.661214159793
 10
62.48851994965565
 20
-131.5323675886447
 10
62.48851994965565
 20
-131.3738931963232
 10
62.53296168141537
 20
-131.2298882050397
 10
62.71486272303657
 20
-131.1348035696469
 10
62.90744356066203
 20
-131.0352403101231
 10
63.13585339133409
 20
-131.012158170372
 10
63.30931394901643
 20
-131.012158170372
 10
63.4807074494076
 20
-131.012158170372
 10
63.71135659214508
 20
-131.0328287432835
 10
63.90376517499628
 20
-131.1348035696469
 97
        0
 97
        0
 92
        1
 93
        1
 72
     4
 94
        3
 73
     0
 74
     1
 95
       17
 96
       13
 40
0.0
 40
0.0
 40
0.0
 40
0.0
 40
1.0
 40
1.0
 40
1.0
 40
2.0
 40
2.0
 40
2.0
 40
3.0
 40
3.0
 40
3.0
 40
4.0
 40
4.0
 40
4.0
 40
4.0
 10
62.68110078728112
 20
-131.5323675886447
 10
62.68110078728112
 20
-131.7817925017768
 10
62.96463214571718
 20
-131.8286458003762
 10
63.30931394901643
 20
-131.8286458003762
 10
63.62884655527335
 20
-131.8286458003762
 10
63.93769936552599
 20
-131.792472297781
 10
63.93769936552599
 20
-131.5323675886447
 10
63.93769936552599
 20
-131.2850097328038
 10
63.65623506438109
 20
-131.2360893769132
 10
63.30931394901643
 20
-131.2360893769132
 10
62.98995359753376
 20
-131.2360893769132
 10
62.68110078728112
 20
-131.2743299367995
 10
62.68110078728112
 20
-131.5323675886447
 97
        0
 97
        0
 75
     2
 76
     1
 98
        0
  0
ENDBLK
  5
7C
330
79
100
AcDbEntity
  8
0
100
AcDbBlockEnd
  0
BLOCK
  5
84
330
82
100
AcDbEntity
  8
0
100
AcDbBlockBegin
  2
block 5
 70
     0
 10
0.0
 20
0.0
 30
0.0
  3
block 5
  1

  0
SPLINE
  5
86
330
82
100
AcDbEntity
  8
_U+30EC_U+30A4_U+30E4_U+30FC 1
370
     0
100
AcDbSpline
210
0.0
220
0.0
230
1.0
 70
    11
 71
     3
 72
    26
 73
    22
 74
     0
 42
0.0000000001
 43
0.0000000001
 12
1.0
 22
0.0
 32
0.0
 13
1.0
 23
0.0
 33
0.0
 40
0.0
 40
0.0
 40
0.0
 40
0.0
 40
1.0
 40
1.0
 40
1.0
 40
2.0
 40
2.0
 40
2.0
 40
3.0
 40
3.0
 40
3.0
 40
4.0
 40
4.0
 40
4.0
 40
5.0
 40
5.0
 40
5.0
 40
6.0
 40
6.0
 40
6.0
 40
7.0
 40
7.0
 40
7.0
 40
7.0
 10
64.08153210203517
 20
-110.5078111160363
 30
0.0
 10
64.08153210203517
 20
-110.5078111160363
 30
0.0
 10
62.97720674423834
 20
-110.5078111160363
 30
0.0
 10
62.97720674423834
 20
-110.5078111160363
 30
0.0
 10
62.97720674423834
 20
-110.5078111160363
 30
0.0
 10
62.97720674423834
 20
-110.8378512635232
 30
0.0
 10
62.97720674423834
 20
-110.8378512635232
 30
0.0
 10
62.97720674423834
 20
-110.8378512635232
 30
0.0
 10
62.82923989314686
 20
-110.8378512635232
 30
0.0
 10
62.82923989314686
 20
-110.8378512635232
 30
0.0
 10
62.81442598256029
 20
-110.5057440587451
 30
0.0
 10
62.65147296610797
 20
-110.4592352696942
 30
0.0
 10
62.53726805077194
 20
-110.4296074485211
 30
0.0
 10
62.53726805077194
 20
-110.4296074485211
 30
0.0
 10
62.53726805077194
 20
-110.2835353999465
 30
0.0
 10
62.53726805077194
 20
-110.2835353999465
 30
0.0
 10
62.53726805077194
 20
-110.2835353999465
 30
0.0
 10
64.08153210203517
 20
-110.2835353999465
 30
0.0
 10
64.08153210203517
 20
-110.2835353999465
 30
0.0
 10
64.08153210203517
 20
-110.2835353999465
 30
0.0
 10
64.08153210203517
 20
-110.5078111160363
 30
0.0
 10
64.08153210203517
 20
-110.5078111160363
 30
0.0
  0
HATCH
  5
87
330
82
100
AcDbEntity
  8
_U+30EC_U+30A4_U+30E4_U+30FC 1
 62
   179
420
  2234388
100
AcDbHatch
 10
0.0
 20
0.0
 30
0.0
210
0.0
220
0.0
230
1.0
  2
SOLID
 70
     1
 71
     0
 91
        1
 92
        1
 93
        1
 72
     4
 94
        3
 73
     0
 74
     1
 95
       26
 96
       22
 40
0.0
 40
0.0
 40
0.0
 40
0.0
 40
1.0
 40
1.0
 40
1.0
 40
2.0
 40
2.0
 40
2.0
 40
3.0
 40
3.0
 40
3.0
 40
4.0
 40
4.0
 40
4.0
 40
5.0
 40
5.0
 40
5.0
 40
6.0
 40
6.0
 40
6.0
 40
7.0
 40
7.0
 40
7.0
 40
7.0
 10
64.08153210203517
 20
-110.5078111160363
 10
64.08153210203517
 20
-110.5078111160363
 10
62.97720674423834
 20
-110.5078111160363
 10
62.97720674423834
 20
-110.5078111160363
 10
62.97720674423834
 20
-110.5078111160363
 10
62.97720674423834
 20
-110.8378512635232
 10
62.97720674423834
 20
-110.8378512635232
 10
62.97720674423834
 20
-110.8378512635232
 10
62.82923989314686
 20
-110.8378512635232
 10
62.82923989314686
 20
-110.8378512635232
 10
62.81442598256029
 20
-110.5057440587451
 10
62.65147296610797
 20
-110.4592352696942
 10
62.53726805077194
 20
-110.4296074485211
 10
62.53726805077194
 20
-110.4296074485211
 10
62.53726805077194
 20
-110.2835353999465
 10
62.53726805077194
 20
-110.2835353999465
 10
62.53726805077194
 20
-110.2835353999465
 10
64.08153210203517
 20
-110.2835353999465
 10
64.08153210203517
 20
-110.2835353999465
 10
64.08153210203517
 20
-110.2835353999465
 10
64.08153210203517
 20
-110.5078111160363
 10
64.08153210203517
 20
-110.5078111160363
 97
        0
 97
        0
 75
     2
 76
     1
 98
        0
  0
SPLINE
  5
88
330
82
100
AcDbEntity
  8
_U+30EC_U+30A4_U+30E4_U+30FC 1
370
     0
100
AcDbSpline
210
0.0
220
0.0
230
1.0
 70
    11
 71
     3
 72
    53
 73
    49
 74
     0
 42
0.0000000001
 43
0.0000000001
 12
1.0
 22
0.0
 32
0.0
 13
1.0
 23
0.0
 33
0.0
 40
0.0
 40
0.0
 40
0.0
 40
0.0
 40
1.0
 40
1.0
 40
1.0
 40
2.0
 40
2.0
 40
2.0
 40
3.0
 40
3.0
 40
3.0
 40
4.0
 40
4.0
 40
4.0
 40
5.0
 40
5.0
 40
5.0
 40
6.0
 40
6.0
 40
6.0
 40
7.0
 40
7.0
 40
7.0
 40
8.0
 40
8.0
 40
8.0
 40
9.0
 40
9.0
 40
9.0
 40
10.0
 40
10.0
 40
10.0
 40
11.0
 40
11.0
 40
11.0
 40
12.0
 40
12.0
 40
12.0
 40
13.0
 40
13.0
 40
13.0
 40
14.0
 40
14.0
 40
14.0
 40
15.0
 40
15.0
 40
15.0
 40
16.0
 40
16.0
 40
16.0
 40
16.0
 10
64.13234726044261
 20
-109.3013386771018
 30
0.0
 10
64.13234726044261
 20
-109.3797145993912
 30
0.0
 10
64.11529403779062
 20
-109.4811726614318
 30
0.0
 10
64.05190428086203
 20
-109.5828029782467
 30
0.0
 10
63.94183348010829
 20
-109.756263535929
 30
0.0
 10
63.81074759689454
 20
-109.7774508731633
 30
0.0
 10
63.70291610820622
 20
-109.7963988983322
 30
0.0
 10
63.70291610820622
 20
-109.7963988983322
 30
0.0
 10
63.70291610820622
 20
-109.5743624943078
 30
0.0
 10
63.70291610820622
 20
-109.5743624943078
 30
0.0
 10
63.90169811770513
 20
-109.5192409665438
 30
0.0
 10
63.93132593887828
 20
-109.3922891979123
 30
0.0
 10
63.93132593887828
 20
-109.2992716198106
 30
0.0
 10
63.93132593887828
 20
-109.1595729978837
 30
0.0
 10
63.83193493412882
 20
-109.0072997774357
 30
0.0
 10
63.5992187341002
 20
-109.0072997774357
 30
0.0
 10
63.34324813954613
 20
-109.0072997774357
 30
0.0
 10
63.27348495596983
 20
-109.1871337617657
 30
0.0
 10
63.27348495596983
 20
-109.3077121037495
 30
0.0
 10
63.27348495596983
 20
-109.3394069822138
 30
0.0
 10
63.27348495596983
 20
-109.4811726614318
 30
0.0
 10
63.40250378189243
 20
-109.5700561249512
 30
0.0
 10
63.40250378189243
 20
-109.5700561249512
 30
0.0
 10
63.3833835019493
 20
-109.7455837399247
 30
0.0
 10
63.3833835019493
 20
-109.7455837399247
 30
0.0
 10
63.3833835019493
 20
-109.7455837399247
 30
0.0
 10
62.53726805077194
 20
-109.625005397941
 30
0.0
 10
62.53726805077194
 20
-109.625005397941
 30
0.0
 10
62.53726805077194
 20
-109.625005397941
 30
0.0
 10
62.53726805077194
 20
-108.8465860730488
 30
0.0
 10
62.53726805077194
 20
-108.8465860730488
 30
0.0
 10
62.53726805077194
 20
-108.8465860730488
 30
0.0
 10
62.73191594568855
 20
-108.8465860730488
 30
0.0
 10
62.73191594568855
 20
-108.8465860730488
 30
0.0
 10
62.73191594568855
 20
-108.8465860730488
 30
0.0
 10
62.73191594568855
 20
-109.4622246362629
 30
0.0
 10
62.73191594568855
 20
-109.4622246362629
 30
0.0
 10
62.73191594568855
 20
-109.4622246362629
 30
0.0
 10
63.15497367127723
 20
-109.5276814504827
 30
0.0
 10
63.15497367127723
 20
-109.5276814504827
 30
0.0
 10
63.12103948074752
 20
-109.4663587508452
 30
0.0
 10
63.08090411834436
 20
-109.3838487139735
 30
0.0
 10
63.08090411834436
 20
-109.2655096840552
 30
0.0
 10
63.08090411834436
 20
-109.0116061467922
 30
0.0
 10
63.26711152932211
 20
-108.7745835774071
 30
0.0
 10
63.58009845415706
 20
-108.7745835774071
 30
0.0
 10
63.89756400312283
 20
-108.7745835774071
 30
0.0
 10
64.13234726044261
 20
-108.9988592934968
 30
0.0
 10
64.13234726044261
 20
-109.3013386771018
 30
0.0
  0
HATCH
  5
89
330
82
100
AcDbEntity
  8
_U+30EC_U+30A4_U+30E4_U+30FC 1
 62
   179
420
  2234388
100
AcDbHatch
 10
0.0
 20
0.0
 30
0.0
210
0.0
220
0.0
230
1.0
  2
SOLID
 70
     1
 71
     0
 91
        1
 92
        1
 93
        1
 72
     4
 94
        3
 73
     0
 74
     1
 95
       53
 96
       49
 40
0.0
 40
0.0
 40
0.0
 40
0.0
 40
1.0
 40
1.0
 40
1.0
 40
2.0
 40
2.0
 40
2.0
 40
3.0
 40
3.0
 40
3.0
 40
4.0
 40
4.0
 40
4.0
 40
5.0
 40
5.0
 40
5.0
 40
6.0
 40
6.0
 40
6.0
 40
7.0
 40
7.0
 40
7.0
 40
8.0
 40
8.0
 40
8.0
 40
9.0
 40
9.0
 40
9.0
 40
10.0
 40
10.0
 40
10.0
 40
11.0
 40
11.0
 40
11.0
 40
12.0
 40
12.0
 40
12.0
 40
13.0
 40
13.0
 40
13.0
 40
14.0
 40
14.0
 40
14.0
 40
15.0
 40
15.0
 40
15.0
 40
16.0
 40
16.0
 40
16.0
 40
16.0
 10
64.13234726044261
 20
-109.3013386771018
 10
64.13234726044261
 20
-109.3797145993912
 10
64.11529403779062
 20
-109.4811726614318
 10
64.05190428086203
 20
-109.5828029782467
 10
63.94183348010829
 20
-109.756263535929
 10
63.81074759689454
 20
-109.7774508731633
 10
63.70291610820622
 20
-109.7963988983322
 10
63.70291610820622
 20
-109.7963988983322
 10
63.70291610820622
 20
-109.5743624943078
 10
63.70291610820622
 20
-109.5743624943078
 10
63.90169811770513
 20
-109.5192409665438
 10
63.93132593887828
 20
-109.3922891979123
 10
63.93132593887828
 20
-109.2992716198106
 10
63.93132593887828
 20
-109.1595729978837
 10
63.83193493412882
 20
-109.0072997774357
 10
63.5992187341002
 20
-109.0072997774357
 10
63.34324813954613
 20
-109.0072997774357
 10
63.27348495596983
 20
-109.1871337617657
 10
63.27348495596983
 20
-109.3077121037495
 10
63.27348495596983
 20
-109.3394069822138
 10
63.27348495596983
 20
-109.4811726614318
 10
63.40250378189243
 20
-109.5700561249512
 10
63.40250378189243
 20
-109.5700561249512
 10
63.3833835019493
 20
-109.7455837399247
 10
63.3833835019493
 20
-109.7455837399247
 10
63.3833835019493
 20
-109.7455837399247
 10
62.53726805077194
 20
-109.625005397941
 10
62.53726805077194
 20
-109.625005397941
 10
62.53726805077194
 20
-109.625005397941
 10
62.53726805077194
 20
-108.8465860730488
 10
62.53726805077194
 20
-108.8465860730488
 10
62.53726805077194
 20
-108.8465860730488
 10
62.73191594568855
 20
-108.8465860730488
 10
62.73191594568855
 20
-108.8465860730488
 10
62.73191594568855
 20
-108.8465860730488
 10
62.73191594568855
 20
-109.4622246362629
 10
62.73191594568855
 20
-109.4622246362629
 10
62.73191594568855
 20
-109.4622246362629
 10
63.15497367127723
 20
-109.5276814504827
 10
63.15497367127723
 20
-109.5276814504827
 10
63.12103948074752
 20
-109.4663587508452
 10
63.08090411834436
 20
-109.3838487139735
 10
63.08090411834436
 20
-109.2655096840552
 10
63.08090411834436
 20
-109.0116061467922
 10
63.26711152932211
 20
-108.7745835774071
 10
63.58009845415706
 20
-108.7745835774071
 10
63.89756400312283
 20
-108.7745835774071
 10
64.13234726044261
 20
-108.9988592934968
 10
64.13234726044261
 20
-109.3013386771018
 97
        0
 97
        0
 75
     2
 76
     1
 98
        0
  0
ENDBLK
  5
85
330
82
100
AcDbEntity
  8
0
100
AcDbBlockEnd
  0
BLOCK
  5
98
330
96
100
AcDbEntity
  8
0
100
AcDbBlockBegin
  2
block 6
 70
     0
 10
0.0
 20
0.0
 30
0.0
  3
block 6
  1

  0
SPLINE
  5
9A
330
96
100
AcDbEntity
  8
_U+30EC_U+30A4_U+30E4_U+30FC 1
370
     0
100
AcDbSpline
210
0.0
220
0.0
230
1.0
 70
    11
 71
     3
 72
    44
 73
    40
 74
     0
 42
0.0000000001
 43
0.0000000001
 12
1.0
 22
0.0
 32
0.0
 13
1.0
 23
0.0
 33
0.0
 40
0.0
 40
0.0
 40
0.0
 40
0.0
 40
1.0
 40
1.0
 40
1.0
 40
2.0
 40
2.0
 40
2.0
 40
3.0
 40
3.0
 40
3.0
 40
4.0
 40
4.0
 40
4.0
 40
5.0
 40
5.0
 40
5.0
 40
6.0
 40
6.0
 40
6.0
 40
7.0
 40
7.0
 40
7.0
 40
8.0
 40
8.0
 40
8.0
 40
9.0
 40
9.0
 40
9.0
 40
10.0
 40
10.0
 40
10.0
 40
11.0
 40
11.0
 40
11.0
 40
12.0
 40
12.0
 40
12.0
 40
13.0
 40
13.0
 40
13.0
 40
13.0
 10
79.02428925975782
 20
-129.8170545465388
 30
0.0
 10
79.00086261045813
 20
-129.7726128147791
 30
0.0
 10
78.9798475279981
 20
-129.7195583443062
 30
0.0
 10
78.97760821593269
 20
-129.489081456343
 30
0.0
 10
78.97347410135039
 20
-129.2458577150844
 30
0.0
 10
78.91421845900409
 20
-129.1759222767338
 30
0.0
 10
78.7364515319652
 20
-129.1759222767338
 30
0.0
 10
78.7364515319652
 20
-129.1759222767338
 30
0.0
 10
78.32820771696309
 20
-129.1759222767338
 30
0.0
 10
78.32820771696309
 20
-129.1759222767338
 30
0.0
 10
78.32820771696309
 20
-129.1759222767338
 30
0.0
 10
78.32820771696309
 20
-129.8170545465388
 30
0.0
 10
78.32820771696309
 20
-129.8170545465388
 30
0.0
 10
78.32820771696309
 20
-129.8170545465388
 30
0.0
 10
78.09342445964332
 20
-129.8170545465388
 30
0.0
 10
78.09342445964332
 20
-129.8170545465388
 30
0.0
 10
78.09342445964332
 20
-129.8170545465388
 30
0.0
 10
78.09342445964332
 20
-128.2727904952756
 30
0.0
 10
78.09342445964332
 20
-128.2727904952756
 30
0.0
 10
78.09342445964332
 20
-128.2727904952756
 30
0.0
 10
78.76831866520375
 20
-128.2727904952756
 30
0.0
 10
78.76831866520375
 20
-128.2727904952756
 30
0.0
 10
79.074932163391
 20
-128.2727904952756
 30
0.0
 10
79.2420192944256
 20
-128.4440117408925
 30
0.0
 10
79.2420192944256
 20
-128.7001545902208
 30
0.0
 10
79.2420192944256
 20
-128.750797493854
 30
0.0
 10
79.23357881048675
 20
-128.8334797855
 30
0.0
 10
79.18913707872703
 20
-128.9137505103063
 30
0.0
 10
79.13005369115498
 20
-129.0174478844123
 30
0.0
 10
79.06442462216098
 20
-129.0363959095812
 30
0.0
 10
79.00310192252353
 20
-129.0532768774589
 30
0.0
 10
79.140561232385
 20
-129.0956515519275
 30
0.0
 10
79.20825735867017
 20
-129.1442273982695
 30
0.0
 10
79.21256372802672
 20
-129.4594536351699
 30
0.0
 10
79.21669784260902
 20
-129.7302381403105
 30
0.0
 10
79.25269909042989
 20
-129.7622775283233
 30
0.0
 10
79.32039521671504
 20
-129.8170545465388
 30
0.0
 10
79.32039521671504
 20
-129.8170545465388
 30
0.0
 10
79.02428925975782
 20
-129.8170545465388
 30
0.0
 10
79.02428925975782
 20
-129.8170545465388
 30
0.0
  0
SPLINE
  5
9B
330
96
100
AcDbEntity
  8
_U+30EC_U+30A4_U+30E4_U+30FC 1
370
     0
100
AcDbSpline
210
0.0
220
0.0
230
1.0
 70
    11
 71
     3
 72
    20
 73
    16
 74
     0
 42
0.0000000001
 43
0.0000000001
 12
1.0
 22
0.0
 32
0.0
 13
1.0
 23
0.0
 33
0.0
 40
0.0
 40
0.0
 40
0.0
 40
0.0
 40
1.0
 40
1.0
 40
1.0
 40
2.0
 40
2.0
 40
2.0
 40
3.0
 40
3.0
 40
3.0
 40
4.0
 40
4.0
 40
4.0
 40
5.0
 40
5.0
 40
5.0
 40
5.0
 10
78.77245277978605
 20
-128.4843193580699
 30
0.0
 10
78.77245277978605
 20
-128.4843193580699
 30
0.0
 10
78.32820771696309
 20
-128.4843193580699
 30
0.0
 10
78.32820771696309
 20
-128.4843193580699
 30
0.0
 10
78.32820771696309
 20
-128.4843193580699
 30
0.0
 10
78.32820771696309
 20
-128.9643934139395
 30
0.0
 10
78.32820771696309
 20
-128.9643934139395
 30
0.0
 10
78.32820771696309
 20
-128.9643934139395
 30
0.0
 10
78.77038572249491
 20
-128.9643934139395
 30
0.0
 10
78.77038572249491
 20
-128.9643934139395
 30
0.0
 10
78.86977672724437
 20
-128.9643934139395
 30
0.0
 10
79.00516897981468
 20
-128.888601313264
 30
0.0
 10
79.00516897981468
 20
-128.7170355580985
 30
0.0
 10
79.00516897981468
 20
-128.6386596358091
 30
0.0
 10
78.97123478928498
 20
-128.4843193580699
 30
0.0
 10
78.77245277978605
 20
-128.4843193580699
 30
0.0
  0
HATCH
  5
9C
330
96
100
AcDbEntity
  8
_U+30EC_U+30A4_U+30E4_U+30FC 1
 62
   179
420
  2234388
100
AcDbHatch
 10
0.0
 20
0.0
 30
0.0
210
0.0
220
0.0
230
1.0
  2
SOLID
 70
     1
 71
     0
 91
        2
 92
        1
 93
        1
 72
     4
 94
        3
 73
     0
 74
     1
 95
       44
 96
       40
 40
0.0
 40
0.0
 40
0.0
 40
0.0
 40
1.0
 40
1.0
 40
1.0
 40
2.0
 40
2.0
 40
2.0
 40
3.0
 40
3.0
 40
3.0
 40
4.0
 40
4.0
 40
4.0
 40
5.0
 40
5.0
 40
5.0
 40
6.0
 40
6.0
 40
6.0
 40
7.0
 40
7.0
 40
7.0
 40
8.0
 40
8.0
 40
8.0
 40
9.0
 40
9.0
 40
9.0
 40
10.0
 40
10.0
 40
10.0
 40
11.0
 40
11.0
 40
11.0
 40
12.0
 40
12.0
 40
12.0
 40
13.0
 40
13.0
 40
13.0
 40
13.0
 10
79.02428925975782
 20
-129.8170545465388
 10
79.00086261045813
 20
-129.7726128147791
 10
78.9798475279981
 20
-129.7195583443062
 10
78.97760821593269
 20
-129.489081456343
 10
78.97347410135039
 20
-129.2458577150844
 10
78.91421845900409
 20
-129.1759222767338
 10
78.7364515319652
 20
-129.1759222767338
 10
78.7364515319652
 20
-129.1759222767338
 10
78.32820771696309
 20
-129.1759222767338
 10
78.32820771696309
 20
-129.1759222767338
 10
78.32820771696309
 20
-129.1759222767338
 10
78.32820771696309
 20
-129.8170545465388
 10
78.32820771696309
 20
-129.8170545465388
 10
78.32820771696309
 20
-129.8170545465388
 10
78.09342445964332
 20
-129.8170545465388
 10
78.09342445964332
 20
-129.8170545465388
 10
78.09342445964332
 20
-129.8170545465388
 10
78.09342445964332
 20
-128.2727904952756
 10
78.09342445964332
 20
-128.2727904952756
 10
78.09342445964332
 20
-128.2727904952756
 10
78.76831866520375
 20
-128.2727904952756
 10
78.76831866520375
 20
-128.2727904952756
 10
79.074932163391
 20
-128.2727904952756
 10
79.2420192944256
 20
-128.4440117408925
 10
79.2420192944256
 20
-128.7001545902208
 10
79.2420192944256
 20
-128.750797493854
 10
79.23357881048675
 20
-128.8334797855
 10
79.18913707872703
 20
-128.9137505103063
 10
79.13005369115498
 20
-129.0174478844123
 10
79.06442462216098
 20
-129.0363959095812
 10
79.00310192252353
 20
-129.0532768774589
 10
79.140561232385
 20
-129.0956515519275
 10
79.20825735867017
 20
-129.1442273982695
 10
79.21256372802672
 20
-129.4594536351699
 10
79.21669784260902
 20
-129.7302381403105
 10
79.25269909042989
 20
-129.7622775283233
 10
79.32039521671504
 20
-129.8170545465388
 10
79.32039521671504
 20
-129.8170545465388
 10
79.02428925975782
 20
-129.8170545465388
 10
79.02428925975782
 20
-129.8170545465388
 97
        0
 97
        0
 92
        1
 93
        1
 72
     4
 94
        3
 73
     0
 74
     1
 95
       20
 96
       16
 40
0.0
 40
0.0
 40
0.0
 40
0.0
 40
1.0
 40
1.0
 40
1.0
 40
2.0
 40
2.0
 40
2.0
 40
3.0
 40
3.0
 40
3.0
 40
4.0
 40
4.0
 40
4.0
 40
5.0
 40
5.0
 40
5.0
 40
5.0
 10
78.77245277978605
 20
-128.4843193580699
 10
78.77245277978605
 20
-128.4843193580699
 10
78.32820771696309
 20
-128.4843193580699
 10
78.32820771696309
 20
-128.4843193580699
 10
78.32820771696309
 20
-128.4843193580699
 10
78.32820771696309
 20
-128.9643934139395
 10
78.32820771696309
 20
-128.9643934139395
 10
78.32820771696309
 20
-128.9643934139395
 10
78.77038572249491
 20
-128.9643934139395
 10
78.77038572249491
 20
-128.9643934139395
 10
78.86977672724437
 20
-128.9643934139395
 10
79.00516897981468
 20
-128.888601313264
 10
79.00516897981468
 20
-128.7170355580985
 10
79.00516897981468
 20
-128.6386596358091
 10
78.97123478928498
 20
-128.4843193580699
 10
78.77245277978605
 20
-128.4843193580699
 97
        0
 97
        0
 75
     2
 76
     1
 98
        0
  0
SPLINE
  5
9D
330
96
100
AcDbEntity
  8
_U+30EC_U+30A4_U+30E4_U+30FC 1
370
     0
100
AcDbSpline
210
0.0
220
0.0
230
1.0
 70
    11
 71
     3
 72
    44
 73
    40
 74
     0
 42
0.0000000001
 43
0.0000000001
 12
1.0
 22
0.0
 32
0.0
 13
1.0
 23
0.0
 33
0.0
 40
0.0
 40
0.0
 40
0.0
 40
0.0
 40
1.0
 40
1.0
 40
1.0
 40
2.0
 40
2.0
 40
2.0
 40
3.0
 40
3.0
 40
3.0
 40
4.0
 40
4.0
 40
4.0
 40
5.0
 40
5.0
 40
5.0
 40
6.0
 40
6.0
 40
6.0
 40
7.0
 40
7.0
 40
7.0
 40
8.0
 40
8.0
 40
8.0
 40
9.0
 40
9.0
 40
9.0
 40
10.0
 40
10.0
 40
10.0
 40
11.0
 40
11.0
 40
11.0
 40
12.0
 40
12.0
 40
12.0
 40
13.0
 40
13.0
 40
13.0
 40
13.0
 10
80.05316702642769
 20
-129.2351779190801
 30
0.0
 10
79.83526473698564
 20
-129.3939968209501
 30
0.0
 10
79.74207490410963
 20
-129.468066373883
 30
0.0
 10
79.6934990577676
 20
-129.6120713651664
 30
0.0
 10
79.6934990577676
 20
-129.6120713651664
 30
0.0
 10
80.47191838265981
 20
-129.6120713651664
 30
0.0
 10
80.47191838265981
 20
-129.6120713651664
 30
0.0
 10
80.47191838265981
 20
-129.6120713651664
 30
0.0
 10
80.47191838265981
 20
-129.8170545465388
 30
0.0
 10
80.47191838265981
 20
-129.8170545465388
 30
0.0
 10
80.47191838265981
 20
-129.8170545465388
 30
0.0
 10
79.44390188986125
 20
-129.8170545465388
 30
0.0
 10
79.44390188986125
 20
-129.8170545465388
 30
0.0
 10
79.47559676832554
 20
-129.4594536351699
 30
0.0
 10
79.5410535825453
 20
-129.3812499676547
 30
0.0
 10
79.92621525779623
 20
-129.0829046986321
 30
0.0
 10
80.18218585235029
 20
-128.8841226891331
 30
0.0
 10
80.24764266657004
 20
-128.8162543080737
 30
0.0
 10
80.24764266657004
 20
-128.6789672529865
 30
0.0
 10
80.24764266657004
 20
-128.5604559682939
 30
0.0
 10
80.17581242570257
 20
-128.4293700850802
 30
0.0
 10
79.97909747349482
 20
-128.4293700850802
 30
0.0
 10
79.71882050958419
 20
-128.4293700850802
 30
0.0
 10
79.71038002564532
 20
-128.6598469730434
 30
0.0
 10
79.70607365628877
 20
-128.7762912004448
 30
0.0
 10
79.70607365628877
 20
-128.7762912004448
 30
0.0
 10
79.48197019497326
 20
-128.7762912004448
 30
0.0
 10
79.48197019497326
 20
-128.7762912004448
 30
0.0
 10
79.49041067891213
 20
-128.6493394318134
 30
0.0
 10
79.50091822014214
 20
-128.5372015737685
 30
0.0
 10
79.58136119972272
 20
-128.4186902890759
 30
0.0
 10
79.69125974570218
 20
-128.257976584689
 30
0.0
 10
79.87746715667994
 20
-128.2240423941593
 30
0.0
 10
79.99391138408139
 20
-128.2240423941593
 30
0.0
 10
80.27106931586974
 20
-128.2240423941593
 30
0.0
 10
80.47829180930752
 20
-128.4081827478459
 30
0.0
 10
80.47829180930752
 20
-128.6810343102777
 30
0.0
 10
80.47829180930752
 20
-128.9092718861755
 30
0.0
 10
80.36201983668033
 20
-129.0091796552477
 30
0.0
 10
80.05316702642769
 20
-129.2351779190801
 30
0.0
  0
HATCH
  5
9E
330
96
100
AcDbEntity
  8
_U+30EC_U+30A4_U+30E4_U+30FC 1
 62
   179
420
  2234388
100
AcDbHatch
 10
0.0
 20
0.0
 30
0.0
210
0.0
220
0.0
230
1.0
  2
SOLID
 70
     1
 71
     0
 91
        1
 92
        1
 93
        1
 72
     4
 94
        3
 73
     0
 74
     1
 95
       44
 96
       40
 40
0.0
 40
0.0
 40
0.0
 40
0.0
 40
1.0
 40
1.0
 40
1.0
 40
2.0
 40
2.0
 40
2.0
 40
3.0
 40
3.0
 40
3.0
 40
4.0
 40
4.0
 40
4.0
 40
5.0
 40
5.0
 40
5.0
 40
6.0
 40
6.0
 40
6.0
 40
7.0
 40
7.0
 40
7.0
 40
8.0
 40
8.0
 40
8.0
 40
9.0
 40
9.0
 40
9.0
 40
10.0
 40
10.0
 40
10.0
 40
11.0
 40
11.0
 40
11.0
 40
12.0
 40
12.0
 40
12.0
 40
13.0
 40
13.0
 40
13.0
 40
13.0
 10
80.05316702642769
 20
-129.2351779190801
 10
79.83526473698564
 20
-129.3939968209501
 10
79.74207490410963
 20
-129.468066373883
 10
79.6934990577676
 20
-129.6120713651664
 10
79.6934990577676
 20
-129.6120713651664
 10
80.47191838265981
 20
-129.6120713651664
 10
80.47191838265981
 20
-129.6120713651664
 10
80.47191838265981
 20
-129.6120713651664
 10
80.47191838265981
 20
-129.8170545465388
 10
80.47191838265981
 20
-129.8170545465388
 10
80.47191838265981
 20
-129.8170545465388
 10
79.44390188986125
 20
-129.8170545465388
 10
79.44390188986125
 20
-129.8170545465388
 10
79.47559676832554
 20
-129.4594536351699
 10
79.5410535825453
 20
-129.3812499676547
 10
79.92621525779623
 20
-129.0829046986321
 10
80.18218585235029
 20
-128.8841226891331
 10
80.24764266657004
 20
-128.8162543080737
 10
80.24764266657004
 20
-128.6789672529865
 10
80.24764266657004
 20
-128.5604559682939
 10
80.17581242570257
 20
-128.4293700850802
 10
79.97909747349482
 20
-128.4293700850802
 10
79.71882050958419
 20
-128.4293700850802
 10
79.71038002564532
 20
-128.6598469730434
 10
79.70607365628877
 20
-128.7762912004448
 10
79.70607365628877
 20
-128.7762912004448
 10
79.48197019497326
 20
-128.7762912004448
 10
79.48197019497326
 20
-128.7762912004448
 10
79.49041067891213
 20
-128.6493394318134
 10
79.50091822014214
 20
-128.5372015737685
 10
79.58136119972272
 20
-128.4186902890759
 10
79.69125974570218
 20
-128.257976584689
 10
79.87746715667994
 20
-128.2240423941593
 10
79.99391138408139
 20
-128.2240423941593
 10
80.27106931586974
 20
-128.2240423941593
 10
80.47829180930752
 20
-128.4081827478459
 10
80.47829180930752
 20
-128.6810343102777
 10
80.47829180930752
 20
-128.9092718861755
 10
80.36201983668033
 20
-129.0091796552477
 10
80.05316702642769
 20
-129.2351779190801
 97
        0
 97
        0
 75
     2
 76
     1
 98
        0
  0
SPLINE
  5
9F
330
96
100
AcDbEntity
  8
_U+30EC_U+30A4_U+30E4_U+30FC 1
370
     0
100
AcDbSpline
210
0.0
220
0.0
230
1.0
 70
    11
 71
     3
 72
    29
 73
    25
 74
     0
 42
0.0000000001
 43
0.0000000001
 12
1.0
 22
0.0
 32
0.0
 13
1.0
 23
0.0
 33
0.0
 40
0.0
 40
0.0
 40
0.0
 40
0.0
 40
1.0
 40
1.0
 40
1.0
 40
2.0
 40
2.0
 40
2.0
 40
3.0
 40
3.0
 40
3.0
 40
4.0
 40
4.0
 40
4.0
 40
5.0
 40
5.0
 40
5.0
 40
6.0
 40
6.0
 40
6.0
 40
7.0
 40
7.0
 40
7.0
 40
8.0
 40
8.0
 40
8.0
 40
8.0
 10
81.53455808508511
 20
-129.6392876194999
 30
0.0
 10
81.42672659639679
 20
-129.8487494250031
 30
0.0
 10
81.25326603871447
 20
-129.867697450172
 30
0.0
 10
81.13682181131303
 20
-129.867697450172
 30
0.0
 10
80.97610810692612
 20
-129.867697450172
 30
0.0
 10
80.83434242770808
 20
-129.8215331706696
 30
0.0
 10
80.73908553754093
 20
-129.6392876194999
 30
0.0
 10
80.63556041820917
 20
-129.4446397245833
 30
0.0
 10
80.61644013826603
 20
-129.2076171551981
 30
0.0
 10
80.61644013826603
 20
-129.0450086482943
 30
0.0
 10
80.61644013826603
 20
-128.9010036570109
 30
0.0
 10
80.63332110614375
 20
-128.6493394318134
 30
0.0
 10
80.73908553754093
 20
-128.4503851675402
 30
0.0
 10
80.8470892810035
 20
-128.2472967886847
 30
0.0
 10
81.00780298539041
 20
-128.2240423941593
 30
0.0
 10
81.13682181131303
 20
-128.2240423941593
 30
0.0
 10
81.29546845840878
 20
-128.2240423941593
 30
0.0
 10
81.43930119491796
 20
-128.268484125919
 30
0.0
 10
81.53455808508511
 20
-128.4503851675402
 30
0.0
 10
81.63394908983457
 20
-128.6429660051656
 30
0.0
 10
81.65720348436001
 20
-128.8713758358377
 30
0.0
 10
81.65720348436001
 20
-129.0450086482943
 30
0.0
 10
81.65720348436001
 20
-129.2162298939112
 30
0.0
 10
81.63618840189999
 20
-129.4467067818744
 30
0.0
 10
81.53455808508511
 20
-129.6392876194999
 30
0.0
  0
SPLINE
  5
A0
330
96
100
AcDbEntity
  8
_U+30EC_U+30A4_U+30E4_U+30FC 1
370
     0
100
AcDbSpline
210
0.0
220
0.0
230
1.0
 70
    11
 71
     3
 72
    17
 73
    13
 74
     0
 42
0.0000000001
 43
0.0000000001
 12
1.0
 22
0.0
 32
0.0
 13
1.0
 23
0.0
 33
0.0
 40
0.0
 40
0.0
 40
0.0
 40
0.0
 40
1.0
 40
1.0
 40
1.0
 40
2.0
 40
2.0
 40
2.0
 40
3.0
 40
3.0
 40
3.0
 40
4.0
 40
4.0
 40
4.0
 40
4.0
 10
81.13682181131303
 20
-128.4166232317847
 30
0.0
 10
80.88722464340667
 20
-128.4166232317847
 30
0.0
 10
80.84071585435579
 20
-128.7001545902208
 30
0.0
 10
80.84071585435579
 20
-129.0450086482943
 30
0.0
 10
80.84071585435579
 20
-129.364368999777
 30
0.0
 10
80.87671710217666
 20
-129.6733940648039
 30
0.0
 10
81.13682181131303
 20
-129.6733940648039
 30
0.0
 10
81.38435192192821
 20
-129.6733940648039
 30
0.0
 10
81.4331000230445
 20
-129.3915852541105
 30
0.0
 10
81.4331000230445
 20
-129.0450086482943
 30
0.0
 10
81.4331000230445
 20
-128.7254760420374
 30
0.0
 10
81.39485946315823
 20
-128.4166232317847
 30
0.0
 10
81.13682181131303
 20
-128.4166232317847
 30
0.0
  0
HATCH
  5
A1
330
96
100
AcDbEntity
  8
_U+30EC_U+30A4_U+30E4_U+30FC 1
 62
   179
420
  2234388
100
AcDbHatch
 10
0.0
 20
0.0
 30
0.0
210
0.0
220
0.0
230
1.0
  2
SOLID
 70
     1
 71
     0
 91
        2
 92
        1
 93
        1
 72
     4
 94
        3
 73
     0
 74
     1
 95
       29
 96
       25
 40
0.0
 40
0.0
 40
0.0
 40
0.0
 40
1.0
 40
1.0
 40
1.0
 40
2.0
 40
2.0
 40
2.0
 40
3.0
 40
3.0
 40
3.0
 40
4.0
 40
4.0
 40
4.0
 40
5.0
 40
5.0
 40
5.0
 40
6.0
 40
6.0
 40
6.0
 40
7.0
 40
7.0
 40
7.0
 40
8.0
 40
8.0
 40
8.0
 40
8.0
 10
81.53455808508511
 20
-129.6392876194999
 10
81.42672659639679
 20
-129.8487494250031
 10
81.25326603871447
 20
-129.867697450172
 10
81.13682181131303
 20
-129.867697450172
 10
80.97610810692612
 20
-129.867697450172
 10
80.83434242770808
 20
-129.8215331706696
 10
80.73908553754093
 20
-129.6392876194999
 10
80.63556041820917
 20
-129.4446397245833
 10
80.61644013826603
 20
-129.2076171551981
 10
80.61644013826603
 20
-129.0450086482943
 10
80.61644013826603
 20
-128.9010036570109
 10
80.63332110614375
 20
-128.6493394318134
 10
80.73908553754093
 20
-128.4503851675402
 10
80.8470892810035
 20
-128.2472967886847
 10
81.00780298539041
 20
-128.2240423941593
 10
81.13682181131303
 20
-128.2240423941593
 10
81.29546845840878
 20
-128.2240423941593
 10
81.43930119491796
 20
-128.268484125919
 10
81.53455808508511
 20
-128.4503851675402
 10
81.63394908983457
 20
-128.6429660051656
 10
81.65720348436001
 20
-128.8713758358377
 10
81.65720348436001
 20
-129.0450086482943
 10
81.65720348436001
 20
-129.2162298939112
 10
81.63618840189999
 20
-129.4467067818744
 10
81.53455808508511
 20
-129.6392876194999
 97
        0
 97
        0
 92
        1
 93
        1
 72
     4
 94
        3
 73
     0
 74
     1
 95
       17
 96
       13
 40
0.0
 40
0.0
 40
0.0
 40
0.0
 40
1.0
 40
1.0
 40
1.0
 40
2.0
 40
2.0
 40
2.0
 40
3.0
 40
3.0
 40
3.0
 40
4.0
 40
4.0
 40
4.0
 40
4.0
 10
81.13682181131303
 20
-128.4166232317847
 10
80.88722464340667
 20
-128.4166232317847
 10
80.84071585435579
 20
-128.7001545902208
 10
80.84071585435579
 20
-129.0450086482943
 10
80.84071585435579
 20
-129.364368999777
 10
80.87671710217666
 20
-129.6733940648039
 10
81.13682181131303
 20
-129.6733940648039
 10
81.38435192192821
 20
-129.6733940648039
 10
81.4331000230445
 20
-129.3915852541105
 10
81.4331000230445
 20
-129.0450086482943
 10
81.4331000230445
 20
-128.7254760420374
 10
81.39485946315823
 20
-128.4166232317847
 10
81.13682181131303
 20
-128.4166232317847
 97
        0
 97
        0
 75
     2
 76
     1
 98
        0
  0
ENDBLK
  5
99
330
96
100
AcDbEntity
  8
0
100
AcDbBlockEnd
  0
BLOCK
  5
B8
330
B6
100
AcDbEntity
  8
0
100
AcDbBlockBegin
  2
block 7
 70
     0
 10
0.0
 20
0.0
 30
0.0
  3
block 7
  1

  0
SPLINE
  5
BA
330
B6
100
AcDbEntity
  8
_U+30EC_U+30A4_U+30E4_U+30FC 1
370
     0
100
AcDbSpline
210
0.0
220
0.0
230
1.0
 70
    11
 71
     3
 72
    26
 73
    22
 74
     0
 42
0.0000000001
 43
0.0000000001
 12
1.0
 22
0.0
 32
0.0
 13
1.0
 23
0.0
 33
0.0
 40
0.0
 40
0.0
 40
0.0
 40
0.0
 40
1.0
 40
1.0
 40
1.0
 40
2.0
 40
2.0
 40
2.0
 40
3.0
 40
3.0
 40
3.0
 40
4.0
 40
4.0
 40
4.0
 40
5.0
 40
5.0
 40
5.0
 40
6.0
 40
6.0
 40
6.0
 40
7.0
 40
7.0
 40
7.0
 40
7.0
 10
116.8197428093367
 20
-142.7578667177828
 30
0.0
 10
116.8197428093367
 20
-142.7578667177828
 30
0.0
 10
115.7155897063142
 20
-142.7578667177828
 30
0.0
 10
115.7155897063142
 20
-142.7578667177828
 30
0.0
 10
115.7155897063142
 20
-142.7578667177828
 30
0.0
 10
115.7155897063142
 20
-143.0879068652697
 30
0.0
 10
115.7155897063142
 20
-143.0879068652697
 30
0.0
 10
115.7155897063142
 20
-143.0879068652697
 30
0.0
 10
115.5674506004484
 20
-143.0879068652697
 30
0.0
 10
115.5674506004484
 20
-143.0879068652697
 30
0.0
 10
115.5526366898618
 20
-142.7557996604916
 30
0.0
 10
115.390028182958
 20
-142.7089463618922
 30
0.0
 10
115.2756510128478
 20
-142.6793185407191
 30
0.0
 10
115.2756510128478
 20
-142.6793185407191
 30
0.0
 10
115.2756510128478
 20
-142.5332464921445
 30
0.0
 10
115.2756510128478
 20
-142.5332464921445
 30
0.0
 10
115.2756510128478
 20
-142.5332464921445
 30
0.0
 10
116.8197428093367
 20
-142.5332464921445
 30
0.0
 10
116.8197428093367
 20
-142.5332464921445
 30
0.0
 10
116.8197428093367
 20
-142.5332464921445
 30
0.0
 10
116.8197428093367
 20
-142.7578667177828
 30
0.0
 10
116.8197428093367
 20
-142.7578667177828
 30
0.0
  0
HATCH
  5
BB
330
B6
100
AcDbEntity
  8
_U+30EC_U+30A4_U+30E4_U+30FC 1
 62
   179
420
  2234388
100
AcDbHatch
 10
0.0
 20
0.0
 30
0.0
210
0.0
220
0.0
230
1.0
  2
SOLID
 70
     1
 71
     0
 91
        1
 92
        1
 93
        1
 72
     4
 94
        3
 73
     0
 74
     1
 95
       26
 96
       22
 40
0.0
 40
0.0
 40
0.0
 40
0.0
 40
1.0
 40
1.0
 40
1.0
 40
2.0
 40
2.0
 40
2.0
 40
3.0
 40
3.0
 40
3.0
 40
4.0
 40
4.0
 40
4.0
 40
5.0
 40
5.0
 40
5.0
 40
6.0
 40
6.0
 40
6.0
 40
7.0
 40
7.0
 40
7.0
 40
7.0
 10
116.8197428093367
 20
-142.7578667177828
 10
116.8197428093367
 20
-142.7578667177828
 10
115.7155897063142
 20
-142.7578667177828
 10
115.7155897063142
 20
-142.7578667177828
 10
115.7155897063142
 20
-142.7578667177828
 10
115.7155897063142
 20
-143.0879068652697
 10
115.7155897063142
 20
-143.0879068652697
 10
115.7155897063142
 20
-143.0879068652697
 10
115.5674506004484
 20
-143.0879068652697
 10
115.5674506004484
 20
-143.0879068652697
 10
115.5526366898618
 20
-142.7557996604916
 10
115.390028182958
 20
-142.7089463618922
 10
115.2756510128478
 20
-142.6793185407191
 10
115.2756510128478
 20
-142.6793185407191
 10
115.2756510128478
 20
-142.5332464921445
 10
115.2756510128478
 20
-142.5332464921445
 10
115.2756510128478
 20
-142.5332464921445
 10
116.8197428093367
 20
-142.5332464921445
 10
116.8197428093367
 20
-142.5332464921445
 10
116.8197428093367
 20
-142.5332464921445
 10
116.8197428093367
 20
-142.7578667177828
 10
116.8197428093367
 20
-142.7578667177828
 97
        0
 97
        0
 75
     2
 76
     1
 98
        0
  0
SPLINE
  5
BC
330
B6
100
AcDbEntity
  8
_U+30EC_U+30A4_U+30E4_U+30FC 1
370
     0
100
AcDbSpline
210
0.0
220
0.0
230
1.0
 70
    11
 71
     3
 72
    29
 73
    25
 74
     0
 42
0.0000000001
 43
0.0000000001
 12
1.0
 22
0.0
 32
0.0
 13
1.0
 23
0.0
 33
0.0
 40
0.0
 40
0.0
 40
0.0
 40
0.0
 40
1.0
 40
1.0
 40
1.0
 40
2.0
 40
2.0
 40
2.0
 40
3.0
 40
3.0
 40
3.0
 40
4.0
 40
4.0
 40
4.0
 40
5.0
 40
5.0
 40
5.0
 40
6.0
 40
6.0
 40
6.0
 40
7.0
 40
7.0
 40
7.0
 40
8.0
 40
8.0
 40
8.0
 40
8.0
 10
116.6419758822978
 20
-141.134537725133
 30
0.0
 10
116.851437687801
 20
-141.2423692138213
 30
0.0
 10
116.8707302225184
 20
-141.4156575167294
 30
0.0
 10
116.8707302225184
 20
-141.5321017441309
 30
0.0
 10
116.8707302225184
 20
-141.692987703292
 30
0.0
 10
116.8242214334676
 20
-141.8345811277358
 30
0.0
 10
116.6419758822978
 20
-141.9300102726772
 30
0.0
 10
116.4476724969298
 20
-142.0337076467833
 30
0.0
 10
116.2106499275446
 20
-142.0526556719521
 30
0.0
 10
116.0476969110922
 20
-142.0526556719521
 30
0.0
 10
115.9040364293573
 20
-142.0526556719521
 30
0.0
 10
115.6521999493856
 20
-142.0357747040744
 30
0.0
 10
115.4534179398866
 20
-141.9300102726772
 30
0.0
 10
115.2501573062569
 20
-141.8221787839889
 30
0.0
 10
115.2267306569572
 20
-141.6612928248277
 30
0.0
 10
115.2267306569572
 20
-141.5321017441309
 30
0.0
 10
115.2267306569572
 20
-141.3736273518094
 30
0.0
 10
115.2715168982655
 20
-141.2296223605259
 30
0.0
 10
115.4534179398866
 20
-141.134537725133
 30
0.0
 10
115.6456542679636
 20
-141.0353189751578
 30
0.0
 10
115.8744086081842
 20
-141.0118923258582
 30
0.0
 10
116.0476969110922
 20
-141.0118923258582
 30
0.0
 10
116.2189181567092
 20
-141.0118923258582
 30
0.0
 10
116.4497395542209
 20
-141.0329074083182
 30
0.0
 10
116.6419758822978
 20
-141.134537725133
 30
0.0
  0
SPLINE
  5
BD
330
B6
100
AcDbEntity
  8
_U+30EC_U+30A4_U+30E4_U+30FC 1
370
     0
100
AcDbSpline
210
0.0
220
0.0
230
1.0
 70
    11
 71
     3
 72
    17
 73
    13
 74
     0
 42
0.0000000001
 43
0.0000000001
 12
1.0
 22
0.0
 32
0.0
 13
1.0
 23
0.0
 33
0.0
 40
0.0
 40
0.0
 40
0.0
 40
0.0
 40
1.0
 40
1.0
 40
1.0
 40
2.0
 40
2.0
 40
2.0
 40
3.0
 40
3.0
 40
3.0
 40
4.0
 40
4.0
 40
4.0
 40
4.0
 10
115.4196560041312
 20
-141.5321017441309
 30
0.0
 10
115.4196560041312
 20
-141.7818711668115
 30
0.0
 10
115.7028428530187
 20
-141.8283799558623
 30
0.0
 10
116.0476969110922
 20
-141.8283799558623
 30
0.0
 10
116.3670572625749
 20
-141.8283799558623
 30
0.0
 10
116.6760823276018
 20
-141.7925509628158
 30
0.0
 10
116.6760823276018
 20
-141.5321017441309
 30
0.0
 10
116.6760823276018
 20
-141.2847438882899
 30
0.0
 10
116.3946180264569
 20
-141.2358235323994
 30
0.0
 10
116.0476969110922
 20
-141.2358235323994
 30
0.0
 10
115.7283365596096
 20
-141.2358235323994
 30
0.0
 10
115.4196560041312
 20
-141.2740640922857
 30
0.0
 10
115.4196560041312
 20
-141.5321017441309
 30
0.0
  0
HATCH
  5
BE
330
B6
100
AcDbEntity
  8
_U+30EC_U+30A4_U+30E4_U+30FC 1
 62
   179
420
  2234388
100
AcDbHatch
 10
0.0
 20
0.0
 30
0.0
210
0.0
220
0.0
230
1.0
  2
SOLID
 70
     1
 71
     0
 91
        2
 92
        1
 93
        1
 72
     4
 94
        3
 73
     0
 74
     1
 95
       29
 96
       25
 40
0.0
 40
0.0
 40
0.0
 40
0.0
 40
1.0
 40
1.0
 40
1.0
 40
2.0
 40
2.0
 40
2.0
 40
3.0
 40
3.0
 40
3.0
 40
4.0
 40
4.0
 40
4.0
 40
5.0
 40
5.0
 40
5.0
 40
6.0
 40
6.0
 40
6.0
 40
7.0
 40
7.0
 40
7.0
 40
8.0
 40
8.0
 40
8.0
 40
8.0
 10
116.6419758822978
 20
-141.134537725133
 10
116.851437687801
 20
-141.2423692138213
 10
116.8707302225184
 20
-141.4156575167294
 10
116.8707302225184
 20
-141.5321017441309
 10
116.8707302225184
 20
-141.692987703292
 10
116.8242214334676
 20
-141.8345811277358
 10
116.6419758822978
 20
-141.9300102726772
 10
116.4476724969298
 20
-142.0337076467833
 10
116.2106499275446
 20
-142.0526556719521
 10
116.0476969110922
 20
-142.0526556719521
 10
115.9040364293573
 20
-142.0526556719521
 10
115.6521999493856
 20
-142.0357747040744
 10
115.4534179398866
 20
-141.9300102726772
 10
115.2501573062569
 20
-141.8221787839889
 10
115.2267306569572
 20
-141.6612928248277
 10
115.2267306569572
 20
-141.5321017441309
 10
115.2267306569572
 20
-141.3736273518094
 10
115.2715168982655
 20
-141.2296223605259
 10
115.4534179398866
 20
-141.134537725133
 10
115.6456542679636
 20
-141.0353189751578
 10
115.8744086081842
 20
-141.0118923258582
 10
116.0476969110922
 20
-141.0118923258582
 10
116.2189181567092
 20
-141.0118923258582
 10
116.4497395542209
 20
-141.0329074083182
 10
116.6419758822978
 20
-141.134537725133
 97
        0
 97
        0
 92
        1
 93
        1
 72
     4
 94
        3
 73
     0
 74
     1
 95
       17
 96
       13
 40
0.0
 40
0.0
 40
0.0
 40
0.0
 40
1.0
 40
1.0
 40
1.0
 40
2.0
 40
2.0
 40
2.0
 40
3.0
 40
3.0
 40
3.0
 40
4.0
 40
4.0
 40
4.0
 40
4.0
 10
115.4196560041312
 20
-141.5321017441309
 10
115.4196560041312
 20
-141.7818711668115
 10
115.7028428530187
 20
-141.8283799558623
 10
116.0476969110922
 20
-141.8283799558623
 10
116.3670572625749
 20
-141.8283799558623
 10
116.6760823276018
 20
-141.7925509628158
 10
116.6760823276018
 20
-141.5321017441309
 10
116.6760823276018
 20
-141.2847438882899
 10
116.3946180264569
 20
-141.2358235323994
 10
116.0476969110922
 20
-141.2358235323994
 10
115.7283365596096
 20
-141.2358235323994
 10
115.4196560041312
 20
-141.2740640922857
 10
115.4196560041312
 20
-141.5321017441309
 97
        0
 97
        0
 75
     2
 76
     1
 98
        0
  0
ENDBLK
  5
B9
330
B6
100
AcDbEntity
  8
0
100
AcDbBlockEnd
  0
BLOCK
  5
C1
330
BF
100
AcDbEntity
  8
0
100
AcDbBlockBegin
  2
block 8
 70
     0
 10
0.0
 20
0.0
 30
0.0
  3
block 8
  1

  0
SPLINE
  5
C3
330
BF
100
AcDbEntity
  8
_U+30EC_U+30A4_U+30E4_U+30FC 1
370
     0
100
AcDbSpline
210
0.0
220
0.0
230
1.0
 70
    11
 71
     3
 72
    26
 73
    22
 74
     0
 42
0.0000000001
 43
0.0000000001
 12
1.0
 22
0.0
 32
0.0
 13
1.0
 23
0.0
 33
0.0
 40
0.0
 40
0.0
 40
0.0
 40
0.0
 40
1.0
 40
1.0
 40
1.0
 40
2.0
 40
2.0
 40
2.0
 40
3.0
 40
3.0
 40
3.0
 40
4.0
 40
4.0
 40
4.0
 40
5.0
 40
5.0
 40
5.0
 40
6.0
 40
6.0
 40
6.0
 40
7.0
 40
7.0
 40
7.0
 40
7.0
 10
116.8197428093367
 20
-135.1958821276594
 30
0.0
 10
116.8197428093367
 20
-135.1958821276594
 30
0.0
 10
115.7155897063142
 20
-135.1958821276594
 30
0.0
 10
115.7155897063142
 20
-135.1958821276594
 30
0.0
 10
115.7155897063142
 20
-135.1958821276594
 30
0.0
 10
115.7155897063142
 20
-135.5259222751463
 30
0.0
 10
115.7155897063142
 20
-135.5259222751463
 30
0.0
 10
115.7155897063142
 20
-135.5259222751463
 30
0.0
 10
115.5674506004484
 20
-135.5259222751463
 30
0.0
 10
115.5674506004484
 20
-135.5259222751463
 30
0.0
 10
115.5526366898618
 20
-135.1938150703682
 30
0.0
 10
115.390028182958
 20
-135.1473062813174
 30
0.0
 10
115.2756510128478
 20
-135.1176784601442
 30
0.0
 10
115.2756510128478
 20
-135.1176784601442
 30
0.0
 10
115.2756510128478
 20
-134.9716064115696
 30
0.0
 10
115.2756510128478
 20
-134.9716064115696
 30
0.0
 10
115.2756510128478
 20
-134.9716064115696
 30
0.0
 10
116.8197428093367
 20
-134.9716064115696
 30
0.0
 10
116.8197428093367
 20
-134.9716064115696
 30
0.0
 10
116.8197428093367
 20
-134.9716064115696
 30
0.0
 10
116.8197428093367
 20
-135.1958821276594
 30
0.0
 10
116.8197428093367
 20
-135.1958821276594
 30
0.0
  0
HATCH
  5
C4
330
BF
100
AcDbEntity
  8
_U+30EC_U+30A4_U+30E4_U+30FC 1
 62
   179
420
  2234388
100
AcDbHatch
 10
0.0
 20
0.0
 30
0.0
210
0.0
220
0.0
230
1.0
  2
SOLID
 70
     1
 71
     0
 91
        1
 92
        1
 93
        1
 72
     4
 94
        3
 73
     0
 74
     1
 95
       26
 96
       22
 40
0.0
 40
0.0
 40
0.0
 40
0.0
 40
1.0
 40
1.0
 40
1.0
 40
2.0
 40
2.0
 40
2.0
 40
3.0
 40
3.0
 40
3.0
 40
4.0
 40
4.0
 40
4.0
 40
5.0
 40
5.0
 40
5.0
 40
6.0
 40
6.0
 40
6.0
 40
7.0
 40
7.0
 40
7.0
 40
7.0
 10
116.8197428093367
 20
-135.1958821276594
 10
116.8197428093367
 20
-135.1958821276594
 10
115.7155897063142
 20
-135.1958821276594
 10
115.7155897063142
 20
-135.1958821276594
 10
115.7155897063142
 20
-135.1958821276594
 10
115.7155897063142
 20
-135.5259222751463
 10
115.7155897063142
 20
-135.5259222751463
 10
115.7155897063142
 20
-135.5259222751463
 10
115.5674506004484
 20
-135.5259222751463
 10
115.5674506004484
 20
-135.5259222751463
 10
115.5526366898618
 20
-135.1938150703682
 10
115.390028182958
 20
-135.1473062813174
 10
115.2756510128478
 20
-135.1176784601442
 10
115.2756510128478
 20
-135.1176784601442
 10
115.2756510128478
 20
-134.9716064115696
 10
115.2756510128478
 20
-134.9716064115696
 10
115.2756510128478
 20
-134.9716064115696
 10
116.8197428093367
 20
-134.9716064115696
 10
116.8197428093367
 20
-134.9716064115696
 10
116.8197428093367
 20
-134.9716064115696
 10
116.8197428093367
 20
-135.1958821276594
 10
116.8197428093367
 20
-135.1958821276594
 97
        0
 97
        0
 75
     2
 76
     1
 98
        0
  0
ENDBLK
  5
C2
330
BF
100
AcDbEntity
  8
0
100
AcDbBlockEnd
  0
ENDSEC
  0
SECTION
  2
ENTITIES
  0
SPLINE
  5
41
330
1F
100
AcDbEntity
  8
_U+30EC_U+30A4_U+30E4_U+30FC 1
 62
   179
420
  2234388
370
    25
100
AcDbSpline
210
0.0
220
0.0
230
1.0
 70
    11
 71
     3
 72
    53
 73
    49
 74
     0
 42
0.0000000001
 43
0.0000000001
 12
1.0
 22
0.0
 32
0.0
 13
1.0
 23
0.0
 33
0.0
 40
0.0
 40
0.0
 40
0.0
 40
0.0
 40
1.0
 40
1.0
 40
1.0
 40
2.0
 40
2.0
 40
2.0
 40
3.0
 40
3.0
 40
3.0
 40
4.0
 40
4.0
 40
4.0
 40
5.0
 40
5.0
 40
5.0
 40
6.0
 40
6.0
 40
6.0
 40
7.0
 40
7.0
 40
7.0
 40
8.0
 40
8.0
 40
8.0
 40
9.0
 40
9.0
 40
9.0
 40
10.0
 40
10.0
 40
10.0
 40
11.0
 40
11.0
 40
11.0
 40
12.0
 40
12.0
 40
12.0
 40
13.0
 40
13.0
 40
13.0
 40
14.0
 40
14.0
 40
14.0
 40
15.0
 40
15.0
 40
15.0
 40
16.0
 40
16.0
 40
16.0
 40
16.0
 10
68.84539296582992
 20
-127.1205794126644
 30
0.0
 10
68.84539296582992
 20
-127.1205794126644
 30
0.0
 10
68.84539296582992
 20
-117.120493581831
 30
0.0
 10
68.84539296582992
 20
-117.120493581831
 30
0.0
 10
68.84539296582992
 20
-117.120493581831
 30
0.0
 10
78.84480826627914
 20
-117.120493581831
 30
0.0
 10
78.84480826627914
 20
-117.120493581831
 30
0.0
 10
78.84480826627914
 20
-117.120493581831
 30
0.0
 10
78.84480826627914
 20
-102.6202685854561
 30
0.0
 10
78.84480826627914
 20
-102.6202685854561
 30
0.0
 10
78.84480826627914
 20
-102.6202685854561
 30
0.0
 10
79.84525275781634
 20
-102.6202685854561
 30
0.0
 10
79.84525275781634
 20
-102.6202685854561
 30
0.0
 10
79.84525275781634
 20
-102.6202685854561
 30
0.0
 10
79.84525275781634
 20
-118.120618581581
 30
0.0
 10
79.84525275781634
 20
-118.120618581581
 30
0.0
 10
79.84525275781634
 20
-118.120618581581
 30
0.0
 10
69.84551794031461
 20
-118.120618581581
 30
0.0
 10
69.84551794031461
 20
-118.120618581581
 30
0.0
 10
69.84551794031461
 20
-118.120618581581
 30
0.0
 10
69.84551794031461
 20
-127.1205794126644
 30
0.0
 10
69.84551794031461
 20
-127.1205794126644
 30
0.0
 10
69.84551794031461
 20
-137.6139896878188
 30
0.0
 10
78.34594720263561
 20
-146.120273296803
 30
0.0
 10
88.83935523351923
 20
-146.120273296803
 30
0.0
 10
88.83935523351923
 20
-146.120273296803
 30
0.0
 10
97.84623028151248
 20
-146.120273296803
 30
0.0
 10
97.84623028151248
 20
-146.120273296803
 30
0.0
 10
97.84623028151248
 20
-146.120273296803
 30
0.0
 10
97.84623028151248
 20
-136.1205402437474
 30
0.0
 10
97.84623028151248
 20
-136.1205402437474
 30
0.0
 10
97.84623028151248
 20
-136.1205402437474
 30
0.0
 10
113.34675627495
 20
-136.1205402437474
 30
0.0
 10
113.34675627495
 20
-136.1205402437474
 30
0.0
 10
113.34675627495
 20
-136.1205402437474
 30
0.0
 10
113.34675627495
 20
-137.1206652434977
 30
0.0
 10
113.34675627495
 20
-137.1206652434977
 30
0.0
 10
113.34675627495
 20
-137.1206652434977
 30
0.0
 10
98.84600247822839
 20
-137.1206652434977
 30
0.0
 10
98.84600247822839
 20
-137.1206652434977
 30
0.0
 10
98.84600247822839
 20
-137.1206652434977
 30
0.0
 10
98.84600247822839
 20
-147.1203982965532
 30
0.0
 10
98.84600247822839
 20
-147.1203982965532
 30
0.0
 10
98.84600247822839
 20
-147.1203982965532
 30
0.0
 10
88.8459169000185
 20
-147.1203982965532
 30
0.0
 10
88.8459169000185
 20
-147.1203982965532
 30
0.0
 10
77.79991579293657
 20
-147.1203982965532
 30
0.0
 10
68.84539296582992
 20
-138.1662280210139
 30
0.0
 10
68.84539296582992
 20
-127.1205794126644
 30
0.0
  0
HATCH
  5
42
330
1F
100
AcDbEntity
  8
_U+30EC_U+30A4_U+30E4_U+30FC 1
 62
   253
420
 10855845
100
AcDbHatch
 10
0.0
 20
0.0
 30
0.0
210
0.0
220
0.0
230
1.0
  2
SOLID
 70
     1
 71
     0
 91
        1
 92
        1
 93
        1
 72
     4
 94
        3
 73
     0
 74
     1
 95
       53
 96
       49
 40
0.0
 40
0.0
 40
0.0
 40
0.0
 40
1.0
 40
1.0
 40
1.0
 40
2.0
 40
2.0
 40
2.0
 40
3.0
 40
3.0
 40
3.0
 40
4.0
 40
4.0
 40
4.0
 40
5.0
 40
5.0
 40
5.0
 40
6.0
 40
6.0
 40
6.0
 40
7.0
 40
7.0
 40
7.0
 40
8.0
 40
8.0
 40
8.0
 40
9.0
 40
9.0
 40
9.0
 40
10.0
 40
10.0
 40
10.0
 40
11.0
 40
11.0
 40
11.0
 40
12.0
 40
12.0
 40
12.0
 40
13.0
 40
13.0
 40
13.0
 40
14.0
 40
14.0
 40
14.0
 40
15.0
 40
15.0
 40
15.0
 40
16.0
 40
16.0
 40
16.0
 40
16.0
 10
68.84539296582992
 20
-127.1205794126644
 10
68.84539296582992
 20
-127.1205794126644
 10
68.84539296582992
 20
-117.120493581831
 10
68.84539296582992
 20
-117.120493581831
 10
68.84539296582992
 20
-117.120493581831
 10
78.84480826627914
 20
-117.120493581831
 10
78.84480826627914
 20
-117.120493581831
 10
78.84480826627914
 20
-117.120493581831
 10
78.84480826627914
 20
-102.6202685854561
 10
78.84480826627914
 20
-102.6202685854561
 10
78.84480826627914
 20
-102.6202685854561
 10
79.84525275781634
 20
-102.6202685854561
 10
79.84525275781634
 20
-102.6202685854561
 10
79.84525275781634
 20
-102.6202685854561
 10
79.84525275781634
 20
-118.120618581581
 10
79.84525275781634
 20
-118.120618581581
 10
79.84525275781634
 20
-118.120618581581
 10
69.84551794031461
 20
-118.120618581581
 10
69.84551794031461
 20
-118.120618581581
 10
69.84551794031461
 20
-118.120618581581
 10
69.84551794031461
 20
-127.1205794126644
 10
69.84551794031461
 20
-127.1205794126644
 10
69.84551794031461
 20
-137.6139896878188
 10
78.34594720263561
 20
-146.120273296803
 10
88.83935523351923
 20
-146.120273296803
 10
88.83935523351923
 20
-146.120273296803
 10
97.84623028151248
 20
-146.120273296803
 10
97.84623028151248
 20
-146.120273296803
 10
97.84623028151248
 20
-146.120273296803
 10
97.84623028151248
 20
-136.1205402437474
 10
97.84623028151248
 20
-136.1205402437474
 10
97.84623028151248
 20
-136.1205402437474
 10
113.34675627495
 20
-136.1205402437474
 10
113.34675627495
 20
-136.1205402437474
 10
113.34675627495
 20
-136.1205402437474
 10
113.34675627495
 20
-137.1206652434977
 10
113.34675627495
 20
-137.1206652434977
 10
113.34675627495
 20
-137.1206652434977
 10
98.84600247822839
 20
-137.1206652434977
 10
98.84600247822839
 20
-137.1206652434977
 10
98.84600247822839
 20
-137.1206652434977
 10
98.84600247822839
 20
-147.1203982965532
 10
98.84600247822839
 20
-147.1203982965532
 10
98.84600247822839
 20
-147.1203982965532
 10
88.8459169000185
 20
-147.1203982965532
 10
88.8459169000185
 20
-147.1203982965532
 10
77.79991579293657
 20
-147.1203982965532
 10
68.84539296582992
 20
-138.1662280210139
 10
68.84539296582992
 20
-127.1205794126644
 97
        0
 97
        0
 75
     2
 76
     1
 98
        0
  0
POLYLINE
  5
43
330
1F
100
AcDbEntity
  8
_U+30EC_U+30A4_U+30E4_U+30FC 1
 62
   179
420
  2234388
370
     9
100
AcDb2dPolyline
 66
     1
 10
0.0
 20
0.0
 30
0.0
  0
VERTEX
  5
44
330
43
100
AcDbEntity
  8
_U+30EC_U+30A4_U+30E4_U+30FC 1
 62
   179
420
  2234388
370
     9
100
AcDbVertex
100
AcDb2dVertex
 10
68.84539296582992
 20
-151.9924357953351
 30
0.0
  0
VERTEX
  5
45
330
43
100
AcDbEntity
  8
_U+30EC_U+30A4_U+30E4_U+30FC 1
 62
   179
420
  2234388
370
     9
100
AcDbVertex
100
AcDb2dVertex
 10
98.7512463695347
 20
-151.9924357953351
 30
0.0
  0
SEQEND
  5
46
330
43
100
AcDbEntity
  8
_U+30EC_U+30A4_U+30E4_U+30FC 1
 62
   179
420
  2234388
370
     9
  0
POLYLINE
  5
47
330
1F
100
AcDbEntity
  8
_U+30EC_U+30A4_U+30E4_U+30FC 1
 62
   179
420
  2234388
370
     9
100
AcDb2dPolyline
 66
     1
 10
0.0
 20
0.0
 30
0.0
  0
VERTEX
  5
48
330
47
100
AcDbEntity
  8
_U+30EC_U+30A4_U+30E4_U+30FC 1
 62
   179
420
  2234388
370
     9
100
AcDbVertex
100
AcDb2dVertex
 10
68.84539296582992
 20
-154.1421930170201
 30
0.0
  0
VERTEX
  5
49
330
47
100
AcDbEntity
  8
_U+30EC_U+30A4_U+30E4_U+30FC 1
 62
   179
420
  2234388
370
     9
100
AcDbVertex
100
AcDb2dVertex
 10
68.84539296582992
 20
-132.8204805223504
 30
0.0
  0
SEQEND
  5
4A
330
47
100
AcDbEntity
  8
_U+30EC_U+30A4_U+30E4_U+30FC 1
 62
   179
420
  2234388
370
     9
  0
INSERT
  5
4C
330
1F
100
AcDbEntity
  8
_U+30EC_U+30A4_U+30E4_U+30FC 1
100
AcDbBlockReference
  2
block 2
 10
0.0
 20
0.0
 30
0.0
  0
POLYLINE
  5
54
330
1F
100
AcDbEntity
  8
_U+30EC_U+30A4_U+30E4_U+30FC 1
 62
   179
420
  2234388
370
     9
100
AcDb2dPolyline
 66
     1
 10
0.0
 20
0.0
 30
0.0
  0
VERTEX
  5
55
330
54
100
AcDbEntity
  8
_U+30EC_U+30A4_U+30E4_U+30FC 1
 62
   179
420
  2234388
370
     9
100
AcDbVertex
100
AcDb2dVertex
 10
88.84556412224971
 20
-153.9327135726278
 30
0.0
  0
VERTEX
  5
56
330
54
100
AcDbEntity
  8
_U+30EC_U+30A4_U+30E4_U+30FC 1
 62
   179
420
  2234388
370
     9
100
AcDbVertex
100
AcDb2dVertex
 10
88.84556412224971
 20
-150.9499421844849
 30
0.0
  0
SEQEND
  5
57
330
54
100
AcDbEntity
  8
_U+30EC_U+30A4_U+30E4_U+30FC 1
 62
   179
420
  2234388
370
     9
  0
POLYLINE
  5
58
330
1F
100
AcDbEntity
  8
_U+30EC_U+30A4_U+30E4_U+30FC 1
 62
   179
420
  2234388
370
     9
100
AcDb2dPolyline
 66
     1
 10
0.0
 20
0.0
 30
0.0
  0
VERTEX
  5
59
330
58
100
AcDbEntity
  8
_U+30EC_U+30A4_U+30E4_U+30FC 1
 62
   179
420
  2234388
370
     9
100
AcDbVertex
100
AcDb2dVertex
 10
98.84600247822839
 20
-153.9327135726278
 30
0.0
  0
VERTEX
  5
5A
330
58
100
AcDbEntity
  8
_U+30EC_U+30A4_U+30E4_U+30FC 1
 62
   179
420
  2234388
370
     9
100
AcDbVertex
100
AcDb2dVertex
 10
98.84600247822839
 20
-150.9499421844849
 30
0.0
  0
SEQEND
  5
5B
330
58
100
AcDbEntity
  8
_U+30EC_U+30A4_U+30E4_U+30FC 1
 62
   179
420
  2234388
370
     9
  0
INSERT
  5
5D
330
1F
100
AcDbEntity
  8
_U+30EC_U+30A4_U+30E4_U+30FC 1
100
AcDbBlockReference
  2
block 3
 10
0.0
 20
0.0
 30
0.0
  0
POLYLINE
  5
65
330
1F
100
AcDbEntity
  8
_U+30EC_U+30A4_U+30E4_U+30FC 1
 62
   179
420
  2234388
370
     9
100
AcDb2dPolyline
 66
     1
 10
0.0
 20
0.0
 30
0.0
  0
VERTEX
  5
66
330
65
100
AcDbEntity
  8
_U+30EC_U+30A4_U+30E4_U+30FC 1
 62
   179
420
  2234388
370
     9
100
AcDbVertex
100
AcDb2dVertex
 10
64.82429084619456
 20
-116.9699633040909
 30
0.0
  0
VERTEX
  5
67
330
65
100
AcDbEntity
  8
_U+30EC_U+30A4_U+30E4_U+30FC 1
 62
   179
420
  2234388
370
     9
100
AcDbVertex
100
AcDb2dVertex
 10
64.82429084619456
 20
-102.6202685854561
 30
0.0
  0
SEQEND
  5
68
330
65
100
AcDbEntity
  8
_U+30EC_U+30A4_U+30E4_U+30FC 1
 62
   179
420
  2234388
370
     9
  0
POLYLINE
  5
69
330
1F
100
AcDbEntity
  8
_U+30EC_U+30A4_U+30E4_U+30FC 1
 62
   179
420
  2234388
370
     9
100
AcDb2dPolyline
 66
     1
 10
0.0
 20
0.0
 30
0.0
  0
VERTEX
  5
6A
330
69
100
AcDbEntity
  8
_U+30EC_U+30A4_U+30E4_U+30FC 1
 62
   179
420
  2234388
370
     9
100
AcDbVertex
100
AcDb2dVertex
 10
64.82429084619456
 20
-147.1203982965532
 30
0.0
  0
VERTEX
  5
6B
330
69
100
AcDbEntity
  8
_U+30EC_U+30A4_U+30E4_U+30FC 1
 62
   179
420
  2234388
370
     9
100
AcDbVertex
100
AcDb2dVertex
 10
64.82429084619456
 20
-116.9699633040909
 30
0.0
  0
SEQEND
  5
6C
330
69
100
AcDbEntity
  8
_U+30EC_U+30A4_U+30E4_U+30FC 1
 62
   179
420
  2234388
370
     9
  0
POLYLINE
  5
6D
330
1F
100
AcDbEntity
  8
_U+30EC_U+30A4_U+30E4_U+30FC 1
 62
   179
420
  2234388
370
     9
100
AcDb2dPolyline
 66
     1
 10
0.0
 20
0.0
 30
0.0
  0
VERTEX
  5
6E
330
6D
100
AcDbEntity
  8
_U+30EC_U+30A4_U+30E4_U+30FC 1
 62
   179
420
  2234388
370
     9
100
AcDbVertex
100
AcDb2dVertex
 10
83.22352121012442
 20
-147.1203982965532
 30
0.0
  0
VERTEX
  5
6F
330
6D
100
AcDbEntity
  8
_U+30EC_U+30A4_U+30E4_U+30FC 1
 62
   179
420
  2234388
370
     9
100
AcDbVertex
100
AcDb2dVertex
 10
63.35186699487033
 20
-147.1203982965532
 30
0.0
  0
SEQEND
  5
70
330
6D
100
AcDbEntity
  8
_U+30EC_U+30A4_U+30E4_U+30FC 1
 62
   179
420
  2234388
370
     9
  0
POLYLINE
  5
71
330
1F
100
AcDbEntity
  8
_U+30EC_U+30A4_U+30E4_U+30FC 1
 62
   179
420
  2234388
370
     9
100
AcDb2dPolyline
 66
     1
 10
0.0
 20
0.0
 30
0.0
  0
VERTEX
  5
72
330
71
100
AcDbEntity
  8
_U+30EC_U+30A4_U+30E4_U+30FC 1
 62
   179
420
  2234388
370
     9
100
AcDbVertex
100
AcDb2dVertex
 10
68.23494631473704
 20
-117.120493581831
 30
0.0
  0
VERTEX
  5
73
330
71
100
AcDbEntity
  8
_U+30EC_U+30A4_U+30E4_U+30FC 1
 62
   179
420
  2234388
370
     9
100
AcDbVertex
100
AcDb2dVertex
 10
63.23058199796457
 20
-117.120493581831
 30
0.0
  0
SEQEND
  5
74
330
71
100
AcDbEntity
  8
_U+30EC_U+30A4_U+30E4_U+30FC 1
 62
   179
420
  2234388
370
     9
  0
POLYLINE
  5
75
330
1F
100
AcDbEntity
  8
_U+30EC_U+30A4_U+30E4_U+30FC 1
 62
   179
420
  2234388
370
     9
100
AcDb2dPolyline
 66
     1
 10
0.0
 20
0.0
 30
0.0
  0
VERTEX
  5
76
330
75
100
AcDbEntity
  8
_U+30EC_U+30A4_U+30E4_U+30FC 1
 62
   179
420
  2234388
370
     9
100
AcDbVertex
100
AcDb2dVertex
 10
74.09881838735943
 20
-102.6202685854561
 30
0.0
  0
VERTEX
  5
77
330
75
100
AcDbEntity
  8
_U+30EC_U+30A4_U+30E4_U+30FC 1
 62
   179
420
  2234388
370
     9
100
AcDbVertex
100
AcDb2dVertex
 10
63.23058199796457
 20
-102.6202685854561
 30
0.0
  0
SEQEND
  5
78
330
75
100
AcDbEntity
  8
_U+30EC_U+30A4_U+30E4_U+30FC 1
 62
   179
420
  2234388
370
     9
  0
INSERT
  5
7A
330
1F
100
AcDbEntity
  8
_U+30EC_U+30A4_U+30E4_U+30FC 1
100
AcDbBlockReference
  2
block 4
 10
0.0
 20
0.0
 30
0.0
  0
INSERT
  5
83
330
1F
100
AcDbEntity
  8
_U+30EC_U+30A4_U+30E4_U+30FC 1
100
AcDbBlockReference
  2
block 5
 10
0.0
 20
0.0
 30
0.0
  0
POLYLINE
  5
8A
330
1F
100
AcDbEntity
  8
_U+30EC_U+30A4_U+30E4_U+30FC 1
 62
   179
420
  2234388
370
     9
100
AcDb2dPolyline
 66
     1
 10
0.0
 20
0.0
 30
0.0
  0
VERTEX
  5
8B
330
8A
100
AcDbEntity
  8
_U+30EC_U+30A4_U+30E4_U+30FC 1
 62
   179
420
  2234388
370
     9
100
AcDbVertex
100
AcDb2dVertex
 10
74.64798754001562
 20
-140.9230099647693
 30
0.0
  0
VERTEX
  5
8C
330
8A
100
AcDbEntity
  8
_U+30EC_U+30A4_U+30E4_U+30FC 1
 62
   179
420
  2234388
370
     9
100
AcDbVertex
100
AcDb2dVertex
 10
75.55095751697894
 20
-140.4014280204555
 30
0.0
  0
SEQEND
  5
8D
330
8A
100
AcDbEntity
  8
_U+30EC_U+30A4_U+30E4_U+30FC 1
 62
   179
420
  2234388
370
     9
  0
POLYLINE
  5
8E
330
1F
100
AcDbEntity
  8
_U+30EC_U+30A4_U+30E4_U+30FC 1
 62
   179
420
  2234388
370
     9
100
AcDb2dPolyline
 66
     1
 10
0.0
 20
0.0
 30
0.0
  0
VERTEX
  5
8F
330
8E
100
AcDbEntity
  8
_U+30EC_U+30A4_U+30E4_U+30FC 1
 62
   179
420
  2234388
370
     9
100
AcDbVertex
100
AcDb2dVertex
 10
74.64798754001562
 20
-140.9230099647693
 30
0.0
  0
VERTEX
  5
90
330
8E
100
AcDbEntity
  8
_U+30EC_U+30A4_U+30E4_U+30FC 1
 62
   179
420
  2234388
370
     9
100
AcDbVertex
100
AcDb2dVertex
 10
88.8355805113933
 20
-126.2097071906697
 30
0.0
  0
SEQEND
  5
91
330
8E
100
AcDbEntity
  8
_U+30EC_U+30A4_U+30E4_U+30FC 1
 62
   179
420
  2234388
370
     9
  0
POLYLINE
  5
92
330
1F
100
AcDbEntity
  8
_U+30EC_U+30A4_U+30E4_U+30FC 1
 62
   179
420
  2234388
370
     9
100
AcDb2dPolyline
 66
     1
 10
0.0
 20
0.0
 30
0.0
  0
VERTEX
  5
93
330
92
100
AcDbEntity
  8
_U+30EC_U+30A4_U+30E4_U+30FC 1
 62
   179
420
  2234388
370
     9
100
AcDbVertex
100
AcDb2dVertex
 10
74.64798754001562
 20
-140.9230099647693
 30
0.0
  0
VERTEX
  5
94
330
92
100
AcDbEntity
  8
_U+30EC_U+30A4_U+30E4_U+30FC 1
 62
   179
420
  2234388
370
     9
100
AcDbVertex
100
AcDb2dVertex
 10
75.16956947115341
 20
-140.0200399649949
 30
0.0
  0
SEQEND
  5
95
330
92
100
AcDbEntity
  8
_U+30EC_U+30A4_U+30E4_U+30FC 1
 62
   179
420
  2234388
370
     9
  0
INSERT
  5
97
330
1F
100
AcDbEntity
  8
_U+30EC_U+30A4_U+30E4_U+30FC 1
100
AcDbBlockReference
  2
block 6
 10
0.0
 20
0.0
 30
0.0
  0
POLYLINE
  5
A2
330
1F
100
AcDbEntity
  8
_U+30EC_U+30A4_U+30E4_U+30FC 1
 62
   179
420
  2234388
370
     9
100
AcDb2dPolyline
 66
     1
 10
0.0
 20
0.0
 30
0.0
  0
VERTEX
  5
A3
330
A2
100
AcDbEntity
  8
_U+30EC_U+30A4_U+30E4_U+30FC 1
 62
   179
420
  2234388
370
     9
100
AcDbVertex
100
AcDb2dVertex
 10
117.5635471928314
 20
-137.1078946879452
 30
0.0
  0
VERTEX
  5
A4
330
A2
100
AcDbEntity
  8
_U+30EC_U+30A4_U+30E4_U+30FC 1
 62
   179
420
  2234388
370
     9
100
AcDbVertex
100
AcDb2dVertex
 10
117.5635471928314
 20
-136.0881552437554
 30
0.0
  0
SEQEND
  5
A5
330
A2
100
AcDbEntity
  8
_U+30EC_U+30A4_U+30E4_U+30FC 1
 62
   179
420
  2234388
370
     9
  0
POLYLINE
  5
A6
330
1F
100
AcDbEntity
  8
_U+30EC_U+30A4_U+30E4_U+30FC 1
 62
   179
420
  2234388
370
     9
100
AcDb2dPolyline
 66
     1
 10
0.0
 20
0.0
 30
0.0
  0
VERTEX
  5
A7
330
A6
100
AcDbEntity
  8
_U+30EC_U+30A4_U+30E4_U+30FC 1
 62
   179
420
  2234388
370
     9
100
AcDbVertex
100
AcDb2dVertex
 10
117.5628416372759
 20
-147.1114377409998
 30
0.0
  0
VERTEX
  5
A8
330
A6
100
AcDbEntity
  8
_U+30EC_U+30A4_U+30E4_U+30FC 1
 62
   179
420
  2234388
370
     9
100
AcDbVertex
100
AcDb2dVertex
 10
117.5628416372759
 20
-137.1078946879452
 30
0.0
  0
SEQEND
  5
A9
330
A6
100
AcDbEntity
  8
_U+30EC_U+30A4_U+30E4_U+30FC 1
 62
   179
420
  2234388
370
     9
  0
POLYLINE
  5
AA
330
1F
100
AcDbEntity
  8
_U+30EC_U+30A4_U+30E4_U+30FC 1
 62
   179
420
  2234388
370
     9
100
AcDb2dPolyline
 66
     1
 10
0.0
 20
0.0
 30
0.0
  0
VERTEX
  5
AB
330
AA
100
AcDbEntity
  8
_U+30EC_U+30A4_U+30E4_U+30FC 1
 62
   179
420
  2234388
370
     9
100
AcDbVertex
100
AcDb2dVertex
 10
118.915391636938
 20
-147.1203982965532
 30
0.0
  0
VERTEX
  5
AC
330
AA
100
AcDbEntity
  8
_U+30EC_U+30A4_U+30E4_U+30FC 1
 62
   179
420
  2234388
370
     9
100
AcDbVertex
100
AcDb2dVertex
 10
99.99595217111295
 20
-147.1203982965532
 30
0.0
  0
SEQEND
  5
AD
330
AA
100
AcDbEntity
  8
_U+30EC_U+30A4_U+30E4_U+30FC 1
 62
   179
420
  2234388
370
     9
  0
POLYLINE
  5
AE
330
1F
100
AcDbEntity
  8
_U+30EC_U+30A4_U+30E4_U+30FC 1
 62
   179
420
  2234388
370
     9
100
AcDb2dPolyline
 66
     1
 10
0.0
 20
0.0
 30
0.0
  0
VERTEX
  5
AF
330
AE
100
AcDbEntity
  8
_U+30EC_U+30A4_U+30E4_U+30FC 1
 62
   179
420
  2234388
370
     9
100
AcDbVertex
100
AcDb2dVertex
 10
119.5024461179053
 20
-137.1206652434977
 30
0.0
  0
VERTEX
  5
B0
330
AE
100
AcDbEntity
  8
_U+30EC_U+30A4_U+30E4_U+30FC 1
 62
   179
420
  2234388
370
     9
100
AcDbVertex
100
AcDb2dVertex
 10
114.4967059678346
 20
-137.1206652434977
 30
0.0
  0
SEQEND
  5
B1
330
AE
100
AcDbEntity
  8
_U+30EC_U+30A4_U+30E4_U+30FC 1
 62
   179
420
  2234388
370
     9
  0
POLYLINE
  5
B2
330
1F
100
AcDbEntity
  8
_U+30EC_U+30A4_U+30E4_U+30FC 1
 62
   179
420
  2234388
370
     9
100
AcDb2dPolyline
 66
     1
 10
0.0
 20
0.0
 30
0.0
  0
VERTEX
  5
B3
330
B2
100
AcDbEntity
  8
_U+30EC_U+30A4_U+30E4_U+30FC 1
 62
   179
420
  2234388
370
     9
100
AcDbVertex
100
AcDb2dVertex
 10
119.5024461179053
 20
-136.1205402437474
 30
0.0
  0
VERTEX
  5
B4
330
B2
100
AcDbEntity
  8
_U+30EC_U+30A4_U+30E4_U+30FC 1
 62
   179
420
  2234388
370
     9
100
AcDbVertex
100
AcDb2dVertex
 10
114.4967059678346
 20
-136.1205402437474
 30
0.0
  0
SEQEND
  5
B5
330
B2
100
AcDbEntity
  8
_U+30EC_U+30A4_U+30E4_U+30FC 1
 62
   179
420
  2234388
370
     9
  0
INSERT
  5
B7
330
1F
100
AcDbEntity
  8
_U+30EC_U+30A4_U+30E4_U+30FC 1
100
AcDbBlockReference
  2
block 7
 10
0.0
 20
0.0
 30
0.0
  0
INSERT
  5
C0
330
1F
100
AcDbEntity
  8
_U+30EC_U+30A4_U+30E4_U+30FC 1
100
AcDbBlockReference
  2
block 8
 10
0.0
 20
0.0
 30
0.0
  0
SPLINE
  5
C5
330
1F
100
AcDbEntity
  8
_U+30EC_U+30A4_U+30E4_U+30FC 1
 62
   179
420
  2234388
370
     9
100
AcDbSpline
210
0.0
220
0.0
230
1.0
 70
    11
 71
     3
 72
    17
 73
    13
 74
     0
 42
0.0000000001
 43
0.0000000001
 12
1.0
 22
0.0
 32
0.0
 13
1.0
 23
0.0
 33
0.0
 40
0.0
 40
0.0
 40
0.0
 40
0.0
 40
1.0
 40
1.0
 40
1.0
 40
2.0
 40
2.0
 40
2.0
 40
3.0
 40
3.0
 40
3.0
 40
4.0
 40
4.0
 40
4.0
 40
4.0
 10
64.92903056574465
 20
-102.6197394187894
 30
0.0
 10
64.92903056574465
 20
-102.5649883076919
 30
0.0
 10
64.88422778910989
 20
-102.5205383077033
 30
0.0
 10
64.82877112385803
 20
-102.5205383077033
 30
0.0
 10
64.77398473636687
 20
-102.5205383077033
 30
0.0
 10
64.72921723750898
 20
-102.5649883076919
 30
0.0
 10
64.72921723750898
 20
-102.6197394187894
 30
0.0
 10
64.72921723750898
 20
-102.6752313632199
 30
0.0
 10
64.77398473636687
 20
-102.7199988632088
 30
0.0
 10
64.82877112385803
 20
-102.7199988632088
 30
0.0
 10
64.88422778910989
 20
-102.7199988632088
 30
0.0
 10
64.92903056574465
 20
-102.6752313632199
 30
0.0
 10
64.92903056574465
 20
-102.6197394187894
 30
0.0
  0
SPLINE
  5
C6
330
1F
100
AcDbEntity
  8
_U+30EC_U+30A4_U+30E4_U+30FC 1
 62
   179
420
  2234388
370
     9
100
AcDbSpline
210
0.0
220
0.0
230
1.0
 70
    11
 71
     3
 72
    17
 73
    13
 74
     0
 42
0.0000000001
 43
0.0000000001
 12
1.0
 22
0.0
 32
0.0
 13
1.0
 23
0.0
 33
0.0
 40
0.0
 40
0.0
 40
0.0
 40
0.0
 40
1.0
 40
1.0
 40
1.0
 40
2.0
 40
2.0
 40
2.0
 40
3.0
 40
3.0
 40
3.0
 40
4.0
 40
4.0
 40
4.0
 40
4.0
 10
64.94557584310033
 20
-117.1187649707204
 30
0.0
 10
64.94557584310033
 20
-117.0636610818451
 30
0.0
 10
64.90077306646556
 20
-117.0188583040787
 30
0.0
 10
64.84566917898249
 20
-117.0188583040787
 30
0.0
 10
64.79088279149131
 20
-117.0188583040787
 30
0.0
 10
64.74608001485655
 20
-117.0636610818451
 30
0.0
 10
64.74608001485655
 20
-117.1187649707204
 30
0.0
 10
64.74608001485655
 20
-117.1745744151508
 30
0.0
 10
64.79088279149131
 20
-117.218671637362
 30
0.0
 10
64.84566917898249
 20
-117.218671637362
 30
0.0
 10
64.90077306646556
 20
-117.218671637362
 30
0.0
 10
64.94557584310033
 20
-117.1745744151508
 30
0.0
 10
64.94557584310033
 20
-117.1187649707204
 30
0.0
  0
SPLINE
  5
C7
330
1F
100
AcDbEntity
  8
_U+30EC_U+30A4_U+30E4_U+30FC 1
 62
   179
420
  2234388
370
     9
100
AcDbSpline
210
0.0
220
0.0
230
1.0
 70
    11
 71
     3
 72
    17
 73
    13
 74
     0
 42
0.0000000001
 43
0.0000000001
 12
1.0
 22
0.0
 32
0.0
 13
1.0
 23
0.0
 33
0.0
 40
0.0
 40
0.0
 40
0.0
 40
0.0
 40
1.0
 40
1.0
 40
1.0
 40
2.0
 40
2.0
 40
2.0
 40
3.0
 40
3.0
 40
3.0
 40
4.0
 40
4.0
 40
4.0
 40
4.0
 10
64.91798862158191
 20
-147.0811341298962
 30
0.0
 10
64.91798862158191
 20
-147.0259949632438
 30
0.0
 10
64.87322112272402
 20
-146.9818977410326
 30
0.0
 10
64.81808195746407
 20
-146.9818977410326
 30
0.0
 10
64.762978069981
 20
-146.9818977410326
 30
0.0
 10
64.71817529334623
 20
-147.0259949632438
 30
0.0
 10
64.71817529334623
 20
-147.0811341298962
 30
0.0
 10
64.71817529334623
 20
-147.1369435743267
 30
0.0
 10
64.762978069981
 20
-147.1817110743159
 30
0.0
 10
64.81808195746407
 20
-147.1817110743159
 30
0.0
 10
64.87322112272402
 20
-147.1817110743159
 30
0.0
 10
64.91798862158191
 20
-147.1369435743267
 30
0.0
 10
64.91798862158191
 20
-147.0811341298962
 30
0.0
  0
SPLINE
  5
C8
330
1F
100
AcDbEntity
  8
_U+30EC_U+30A4_U+30E4_U+30FC 1
 62
   179
420
  2234388
370
     9
100
AcDbSpline
210
0.0
220
0.0
230
1.0
 70
    11
 71
     3
 72
    17
 73
    13
 74
     0
 42
0.0000000001
 43
0.0000000001
 12
1.0
 22
0.0
 32
0.0
 13
1.0
 23
0.0
 33
0.0
 40
0.0
 40
0.0
 40
0.0
 40
0.0
 40
1.0
 40
1.0
 40
1.0
 40
2.0
 40
2.0
 40
2.0
 40
3.0
 40
3.0
 40
3.0
 40
4.0
 40
4.0
 40
4.0
 40
4.0
 10
68.96117462954275
 20
-151.9807235731159
 30
0.0
 10
68.96117462954275
 20
-151.925619684241
 30
0.0
 10
68.91637185290799
 20
-151.881169684252
 30
0.0
 10
68.86126796542491
 20
-151.881169684252
 30
0.0
 10
68.80613053835408
 20
-151.881169684252
 30
0.0
 10
68.76136130130708
 20
-151.925619684241
 30
0.0
 10
68.76136130130708
 20
-151.9807235731159
 30
0.0
 10
68.76136130130708
 20
-152.0365330175463
 30
0.0
 10
68.80613053835408
 20
-152.0809830175353
 30
0.0
 10
68.86126796542491
 20
-152.0809830175353
 30
0.0
 10
68.91637185290799
 20
-152.0809830175353
 30
0.0
 10
68.96117462954275
 20
-152.0365330175463
 30
0.0
 10
68.96117462954275
 20
-151.9807235731159
 30
0.0
  0
SPLINE
  5
C9
330
1F
100
AcDbEntity
  8
_U+30EC_U+30A4_U+30E4_U+30FC 1
 62
   179
420
  2234388
370
     9
100
AcDbSpline
210
0.0
220
0.0
230
1.0
 70
    11
 71
     3
 72
    17
 73
    13
 74
     0
 42
0.0000000001
 43
0.0000000001
 12
1.0
 22
0.0
 32
0.0
 13
1.0
 23
0.0
 33
0.0
 40
0.0
 40
0.0
 40
0.0
 40
0.0
 40
1.0
 40
1.0
 40
1.0
 40
2.0
 40
2.0
 40
2.0
 40
3.0
 40
3.0
 40
3.0
 40
4.0
 40
4.0
 40
4.0
 40
4.0
 10
88.96406217478213
 20
-151.9924357953351
 30
0.0
 10
88.96406217478213
 20
-151.9373319064602
 30
0.0
 10
88.91929467592425
 20
-151.8925291286935
 30
0.0
 10
88.86486106620185
 20
-151.8925291286935
 30
0.0
 10
88.80905162318122
 20
-151.8925291286935
 30
0.0
 10
88.76495440208402
 20
-151.9373319064602
 30
0.0
 10
88.76495440208402
 20
-151.9924357953351
 30
0.0
 10
88.76495440208402
 20
-152.0475749619882
 30
0.0
 10
88.80905162318122
 20
-152.0923424619768
 30
0.0
 10
88.86486106620185
 20
-152.0923424619768
 30
0.0
 10
88.91929467592425
 20
-152.0923424619768
 30
0.0
 10
88.96406217478213
 20
-152.0475749619882
 30
0.0
 10
88.96406217478213
 20
-151.9924357953351
 30
0.0
  0
SPLINE
  5
CA
330
1F
100
AcDbEntity
  8
_U+30EC_U+30A4_U+30E4_U+30FC 1
 62
   179
420
  2234388
370
     9
100
AcDbSpline
210
0.0
220
0.0
230
1.0
 70
    11
 71
     3
 72
    17
 73
    13
 74
     0
 42
0.0000000001
 43
0.0000000001
 12
1.0
 22
0.0
 32
0.0
 13
1.0
 23
0.0
 33
0.0
 40
0.0
 40
0.0
 40
0.0
 40
0.0
 40
1.0
 40
1.0
 40
1.0
 40
2.0
 40
2.0
 40
2.0
 40
3.0
 40
3.0
 40
3.0
 40
4.0
 40
4.0
 40
4.0
 40
4.0
 10
98.93867719808628
 20
-151.9924357953351
 30
0.0
 10
98.93867719808628
 20
-151.9373319064602
 30
0.0
 10
98.89352164368273
 20
-151.8925291286935
 30
0.0
 10
98.83877053396844
 20
-151.8925291286935
 30
0.0
 10
98.7836313687085
 20
-151.8925291286935
 30
0.0
 10
98.73882859207373
 20
-151.9373319064602
 30
0.0
 10
98.73882859207373
 20
-151.9924357953351
 30
0.0
 10
98.73882859207373
 20
-152.0475749619882
 30
0.0
 10
98.7836313687085
 20
-152.0923424619768
 30
0.0
 10
98.83877053396844
 20
-152.0923424619768
 30
0.0
 10
98.89352164368273
 20
-152.0923424619768
 30
0.0
 10
98.93867719808628
 20
-152.0475749619882
 30
0.0
 10
98.93867719808628
 20
-151.9924357953351
 30
0.0
  0
SPLINE
  5
CB
330
1F
100
AcDbEntity
  8
_U+30EC_U+30A4_U+30E4_U+30FC 1
 62
   179
420
  2234388
370
     9
100
AcDbSpline
210
0.0
220
0.0
230
1.0
 70
    11
 71
     3
 72
    17
 73
    13
 74
     0
 42
0.0000000001
 43
0.0000000001
 12
1.0
 22
0.0
 32
0.0
 13
1.0
 23
0.0
 33
0.0
 40
0.0
 40
0.0
 40
0.0
 40
0.0
 40
1.0
 40
1.0
 40
1.0
 40
2.0
 40
2.0
 40
2.0
 40
3.0
 40
3.0
 40
3.0
 40
4.0
 40
4.0
 40
4.0
 40
4.0
 10
117.6648267203424
 20
-147.1114377409998
 30
0.0
 10
117.6648267203424
 20
-147.0562985743474
 30
0.0
 10
117.6200239437076
 20
-147.0115310743581
 30
0.0
 10
117.5649200562246
 20
-147.0115310743581
 30
0.0
 10
117.5097808909646
 20
-147.0115310743581
 30
0.0
 10
117.4650133921067
 20
-147.0562985743474
 30
0.0
 10
117.4650133921067
 20
-147.1114377409998
 30
0.0
 10
117.4650133921067
 20
-147.1665416298754
 30
0.0
 10
117.5097808909646
 20
-147.2113444076414
 30
0.0
 10
117.5649200562246
 20
-147.2113444076414
 30
0.0
 10
117.6200239437076
 20
-147.2113444076414
 30
0.0
 10
117.6648267203424
 20
-147.1665416298754
 30
0.0
 10
117.6648267203424
 20
-147.1114377409998
 30
0.0
  0
SPLINE
  5
CC
330
1F
100
AcDbEntity
  8
_U+30EC_U+30A4_U+30E4_U+30FC 1
 62
   179
420
  2234388
370
     9
100
AcDbSpline
210
0.0
220
0.0
230
1.0
 70
    11
 71
     3
 72
    17
 73
    13
 74
     0
 42
0.0000000001
 43
0.0000000001
 12
1.0
 22
0.0
 32
0.0
 13
1.0
 23
0.0
 33
0.0
 40
0.0
 40
0.0
 40
0.0
 40
0.0
 40
1.0
 40
1.0
 40
1.0
 40
2.0
 40
2.0
 40
2.0
 40
3.0
 40
3.0
 40
3.0
 40
4.0
 40
4.0
 40
4.0
 40
4.0
 10
117.6648267203424
 20
-137.0858460768396
 30
0.0
 10
117.6648267203424
 20
-137.0307421879646
 30
0.0
 10
117.6200239437076
 20
-136.9859394101979
 30
0.0
 10
117.5649200562246
 20
-136.9859394101979
 30
0.0
 10
117.5097808909646
 20
-136.9859394101979
 30
0.0
 10
117.4650133921067
 20
-137.0307421879646
 30
0.0
 10
117.4650133921067
 20
-137.0858460768396
 30
0.0
 10
117.4650133921067
 20
-137.1406324657149
 30
0.0
 10
117.5097808909646
 20
-137.1857527434812
 30
0.0
 10
117.5649200562246
 20
-137.1857527434812
 30
0.0
 10
117.6200239437076
 20
-137.1857527434812
 30
0.0
 10
117.6648267203424
 20
-137.1406324657149
 30
0.0
 10
117.6648267203424
 20
-137.0858460768396
 30
0.0
  0
SPLINE
  5
CD
330
1F
100
AcDbEntity
  8
_U+30EC_U+30A4_U+30E4_U+30FC 1
 62
   179
420
  2234388
370
     9
100
AcDbSpline
210
0.0
220
0.0
230
1.0
 70
    11
 71
     3
 72
    17
 73
    13
 74
     0
 42
0.0000000001
 43
0.0000000001
 12
1.0
 22
0.0
 32
0.0
 13
1.0
 23
0.0
 33
0.0
 40
0.0
 40
0.0
 40
0.0
 40
0.0
 40
1.0
 40
1.0
 40
1.0
 40
2.0
 40
2.0
 40
2.0
 40
3.0
 40
3.0
 40
3.0
 40
4.0
 40
4.0
 40
4.0
 40
4.0
 10
117.6648267203424
 20
-136.134333854855
 30
0.0
 10
117.6648267203424
 20
-136.0791946882026
 30
0.0
 10
117.6200239437076
 20
-136.0344271882134
 30
0.0
 10
117.5649200562246
 20
-136.0344271882134
 30
0.0
 10
117.5097808909646
 20
-136.0344271882134
 30
0.0
 10
117.4650133921067
 20
-136.0791946882026
 30
0.0
 10
117.4650133921067
 20
-136.134333854855
 30
0.0
 10
117.4650133921067
 20
-136.1897905215083
 30
0.0
 10
117.5097808909646
 20
-136.2342405214973
 30
0.0
 10
117.5649200562246
 20
-136.2342405214973
 30
0.0
 10
117.6200239437076
 20
-136.2342405214973
 30
0.0
 10
117.6648267203424
 20
-136.1897905215083
 30
0.0
 10
117.6648267203424
 20
-136.134333854855
 30
0.0
  0
ENDSEC
  0
SECTION
  2
OBJECTS
  0
DICTIONARY
  5
C
330
0
100
AcDbDictionary
281
     1
  3
ACAD_GROUP
350
D
  3
ACAD_LAYOUT
350
1A
  3
ACAD_MATERIAL
350
3B
  3
ACAD_MLEADERSTYLE
350
CF
  3
ACAD_MLINESTYLE
350
17
  3
ACAD_PLOTSETTINGS
350
19
  3
ACAD_PLOTSTYLENAME
350
E
  3
ACAD_TABLESTYLE
350
CE
  3
ACAD_VISUALSTYLE
350
2A
  0
SUN
  5
3F
330
29
100
AcDbSun
 90
        1
290
     0
 63
     7
421
 16777215
 40
1.0
291
     1
 91
  2455826
 92
 54000000
292
     0
 70
     2
 71
   256
280
     1
  0
DICTIONARY
  5
D
102
{ACAD_REACTORS
330
C
102
}
330
C
100
AcDbDictionary
281
     1
  0
DICTIONARY
  5
1A
102
{ACAD_REACTORS
330
C
102
}
330
C
100
AcDbDictionary
281
     1
  3
Layout1
350
1E
  3
Layout2
350
26
  3
Model
350
22
  0
DICTIONARY
  5
3B
102
{ACAD_REACTORS
330
C
102
}
330
C
100
AcDbDictionary
281
     1
  3
ByBlock
350
3D
  3
ByLayer
350
3C
  3
Global
350
3E
  0
DICTIONARY
  5
CF
102
{ACAD_REACTORS
330
C
102
}
330
C
100
AcDbDictionary
281
     1
  0
DICTIONARY
  5
17
102
{ACAD_REACTORS
330
C
102
}
330
C
100
AcDbDictionary
281
     1
  3
Standard
350
18
  0
DICTIONARY
  5
19
102
{ACAD_REACTORS
330
C
102
}
330
C
100
AcDbDictionary
281
     1
  0
ACDBDICTIONARYWDFLT
  5
E
102
{ACAD_REACTORS
330
C
102
}
330
C
100
AcDbDictionary
281
     1
  3
Normal
350
F
100
AcDbDictionaryWithDefault
340
F
  0
DICTIONARY
  5
CE
102
{ACAD_REACTORS
330
C
102
}
330
C
100
AcDbDictionary
281
     1
  0
DICTIONARY
  5
2A
102
{ACAD_REACTORS
330
C
102
}
330
C
100
AcDbDictionary
281
     1
  3
2dWireframe
350
2F
  3
3D Hidden
350
31
  3
3dWireframe
350
30
  3
Basic
350
32
  3
Brighten
350
36
  3
ColorChange
350
3A
  3
Conceptual
350
34
  3
Dim
350
35
  3
Facepattern
350
39
  3
Flat
350
2B
  3
FlatWithEdges
350
2C
  3
Gouraud
350
2D
  3
GouraudWithEdges
350
2E
  3
Linepattern
350
38
  3
Realistic
350
33
  3
Thicken
350
37
  0
LAYOUT
  5
1E
102
{ACAD_REACTORS
330
1A
102
}
330
1A
100
AcDbPlotSettings
  1

  2
none_device
  4

  6

 40
0.0
 41
0.0
 42
0.0
 43
0.0
 44
0.0
 45
0.0
 46
0.0
 47
0.0
 48
0.0
 49
0.0
140
0.0
141
0.0
142
1.0
143
1.0
 70
   688
 72
     0
 73
     0
 74
     5
  7

 75
    16
 76
     0
 77
     2
 78
   300
147
1.0
148
0.0
149
0.0
100
AcDbLayout
  1
Layout1
 70
     1
 71
     1
 10
0.0
 20
0.0
 11
12.0
 21
9.0
 12
0.0
 22
0.0
 32
0.0
 14
1.000000000000000E+20
 24
1.000000000000000E+20
 34
1.000000000000000E+20
 15
-1.000000000000000E+20
 25
-1.000000000000000E+20
 35
-1.000000000000000E+20
146
0.0
 13
0.0
 23
0.0
 33
0.0
 16
1.0
 26
0.0
 36
0.0
 17
0.0
 27
1.0
 37
0.0
 76
     0
330
1B
  0
LAYOUT
  5
26
102
{ACAD_REACTORS
330
1A
102
}
330
1A
100
AcDbPlotSettings
  1

  2
none_device
  4

  6

 40
0.0
 41
0.0
 42
0.0
 43
0.0
 44
0.0
 45
0.0
 46
0.0
 47
0.0
 48
0.0
 49
0.0
140
0.0
141
0.0
142
1.0
143
1.0
 70
   688
 72
     0
 73
     0
 74
     5
  7

 75
    16
 76
     0
 77
     2
 78
   300
147
1.0
148
0.0
149
0.0
100
AcDbLayout
  1
Layout2
 70
     1
 71
     2
 10
0.0
 20
0.0
 11
0.0
 21
0.0
 12
0.0
 22
0.0
 32
0.0
 14
0.0
 24
0.0
 34
0.0
 15
0.0
 25
0.0
 35
0.0
146
0.0
 13
0.0
 23
0.0
 33
0.0
 16
1.0
 26
0.0
 36
0.0
 17
0.0
 27
1.0
 37
0.0
 76
     0
330
23
  0
LAYOUT
  5
22
102
{ACAD_REACTORS
330
1A
102
}
330
1A
100
AcDbPlotSettings
  1

  2
none_device
  4

  6

 40
0.0
 41
0.0
 42
0.0
 43
0.0
 44
0.0
 45
0.0
 46
0.0
 47
0.0
 48
0.0
 49
0.0
140
0.0
141
0.0
142
1.0
143
1.0
 70
  1712
 72
     0
 73
     0
 74
     0
  7

 75
     0
 76
     0
 77
     2
 78
   300
147
1.0
148
0.0
149
0.0
100
AcDbLayout
  1
Model
 70
     1
 71
     0
 10
0.0
 20
0.0
 11
12.0
 21
9.0
 12
0.0
 22
0.0
 32
0.0
 14
1.000000000000000E+20
 24
1.000000000000000E+20
 34
1.000000000000000E+20
 15
-1.000000000000000E+20
 25
-1.000000000000000E+20
 35
-1.000000000000000E+20
146
0.0
 13
0.0
 23
0.0
 33
0.0
 16
1.0
 26
0.0
 36
0.0
 17
0.0
 27
1.0
 37
0.0
 76
     0
330
1F
331
29
  0
MATERIAL
  5
3D
102
{ACAD_REACTORS
330
3B
102
}
330
3B
100
AcDbMaterial
  1
ByBlock
 72
     1
 94
      127
  0
MATERIAL
  5
3C
102
{ACAD_REACTORS
330
3B
102
}
330
3B
100
AcDbMaterial
  1
ByLayer
 72
     1
 94
      127
  0
MATERIAL
  5
3E
102
{ACAD_REACTORS
330
3B
102
}
330
3B
100
AcDbMaterial
  1
Global
 72
     1
 94
      127
  0
MLINESTYLE
  5
18
102
{ACAD_REACTORS
330
17
102
}
330
17
100
AcDbMlineStyle
  2
Standard
 70
     0
  3

 62
   256
 51
90.0
 52
90.0
 71
     2
 49
0.5
 62
   256
  6
BYLAYER
 49
-0.5
 62
   256
  6
BYLAYER
  0
ACDBPLACEHOLDER
  5
F
102
{ACAD_REACTORS
330
E
102
}
330
E
  0
VISUALSTYLE
  5
2F
102
{ACAD_REACTORS
330
2A
102
}
330
2A
100
AcDbVisualStyle
  2
2dWireframe
 70
     4
177
     2
291
     0
 71
     0
176
     1
 72
     2
176
     1
 73
     0
176
     1
 90
        0
176
     1
 40
-0.6
176
     1
 41
-30.0
176
     1
 62
     5
 63
     7
421
 16777215
176
     1
 74
     1
176
     1
 91
        4
176
     1
 64
     7
176
     1
 65
   257
176
     1
 75
     1
176
     1
175
     1
176
     1
 42
1.0
176
     1
 92
        0
176
     1
 66
   257
176
     1
 43
1.0
176
     1
 76
     1
176
     1
 77
     6
176
     1
 78
     2
176
     1
 67
     7
176
     1
 79
     5
176
     1
170
     0
176
     1
171
     0
176
     1
290
     0
176
     1
 93
        1
176
     1
 44
0.0
176
     1
173
     0
176
     1
  0
VISUALSTYLE
  5
31
102
{ACAD_REACTORS
330
2A
102
}
330
2A
100
AcDbVisualStyle
  2
3D Hidden
 70
     6
177
     2
291
     0
 71
     1
176
     1
 72
     2
176
     1
 73
     2
176
     1
 90
        0
176
     1
 40
-0.6
176
     1
 41
-30.0
176
     1
 62
     5
 63
     7
421
 16777215
176
     1
 74
     2
176
     1
 91
        2
176
     1
 64
     7
176
     1
 65
   257
176
     1
 75
     2
176
     1
175
     1
176
     1
 42
40.0
176
     1
 92
        0
176
     1
 66
   257
176
     1
 43
1.0
176
     1
 76
     1
176
     1
 77
     6
176
     1
 78
     2
176
     1
 67
     7
176
     1
 79
     3
176
     1
170
     0
176
     1
171
     0
176
     1
290
     0
176
     1
 93
        1
176
     1
 44
0.0
176
     1
173
     0
176
     1
  0
VISUALSTYLE
  5
30
102
{ACAD_REACTORS
330
2A
102
}
330
2A
100
AcDbVisualStyle
  2
3dWireframe
 70
     5
177
     2
291
     0
 71
     0
176
     1
 72
     2
176
     1
 73
     0
176
     1
 90
        0
176
     1
 40
-0.6
176
     1
 41
-30.0
176
     1
 62
     5
 63
     7
421
 16777215
176
     1
 74
     1
176
     1
 91
        4
176
     1
 64
     7
176
     1
 65
   257
176
     1
 75
     1
176
     1
175
     1
176
     1
 42
1.0
176
     1
 92
        0
176
     1
 66
   257
176
     1
 43
1.0
176
     1
 76
     1
176
     1
 77
     6
176
     1
 78
     2
176
     1
 67
     7
176
     1
 79
     5
176
     1
170
     0
176
     1
171
     0
176
     1
290
     0
176
     1
 93
        1
176
     1
 44
0.0
176
     1
173
     0
176
     1
  0
VISUALSTYLE
  5
32
102
{ACAD_REACTORS
330
2A
102
}
330
2A
100
AcDbVisualStyle
  2
Basic
 70
     7
177
     2
291
     1
 71
     1
176
     1
 72
     0
176
     1
 73
     1
176
     1
 90
        0
176
     1
 40
-0.6
176
     1
 41
-30.0
176
     1
 62
     5
 63
     7
421
 16777215
176
     1
 74
     0
176
     1
 91
        4
176
     1
 64
     7
176
     1
 65
   257
176
     1
 75
     1
176
     1
175
     1
176
     1
 42
1.0
176
     1
 92
        8
176
     1
 66
     7
176
     1
 43
1.0
176
     1
 76
     1
176
     1
 77
     6
176
     1
 78
     2
176
     1
 67
     7
176
     1
 79
     5
176
     1
170
     0
176
     1
171
     0
176
     1
290
     0
176
     1
 93
        1
176
     1
 44
0.0
176
     1
173
     0
176
     1
  0
VISUALSTYLE
  5
36
102
{ACAD_REACTORS
330
2A
102
}
330
2A
100
AcDbVisualStyle
  2
Brighten
 70
    12
177
     2
291
     1
 71
     2
176
     1
 72
     2
176
     1
 73
     0
176
     1
 90
        0
176
     1
 40
-0.6
176
     1
 41
-30.0
176
     1
 62
     5
 63
     7
421
 16777215
176
     1
 74
     1
176
     1
 91
        4
176
     1
 64
     7
176
     1
 65
   257
176
     1
 75
     1
176
     1
175
     1
176
     1
 42
1.0
176
     1
 92
        8
176
     1
 66
     7
176
     1
 43
1.0
176
     1
 76
     1
176
     1
 77
     6
176
     1
 78
     2
176
     1
 67
     7
176
     1
 79
     5
176
     1
170
     0
176
     1
171
     0
176
     1
290
     0
176
     1
 93
        1
176
     1
 44
50.0
176
     1
173
     0
176
     1
  0
VISUALSTYLE
  5
3A
102
{ACAD_REACTORS
330
2A
102
}
330
2A
100
AcDbVisualStyle
  2
ColorChange
 70
    16
177
     2
291
     1
 71
     2
176
     1
 72
     2
176
     1
 73
     3
176
     1
 90
        0
176
     1
 40
-0.6
176
     1
 41
-30.0
176
     1
 62
     5
 63
     8
421
  8421504
176
     1
 74
     1
176
     1
 91
        4
176
     1
 64
     7
176
     1
 65
   257
176
     1
 75
     1
176
     1
175
     1
176
     1
 42
1.0
176
     1
 92
        8
176
     1
 66
     8
424
  8421504
176
     1
 43
1.0
176
     1
 76
     1
176
     1
 77
     6
176
     1
 78
     2
176
     1
 67
     7
176
     1
 79
     5
176
     1
170
     0
176
     1
171
     0
176
     1
290
     0
176
     1
 93
        1
176
     1
 44
0.0
176
     1
173
     0
176
     1
  0
VISUALSTYLE
  5
34
102
{ACAD_REACTORS
330
2A
102
}
330
2A
100
AcDbVisualStyle
  2
Conceptual
 70
     9
177
     2
291
     0
 71
     3
176
     1
 72
     2
176
     1
 73
     0
176
     1
 90
        0
176
     1
 40
-0.6
176
     1
 41
-30.0
176
     1
 62
     5
 63
     7
421
 16777215
176
     1
 74
     2
176
     1
 91
        2
176
     1
 64
     7
176
     1
 65
   257
176
     1
 75
     1
176
     1
175
     1
176
     1
 42
40.0
176
     1
 92
        8
176
     1
 66
     7
176
     1
 43
1.0
176
     1
 76
     1
176
     1
 77
     6
176
     1
 78
     2
176
     1
 67
     7
176
     1
 79
     3
176
     1
170
     0
176
     1
171
     0
176
     1
290
     0
176
     1
 93
        1
176
     1
 44
0.0
176
     1
173
     0
176
     1
  0
VISUALSTYLE
  5
35
102
{ACAD_REACTORS
330
2A
102
}
330
2A
100
AcDbVisualStyle
  2
Dim
 70
    11
177
     2
291
     1
 71
     2
176
     1
 72
     2
176
     1
 73
     0
176
     1
 90
        0
176
     1
 40
-0.6
176
     1
 41
-30.0
176
     1
 62
     5
 63
     7
421
 16777215
176
     1
 74
     1
176
     1
 91
        4
176
     1
 64
     7
176
     1
 65
   257
176
     1
 75
     1
176
     1
175
     1
176
     1
 42
1.0
176
     1
 92
        8
176
     1
 66
     7
176
     1
 43
1.0
176
     1
 76
     1
176
     1
 77
     6
176
     1
 78
     2
176
     1
 67
     7
176
     1
 79
     5
176
     1
170
     0
176
     1
171
     0
176
     1
290
     0
176
     1
 93
        1
176
     1
 44
-50.0
176
     1
173
     0
176
     1
  0
VISUALSTYLE
  5
39
102
{ACAD_REACTORS
330
2A
102
}
330
2A
100
AcDbVisualStyle
  2
Facepattern
 70
    15
177
     2
291
     1
 71
     2
176
     1
 72
     2
176
     1
 73
     0
176
     1
 90
        0
176
     1
 40
-0.6
176
     1
 41
-30.0
176
     1
 62
     5
 63
     7
421
 16777215
176
     1
 74
     1
176
     1
 91
        4
176
     1
 64
     7
176
     1
 65
   257
176
     1
 75
     1
176
     1
175
     1
176
     1
 42
1.0
176
     1
 92
        8
176
     1
 66
     7
176
     1
 43
1.0
176
     1
 76
     1
176
     1
 77
     6
176
     1
 78
     2
176
     1
 67
     7
176
     1
 79
     5
176
     1
170
     0
176
     1
171
     0
176
     1
290
     0
176
     1
 93
        1
176
     1
 44
0.0
176
     1
173
     0
176
     1
  0
VISUALSTYLE
  5
2B
102
{ACAD_REACTORS
330
2A
102
}
330
2A
100
AcDbVisualStyle
  2
Flat
 70
     0
177
     2
291
     1
 71
     2
176
     1
 72
     1
176
     1
 73
     1
176
     1
 90
        2
176
     1
 40
-0.6
176
     1
 41
30.0
176
     1
 62
     5
 63
     7
421
 16777215
176
     1
 74
     0
176
     1
 91
        4
176
     1
 64
     7
176
     1
 65
   257
176
     1
 75
     1
176
     1
175
     1
176
     1
 42
1.0
176
     1
 92
        8
176
     1
 66
     7
176
     1
 43
1.0
176
     1
 76
     1
176
     1
 77
     6
176
     1
 78
     2
176
     1
 67
     7
176
     1
 79
     5
176
     1
170
     0
176
     1
171
     0
176
     1
290
     0
176
     1
 93
       13
176
     1
 44
0.0
176
     1
173
     0
176
     1
  0
VISUALSTYLE
  5
2C
102
{ACAD_REACTORS
330
2A
102
}
330
2A
100
AcDbVisualStyle
  2
FlatWithEdges
 70
     1
177
     2
291
     1
 71
     2
176
     1
 72
     1
176
     1
 73
     1
176
     1
 90
        2
176
     1
 40
-0.6
176
     1
 41
30.0
176
     1
 62
     5
 63
     7
421
 16777215
176
     1
 74
     1
176
     1
 91
        4
176
     1
 64
     7
176
     1
 65
   257
176
     1
 75
     1
176
     1
175
     1
176
     1
 42
1.0
176
     1
 92
        0
176
     1
 66
   257
176
     1
 43
1.0
176
     1
 76
     1
176
     1
 77
     6
176
     1
 78
     2
176
     1
 67
     7
176
     1
 79
     5
176
     1
170
     0
176
     1
171
     0
176
     1
290
     0
176
     1
 93
       13
176
     1
 44
0.0
176
     1
173
     0
176
     1
  0
VISUALSTYLE
  5
2D
102
{ACAD_REACTORS
330
2A
102
}
330
2A
100
AcDbVisualStyle
  2
Gouraud
 70
     2
177
     2
291
     1
 71
     2
176
     1
 72
     2
176
     1
 73
     1
176
     1
 90
        2
176
     1
 40
-0.6
176
     1
 41
30.0
176
     1
 62
     5
 63
     7
421
 16777215
176
     1
 74
     0
176
     1
 91
        4
176
     1
 64
     7
176
     1
 65
   257
176
     1
 75
     1
176
     1
175
     1
176
     1
 42
1.0
176
     1
 92
        0
176
     1
 66
     7
176
     1
 43
1.0
176
     1
 76
     1
176
     1
 77
     6
176
     1
 78
     2
176
     1
 67
     7
176
     1
 79
     5
176
     1
170
     0
176
     1
171
     0
176
     1
290
     0
176
     1
 93
       13
176
     1
 44
0.0
176
     1
173
     0
176
     1
  0
VISUALSTYLE
  5
2E
102
{ACAD_REACTORS
330
2A
102
}
330
2A
100
AcDbVisualStyle
  2
GouraudWithEdges
 70
     3
177
     2
291
     1
 71
     2
176
     1
 72
     2
176
     1
 73
     1
176
     1
 90
        2
176
     1
 40
-0.6
176
     1
 41
30.0
176
     1
 62
     5
 63
     7
421
 16777215
176
     1
 74
     1
176
     1
 91
        4
176
     1
 64
     7
176
     1
 65
   257
176
     1
 75
     1
176
     1
175
     1
176
     1
 42
1.0
176
     1
 92
        0
176
     1
 66
   257
176
     1
 43
1.0
176
     1
 76
     1
176
     1
 77
     6
176
     1
 78
     2
176
     1
 67
     7
176
     1
 79
     5
176
     1
170
     0
176
     1
171
     0
176
     1
290
     0
176
     1
 93
       13
176
     1
 44
0.0
176
     1
173
     0
176
     1
  0
VISUALSTYLE
  5
38
102
{ACAD_REACTORS
330
2A
102
}
330
2A
100
AcDbVisualStyle
  2
Linepattern
 70
    14
177
     2
291
     1
 71
     2
176
     1
 72
     2
176
     1
 73
     0
176
     1
 90
        0
176
     1
 40
-0.6
176
     1
 41
-30.0
176
     1
 62
     5
 63
     7
421
 16777215
176
     1
 74
     1
176
     1
 91
        4
176
     1
 64
     7
176
     1
 65
   257
176
     1
 75
     7
176
     1
175
     7
176
     1
 42
1.0
176
     1
 92
        8
176
     1
 66
     7
176
     1
 43
1.0
176
     1
 76
     1
176
     1
 77
     6
176
     1
 78
     2
176
     1
 67
     7
176
     1
 79
     5
176
     1
170
     0
176
     1
171
     0
176
     1
290
     0
176
     1
 93
        1
176
     1
 44
0.0
176
     1
173
     0
176
     1
  0
VISUALSTYLE
  5
33
102
{ACAD_REACTORS
330
2A
102
}
330
2A
100
AcDbVisualStyle
  2
Realistic
 70
     8
177
     2
291
     0
 71
     2
176
     1
 72
     2
176
     1
 73
     0
176
     1
 90
        0
176
     1
 40
-0.6
176
     1
 41
-30.0
176
     1
 62
     5
 63
     7
421
 16777215
176
     1
 74
     1
176
     1
 91
        0
176
     1
 64
     7
176
     1
 65
   257
176
     1
 75
     1
176
     1
175
     1
176
     1
 42
1.0
176
     1
 92
        8
176
     1
 66
     8
424
  7895160
176
     1
 43
1.0
176
     1
 76
     1
176
     1
 77
     6
176
     1
 78
     2
176
     1
 67
     7
176
     1
 79
     5
176
     1
170
     0
176
     1
171
     0
176
     1
290
     0
176
     1
 93
       13
176
     1
 44
0.0
176
     1
173
     0
176
     1
  0
VISUALSTYLE
  5
37
102
{ACAD_REACTORS
330
2A
102
}
330
2A
100
AcDbVisualStyle
  2
Thicken
 70
    13
177
     2
291
     1
 71
     2
176
     1
 72
     2
176
     1
 73
     0
176
     1
 90
        0
176
     1
 40
-0.6
176
     1
 41
-30.0
176
     1
 62
     5
 63
     7
421
 16777215
176
     1
 74
     1
176
     1
 91
        4
176
     1
 64
     7
176
     1
 65
   257
176
     1
 75
     1
176
     1
175
     1
176
     1
 42
1.0
176
     1
 92
       12
176
     1
 66
     7
176
     1
 43
1.0
176
     1
 76
     1
176
     1
 77
     6
176
     1
 78
     2
176
     1
 67
     7
176
     1
 79
     5
176
     1
170
     0
176
     1
171
     0
176
     1
290
     0
176
     1
 93
        1
176
     1
 44
0.0
176
     1
173
     0
176
     1
  0
ENDSEC
  0
EOF
