  0
SECTION
  2
HEADER
  9
$ACADVER
  1
AC1024
  9
$ACADMAINTVER
 70
     6
  9
$DWGCODEPAGE
  3
UNDEFINED
  9
$INSBASE
 10
0.0
 20
0.0
 30
0.0
  9
$EXTMIN
 10
1.000000000000000E+20
 20
1.000000000000000E+20
 30
1.000000000000000E+20
  9
$EXTMAX
 10
-1.000000000000000E+20
 20
-1.000000000000000E+20
 30
-1.000000000000000E+20
  9
$LIMMIN
 10
0.0
 20
0.0
  9
$LIMMAX
 10
12.0
 20
9.0
  9
$ORTHOMODE
 70
     0
  9
$REGENMODE
 70
     1
  9
$FILLMODE
 70
     1
  9
$QTEXTMODE
 70
     0
  9
$MIRRTEXT
 70
     1
  9
$LTSCALE
 40
1.0
  9
$ATTMODE
 70
     1
  9
$TEXTSIZE
 40
0.2
  9
$TRACEWID
 40
0.05
  9
$TEXTSTYLE
  7
Standard
  9
$CLAYER
  8
0
  9
$CELTYPE
  6
ByLayer
  9
$CECOLOR
 62
   256
  9
$CELTSCALE
 40
1.0
  9
$DISPSILH
 70
     0
  9
$DIMSCALE
 40
1.0
  9
$DIMASZ
 40
0.18
  9
$DIMEXO
 40
0.0625
  9
$DIMDLI
 40
0.38
  9
$DIMRND
 40
0.0
  9
$DIMDLE
 40
0.0
  9
$DIMEXE
 40
0.18
  9
$DIMTP
 40
0.0
  9
$DIMTM
 40
0.0
  9
$DIMTXT
 40
0.18
  9
$DIMCEN
 40
0.09
  9
$DIMTSZ
 40
0.0
  9
$DIMTOL
 70
     0
  9
$DIMLIM
 70
     0
  9
$DIMTIH
 70
     1
  9
$DIMTOH
 70
     1
  9
$DIMSE1
 70
     0
  9
$DIMSE2
 70
     0
  9
$DIMTAD
 70
     0
  9
$DIMZIN
 70
     0
  9
$DIMBLK
  1

  9
$DIMASO
 70
     1
  9
$DIMSHO
 70
     1
  9
$DIMPOST
  1

  9
$DIMAPOST
  1

  9
$DIMALT
 70
     0
  9
$DIMALTD
 70
     2
  9
$DIMALTF
 40
25.4
  9
$DIMLFAC
 40
1.0
  9
$DIMTOFL
 70
     0
  9
$DIMTVP
 40
0.0
  9
$DIMTIX
 70
     0
  9
$DIMSOXD
 70
     0
  9
$DIMSAH
 70
     0
  9
$DIMBLK1
  1

  9
$DIMBLK2
  1

  9
$DIMSTYLE
  2
Standard
  9
$DIMCLRD
 70
     0
  9
$DIMCLRE
 70
     0
  9
$DIMCLRT
 70
     0
  9
$DIMTFAC
 40
1.0
  9
$DIMGAP
 40
0.09
  9
$DIMJUST
 70
     0
  9
$DIMSD1
 70
     0
  9
$DIMSD2
 70
     0
  9
$DIMTOLJ
 70
     1
  9
$DIMTZIN
 70
     0
  9
$DIMALTZ
 70
     0
  9
$DIMALTTZ
 70
     0
  9
$DIMUPT
 70
     0
  9
$DIMDEC
 70
     4
  9
$DIMTDEC
 70
     4
  9
$DIMALTU
 70
     2
  9
$DIMALTTD
 70
     2
  9
$DIMTXSTY
  7
Standard
  9
$DIMAUNIT
 70
     0
  9
$DIMADEC
 70
     0
  9
$DIMALTRND
 40
0.0
  9
$DIMAZIN
 70
     0
  9
$DIMDSEP
 70
    46
  9
$DIMATFIT
 70
     3
  9
$DIMFRAC
 70
     0
  9
$DIMLDRBLK
  1

  9
$DIMLUNIT
 70
     2
  9
$DIMLWD
 70
    -2
  9
$DIMLWE
 70
    -2
  9
$DIMTMOVE
 70
     0
  9
$DIMFXL
 40
1.0
  9
$DIMFXLON
 70
     0
  9
$DIMJOGANG
 40
0.7853981633974483
  9
$DIMTFILL
 70
     0
  9
$DIMTFILLCLR
 70
     0
  9
$DIMARCSYM
 70
     0
  9
$DIMLTYPE
  6

  9
$DIMLTEX1
  6

  9
$DIMLTEX2
  6

  9
$DIMTXTDIRECTION
 70
     0
  9
$LUNITS
 70
     2
  9
$LUPREC
 70
     4
  9
$SKETCHINC
 40
0.1
  9
$FILLETRAD
 40
0.5
  9
$AUNITS
 70
     0
  9
$AUPREC
 70
     0
  9
$MENU
  1
.
  9
$ELEVATION
 40
0.0
  9
$PELEVATION
 40
0.0
  9
$THICKNESS
 40
0.0
  9
$LIMCHECK
 70
     0
  9
$CHAMFERA
 40
0.5
  9
$CHAMFERB
 40
0.5
  9
$CHAMFERC
 40
1.0
  9
$CHAMFERD
 40
0.0
  9
$SKPOLY
 70
     0
  9
$TDCREATE
 40
2457917.618113426
  9
$TDUCREATE
 40
2457917.243113426
  9
$TDUPDATE
 40
2457917.618113426
  9
$TDUUPDATE
 40
2457917.243113426
  9
$TDINDWG
 40
0.0000000116
  9
$TDUSRTIMER
 40
0.0000000116
  9
$USRTIMER
 70
     1
  9
$ANGBASE
 50
0.0
  9
$ANGDIR
 70
     0
  9
$PDMODE
 70
     0
  9
$PDSIZE
 40
0.0
  9
$PLINEWID
 40
0.0
  9
$SPLFRAME
 70
     0
  9
$SPLINETYPE
 70
     6
  9
$SPLINESEGS
 70
     8
  9
$HANDSEED
  5
A5
  9
$SURFTAB1
 70
     6
  9
$SURFTAB2
 70
     6
  9
$SURFTYPE
 70
     6
  9
$SURFU
 70
     6
  9
$SURFV
 70
     6
  9
$UCSBASE
  2

  9
$UCSNAME
  2

  9
$UCSORG
 10
0.0
 20
0.0
 30
0.0
  9
$UCSXDIR
 10
1.0
 20
0.0
 30
0.0
  9
$UCSYDIR
 10
0.0
 20
1.0
 30
0.0
  9
$UCSORTHOREF
  2

  9
$UCSORTHOVIEW
 70
     0
  9
$UCSORGTOP
 10
0.0
 20
0.0
 30
0.0
  9
$UCSORGBOTTOM
 10
0.0
 20
0.0
 30
0.0
  9
$UCSORGLEFT
 10
0.0
 20
0.0
 30
0.0
  9
$UCSORGRIGHT
 10
0.0
 20
0.0
 30
0.0
  9
$UCSORGFRONT
 10
0.0
 20
0.0
 30
0.0
  9
$UCSORGBACK
 10
0.0
 20
0.0
 30
0.0
  9
$PUCSBASE
  2

  9
$PUCSNAME
  2

  9
$PUCSORG
 10
0.0
 20
0.0
 30
0.0
  9
$PUCSXDIR
 10
1.0
 20
0.0
 30
0.0
  9
$PUCSYDIR
 10
0.0
 20
1.0
 30
0.0
  9
$PUCSORTHOREF
  2

  9
$PUCSORTHOVIEW
 70
     0
  9
$PUCSORGTOP
 10
0.0
 20
0.0
 30
0.0
  9
$PUCSORGBOTTOM
 10
0.0
 20
0.0
 30
0.0
  9
$PUCSORGLEFT
 10
0.0
 20
0.0
 30
0.0
  9
$PUCSORGRIGHT
 10
0.0
 20
0.0
 30
0.0
  9
$PUCSORGFRONT
 10
0.0
 20
0.0
 30
0.0
  9
$PUCSORGBACK
 10
0.0
 20
0.0
 30
0.0
  9
$USERI1
 70
     0
  9
$USERI2
 70
     0
  9
$USERI3
 70
     0
  9
$USERI4
 70
     0
  9
$USERI5
 70
     0
  9
$USERR1
 40
0.0
  9
$USERR2
 40
0.0
  9
$USERR3
 40
0.0
  9
$USERR4
 40
0.0
  9
$USERR5
 40
0.0
  9
$WORLDVIEW
 70
     1
  9
$SHADEDGE
 70
     3
  9
$SHADEDIF
 70
    70
  9
$TILEMODE
 70
     1
  9
$MAXACTVP
 70
    64
  9
$PINSBASE
 10
0.0
 20
0.0
 30
0.0
  9
$PLIMCHECK
 70
     0
  9
$PEXTMIN
 10
1.000000000000000E+20
 20
1.000000000000000E+20
 30
1.000000000000000E+20
  9
$PEXTMAX
 10
-1.000000000000000E+20
 20
-1.000000000000000E+20
 30
-1.000000000000000E+20
  9
$PLIMMIN
 10
0.0
 20
0.0
  9
$PLIMMAX
 10
12.0
 20
9.0
  9
$UNITMODE
 70
     0
  9
$VISRETAIN
 70
     1
  9
$PLINEGEN
 70
     0
  9
$PSLTSCALE
 70
     1
  9
$TREEDEPTH
 70
  3020
  9
$CMLSTYLE
  2
Standard
  9
$CMLJUST
 70
     0
  9
$CMLSCALE
 40
1.0
  9
$PROXYGRAPHICS
 70
     1
  9
$MEASUREMENT
 70
     0
  9
$CELWEIGHT
370
    -1
  9
$ENDCAPS
280
     0
  9
$JOINSTYLE
280
     0
  9
$LWDISPLAY
290
     1
  9
$INSUNITS
 70
     1
  9
$HYPERLINKBASE
  1

  9
$STYLESHEET
  1

  9
$XEDIT
290
     1
  9
$CEPSNTYPE
380
     0
  9
$PSTYLEMODE
290
     1
  9
$FINGERPRINTGUID
  2
{B6D447AC-95CA-52B3-E0B3-8D937BA8312C}
  9
$VERSIONGUID
  2
{FAEB1C32-E019-11D5-929B-00C0DF256EC4}
  9
$EXTNAMES
290
     1
  9
$PSVPSCALE
 40
0.0
  9
$OLESTARTUP
290
     0
  9
$SORTENTS
280
   127
  9
$INDEXCTL
280
     0
  9
$HIDETEXT
280
     1
  9
$XCLIPFRAME
280
     2
  9
$HALOGAP
280
     0
  9
$OBSCOLOR
 70
   257
  9
$OBSLTYPE
280
     0
  9
$INTERSECTIONDISPLAY
280
     0
  9
$INTERSECTIONCOLOR
 70
   257
  9
$DIMASSOC
280
     2
  9
$PROJECTNAME
  1

  9
$CAMERADISPLAY
290
     0
  9
$LENSLENGTH
 40
50.0
  9
$CAMERAHEIGHT
 40
0.0
  9
$STEPSPERSEC
 40
2.0
  9
$STEPSIZE
 40
6.0
  9
$3DDWFPREC
 40
2.0
  9
$PSOLWIDTH
 40
0.25
  9
$PSOLHEIGHT
 40
4.0
  9
$LOFTANG1
 40
1.570796326794897
  9
$LOFTANG2
 40
1.570796326794897
  9
$LOFTMAG1
 40
0.0
  9
$LOFTMAG2
 40
0.0
  9
$LOFTPARAM
 70
     7
  9
$LOFTNORMALS
280
     1
  9
$LATITUDE
 40
37.795
  9
$LONGITUDE
 40
-122.394
  9
$NORTHDIRECTION
 40
0.0
  9
$TIMEZONE
 70
 -8000
  9
$LIGHTGLYPHDISPLAY
280
     1
  9
$TILEMODELIGHTSYNCH
280
     1
  9
$CMATERIAL
347
3C
  9
$SOLIDHIST
280
     1
  9
$SHOWHIST
280
     1
  9
$DWFFRAME
280
     2
  9
$DGNFRAME
280
     2
  9
$REALWORLDSCALE
290
     1
  9
$INTERFERECOLOR
 62
   256
  9
$CSHADOW
280
     0
  9
$SHADOWPLANELOCATION
 40
0.0
  0
ENDSEC
  0
SECTION
  2
CLASSES
  0
CLASS
  1
ACDBDICTIONARYWDFLT
  2
AcDbDictionaryWithDefault
  3
ObjectDBX Classes
 90
        0
 91
        4
280
     0
281
     0
  0
CLASS
  1
VISUALSTYLE
  2
AcDbVisualStyle
  3
ObjectDBX Classes
 90
     4095
 91
        4
280
     0
281
     0
  0
CLASS
  1
MATERIAL
  2
AcDbMaterial
  3
ObjectDBX Classes
 90
     1153
 91
        4
280
     0
281
     0
  0
CLASS
  1
SUN
  2
AcDbSun
  3
SCENEOE
 90
     1024
 91
        4
280
     0
281
     0
  0
ENDSEC
  0
SECTION
  2
TABLES
  0
TABLE
  2
VPORT
  5
8
330
0
100
AcDbSymbolTable
 70
     1
  0
VPORT
  5
29
330
8
100
AcDbSymbolTableRecord
100
AcDbViewportTableRecord
  2
*Active
 70
     0
 10
0.0
 20
0.0
 11
1.0
 21
1.0
 12
0.0
 22
0.0
 13
0.0
 23
0.0
 14
0.5
 24
0.5
 15
0.5
 25
0.5
 16
0.0
 26
0.0
 36
1.0
 17
91.00082462281999
 27
-128.4993055234307
 37
0.0
 40
256.9986110468615
 41
0.7081814508812795
 42
50.0
 43
0.0
 44
0.0
 50
0.0
 51
0.0
 71
     0
 72
   100
 73
     1
 74
     3
 75
     0
 76
     0
 77
     0
 78
     0
281
     0
 65
     1
110
0.0
120
0.0
130
0.0
111
1.0
121
0.0
131
0.0
112
0.0
122
1.0
132
0.0
 79
     0
146
0.0
 60
     3
 61
     5
292
     1
282
     1
141
0.0
142
0.0
 63
   250
361
3F
  0
ENDTAB
  0
TABLE
  2
LTYPE
  5
5
330
0
100
AcDbSymbolTable
 70
     1
  0
LTYPE
  5
14
330
5
100
AcDbSymbolTableRecord
100
AcDbLinetypeTableRecord
  2
ByBlock
 70
     0
  3

 72
    65
 73
     0
 40
0.0
  0
LTYPE
  5
15
330
5
100
AcDbSymbolTableRecord
100
AcDbLinetypeTableRecord
  2
ByLayer
 70
     0
  3

 72
    65
 73
     0
 40
0.0
  0
LTYPE
  5
16
330
5
100
AcDbSymbolTableRecord
100
AcDbLinetypeTableRecord
  2
Continuous
 70
     0
  3
Solid line
 72
    65
 73
     0
 40
0.0
  0
ENDTAB
  0
TABLE
  2
LAYER
  5
2
330
0
100
AcDbSymbolTable
 70
     2
  0
LAYER
  5
10
330
2
100
AcDbSymbolTableRecord
100
AcDbLayerTableRecord
  2
0
 70
     0
 62
     7
  6
Continuous
370
    -3
390
F
347
3E
  0
LAYER
  5
40
330
2
100
AcDbSymbolTableRecord
100
AcDbLayerTableRecord
  2
_U+30EC_U+30A4_U+30E4_U+30FC 1
 70
     0
 62
     7
  6
Continuous
370
    -3
390
F
347
3E
  0
ENDTAB
  0
TABLE
  2
STYLE
  5
3
330
0
100
AcDbSymbolTable
 70
     1
  0
STYLE
  5
11
330
3
100
AcDbSymbolTableRecord
100
AcDbTextStyleTableRecord
  2
Standard
 70
     0
 40
0.0
 41
1.0
 50
0.0
 71
     0
 42
0.2
  3
txt
  4

  0
ENDTAB
  0
TABLE
  2
VIEW
  5
6
330
0
100
AcDbSymbolTable
 70
     0
  0
ENDTAB
  0
TABLE
  2
UCS
  5
7
330
0
100
AcDbSymbolTable
 70
     0
  0
ENDTAB
  0
TABLE
  2
APPID
  5
9
330
0
100
AcDbSymbolTable
 70
     1
  0
APPID
  5
12
330
9
100
AcDbSymbolTableRecord
100
AcDbRegAppTableRecord
  2
ACAD
 70
     0
  0
ENDTAB
  0
TABLE
  2
DIMSTYLE
  5
A
330
0
100
AcDbSymbolTable
 70
     1
100
AcDbDimStyleTable
  0
DIMSTYLE
105
27
330
A
100
AcDbSymbolTableRecord
100
AcDbDimStyleTableRecord
  2
Standard
 70
     0
178
     0
340
11
  0
ENDTAB
  0
TABLE
  2
BLOCK_RECORD
  5
1
330
0
100
AcDbSymbolTable
 70
     6
  0
BLOCK_RECORD
  5
1F
330
1
100
AcDbSymbolTableRecord
100
AcDbBlockTableRecord
  2
*Model_Space
340
22
 70
     0
280
     1
281
     0
  0
BLOCK_RECORD
  5
1B
330
1
100
AcDbSymbolTableRecord
100
AcDbBlockTableRecord
  2
*Paper_Space
340
1E
 70
     0
280
     1
281
     0
  0
BLOCK_RECORD
  5
23
330
1
100
AcDbSymbolTableRecord
100
AcDbBlockTableRecord
  2
*Paper_Space0
340
26
 70
     0
280
     1
281
     0
  0
BLOCK_RECORD
  5
63
330
1
100
AcDbSymbolTableRecord
100
AcDbBlockTableRecord
  2
block 2
340
0
102
{BLKREFS
331
64
102
}
 70
     0
280
     1
281
     0
  0
BLOCK_RECORD
  5
6C
330
1
100
AcDbSymbolTableRecord
100
AcDbBlockTableRecord
  2
block 3
340
0
102
{BLKREFS
331
6D
102
}
 70
     0
280
     1
281
     0
  0
BLOCK_RECORD
  5
75
330
1
100
AcDbSymbolTableRecord
100
AcDbBlockTableRecord
  2
block 4
340
0
102
{BLKREFS
331
76
102
}
 70
     0
280
     1
281
     0
  0
BLOCK_RECORD
  5
7B
330
1
100
AcDbSymbolTableRecord
100
AcDbBlockTableRecord
  2
block 5
340
0
102
{BLKREFS
331
7C
102
}
 70
     0
280
     1
281
     0
  0
BLOCK_RECORD
  5
94
330
1
100
AcDbSymbolTableRecord
100
AcDbBlockTableRecord
  2
block 6
340
0
102
{BLKREFS
331
95
102
}
 70
     0
280
     1
281
     0
  0
ENDTAB
  0
ENDSEC
  0
SECTION
  2
BLOCKS
  0
BLOCK
  5
20
330
1F
100
AcDbEntity
  8
0
100
AcDbBlockBegin
  2
*Model_Space
 70
     0
 10
0.0
 20
0.0
 30
0.0
  3
*Model_Space
  1

  0
ENDBLK
  5
21
330
1F
100
AcDbEntity
  8
0
100
AcDbBlockEnd
  0
BLOCK
  5
1C
330
1B
100
AcDbEntity
 67
     1
  8
0
100
AcDbBlockBegin
  2
*Paper_Space
 70
     0
 10
0.0
 20
0.0
 30
0.0
  3
*Paper_Space
  1

  0
ENDBLK
  5
1D
330
1B
100
AcDbEntity
 67
     1
  8
0
100
AcDbBlockEnd
  0
BLOCK
  5
24
330
23
100
AcDbEntity
  8
0
100
AcDbBlockBegin
  2
*Paper_Space0
 70
     0
 10
0.0
 20
0.0
 30
0.0
  3
*Paper_Space0
  1

  0
ENDBLK
  5
25
330
23
100
AcDbEntity
  8
0
100
AcDbBlockEnd
  0
BLOCK
  5
65
330
63
100
AcDbEntity
  8
0
100
AcDbBlockBegin
  2
block 2
 70
     0
 10
0.0
 20
0.0
 30
0.0
  3
block 2
  1

  0
SPLINE
  5
67
330
63
100
AcDbEntity
  8
_U+30EC_U+30A4_U+30E4_U+30FC 1
370
     0
100
AcDbSpline
210
0.0
220
0.0
230
1.0
 70
    11
 71
     3
 72
    44
 73
    40
 74
     0
 42
0.0000000001
 43
0.0000000001
 12
1.0
 22
0.0
 32
0.0
 13
1.0
 23
0.0
 33
0.0
 40
0.0
 40
0.0
 40
0.0
 40
0.0
 40
1.0
 40
1.0
 40
1.0
 40
2.0
 40
2.0
 40
2.0
 40
3.0
 40
3.0
 40
3.0
 40
4.0
 40
4.0
 40
4.0
 40
5.0
 40
5.0
 40
5.0
 40
6.0
 40
6.0
 40
6.0
 40
7.0
 40
7.0
 40
7.0
 40
8.0
 40
8.0
 40
8.0
 40
9.0
 40
9.0
 40
9.0
 40
10.0
 40
10.0
 40
10.0
 40
11.0
 40
11.0
 40
11.0
 40
12.0
 40
12.0
 40
12.0
 40
13.0
 40
13.0
 40
13.0
 40
13.0
 10
65.77479653303547
 20
-135.4783799574498
 30
0.0
 10
65.93344318013122
 20
-135.6692382473327
 30
0.0
 10
66.0075127330641
 20
-135.7505425007846
 30
0.0
 10
66.15134546957327
 20
-135.7932616848017
 30
0.0
 10
66.15134546957327
 20
-135.7932616848017
 30
0.0
 10
66.15134546957327
 20
-135.1118217978193
 30
0.0
 10
66.15134546957327
 20
-135.1118217978193
 30
0.0
 10
66.15134546957327
 20
-135.1118217978193
 30
0.0
 10
66.35650090571991
 20
-135.1118217978193
 30
0.0
 10
66.35650090571991
 20
-135.1118217978193
 30
0.0
 10
66.35650090571991
 20
-135.1118217978193
 30
0.0
 10
66.35650090571991
 20
-136.0116807385665
 30
0.0
 10
66.35650090571991
 20
-136.0116807385665
 30
0.0
 10
65.99889999435098
 20
-135.9841199746845
 30
0.0
 10
65.9206963268358
 20
-135.9265868800809
 30
0.0
 10
65.62235105781316
 20
-135.5896565416234
 30
0.0
 10
65.42356904831425
 20
-135.3653808255337
 30
0.0
 10
65.35587292202909
 20
-135.3081922404785
 30
0.0
 10
65.21841361216762
 20
-135.3081922404785
 30
0.0
 10
65.09990232747502
 20
-135.3081922404785
 30
0.0
 10
64.96864418948701
 20
-135.3708929783101
 30
0.0
 10
64.96864418948701
 20
-135.5431477525726
 30
0.0
 10
64.96864418948701
 20
-135.7712130736961
 30
0.0
 10
65.19929333222449
 20
-135.7784477742151
 30
0.0
 10
65.31573755962593
 20
-135.7822373792489
 30
0.0
 10
65.31573755962593
 20
-135.7822373792489
 30
0.0
 10
65.31573755962593
 20
-135.9786078219081
 30
0.0
 10
65.31573755962593
 20
-135.9786078219081
 30
0.0
 10
65.18878579099447
 20
-135.9710286118406
 30
0.0
 10
65.0766479329496
 20
-135.9617268540304
 30
0.0
 10
64.958136648257
 20
-135.8914469061313
 30
0.0
 10
64.79742294387009
 20
-135.7949842325443
 30
0.0
 10
64.76348875334038
 20
-135.632031216092
 30
0.0
 10
64.76348875334038
 20
-135.5304008992771
 30
0.0
 10
64.76348875334038
 20
-135.2878661771155
 30
0.0
 10
64.94762910702698
 20
-135.1063096450429
 30
0.0
 10
65.22048066945877
 20
-135.1063096450429
 30
0.0
 10
65.44889050013083
 20
-135.1063096450429
 30
0.0
 10
65.54845375965455
 20
-135.2082844714063
 30
0.0
 10
65.77479653303547
 20
-135.4783799574498
 30
0.0
  0
HATCH
  5
68
330
63
100
AcDbEntity
  8
_U+30EC_U+30A4_U+30E4_U+30FC 1
 62
   179
420
  2234388
100
AcDbHatch
 10
0.0
 20
0.0
 30
0.0
210
0.0
220
0.0
230
1.0
  2
SOLID
 70
     1
 71
     0
 91
        1
 92
        1
 93
        1
 72
     4
 94
        3
 73
     0
 74
     1
 95
       44
 96
       40
 40
0.0
 40
0.0
 40
0.0
 40
0.0
 40
1.0
 40
1.0
 40
1.0
 40
2.0
 40
2.0
 40
2.0
 40
3.0
 40
3.0
 40
3.0
 40
4.0
 40
4.0
 40
4.0
 40
5.0
 40
5.0
 40
5.0
 40
6.0
 40
6.0
 40
6.0
 40
7.0
 40
7.0
 40
7.0
 40
8.0
 40
8.0
 40
8.0
 40
9.0
 40
9.0
 40
9.0
 40
10.0
 40
10.0
 40
10.0
 40
11.0
 40
11.0
 40
11.0
 40
12.0
 40
12.0
 40
12.0
 40
13.0
 40
13.0
 40
13.0
 40
13.0
 10
65.77479653303547
 20
-135.4783799574498
 10
65.93344318013122
 20
-135.6692382473327
 10
66.0075127330641
 20
-135.7505425007846
 10
66.15134546957327
 20
-135.7932616848017
 10
66.15134546957327
 20
-135.7932616848017
 10
66.15134546957327
 20
-135.1118217978193
 10
66.15134546957327
 20
-135.1118217978193
 10
66.15134546957327
 20
-135.1118217978193
 10
66.35650090571991
 20
-135.1118217978193
 10
66.35650090571991
 20
-135.1118217978193
 10
66.35650090571991
 20
-135.1118217978193
 10
66.35650090571991
 20
-136.0116807385665
 10
66.35650090571991
 20
-136.0116807385665
 10
65.99889999435098
 20
-135.9841199746845
 10
65.9206963268358
 20
-135.9265868800809
 10
65.62235105781316
 20
-135.5896565416234
 10
65.42356904831425
 20
-135.3653808255337
 10
65.35587292202909
 20
-135.3081922404785
 10
65.21841361216762
 20
-135.3081922404785
 10
65.09990232747502
 20
-135.3081922404785
 10
64.96864418948701
 20
-135.3708929783101
 10
64.96864418948701
 20
-135.5431477525726
 10
64.96864418948701
 20
-135.7712130736961
 10
65.19929333222449
 20
-135.7784477742151
 10
65.31573755962593
 20
-135.7822373792489
 10
65.31573755962593
 20
-135.7822373792489
 10
65.31573755962593
 20
-135.9786078219081
 10
65.31573755962593
 20
-135.9786078219081
 10
65.18878579099447
 20
-135.9710286118406
 10
65.0766479329496
 20
-135.9617268540304
 10
64.958136648257
 20
-135.8914469061313
 10
64.79742294387009
 20
-135.7949842325443
 10
64.76348875334038
 20
-135.632031216092
 10
64.76348875334038
 20
-135.5304008992771
 10
64.76348875334038
 20
-135.2878661771155
 10
64.94762910702698
 20
-135.1063096450429
 10
65.22048066945877
 20
-135.1063096450429
 10
65.44889050013083
 20
-135.1063096450429
 10
65.54845375965455
 20
-135.2082844714063
 10
65.77479653303547
 20
-135.4783799574498
 97
        0
 97
        0
 75
     2
 76
     1
 98
        0
  0
SPLINE
  5
69
330
63
100
AcDbEntity
  8
_U+30EC_U+30A4_U+30E4_U+30FC 1
370
     0
100
AcDbSpline
210
0.0
220
0.0
230
1.0
 70
    11
 71
     3
 72
    29
 73
    25
 74
     0
 42
0.0000000001
 43
0.0000000001
 12
1.0
 22
0.0
 32
0.0
 13
1.0
 23
0.0
 33
0.0
 40
0.0
 40
0.0
 40
0.0
 40
0.0
 40
1.0
 40
1.0
 40
1.0
 40
2.0
 40
2.0
 40
2.0
 40
3.0
 40
3.0
 40
3.0
 40
4.0
 40
4.0
 40
4.0
 40
5.0
 40
5.0
 40
5.0
 40
6.0
 40
6.0
 40
6.0
 40
7.0
 40
7.0
 40
7.0
 40
8.0
 40
8.0
 40
8.0
 40
8.0
 10
66.17873397868101
 20
-134.1809569977048
 30
0.0
 10
66.3881957841842
 20
-134.2753526140006
 30
0.0
 10
66.40731606412734
 20
-134.4272813249001
 30
0.0
 10
66.40731606412734
 20
-134.5292561512635
 30
0.0
 10
66.40731606412734
 20
-134.6698160470617
 30
0.0
 10
66.36080727507647
 20
-134.7938394845307
 30
0.0
 10
66.17873397868101
 20
-134.8772107952738
 30
0.0
 10
65.98425833853867
 20
-134.9681613160843
 30
0.0
 10
65.74723576915348
 20
-134.9846977744135
 30
0.0
 10
65.58428275270116
 20
-134.9846977744135
 30
0.0
 10
65.44045001619197
 20
-134.9846977744135
 30
0.0
 10
65.18878579099447
 20
-134.969883863827
 30
0.0
 10
64.98983152672129
 20
-134.8772107952738
 30
0.0
 10
64.78674314786582
 20
-134.7828151789779
 30
0.0
 10
64.76348875334038
 20
-134.6422552831797
 30
0.0
 10
64.76348875334038
 20
-134.5292561512635
 30
0.0
 10
64.76348875334038
 20
-134.390418803208
 30
0.0
 10
64.8079304851001
 20
-134.2643283084478
 30
0.0
 10
64.98983152672129
 20
-134.1809569977048
 30
0.0
 10
65.18241236434676
 20
-134.0941405914765
 30
0.0
 10
65.41082219501882
 20
-134.073470018565
 30
0.0
 10
65.58428275270116
 20
-134.073470018565
 30
0.0
 10
65.75567625309233
 20
-134.073470018565
 30
0.0
 10
65.98632539582981
 20
-134.0920735341853
 30
0.0
 10
66.17873397868101
 20
-134.1809569977048
 30
0.0
  0
SPLINE
  5
6A
330
63
100
AcDbEntity
  8
_U+30EC_U+30A4_U+30E4_U+30FC 1
370
     0
100
AcDbSpline
210
0.0
220
0.0
230
1.0
 70
    11
 71
     3
 72
    17
 73
    13
 74
     0
 42
0.0000000001
 43
0.0000000001
 12
1.0
 22
0.0
 32
0.0
 13
1.0
 23
0.0
 33
0.0
 40
0.0
 40
0.0
 40
0.0
 40
0.0
 40
1.0
 40
1.0
 40
1.0
 40
2.0
 40
2.0
 40
2.0
 40
3.0
 40
3.0
 40
3.0
 40
4.0
 40
4.0
 40
4.0
 40
4.0
 10
64.95606959096585
 20
-134.5292561512635
 30
0.0
 10
64.95606959096585
 20
-134.7476752050284
 30
0.0
 10
65.23942869462765
 20
-134.7883273317543
 30
0.0
 10
65.58428275270116
 20
-134.7883273317543
 30
0.0
 10
65.90381535895807
 20
-134.7883273317543
 30
0.0
 10
66.21266816921073
 20
-134.7569769628385
 30
0.0
 10
66.21266816921073
 20
-134.5292561512635
 30
0.0
 10
66.21266816921073
 20
-134.3125596452413
 30
0.0
 10
65.93120386806581
 20
-134.2698404612242
 30
0.0
 10
65.58428275270116
 20
-134.2698404612242
 30
0.0
 10
65.2649224012185
 20
-134.2698404612242
 30
0.0
 10
64.95606959096585
 20
-134.3032578874311
 30
0.0
 10
64.95606959096585
 20
-134.5292561512635
 30
0.0
  0
HATCH
  5
6B
330
63
100
AcDbEntity
  8
_U+30EC_U+30A4_U+30E4_U+30FC 1
 62
   179
420
  2234388
100
AcDbHatch
 10
0.0
 20
0.0
 30
0.0
210
0.0
220
0.0
230
1.0
  2
SOLID
 70
     1
 71
     0
 91
        2
 92
        1
 93
        1
 72
     4
 94
        3
 73
     0
 74
     1
 95
       29
 96
       25
 40
0.0
 40
0.0
 40
0.0
 40
0.0
 40
1.0
 40
1.0
 40
1.0
 40
2.0
 40
2.0
 40
2.0
 40
3.0
 40
3.0
 40
3.0
 40
4.0
 40
4.0
 40
4.0
 40
5.0
 40
5.0
 40
5.0
 40
6.0
 40
6.0
 40
6.0
 40
7.0
 40
7.0
 40
7.0
 40
8.0
 40
8.0
 40
8.0
 40
8.0
 10
66.17873397868101
 20
-134.1809569977048
 10
66.3881957841842
 20
-134.2753526140006
 10
66.40731606412734
 20
-134.4272813249001
 10
66.40731606412734
 20
-134.5292561512635
 10
66.40731606412734
 20
-134.6698160470617
 10
66.36080727507647
 20
-134.7938394845307
 10
66.17873397868101
 20
-134.8772107952738
 10
65.98425833853867
 20
-134.9681613160843
 10
65.74723576915348
 20
-134.9846977744135
 10
65.58428275270116
 20
-134.9846977744135
 10
65.44045001619197
 20
-134.9846977744135
 10
65.18878579099447
 20
-134.969883863827
 10
64.98983152672129
 20
-134.8772107952738
 10
64.78674314786582
 20
-134.7828151789779
 10
64.76348875334038
 20
-134.6422552831797
 10
64.76348875334038
 20
-134.5292561512635
 10
64.76348875334038
 20
-134.390418803208
 10
64.8079304851001
 20
-134.2643283084478
 10
64.98983152672129
 20
-134.1809569977048
 10
65.18241236434676
 20
-134.0941405914765
 10
65.41082219501882
 20
-134.073470018565
 10
65.58428275270116
 20
-134.073470018565
 10
65.75567625309233
 20
-134.073470018565
 10
65.98632539582981
 20
-134.0920735341853
 10
66.17873397868101
 20
-134.1809569977048
 97
        0
 97
        0
 92
        1
 93
        1
 72
     4
 94
        3
 73
     0
 74
     1
 95
       17
 96
       13
 40
0.0
 40
0.0
 40
0.0
 40
0.0
 40
1.0
 40
1.0
 40
1.0
 40
2.0
 40
2.0
 40
2.0
 40
3.0
 40
3.0
 40
3.0
 40
4.0
 40
4.0
 40
4.0
 40
4.0
 10
64.95606959096585
 20
-134.5292561512635
 10
64.95606959096585
 20
-134.7476752050284
 10
65.23942869462765
 20
-134.7883273317543
 10
65.58428275270116
 20
-134.7883273317543
 10
65.90381535895807
 20
-134.7883273317543
 10
66.21266816921073
 20
-134.7569769628385
 10
66.21266816921073
 20
-134.5292561512635
 10
66.21266816921073
 20
-134.3125596452413
 10
65.93120386806581
 20
-134.2698404612242
 10
65.58428275270116
 20
-134.2698404612242
 10
65.2649224012185
 20
-134.2698404612242
 10
64.95606959096585
 20
-134.3032578874311
 10
64.95606959096585
 20
-134.5292561512635
 97
        0
 97
        0
 75
     2
 76
     1
 98
        0
  0
ENDBLK
  5
66
330
63
100
AcDbEntity
  8
0
100
AcDbBlockEnd
  0
BLOCK
  5
6E
330
6C
100
AcDbEntity
  8
0
100
AcDbBlockBegin
  2
block 3
 70
     0
 10
0.0
 20
0.0
 30
0.0
  3
block 3
  1

  0
SPLINE
  5
70
330
6C
100
AcDbEntity
  8
_U+30EC_U+30A4_U+30E4_U+30FC 1
370
     0
100
AcDbSpline
210
0.0
220
0.0
230
1.0
 70
    11
 71
     3
 72
    26
 73
    22
 74
     0
 42
0.0000000001
 43
0.0000000001
 12
1.0
 22
0.0
 32
0.0
 13
1.0
 23
0.0
 33
0.0
 40
0.0
 40
0.0
 40
0.0
 40
0.0
 40
1.0
 40
1.0
 40
1.0
 40
2.0
 40
2.0
 40
2.0
 40
3.0
 40
3.0
 40
3.0
 40
4.0
 40
4.0
 40
4.0
 40
5.0
 40
5.0
 40
5.0
 40
6.0
 40
6.0
 40
6.0
 40
7.0
 40
7.0
 40
7.0
 40
7.0
 10
116.6874511427031
 20
-140.3211506810655
 30
0.0
 10
116.6874511427031
 20
-140.3211506810655
 30
0.0
 10
115.582953530132
 20
-140.3211506810655
 30
0.0
 10
115.582953530132
 20
-140.3211506810655
 30
0.0
 10
115.582953530132
 20
-140.3211506810655
 30
0.0
 10
115.582953530132
 20
-140.610194192278
 30
0.0
 10
115.582953530132
 20
-140.610194192278
 30
0.0
 10
115.582953530132
 20
-140.610194192278
 30
0.0
 10
115.4348144242663
 20
-140.610194192278
 30
0.0
 10
115.4348144242663
 20
-140.610194192278
 30
0.0
 10
115.4203450232283
 20
-140.3194281333229
 30
0.0
 10
115.2570474972274
 20
-140.278776006597
 30
0.0
 10
115.1430148366656
 20
-140.2525932809091
 30
0.0
 10
115.1430148366656
 20
-140.2525932809091
 30
0.0
 10
115.1430148366656
 20
-140.1251247479548
 30
0.0
 10
115.1430148366656
 20
-140.1251247479548
 30
0.0
 10
115.1430148366656
 20
-140.1251247479548
 30
0.0
 10
116.6874511427031
 20
-140.1251247479548
 30
0.0
 10
116.6874511427031
 20
-140.1251247479548
 30
0.0
 10
116.6874511427031
 20
-140.1251247479548
 30
0.0
 10
116.6874511427031
 20
-140.3211506810655
 30
0.0
 10
116.6874511427031
 20
-140.3211506810655
 30
0.0
  0
HATCH
  5
71
330
6C
100
AcDbEntity
  8
_U+30EC_U+30A4_U+30E4_U+30FC 1
 62
   179
420
  2234388
100
AcDbHatch
 10
0.0
 20
0.0
 30
0.0
210
0.0
220
0.0
230
1.0
  2
SOLID
 70
     1
 71
     0
 91
        1
 92
        1
 93
        1
 72
     4
 94
        3
 73
     0
 74
     1
 95
       26
 96
       22
 40
0.0
 40
0.0
 40
0.0
 40
0.0
 40
1.0
 40
1.0
 40
1.0
 40
2.0
 40
2.0
 40
2.0
 40
3.0
 40
3.0
 40
3.0
 40
4.0
 40
4.0
 40
4.0
 40
5.0
 40
5.0
 40
5.0
 40
6.0
 40
6.0
 40
6.0
 40
7.0
 40
7.0
 40
7.0
 40
7.0
 10
116.6874511427031
 20
-140.3211506810655
 10
116.6874511427031
 20
-140.3211506810655
 10
115.582953530132
 20
-140.3211506810655
 10
115.582953530132
 20
-140.3211506810655
 10
115.582953530132
 20
-140.3211506810655
 10
115.582953530132
 20
-140.610194192278
 10
115.582953530132
 20
-140.610194192278
 10
115.582953530132
 20
-140.610194192278
 10
115.4348144242663
 20
-140.610194192278
 10
115.4348144242663
 20
-140.610194192278
 10
115.4203450232283
 20
-140.3194281333229
 10
115.2570474972274
 20
-140.278776006597
 10
115.1430148366656
 20
-140.2525932809091
 10
115.1430148366656
 20
-140.2525932809091
 10
115.1430148366656
 20
-140.1251247479548
 10
115.1430148366656
 20
-140.1251247479548
 10
115.1430148366656
 20
-140.1251247479548
 10
116.6874511427031
 20
-140.1251247479548
 10
116.6874511427031
 20
-140.1251247479548
 10
116.6874511427031
 20
-140.1251247479548
 10
116.6874511427031
 20
-140.3211506810655
 10
116.6874511427031
 20
-140.3211506810655
 97
        0
 97
        0
 75
     2
 76
     1
 98
        0
  0
SPLINE
  5
72
330
6C
100
AcDbEntity
  8
_U+30EC_U+30A4_U+30E4_U+30FC 1
370
     0
100
AcDbSpline
210
0.0
220
0.0
230
1.0
 70
    11
 71
     3
 72
    29
 73
    25
 74
     0
 42
0.0000000001
 43
0.0000000001
 12
1.0
 22
0.0
 32
0.0
 13
1.0
 23
0.0
 33
0.0
 40
0.0
 40
0.0
 40
0.0
 40
0.0
 40
1.0
 40
1.0
 40
1.0
 40
2.0
 40
2.0
 40
2.0
 40
3.0
 40
3.0
 40
3.0
 40
4.0
 40
4.0
 40
4.0
 40
5.0
 40
5.0
 40
5.0
 40
6.0
 40
6.0
 40
6.0
 40
7.0
 40
7.0
 40
7.0
 40
8.0
 40
8.0
 40
8.0
 40
8.0
 10
116.5096842156643
 20
-138.8997042838515
 30
0.0
 10
116.7191460211674
 20
-138.9940999001473
 30
0.0
 10
116.7380940463363
 20
-139.1460286110468
 30
0.0
 10
116.7380940463363
 20
-139.2480034374102
 30
0.0
 10
116.7380940463363
 20
-139.3885633332084
 30
0.0
 10
116.6915852572854
 20
-139.5125867706774
 30
0.0
 10
116.5096842156643
 20
-139.5959580814205
 30
0.0
 10
116.3150363207476
 20
-139.6869086022311
 30
0.0
 10
116.0780137513624
 20
-139.7034450605603
 30
0.0
 10
115.9150607349101
 20
-139.7034450605603
 30
0.0
 10
115.7710557436267
 20
-139.7034450605603
 30
0.0
 10
115.5195637732034
 20
-139.6886311499737
 30
0.0
 10
115.320437254156
 20
-139.5959580814205
 30
0.0
 10
115.1175211300748
 20
-139.5015624651246
 30
0.0
 10
115.0944389903236
 20
-139.3610025693264
 30
0.0
 10
115.0944389903236
 20
-139.2480034374102
 30
0.0
 10
115.0944389903236
 20
-139.1091660893547
 30
0.0
 10
115.1385362125348
 20
-138.9830755945945
 30
0.0
 10
115.320437254156
 20
-138.8997042838515
 30
0.0
 10
115.51336260133
 20
-138.8128878776232
 30
0.0
 10
115.7414279224535
 20
-138.7925618142602
 30
0.0
 10
115.9150607349101
 20
-138.7925618142602
 30
0.0
 10
116.0866264900756
 20
-138.7925618142602
 30
0.0
 10
116.3171033780388
 20
-138.810820820332
 30
0.0
 10
116.5096842156643
 20
-138.8997042838515
 30
0.0
  0
SPLINE
  5
73
330
6C
100
AcDbEntity
  8
_U+30EC_U+30A4_U+30E4_U+30FC 1
370
     0
100
AcDbSpline
210
0.0
220
0.0
230
1.0
 70
    11
 71
     3
 72
    17
 73
    13
 74
     0
 42
0.0000000001
 43
0.0000000001
 12
1.0
 22
0.0
 32
0.0
 13
1.0
 23
0.0
 33
0.0
 40
0.0
 40
0.0
 40
0.0
 40
0.0
 40
1.0
 40
1.0
 40
1.0
 40
2.0
 40
2.0
 40
2.0
 40
3.0
 40
3.0
 40
3.0
 40
4.0
 40
4.0
 40
4.0
 40
4.0
 10
115.2866753184006
 20
-139.2480034374102
 30
0.0
 10
115.2866753184006
 20
-139.4664224911751
 30
0.0
 10
115.5702066768366
 20
-139.507074617901
 30
0.0
 10
115.9150607349101
 20
-139.507074617901
 30
0.0
 10
116.2347655959413
 20
-139.507074617901
 30
0.0
 10
116.5434461514197
 20
-139.4757242489852
 30
0.0
 10
116.5434461514197
 20
-139.2480034374102
 30
0.0
 10
116.5434461514197
 20
-139.031306931388
 30
0.0
 10
116.2619818502748
 20
-138.9885877473709
 30
0.0
 10
115.9150607349101
 20
-138.9885877473709
 30
0.0
 10
115.5957003834275
 20
-138.9885877473709
 30
0.0
 10
115.2866753184006
 20
-139.0220051735778
 30
0.0
 10
115.2866753184006
 20
-139.2480034374102
 30
0.0
  0
HATCH
  5
74
330
6C
100
AcDbEntity
  8
_U+30EC_U+30A4_U+30E4_U+30FC 1
 62
   179
420
  2234388
100
AcDbHatch
 10
0.0
 20
0.0
 30
0.0
210
0.0
220
0.0
230
1.0
  2
SOLID
 70
     1
 71
     0
 91
        2
 92
        1
 93
        1
 72
     4
 94
        3
 73
     0
 74
     1
 95
       29
 96
       25
 40
0.0
 40
0.0
 40
0.0
 40
0.0
 40
1.0
 40
1.0
 40
1.0
 40
2.0
 40
2.0
 40
2.0
 40
3.0
 40
3.0
 40
3.0
 40
4.0
 40
4.0
 40
4.0
 40
5.0
 40
5.0
 40
5.0
 40
6.0
 40
6.0
 40
6.0
 40
7.0
 40
7.0
 40
7.0
 40
8.0
 40
8.0
 40
8.0
 40
8.0
 10
116.5096842156643
 20
-138.8997042838515
 10
116.7191460211674
 20
-138.9940999001473
 10
116.7380940463363
 20
-139.1460286110468
 10
116.7380940463363
 20
-139.2480034374102
 10
116.7380940463363
 20
-139.3885633332084
 10
116.6915852572854
 20
-139.5125867706774
 10
116.5096842156643
 20
-139.5959580814205
 10
116.3150363207476
 20
-139.6869086022311
 10
116.0780137513624
 20
-139.7034450605603
 10
115.9150607349101
 20
-139.7034450605603
 10
115.7710557436267
 20
-139.7034450605603
 10
115.5195637732034
 20
-139.6886311499737
 10
115.320437254156
 20
-139.5959580814205
 10
115.1175211300748
 20
-139.5015624651246
 10
115.0944389903236
 20
-139.3610025693264
 10
115.0944389903236
 20
-139.2480034374102
 10
115.0944389903236
 20
-139.1091660893547
 10
115.1385362125348
 20
-138.9830755945945
 10
115.320437254156
 20
-138.8997042838515
 10
115.51336260133
 20
-138.8128878776232
 10
115.7414279224535
 20
-138.7925618142602
 10
115.9150607349101
 20
-138.7925618142602
 10
116.0866264900756
 20
-138.7925618142602
 10
116.3171033780388
 20
-138.810820820332
 10
116.5096842156643
 20
-138.8997042838515
 97
        0
 97
        0
 92
        1
 93
        1
 72
     4
 94
        3
 73
     0
 74
     1
 95
       17
 96
       13
 40
0.0
 40
0.0
 40
0.0
 40
0.0
 40
1.0
 40
1.0
 40
1.0
 40
2.0
 40
2.0
 40
2.0
 40
3.0
 40
3.0
 40
3.0
 40
4.0
 40
4.0
 40
4.0
 40
4.0
 10
115.2866753184006
 20
-139.2480034374102
 10
115.2866753184006
 20
-139.4664224911751
 10
115.5702066768366
 20
-139.507074617901
 10
115.9150607349101
 20
-139.507074617901
 10
116.2347655959413
 20
-139.507074617901
 10
116.5434461514197
 20
-139.4757242489852
 10
116.5434461514197
 20
-139.2480034374102
 10
116.5434461514197
 20
-139.031306931388
 10
116.2619818502748
 20
-138.9885877473709
 10
115.9150607349101
 20
-138.9885877473709
 10
115.5957003834275
 20
-138.9885877473709
 10
115.2866753184006
 20
-139.0220051735778
 10
115.2866753184006
 20
-139.2480034374102
 97
        0
 97
        0
 75
     2
 76
     1
 98
        0
  0
ENDBLK
  5
6F
330
6C
100
AcDbEntity
  8
0
100
AcDbBlockEnd
  0
BLOCK
  5
77
330
75
100
AcDbEntity
  8
0
100
AcDbBlockBegin
  2
block 4
 70
     0
 10
0.0
 20
0.0
 30
0.0
  3
block 4
  1

  0
SPLINE
  5
79
330
75
100
AcDbEntity
  8
_U+30EC_U+30A4_U+30E4_U+30FC 1
370
     0
100
AcDbSpline
210
0.0
220
0.0
230
1.0
 70
    11
 71
     3
 72
    26
 73
    22
 74
     0
 42
0.0000000001
 43
0.0000000001
 12
1.0
 22
0.0
 32
0.0
 13
1.0
 23
0.0
 33
0.0
 40
0.0
 40
0.0
 40
0.0
 40
0.0
 40
1.0
 40
1.0
 40
1.0
 40
2.0
 40
2.0
 40
2.0
 40
3.0
 40
3.0
 40
3.0
 40
4.0
 40
4.0
 40
4.0
 40
5.0
 40
5.0
 40
5.0
 40
6.0
 40
6.0
 40
6.0
 40
7.0
 40
7.0
 40
7.0
 40
7.0
 10
116.6874511427031
 20
-132.1070095155844
 30
0.0
 10
116.6874511427031
 20
-132.1070095155844
 30
0.0
 10
115.582953530132
 20
-132.1070095155844
 30
0.0
 10
115.582953530132
 20
-132.1070095155844
 30
0.0
 10
115.582953530132
 20
-132.1070095155844
 30
0.0
 10
115.582953530132
 20
-132.3960530267968
 30
0.0
 10
115.582953530132
 20
-132.3960530267968
 30
0.0
 10
115.582953530132
 20
-132.3960530267968
 30
0.0
 10
115.4348144242663
 20
-132.3960530267968
 30
0.0
 10
115.4348144242663
 20
-132.3960530267968
 30
0.0
 10
115.4203450232283
 20
-132.1052869678417
 30
0.0
 10
115.2570474972274
 20
-132.0646348411158
 30
0.0
 10
115.1430148366656
 20
-132.0387966249764
 30
0.0
 10
115.1430148366656
 20
-132.0387966249764
 30
0.0
 10
115.1430148366656
 20
-131.9109835824736
 30
0.0
 10
115.1430148366656
 20
-131.9109835824736
 30
0.0
 10
115.1430148366656
 20
-131.9109835824736
 30
0.0
 10
116.6874511427031
 20
-131.9109835824736
 30
0.0
 10
116.6874511427031
 20
-131.9109835824736
 30
0.0
 10
116.6874511427031
 20
-131.9109835824736
 30
0.0
 10
116.6874511427031
 20
-132.1070095155844
 30
0.0
 10
116.6874511427031
 20
-132.1070095155844
 30
0.0
  0
HATCH
  5
7A
330
75
100
AcDbEntity
  8
_U+30EC_U+30A4_U+30E4_U+30FC 1
 62
   179
420
  2234388
100
AcDbHatch
 10
0.0
 20
0.0
 30
0.0
210
0.0
220
0.0
230
1.0
  2
SOLID
 70
     1
 71
     0
 91
        1
 92
        1
 93
        1
 72
     4
 94
        3
 73
     0
 74
     1
 95
       26
 96
       22
 40
0.0
 40
0.0
 40
0.0
 40
0.0
 40
1.0
 40
1.0
 40
1.0
 40
2.0
 40
2.0
 40
2.0
 40
3.0
 40
3.0
 40
3.0
 40
4.0
 40
4.0
 40
4.0
 40
5.0
 40
5.0
 40
5.0
 40
6.0
 40
6.0
 40
6.0
 40
7.0
 40
7.0
 40
7.0
 40
7.0
 10
116.6874511427031
 20
-132.1070095155844
 10
116.6874511427031
 20
-132.1070095155844
 10
115.582953530132
 20
-132.1070095155844
 10
115.582953530132
 20
-132.1070095155844
 10
115.582953530132
 20
-132.1070095155844
 10
115.582953530132
 20
-132.3960530267968
 10
115.582953530132
 20
-132.3960530267968
 10
115.582953530132
 20
-132.3960530267968
 10
115.4348144242663
 20
-132.3960530267968
 10
115.4348144242663
 20
-132.3960530267968
 10
115.4203450232283
 20
-132.1052869678417
 10
115.2570474972274
 20
-132.0646348411158
 10
115.1430148366656
 20
-132.0387966249764
 10
115.1430148366656
 20
-132.0387966249764
 10
115.1430148366656
 20
-131.9109835824736
 10
115.1430148366656
 20
-131.9109835824736
 10
115.1430148366656
 20
-131.9109835824736
 10
116.6874511427031
 20
-131.9109835824736
 10
116.6874511427031
 20
-131.9109835824736
 10
116.6874511427031
 20
-131.9109835824736
 10
116.6874511427031
 20
-132.1070095155844
 10
116.6874511427031
 20
-132.1070095155844
 97
        0
 97
        0
 75
     2
 76
     1
 98
        0
  0
ENDBLK
  5
78
330
75
100
AcDbEntity
  8
0
100
AcDbBlockEnd
  0
BLOCK
  5
7D
330
7B
100
AcDbEntity
  8
0
100
AcDbBlockBegin
  2
block 5
 70
     0
 10
0.0
 20
0.0
 30
0.0
  3
block 5
  1

  0
SPLINE
  5
7F
330
7B
100
AcDbEntity
  8
_U+30EC_U+30A4_U+30E4_U+30FC 1
370
     0
100
AcDbSpline
210
0.0
220
0.0
230
1.0
 70
    11
 71
     3
 72
    44
 73
    40
 74
     0
 42
0.0000000001
 43
0.0000000001
 12
1.0
 22
0.0
 32
0.0
 13
1.0
 23
0.0
 33
0.0
 40
0.0
 40
0.0
 40
0.0
 40
0.0
 40
1.0
 40
1.0
 40
1.0
 40
2.0
 40
2.0
 40
2.0
 40
3.0
 40
3.0
 40
3.0
 40
4.0
 40
4.0
 40
4.0
 40
5.0
 40
5.0
 40
5.0
 40
6.0
 40
6.0
 40
6.0
 40
7.0
 40
7.0
 40
7.0
 40
8.0
 40
8.0
 40
8.0
 40
9.0
 40
9.0
 40
9.0
 40
10.0
 40
10.0
 40
10.0
 40
11.0
 40
11.0
 40
11.0
 40
12.0
 40
12.0
 40
12.0
 40
13.0
 40
13.0
 40
13.0
 40
13.0
 10
65.77479653303547
 20
-115.7596869285254
 30
0.0
 10
65.93344318013122
 20
-115.9505452184082
 30
0.0
 10
66.0075127330641
 20
-116.0318494718601
 30
0.0
 10
66.15134546957327
 20
-116.0745686558772
 30
0.0
 10
66.15134546957327
 20
-116.0745686558772
 30
0.0
 10
66.15134546957327
 20
-115.3931287688948
 30
0.0
 10
66.15134546957327
 20
-115.3931287688948
 30
0.0
 10
66.15134546957327
 20
-115.3931287688948
 30
0.0
 10
66.35650090571991
 20
-115.3931287688948
 30
0.0
 10
66.35650090571991
 20
-115.3931287688948
 30
0.0
 10
66.35650090571991
 20
-115.3931287688948
 30
0.0
 10
66.35650090571991
 20
-116.292987709642
 30
0.0
 10
66.35650090571991
 20
-116.292987709642
 30
0.0
 10
65.99889999435098
 20
-116.26542694576
 30
0.0
 10
65.9206963268358
 20
-116.2078938511564
 30
0.0
 10
65.62235105781316
 20
-115.8709635126989
 30
0.0
 10
65.42356904831425
 20
-115.6466877966092
 30
0.0
 10
65.35587292202909
 20
-115.589499211554
 30
0.0
 10
65.21841361216762
 20
-115.589499211554
 30
0.0
 10
65.09990232747502
 20
-115.589499211554
 30
0.0
 10
64.96864418948701
 20
-115.6525444589341
 30
0.0
 10
64.96864418948701
 20
-115.8244547236481
 30
0.0
 10
64.96864418948701
 20
-116.0521755352231
 30
0.0
 10
65.19929333222449
 20
-116.0597547452906
 30
0.0
 10
65.31573755962593
 20
-116.0635443503244
 30
0.0
 10
65.31573755962593
 20
-116.0635443503244
 30
0.0
 10
65.31573755962593
 20
-116.2595702834351
 30
0.0
 10
65.31573755962593
 20
-116.2595702834351
 30
0.0
 10
65.18878579099447
 20
-116.2523355829161
 30
0.0
 10
65.0766479329496
 20
-116.2430338251059
 30
0.0
 10
64.958136648257
 20
-116.1727538772068
 30
0.0
 10
64.79742294387009
 20
-116.0762912036198
 30
0.0
 10
64.76348875334038
 20
-115.9133381871675
 30
0.0
 10
64.76348875334038
 20
-115.8117078703526
 30
0.0
 10
64.76348875334038
 20
-115.569173148191
 30
0.0
 10
64.94762910702698
 20
-115.3876166161184
 30
0.0
 10
65.22048066945877
 20
-115.3876166161184
 30
0.0
 10
65.44889050013083
 20
-115.3876166161184
 30
0.0
 10
65.54845375965455
 20
-115.4892469329333
 30
0.0
 10
65.77479653303547
 20
-115.7596869285254
 30
0.0
  0
HATCH
  5
80
330
7B
100
AcDbEntity
  8
_U+30EC_U+30A4_U+30E4_U+30FC 1
 62
   179
420
  2234388
100
AcDbHatch
 10
0.0
 20
0.0
 30
0.0
210
0.0
220
0.0
230
1.0
  2
SOLID
 70
     1
 71
     0
 91
        1
 92
        1
 93
        1
 72
     4
 94
        3
 73
     0
 74
     1
 95
       44
 96
       40
 40
0.0
 40
0.0
 40
0.0
 40
0.0
 40
1.0
 40
1.0
 40
1.0
 40
2.0
 40
2.0
 40
2.0
 40
3.0
 40
3.0
 40
3.0
 40
4.0
 40
4.0
 40
4.0
 40
5.0
 40
5.0
 40
5.0
 40
6.0
 40
6.0
 40
6.0
 40
7.0
 40
7.0
 40
7.0
 40
8.0
 40
8.0
 40
8.0
 40
9.0
 40
9.0
 40
9.0
 40
10.0
 40
10.0
 40
10.0
 40
11.0
 40
11.0
 40
11.0
 40
12.0
 40
12.0
 40
12.0
 40
13.0
 40
13.0
 40
13.0
 40
13.0
 10
65.77479653303547
 20
-115.7596869285254
 10
65.93344318013122
 20
-115.9505452184082
 10
66.0075127330641
 20
-116.0318494718601
 10
66.15134546957327
 20
-116.0745686558772
 10
66.15134546957327
 20
-116.0745686558772
 10
66.15134546957327
 20
-115.3931287688948
 10
66.15134546957327
 20
-115.3931287688948
 10
66.15134546957327
 20
-115.3931287688948
 10
66.35650090571991
 20
-115.3931287688948
 10
66.35650090571991
 20
-115.3931287688948
 10
66.35650090571991
 20
-115.3931287688948
 10
66.35650090571991
 20
-116.292987709642
 10
66.35650090571991
 20
-116.292987709642
 10
65.99889999435098
 20
-116.26542694576
 10
65.9206963268358
 20
-116.2078938511564
 10
65.62235105781316
 20
-115.8709635126989
 10
65.42356904831425
 20
-115.6466877966092
 10
65.35587292202909
 20
-115.589499211554
 10
65.21841361216762
 20
-115.589499211554
 10
65.09990232747502
 20
-115.589499211554
 10
64.96864418948701
 20
-115.6525444589341
 10
64.96864418948701
 20
-115.8244547236481
 10
64.96864418948701
 20
-116.0521755352231
 10
65.19929333222449
 20
-116.0597547452906
 10
65.31573755962593
 20
-116.0635443503244
 10
65.31573755962593
 20
-116.0635443503244
 10
65.31573755962593
 20
-116.2595702834351
 10
65.31573755962593
 20
-116.2595702834351
 10
65.18878579099447
 20
-116.2523355829161
 10
65.0766479329496
 20
-116.2430338251059
 10
64.958136648257
 20
-116.1727538772068
 10
64.79742294387009
 20
-116.0762912036198
 10
64.76348875334038
 20
-115.9133381871675
 10
64.76348875334038
 20
-115.8117078703526
 10
64.76348875334038
 20
-115.569173148191
 10
64.94762910702698
 20
-115.3876166161184
 10
65.22048066945877
 20
-115.3876166161184
 10
65.44889050013083
 20
-115.3876166161184
 10
65.54845375965455
 20
-115.4892469329333
 10
65.77479653303547
 20
-115.7596869285254
 97
        0
 97
        0
 75
     2
 76
     1
 98
        0
  0
SPLINE
  5
81
330
7B
100
AcDbEntity
  8
_U+30EC_U+30A4_U+30E4_U+30FC 1
370
     0
100
AcDbSpline
210
0.0
220
0.0
230
1.0
 70
    11
 71
     3
 72
    29
 73
    25
 74
     0
 42
0.0000000001
 43
0.0000000001
 12
1.0
 22
0.0
 32
0.0
 13
1.0
 23
0.0
 33
0.0
 40
0.0
 40
0.0
 40
0.0
 40
0.0
 40
1.0
 40
1.0
 40
1.0
 40
2.0
 40
2.0
 40
2.0
 40
3.0
 40
3.0
 40
3.0
 40
4.0
 40
4.0
 40
4.0
 40
5.0
 40
5.0
 40
5.0
 40
6.0
 40
6.0
 40
6.0
 40
7.0
 40
7.0
 40
7.0
 40
8.0
 40
8.0
 40
8.0
 40
8.0
 10
66.17873397868101
 20
-114.4622639687803
 30
0.0
 10
66.3881957841842
 20
-114.5566595850761
 30
0.0
 10
66.40731606412734
 20
-114.7085882959756
 30
0.0
 10
66.40731606412734
 20
-114.810563122339
 30
0.0
 10
66.40731606412734
 20
-114.9511230181372
 30
0.0
 10
66.36080727507647
 20
-115.0751464556062
 30
0.0
 10
66.17873397868101
 20
-115.1585177663493
 30
0.0
 10
65.98425833853867
 20
-115.2494682871599
 30
0.0
 10
65.74723576915348
 20
-115.2660047454891
 30
0.0
 10
65.58428275270116
 20
-115.2660047454891
 30
0.0
 10
65.44045001619197
 20
-115.2660047454891
 30
0.0
 10
65.18878579099447
 20
-115.2511908349025
 30
0.0
 10
64.98983152672129
 20
-115.1585177663493
 30
0.0
 10
64.78674314786582
 20
-115.0641221500534
 30
0.0
 10
64.76348875334038
 20
-114.9235622542552
 30
0.0
 10
64.76348875334038
 20
-114.810563122339
 30
0.0
 10
64.76348875334038
 20
-114.6717257742835
 30
0.0
 10
64.8079304851001
 20
-114.5456352795233
 30
0.0
 10
64.98983152672129
 20
-114.4622639687803
 30
0.0
 10
65.18241236434676
 20
-114.375447562552
 30
0.0
 10
65.41082219501882
 20
-114.355121499189
 30
0.0
 10
65.58428275270116
 20
-114.355121499189
 30
0.0
 10
65.75567625309233
 20
-114.355121499189
 30
0.0
 10
65.98632539582981
 20
-114.3733805052608
 30
0.0
 10
66.17873397868101
 20
-114.4622639687803
 30
0.0
  0
SPLINE
  5
82
330
7B
100
AcDbEntity
  8
_U+30EC_U+30A4_U+30E4_U+30FC 1
370
     0
100
AcDbSpline
210
0.0
220
0.0
230
1.0
 70
    11
 71
     3
 72
    17
 73
    13
 74
     0
 42
0.0000000001
 43
0.0000000001
 12
1.0
 22
0.0
 32
0.0
 13
1.0
 23
0.0
 33
0.0
 40
0.0
 40
0.0
 40
0.0
 40
0.0
 40
1.0
 40
1.0
 40
1.0
 40
2.0
 40
2.0
 40
2.0
 40
3.0
 40
3.0
 40
3.0
 40
4.0
 40
4.0
 40
4.0
 40
4.0
 10
64.95606959096585
 20
-114.810563122339
 30
0.0
 10
64.95606959096585
 20
-115.0289821761039
 30
0.0
 10
65.23942869462765
 20
-115.0696343028298
 30
0.0
 10
65.58428275270116
 20
-115.0696343028298
 30
0.0
 10
65.90381535895807
 20
-115.0696343028298
 30
0.0
 10
66.21266816921073
 20
-115.038283933914
 30
0.0
 10
66.21266816921073
 20
-114.810563122339
 30
0.0
 10
66.21266816921073
 20
-114.5938666163168
 30
0.0
 10
65.93120386806581
 20
-114.5511474322997
 30
0.0
 10
65.58428275270116
 20
-114.5511474322997
 30
0.0
 10
65.2649224012185
 20
-114.5511474322997
 30
0.0
 10
64.95606959096585
 20
-114.5845648585066
 30
0.0
 10
64.95606959096585
 20
-114.810563122339
 30
0.0
  0
HATCH
  5
83
330
7B
100
AcDbEntity
  8
_U+30EC_U+30A4_U+30E4_U+30FC 1
 62
   179
420
  2234388
100
AcDbHatch
 10
0.0
 20
0.0
 30
0.0
210
0.0
220
0.0
230
1.0
  2
SOLID
 70
     1
 71
     0
 91
        2
 92
        1
 93
        1
 72
     4
 94
        3
 73
     0
 74
     1
 95
       29
 96
       25
 40
0.0
 40
0.0
 40
0.0
 40
0.0
 40
1.0
 40
1.0
 40
1.0
 40
2.0
 40
2.0
 40
2.0
 40
3.0
 40
3.0
 40
3.0
 40
4.0
 40
4.0
 40
4.0
 40
5.0
 40
5.0
 40
5.0
 40
6.0
 40
6.0
 40
6.0
 40
7.0
 40
7.0
 40
7.0
 40
8.0
 40
8.0
 40
8.0
 40
8.0
 10
66.17873397868101
 20
-114.4622639687803
 10
66.3881957841842
 20
-114.5566595850761
 10
66.40731606412734
 20
-114.7085882959756
 10
66.40731606412734
 20
-114.810563122339
 10
66.40731606412734
 20
-114.9511230181372
 10
66.36080727507647
 20
-115.0751464556062
 10
66.17873397868101
 20
-115.1585177663493
 10
65.98425833853867
 20
-115.2494682871599
 10
65.74723576915348
 20
-115.2660047454891
 10
65.58428275270116
 20
-115.2660047454891
 10
65.44045001619197
 20
-115.2660047454891
 10
65.18878579099447
 20
-115.2511908349025
 10
64.98983152672129
 20
-115.1585177663493
 10
64.78674314786582
 20
-115.0641221500534
 10
64.76348875334038
 20
-114.9235622542552
 10
64.76348875334038
 20
-114.810563122339
 10
64.76348875334038
 20
-114.6717257742835
 10
64.8079304851001
 20
-114.5456352795233
 10
64.98983152672129
 20
-114.4622639687803
 10
65.18241236434676
 20
-114.375447562552
 10
65.41082219501882
 20
-114.355121499189
 10
65.58428275270116
 20
-114.355121499189
 10
65.75567625309233
 20
-114.355121499189
 10
65.98632539582981
 20
-114.3733805052608
 10
66.17873397868101
 20
-114.4622639687803
 97
        0
 97
        0
 92
        1
 93
        1
 72
     4
 94
        3
 73
     0
 74
     1
 95
       17
 96
       13
 40
0.0
 40
0.0
 40
0.0
 40
0.0
 40
1.0
 40
1.0
 40
1.0
 40
2.0
 40
2.0
 40
2.0
 40
3.0
 40
3.0
 40
3.0
 40
4.0
 40
4.0
 40
4.0
 40
4.0
 10
64.95606959096585
 20
-114.810563122339
 10
64.95606959096585
 20
-115.0289821761039
 10
65.23942869462765
 20
-115.0696343028298
 10
65.58428275270116
 20
-115.0696343028298
 10
65.90381535895807
 20
-115.0696343028298
 10
66.21266816921073
 20
-115.038283933914
 10
66.21266816921073
 20
-114.810563122339
 10
66.21266816921073
 20
-114.5938666163168
 10
65.93120386806581
 20
-114.5511474322997
 10
65.58428275270116
 20
-114.5511474322997
 10
65.2649224012185
 20
-114.5511474322997
 10
64.95606959096585
 20
-114.5845648585066
 10
64.95606959096585
 20
-114.810563122339
 97
        0
 97
        0
 75
     2
 76
     1
 98
        0
  0
ENDBLK
  5
7E
330
7B
100
AcDbEntity
  8
0
100
AcDbBlockEnd
  0
BLOCK
  5
96
330
94
100
AcDbEntity
  8
0
100
AcDbBlockBegin
  2
block 6
 70
     0
 10
0.0
 20
0.0
 30
0.0
  3
block 6
  1

  0
SPLINE
  5
98
330
94
100
AcDbEntity
  8
_U+30EC_U+30A4_U+30E4_U+30FC 1
370
     0
100
AcDbSpline
210
0.0
220
0.0
230
1.0
 70
    11
 71
     3
 72
    44
 73
    40
 74
     0
 42
0.0000000001
 43
0.0000000001
 12
1.0
 22
0.0
 32
0.0
 13
1.0
 23
0.0
 33
0.0
 40
0.0
 40
0.0
 40
0.0
 40
0.0
 40
1.0
 40
1.0
 40
1.0
 40
2.0
 40
2.0
 40
2.0
 40
3.0
 40
3.0
 40
3.0
 40
4.0
 40
4.0
 40
4.0
 40
5.0
 40
5.0
 40
5.0
 40
6.0
 40
6.0
 40
6.0
 40
7.0
 40
7.0
 40
7.0
 40
8.0
 40
8.0
 40
8.0
 40
9.0
 40
9.0
 40
9.0
 40
10.0
 40
10.0
 40
10.0
 40
11.0
 40
11.0
 40
11.0
 40
12.0
 40
12.0
 40
12.0
 40
13.0
 40
13.0
 40
13.0
 40
13.0
 10
66.21766355766434
 20
-150.8386826879848
 30
0.0
 10
66.1971652395271
 20
-150.7942409562251
 30
0.0
 10
66.17873397868101
 20
-150.7415309953007
 30
0.0
 10
66.17683917616412
 20
-150.510709597789
 30
0.0
 10
66.17322182590462
 20
-150.2674858565304
 30
0.0
 10
66.12137313885161
 20
-150.1975504181798
 30
0.0
 10
65.96582707769258
 20
-150.1975504181798
 30
0.0
 10
65.96582707769258
 20
-150.1975504181798
 30
0.0
 10
65.6083984210979
 20
-150.1975504181798
 30
0.0
 10
65.6083984210979
 20
-150.1975504181798
 30
0.0
 10
65.6083984210979
 20
-150.1975504181798
 30
0.0
 10
65.6083984210979
 20
-150.8386826879848
 30
0.0
 10
65.6083984210979
 20
-150.8386826879848
 30
0.0
 10
65.6083984210979
 20
-150.8386826879848
 30
0.0
 10
65.40289847540275
 20
-150.8386826879848
 30
0.0
 10
65.40289847540275
 20
-150.8386826879848
 30
0.0
 10
65.40289847540275
 20
-150.8386826879848
 30
0.0
 10
65.40289847540275
 20
-149.2942463819473
 30
0.0
 10
65.40289847540275
 20
-149.2942463819473
 30
0.0
 10
65.40289847540275
 20
-149.2942463819473
 30
0.0
 10
65.99356009634883
 20
-149.2942463819473
 30
0.0
 10
65.99356009634883
 20
-149.2942463819473
 30
0.0
 10
66.26210528942406
 20
-149.2942463819473
 30
0.0
 10
66.40834959277292
 20
-149.4658121371127
 30
0.0
 10
66.40834959277292
 20
-149.7217827316668
 30
0.0
 10
66.40834959277292
 20
-149.7724256353
 30
0.0
 10
66.40094263747963
 20
-149.8551079269459
 30
0.0
 10
66.3620130584963
 20
-149.9353786517523
 30
0.0
 10
66.31016437144329
 20
-150.0390760258583
 30
0.0
 10
66.25280353161389
 20
-150.0580240510272
 30
0.0
 10
66.19906004204398
 20
-150.0749050189049
 30
0.0
 10
66.31946612925347
 20
-150.1172796933735
 30
0.0
 10
66.37872177159977
 20
-150.1658555397155
 30
0.0
 10
66.38251137663354
 20
-150.4810817766158
 30
0.0
 10
66.38612872689305
 20
-150.7518662817565
 30
0.0
 10
66.41765135058309
 20
-150.7835611602208
 30
0.0
 10
66.47690699292939
 20
-150.8386826879848
 30
0.0
 10
66.47690699292939
 20
-150.8386826879848
 30
0.0
 10
66.21766355766434
 20
-150.8386826879848
 30
0.0
 10
66.21766355766434
 20
-150.8386826879848
 30
0.0
  0
SPLINE
  5
99
330
94
100
AcDbEntity
  8
_U+30EC_U+30A4_U+30E4_U+30FC 1
370
     0
100
AcDbSpline
210
0.0
220
0.0
230
1.0
 70
    11
 71
     3
 72
    20
 73
    16
 74
     0
 42
0.0000000001
 43
0.0000000001
 12
1.0
 22
0.0
 32
0.0
 13
1.0
 23
0.0
 33
0.0
 40
0.0
 40
0.0
 40
0.0
 40
0.0
 40
1.0
 40
1.0
 40
1.0
 40
2.0
 40
2.0
 40
2.0
 40
3.0
 40
3.0
 40
3.0
 40
4.0
 40
4.0
 40
4.0
 40
5.0
 40
5.0
 40
5.0
 40
5.0
 10
65.9973497013826
 20
-149.5057752447416
 30
0.0
 10
65.9973497013826
 20
-149.5057752447416
 30
0.0
 10
65.6083984210979
 20
-149.5057752447416
 30
0.0
 10
65.6083984210979
 20
-149.5057752447416
 30
0.0
 10
65.6083984210979
 20
-149.5057752447416
 30
0.0
 10
65.6083984210979
 20
-149.9860215553854
 30
0.0
 10
65.6083984210979
 20
-149.9860215553854
 30
0.0
 10
65.6083984210979
 20
-149.9860215553854
 30
0.0
 10
65.99545489886572
 20
-149.9860215553854
 30
0.0
 10
65.99545489886572
 20
-149.9860215553854
 30
0.0
 10
66.08244355986828
 20
-149.9860215553854
 30
0.0
 10
66.20095484456087
 20
-149.9098849451614
 30
0.0
 10
66.20095484456087
 20
-149.7386636995445
 30
0.0
 10
66.20095484456087
 20
-149.6604600320293
 30
0.0
 10
66.17132702338773
 20
-149.5057752447416
 30
0.0
 10
65.9973497013826
 20
-149.5057752447416
 30
0.0
  0
HATCH
  5
9A
330
94
100
AcDbEntity
  8
_U+30EC_U+30A4_U+30E4_U+30FC 1
 62
   179
420
  2234388
100
AcDbHatch
 10
0.0
 20
0.0
 30
0.0
210
0.0
220
0.0
230
1.0
  2
SOLID
 70
     1
 71
     0
 91
        2
 92
        1
 93
        1
 72
     4
 94
        3
 73
     0
 74
     1
 95
       44
 96
       40
 40
0.0
 40
0.0
 40
0.0
 40
0.0
 40
1.0
 40
1.0
 40
1.0
 40
2.0
 40
2.0
 40
2.0
 40
3.0
 40
3.0
 40
3.0
 40
4.0
 40
4.0
 40
4.0
 40
5.0
 40
5.0
 40
5.0
 40
6.0
 40
6.0
 40
6.0
 40
7.0
 40
7.0
 40
7.0
 40
8.0
 40
8.0
 40
8.0
 40
9.0
 40
9.0
 40
9.0
 40
10.0
 40
10.0
 40
10.0
 40
11.0
 40
11.0
 40
11.0
 40
12.0
 40
12.0
 40
12.0
 40
13.0
 40
13.0
 40
13.0
 40
13.0
 10
66.21766355766434
 20
-150.8386826879848
 10
66.1971652395271
 20
-150.7942409562251
 10
66.17873397868101
 20
-150.7415309953007
 10
66.17683917616412
 20
-150.510709597789
 10
66.17322182590462
 20
-150.2674858565304
 10
66.12137313885161
 20
-150.1975504181798
 10
65.96582707769258
 20
-150.1975504181798
 10
65.96582707769258
 20
-150.1975504181798
 10
65.6083984210979
 20
-150.1975504181798
 10
65.6083984210979
 20
-150.1975504181798
 10
65.6083984210979
 20
-150.1975504181798
 10
65.6083984210979
 20
-150.8386826879848
 10
65.6083984210979
 20
-150.8386826879848
 10
65.6083984210979
 20
-150.8386826879848
 10
65.40289847540275
 20
-150.8386826879848
 10
65.40289847540275
 20
-150.8386826879848
 10
65.40289847540275
 20
-150.8386826879848
 10
65.40289847540275
 20
-149.2942463819473
 10
65.40289847540275
 20
-149.2942463819473
 10
65.40289847540275
 20
-149.2942463819473
 10
65.99356009634883
 20
-149.2942463819473
 10
65.99356009634883
 20
-149.2942463819473
 10
66.26210528942406
 20
-149.2942463819473
 10
66.40834959277292
 20
-149.4658121371127
 10
66.40834959277292
 20
-149.7217827316668
 10
66.40834959277292
 20
-149.7724256353
 10
66.40094263747963
 20
-149.8551079269459
 10
66.3620130584963
 20
-149.9353786517523
 10
66.31016437144329
 20
-150.0390760258583
 10
66.25280353161389
 20
-150.0580240510272
 10
66.19906004204398
 20
-150.0749050189049
 10
66.31946612925347
 20
-150.1172796933735
 10
66.37872177159977
 20
-150.1658555397155
 10
66.38251137663354
 20
-150.4810817766158
 10
66.38612872689305
 20
-150.7518662817565
 10
66.41765135058309
 20
-150.7835611602208
 10
66.47690699292939
 20
-150.8386826879848
 10
66.47690699292939
 20
-150.8386826879848
 10
66.21766355766434
 20
-150.8386826879848
 10
66.21766355766434
 20
-150.8386826879848
 97
        0
 97
        0
 92
        1
 93
        1
 72
     4
 94
        3
 73
     0
 74
     1
 95
       20
 96
       16
 40
0.0
 40
0.0
 40
0.0
 40
0.0
 40
1.0
 40
1.0
 40
1.0
 40
2.0
 40
2.0
 40
2.0
 40
3.0
 40
3.0
 40
3.0
 40
4.0
 40
4.0
 40
4.0
 40
5.0
 40
5.0
 40
5.0
 40
5.0
 10
65.9973497013826
 20
-149.5057752447416
 10
65.9973497013826
 20
-149.5057752447416
 10
65.6083984210979
 20
-149.5057752447416
 10
65.6083984210979
 20
-149.5057752447416
 10
65.6083984210979
 20
-149.5057752447416
 10
65.6083984210979
 20
-149.9860215553854
 10
65.6083984210979
 20
-149.9860215553854
 10
65.6083984210979
 20
-149.9860215553854
 10
65.99545489886572
 20
-149.9860215553854
 10
65.99545489886572
 20
-149.9860215553854
 10
66.08244355986828
 20
-149.9860215553854
 10
66.20095484456087
 20
-149.9098849451614
 10
66.20095484456087
 20
-149.7386636995445
 10
66.20095484456087
 20
-149.6604600320293
 10
66.17132702338773
 20
-149.5057752447416
 10
65.9973497013826
 20
-149.5057752447416
 97
        0
 97
        0
 75
     2
 76
     1
 98
        0
  0
SPLINE
  5
9B
330
94
100
AcDbEntity
  8
_U+30EC_U+30A4_U+30E4_U+30FC 1
370
     0
100
AcDbSpline
210
0.0
220
0.0
230
1.0
 70
    11
 71
     3
 72
    26
 73
    22
 74
     0
 42
0.0000000001
 43
0.0000000001
 12
1.0
 22
0.0
 32
0.0
 13
1.0
 23
0.0
 33
0.0
 40
0.0
 40
0.0
 40
0.0
 40
0.0
 40
1.0
 40
1.0
 40
1.0
 40
2.0
 40
2.0
 40
2.0
 40
3.0
 40
3.0
 40
3.0
 40
4.0
 40
4.0
 40
4.0
 40
5.0
 40
5.0
 40
5.0
 40
6.0
 40
6.0
 40
6.0
 40
7.0
 40
7.0
 40
7.0
 40
7.0
 10
66.99504935391096
 20
-150.8386826879848
 30
0.0
 10
66.99504935391096
 20
-150.8386826879848
 30
0.0
 10
66.99504935391096
 20
-149.7345295849622
 30
0.0
 10
66.99504935391096
 20
-149.7345295849622
 30
0.0
 10
66.99504935391096
 20
-149.7345295849622
 30
0.0
 10
66.70617809747276
 20
-149.7345295849622
 30
0.0
 10
66.70617809747276
 20
-149.7345295849622
 30
0.0
 10
66.70617809747276
 20
-149.7345295849622
 30
0.0
 10
66.70617809747276
 20
-149.5863904790965
 30
0.0
 10
66.70617809747276
 20
-149.5863904790965
 30
0.0
 10
66.99694415642784
 20
-149.5715765685099
 30
0.0
 10
67.03776853792806
 20
-149.4086235520576
 30
0.0
 10
67.06360675406744
 20
-149.2942463819473
 30
0.0
 10
67.06360675406744
 20
-149.2942463819473
 30
0.0
 10
67.1914197965702
 20
-149.2942463819473
 30
0.0
 10
67.1914197965702
 20
-149.2942463819473
 30
0.0
 10
67.1914197965702
 20
-149.2942463819473
 30
0.0
 10
67.1914197965702
 20
-150.8386826879848
 30
0.0
 10
67.1914197965702
 20
-150.8386826879848
 30
0.0
 10
67.1914197965702
 20
-150.8386826879848
 30
0.0
 10
66.99504935391096
 20
-150.8386826879848
 30
0.0
 10
66.99504935391096
 20
-150.8386826879848
 30
0.0
  0
HATCH
  5
9C
330
94
100
AcDbEntity
  8
_U+30EC_U+30A4_U+30E4_U+30FC 1
 62
   179
420
  2234388
100
AcDbHatch
 10
0.0
 20
0.0
 30
0.0
210
0.0
220
0.0
230
1.0
  2
SOLID
 70
     1
 71
     0
 91
        1
 92
        1
 93
        1
 72
     4
 94
        3
 73
     0
 74
     1
 95
       26
 96
       22
 40
0.0
 40
0.0
 40
0.0
 40
0.0
 40
1.0
 40
1.0
 40
1.0
 40
2.0
 40
2.0
 40
2.0
 40
3.0
 40
3.0
 40
3.0
 40
4.0
 40
4.0
 40
4.0
 40
5.0
 40
5.0
 40
5.0
 40
6.0
 40
6.0
 40
6.0
 40
7.0
 40
7.0
 40
7.0
 40
7.0
 10
66.99504935391096
 20
-150.8386826879848
 10
66.99504935391096
 20
-150.8386826879848
 10
66.99504935391096
 20
-149.7345295849622
 10
66.99504935391096
 20
-149.7345295849622
 10
66.99504935391096
 20
-149.7345295849622
 10
66.70617809747276
 20
-149.7345295849622
 10
66.70617809747276
 20
-149.7345295849622
 10
66.70617809747276
 20
-149.7345295849622
 10
66.70617809747276
 20
-149.5863904790965
 10
66.70617809747276
 20
-149.5863904790965
 10
66.99694415642784
 20
-149.5715765685099
 10
67.03776853792806
 20
-149.4086235520576
 10
67.06360675406744
 20
-149.2942463819473
 10
67.06360675406744
 20
-149.2942463819473
 10
67.1914197965702
 20
-149.2942463819473
 10
67.1914197965702
 20
-149.2942463819473
 10
67.1914197965702
 20
-149.2942463819473
 10
67.1914197965702
 20
-150.8386826879848
 10
67.1914197965702
 20
-150.8386826879848
 10
67.1914197965702
 20
-150.8386826879848
 10
66.99504935391096
 20
-150.8386826879848
 10
66.99504935391096
 20
-150.8386826879848
 97
        0
 97
        0
 75
     2
 76
     1
 98
        0
  0
ENDBLK
  5
97
330
94
100
AcDbEntity
  8
0
100
AcDbBlockEnd
  0
ENDSEC
  0
SECTION
  2
ENTITIES
  0
SPLINE
  5
41
330
1F
100
AcDbEntity
  8
_U+30EC_U+30A4_U+30E4_U+30FC 1
 62
     7
420
 16777215
370
    25
100
AcDbSpline
210
0.0
220
0.0
230
1.0
 70
    11
 71
     3
 72
    53
 73
    49
 74
     0
 42
0.0000000001
 43
0.0000000001
 12
1.0
 22
0.0
 32
0.0
 13
1.0
 23
0.0
 33
0.0
 40
0.0
 40
0.0
 40
0.0
 40
0.0
 40
1.0
 40
1.0
 40
1.0
 40
2.0
 40
2.0
 40
2.0
 40
3.0
 40
3.0
 40
3.0
 40
4.0
 40
4.0
 40
4.0
 40
5.0
 40
5.0
 40
5.0
 40
6.0
 40
6.0
 40
6.0
 40
7.0
 40
7.0
 40
7.0
 40
8.0
 40
8.0
 40
8.0
 40
9.0
 40
9.0
 40
9.0
 40
10.0
 40
10.0
 40
10.0
 40
11.0
 40
11.0
 40
11.0
 40
12.0
 40
12.0
 40
12.0
 40
13.0
 40
13.0
 40
13.0
 40
14.0
 40
14.0
 40
14.0
 40
15.0
 40
15.0
 40
15.0
 40
16.0
 40
16.0
 40
16.0
 40
16.0
 10
80.69445738575733
 20
-125.0318174687421
 30
0.0
 10
80.69445738575733
 20
-125.0318174687421
 30
0.0
 10
80.69445738575733
 20
-105.1736035848177
 30
0.0
 10
80.69445738575733
 20
-105.1736035848177
 30
0.0
 10
80.69445738575733
 20
-105.1736035848177
 30
0.0
 10
81.5681468079121
 20
-105.1736035848177
 30
0.0
 10
81.5681468079121
 20
-105.1736035848177
 30
0.0
 10
81.5681468079121
 20
-105.1736035848177
 30
0.0
 10
81.5681468079121
 20
-126.028132468493
 30
0.0
 10
81.5681468079121
 20
-126.028132468493
 30
0.0
 10
81.5681468079121
 20
-126.028132468493
 30
0.0
 10
71.86883955536204
 20
-126.028132468493
 30
0.0
 10
71.86883955536204
 20
-126.028132468493
 30
0.0
 10
71.86883955536204
 20
-126.028132468493
 30
0.0
 10
71.86883955536204
 20
-143.0686044086775
 30
0.0
 10
71.86883955536204
 20
-143.0686044086775
 30
0.0
 10
71.86883955536204
 20
-143.0686044086775
 30
0.0
 10
71.73792372536865
 20
-144.0229035751053
 30
0.0
 10
72.65567509084374
 20
-144.0229035751053
 30
0.0
 10
72.65567509084374
 20
-144.0229035751053
 30
0.0
 10
89.78194442199896
 20
-144.0229035751053
 30
0.0
 10
89.78194442199896
 20
-144.0229035751053
 30
0.0
 10
89.78194442199896
 20
-144.0229035751053
 30
0.0
 10
89.78194442199896
 20
-133.9194891331865
 30
0.0
 10
89.78194442199896
 20
-133.9194891331865
 30
0.0
 10
89.78194442199896
 20
-133.9194891331865
 30
0.0
 10
110.4473463489201
 20
-133.9194891331865
 30
0.0
 10
110.4473463489201
 20
-133.9194891331865
 30
0.0
 10
110.4473463489201
 20
-133.9194891331865
 30
0.0
 10
110.4473463489201
 20
-134.8303613551812
 30
0.0
 10
110.4473463489201
 20
-134.8303613551812
 30
0.0
 10
110.4473463489201
 20
-134.8303613551812
 30
0.0
 10
90.69937601939948
 20
-134.8303613551812
 30
0.0
 10
90.69937601939948
 20
-134.8303613551812
 30
0.0
 10
90.69937601939948
 20
-134.8303613551812
 30
0.0
 10
90.69937601939948
 20
-144.7604913526986
 30
0.0
 10
90.69937601939948
 20
-144.7604913526986
 30
0.0
 10
90.69937601939948
 20
-144.7604913526986
 30
0.0
 10
72.52408898308968
 20
-145.0202769081892
 30
0.0
 10
72.52408898308968
 20
-145.0202769081892
 30
0.0
 10
72.52408898308968
 20
-145.0202769081892
 30
0.0
 10
70.8638833156173
 20
-145.1932085748127
 30
0.0
 10
70.8638833156173
 20
-143.8058746862706
 30
0.0
 10
70.8638833156173
 20
-143.8058746862706
 30
0.0
 10
70.8638833156173
 20
-125.1613574687096
 30
0.0
 10
70.8638833156173
 20
-125.1613574687096
 30
0.0
 10
70.8638833156173
 20
-125.1613574687096
 30
0.0
 10
80.69445738575733
 20
-125.0318174687421
 30
0.0
 10
80.69445738575733
 20
-125.0318174687421
 30
0.0
  0
HATCH
  5
42
330
1F
100
AcDbEntity
  8
_U+30EC_U+30A4_U+30E4_U+30FC 1
 62
   253
420
 10855845
100
AcDbHatch
 10
0.0
 20
0.0
 30
0.0
210
0.0
220
0.0
230
1.0
  2
SOLID
 70
     1
 71
     0
 91
        1
 92
        1
 93
        1
 72
     4
 94
        3
 73
     0
 74
     1
 95
       53
 96
       49
 40
0.0
 40
0.0
 40
0.0
 40
0.0
 40
1.0
 40
1.0
 40
1.0
 40
2.0
 40
2.0
 40
2.0
 40
3.0
 40
3.0
 40
3.0
 40
4.0
 40
4.0
 40
4.0
 40
5.0
 40
5.0
 40
5.0
 40
6.0
 40
6.0
 40
6.0
 40
7.0
 40
7.0
 40
7.0
 40
8.0
 40
8.0
 40
8.0
 40
9.0
 40
9.0
 40
9.0
 40
10.0
 40
10.0
 40
10.0
 40
11.0
 40
11.0
 40
11.0
 40
12.0
 40
12.0
 40
12.0
 40
13.0
 40
13.0
 40
13.0
 40
14.0
 40
14.0
 40
14.0
 40
15.0
 40
15.0
 40
15.0
 40
16.0
 40
16.0
 40
16.0
 40
16.0
 10
80.69445738575733
 20
-125.0318174687421
 10
80.69445738575733
 20
-125.0318174687421
 10
80.69445738575733
 20
-105.1736035848177
 10
80.69445738575733
 20
-105.1736035848177
 10
80.69445738575733
 20
-105.1736035848177
 10
81.5681468079121
 20
-105.1736035848177
 10
81.5681468079121
 20
-105.1736035848177
 10
81.5681468079121
 20
-105.1736035848177
 10
81.5681468079121
 20
-126.028132468493
 10
81.5681468079121
 20
-126.028132468493
 10
81.5681468079121
 20
-126.028132468493
 10
71.86883955536204
 20
-126.028132468493
 10
71.86883955536204
 20
-126.028132468493
 10
71.86883955536204
 20
-126.028132468493
 10
71.86883955536204
 20
-143.0686044086775
 10
71.86883955536204
 20
-143.0686044086775
 10
71.86883955536204
 20
-143.0686044086775
 10
71.73792372536865
 20
-144.0229035751053
 10
72.65567509084374
 20
-144.0229035751053
 10
72.65567509084374
 20
-144.0229035751053
 10
89.78194442199896
 20
-144.0229035751053
 10
89.78194442199896
 20
-144.0229035751053
 10
89.78194442199896
 20
-144.0229035751053
 10
89.78194442199896
 20
-133.9194891331865
 10
89.78194442199896
 20
-133.9194891331865
 10
89.78194442199896
 20
-133.9194891331865
 10
110.4473463489201
 20
-133.9194891331865
 10
110.4473463489201
 20
-133.9194891331865
 10
110.4473463489201
 20
-133.9194891331865
 10
110.4473463489201
 20
-134.8303613551812
 10
110.4473463489201
 20
-134.8303613551812
 10
110.4473463489201
 20
-134.8303613551812
 10
90.69937601939948
 20
-134.8303613551812
 10
90.69937601939948
 20
-134.8303613551812
 10
90.69937601939948
 20
-134.8303613551812
 10
90.69937601939948
 20
-144.7604913526986
 10
90.69937601939948
 20
-144.7604913526986
 10
90.69937601939948
 20
-144.7604913526986
 10
72.52408898308968
 20
-145.0202769081892
 10
72.52408898308968
 20
-145.0202769081892
 10
72.52408898308968
 20
-145.0202769081892
 10
70.8638833156173
 20
-145.1932085748127
 10
70.8638833156173
 20
-143.8058746862706
 10
70.8638833156173
 20
-143.8058746862706
 10
70.8638833156173
 20
-125.1613574687096
 10
70.8638833156173
 20
-125.1613574687096
 10
70.8638833156173
 20
-125.1613574687096
 10
80.69445738575733
 20
-125.0318174687421
 10
80.69445738575733
 20
-125.0318174687421
 97
        0
 97
        0
 75
     2
 76
     1
 98
        0
  0
POLYLINE
  5
43
330
1F
100
AcDbEntity
  8
_U+30EC_U+30A4_U+30E4_U+30FC 1
 62
   179
420
  2234388
370
     9
100
AcDb2dPolyline
 66
     1
 10
0.0
 20
0.0
 30
0.0
  0
VERTEX
  5
44
330
43
100
AcDbEntity
  8
_U+30EC_U+30A4_U+30E4_U+30FC 1
 62
   179
420
  2234388
370
     9
100
AcDbVertex
100
AcDb2dVertex
 10
67.062912733527
 20
-125.3046558020072
 30
0.0
  0
VERTEX
  5
45
330
43
100
AcDbEntity
  8
_U+30EC_U+30A4_U+30E4_U+30FC 1
 62
   179
420
  2234388
370
     9
100
AcDbVertex
100
AcDb2dVertex
 10
67.062912733527
 20
-105.3527441403286
 30
0.0
  0
SEQEND
  5
46
330
43
100
AcDbEntity
  8
_U+30EC_U+30A4_U+30E4_U+30FC 1
 62
   179
420
  2234388
370
     9
  0
POLYLINE
  5
47
330
1F
100
AcDbEntity
  8
_U+30EC_U+30A4_U+30E4_U+30FC 1
 62
   179
420
  2234388
370
     9
100
AcDb2dPolyline
 66
     1
 10
0.0
 20
0.0
 30
0.0
  0
VERTEX
  5
48
330
47
100
AcDbEntity
  8
_U+30EC_U+30A4_U+30E4_U+30FC 1
 62
   179
420
  2234388
370
     9
100
AcDbVertex
100
AcDb2dVertex
 10
67.062912733527
 20
-145.0636685748455
 30
0.0
  0
VERTEX
  5
49
330
47
100
AcDbEntity
  8
_U+30EC_U+30A4_U+30E4_U+30FC 1
 62
   179
420
  2234388
370
     9
100
AcDbVertex
100
AcDb2dVertex
 10
67.062912733527
 20
-125.3046558020072
 30
0.0
  0
SEQEND
  5
4A
330
47
100
AcDbEntity
  8
_U+30EC_U+30A4_U+30E4_U+30FC 1
 62
   179
420
  2234388
370
     9
  0
POLYLINE
  5
4B
330
1F
100
AcDbEntity
  8
_U+30EC_U+30A4_U+30E4_U+30FC 1
 62
   179
420
  2234388
370
     9
100
AcDb2dPolyline
 66
     1
 10
0.0
 20
0.0
 30
0.0
  0
VERTEX
  5
4C
330
4B
100
AcDbEntity
  8
_U+30EC_U+30A4_U+30E4_U+30FC 1
 62
   179
420
  2234388
370
     9
100
AcDbVertex
100
AcDb2dVertex
 10
69.10584879251847
 20
-145.0636685748455
 30
0.0
  0
VERTEX
  5
4D
330
4B
100
AcDbEntity
  8
_U+30EC_U+30A4_U+30E4_U+30FC 1
 62
   179
420
  2234388
370
     9
100
AcDbVertex
100
AcDb2dVertex
 10
66.07280831681501
 20
-145.0636685748455
 30
0.0
  0
SEQEND
  5
4E
330
4B
100
AcDbEntity
  8
_U+30EC_U+30A4_U+30E4_U+30FC 1
 62
   179
420
  2234388
370
     9
  0
POLYLINE
  5
4F
330
1F
100
AcDbEntity
  8
_U+30EC_U+30A4_U+30E4_U+30FC 1
 62
   179
420
  2234388
370
     9
100
AcDb2dPolyline
 66
     1
 10
0.0
 20
0.0
 30
0.0
  0
VERTEX
  5
50
330
4F
100
AcDbEntity
  8
_U+30EC_U+30A4_U+30E4_U+30FC 1
 62
   179
420
  2234388
370
     9
100
AcDbVertex
100
AcDb2dVertex
 10
116.0835356495734
 20
-144.8459341304553
 30
0.0
  0
VERTEX
  5
51
330
4F
100
AcDbEntity
  8
_U+30EC_U+30A4_U+30E4_U+30FC 1
 62
   179
420
  2234388
370
     9
100
AcDbVertex
100
AcDb2dVertex
 10
91.98059432004621
 20
-144.8459341304553
 30
0.0
  0
SEQEND
  5
52
330
4F
100
AcDbEntity
  8
_U+30EC_U+30A4_U+30E4_U+30FC 1
 62
   179
420
  2234388
370
     9
  0
POLYLINE
  5
53
330
1F
100
AcDbEntity
  8
_U+30EC_U+30A4_U+30E4_U+30FC 1
 62
   179
420
  2234388
370
     9
100
AcDb2dPolyline
 66
     1
 10
0.0
 20
0.0
 30
0.0
  0
VERTEX
  5
54
330
53
100
AcDbEntity
  8
_U+30EC_U+30A4_U+30E4_U+30FC 1
 62
   179
420
  2234388
370
     9
100
AcDbVertex
100
AcDb2dVertex
 10
116.0835356495734
 20
-134.8834191329458
 30
0.0
  0
VERTEX
  5
55
330
53
100
AcDbEntity
  8
_U+30EC_U+30A4_U+30E4_U+30FC 1
 62
   179
420
  2234388
370
     9
100
AcDbVertex
100
AcDb2dVertex
 10
111.4956960443967
 20
-134.8834191329458
 30
0.0
  0
SEQEND
  5
56
330
53
100
AcDbEntity
  8
_U+30EC_U+30A4_U+30E4_U+30FC 1
 62
   179
420
  2234388
370
     9
  0
POLYLINE
  5
57
330
1F
100
AcDbEntity
  8
_U+30EC_U+30A4_U+30E4_U+30FC 1
 62
   179
420
  2234388
370
     9
100
AcDb2dPolyline
 66
     1
 10
0.0
 20
0.0
 30
0.0
  0
VERTEX
  5
58
330
57
100
AcDbEntity
  8
_U+30EC_U+30A4_U+30E4_U+30FC 1
 62
   179
420
  2234388
370
     9
100
AcDbVertex
100
AcDb2dVertex
 10
116.0835356495734
 20
-133.8347166332079
 30
0.0
  0
VERTEX
  5
59
330
57
100
AcDbEntity
  8
_U+30EC_U+30A4_U+30E4_U+30FC 1
 62
   179
420
  2234388
370
     9
100
AcDbVertex
100
AcDb2dVertex
 10
111.4956960443967
 20
-133.8347166332079
 30
0.0
  0
SEQEND
  5
5A
330
57
100
AcDbEntity
  8
_U+30EC_U+30A4_U+30E4_U+30FC 1
 62
   179
420
  2234388
370
     9
  0
POLYLINE
  5
5B
330
1F
100
AcDbEntity
  8
_U+30EC_U+30A4_U+30E4_U+30FC 1
 62
   179
420
  2234388
370
     9
100
AcDb2dPolyline
 66
     1
 10
0.0
 20
0.0
 30
0.0
  0
VERTEX
  5
5C
330
5B
100
AcDbEntity
  8
_U+30EC_U+30A4_U+30E4_U+30FC 1
 62
   179
420
  2234388
370
     9
100
AcDbVertex
100
AcDb2dVertex
 10
68.90568268651403
 20
-125.288816079789
 30
0.0
  0
VERTEX
  5
5D
330
5B
100
AcDbEntity
  8
_U+30EC_U+30A4_U+30E4_U+30FC 1
 62
   179
420
  2234388
370
     9
100
AcDbVertex
100
AcDb2dVertex
 10
66.07280831681501
 20
-125.288816079789
 30
0.0
  0
SEQEND
  5
5E
330
5B
100
AcDbEntity
  8
_U+30EC_U+30A4_U+30E4_U+30FC 1
 62
   179
420
  2234388
370
     9
  0
POLYLINE
  5
5F
330
1F
100
AcDbEntity
  8
_U+30EC_U+30A4_U+30E4_U+30FC 1
 62
   179
420
  2234388
370
     9
100
AcDb2dPolyline
 66
     1
 10
0.0
 20
0.0
 30
0.0
  0
VERTEX
  5
60
330
5F
100
AcDbEntity
  8
_U+30EC_U+30A4_U+30E4_U+30FC 1
 62
   179
420
  2234388
370
     9
100
AcDbVertex
100
AcDb2dVertex
 10
79.98099962618137
 20
-105.2955588625649
 30
0.0
  0
VERTEX
  5
61
330
5F
100
AcDbEntity
  8
_U+30EC_U+30A4_U+30E4_U+30FC 1
 62
   179
420
  2234388
370
     9
100
AcDbVertex
100
AcDb2dVertex
 10
66.07280831681501
 20
-105.2955588625649
 30
0.0
  0
SEQEND
  5
62
330
5F
100
AcDbEntity
  8
_U+30EC_U+30A4_U+30E4_U+30FC 1
 62
   179
420
  2234388
370
     9
  0
INSERT
  5
64
330
1F
100
AcDbEntity
  8
_U+30EC_U+30A4_U+30E4_U+30FC 1
100
AcDbBlockReference
  2
block 2
 10
0.0
 20
0.0
 30
0.0
  0
INSERT
  5
6D
330
1F
100
AcDbEntity
  8
_U+30EC_U+30A4_U+30E4_U+30FC 1
100
AcDbBlockReference
  2
block 3
 10
0.0
 20
0.0
 30
0.0
  0
INSERT
  5
76
330
1F
100
AcDbEntity
  8
_U+30EC_U+30A4_U+30E4_U+30FC 1
100
AcDbBlockReference
  2
block 4
 10
0.0
 20
0.0
 30
0.0
  0
INSERT
  5
7C
330
1F
100
AcDbEntity
  8
_U+30EC_U+30A4_U+30E4_U+30FC 1
100
AcDbBlockReference
  2
block 5
 10
0.0
 20
0.0
 30
0.0
  0
POLYLINE
  5
84
330
1F
100
AcDbEntity
  8
_U+30EC_U+30A4_U+30E4_U+30FC 1
 62
   179
420
  2234388
370
     9
100
AcDb2dPolyline
 66
     1
 10
0.0
 20
0.0
 30
0.0
  0
VERTEX
  5
85
330
84
100
AcDbEntity
  8
_U+30EC_U+30A4_U+30E4_U+30FC 1
 62
   179
420
  2234388
370
     9
100
AcDbVertex
100
AcDb2dVertex
 10
114.4670726352572
 20
-144.8921127415549
 30
0.0
  0
VERTEX
  5
86
330
84
100
AcDbEntity
  8
_U+30EC_U+30A4_U+30E4_U+30FC 1
 62
   179
420
  2234388
370
     9
100
AcDbVertex
100
AcDb2dVertex
 10
114.4670726352572
 20
-133.7906194109967
 30
0.0
  0
SEQEND
  5
87
330
84
100
AcDbEntity
  8
_U+30EC_U+30A4_U+30E4_U+30FC 1
 62
   179
420
  2234388
370
     9
  0
POLYLINE
  5
88
330
1F
100
AcDbEntity
  8
_U+30EC_U+30A4_U+30E4_U+30FC 1
 62
   179
420
  2234388
370
     9
100
AcDb2dPolyline
 66
     1
 10
0.0
 20
0.0
 30
0.0
  0
VERTEX
  5
89
330
88
100
AcDbEntity
  8
_U+30EC_U+30A4_U+30E4_U+30FC 1
 62
   179
420
  2234388
370
     9
100
AcDbVertex
100
AcDb2dVertex
 10
70.07873932325353
 20
-145.5914594080463
 30
0.0
  0
VERTEX
  5
8A
330
88
100
AcDbEntity
  8
_U+30EC_U+30A4_U+30E4_U+30FC 1
 62
   179
420
  2234388
370
     9
100
AcDbVertex
100
AcDb2dVertex
 10
70.93726109337692
 20
-145.0960535748368
 30
0.0
  0
SEQEND
  5
8B
330
88
100
AcDbEntity
  8
_U+30EC_U+30A4_U+30E4_U+30FC 1
 62
   179
420
  2234388
370
     9
  0
POLYLINE
  5
8C
330
1F
100
AcDbEntity
  8
_U+30EC_U+30A4_U+30E4_U+30FC 1
 62
   179
420
  2234388
370
     9
100
AcDb2dPolyline
 66
     1
 10
0.0
 20
0.0
 30
0.0
  0
VERTEX
  5
8D
330
8C
100
AcDbEntity
  8
_U+30EC_U+30A4_U+30E4_U+30FC 1
 62
   179
420
  2234388
370
     9
100
AcDbVertex
100
AcDb2dVertex
 10
70.44153598066448
 20
-145.9538680190674
 30
0.0
  0
VERTEX
  5
8E
330
8C
100
AcDbEntity
  8
_U+30EC_U+30A4_U+30E4_U+30FC 1
 62
   179
420
  2234388
370
     9
100
AcDbVertex
100
AcDb2dVertex
 10
70.93726109337692
 20
-145.0960535748368
 30
0.0
  0
SEQEND
  5
8F
330
8C
100
AcDbEntity
  8
_U+30EC_U+30A4_U+30E4_U+30FC 1
 62
   179
420
  2234388
370
     9
  0
POLYLINE
  5
90
330
1F
100
AcDbEntity
  8
_U+30EC_U+30A4_U+30E4_U+30FC 1
 62
   179
420
  2234388
370
     9
100
AcDb2dPolyline
 66
     1
 10
0.0
 20
0.0
 30
0.0
  0
VERTEX
  5
91
330
90
100
AcDbEntity
  8
_U+30EC_U+30A4_U+30E4_U+30FC 1
 62
   179
420
  2234388
370
     9
100
AcDbVertex
100
AcDb2dVertex
 10
67.50388494449909
 20
-148.5301335739787
 30
0.0
  0
VERTEX
  5
92
330
90
100
AcDbEntity
  8
_U+30EC_U+30A4_U+30E4_U+30FC 1
 62
   179
420
  2234388
370
     9
100
AcDbVertex
100
AcDb2dVertex
 10
70.93726109337692
 20
-145.0960535748368
 30
0.0
  0
SEQEND
  5
93
330
90
100
AcDbEntity
  8
_U+30EC_U+30A4_U+30E4_U+30FC 1
 62
   179
420
  2234388
370
     9
  0
INSERT
  5
95
330
1F
100
AcDbEntity
  8
_U+30EC_U+30A4_U+30E4_U+30FC 1
100
AcDbBlockReference
  2
block 6
 10
0.0
 20
0.0
 30
0.0
  0
SPLINE
  5
9D
330
1F
100
AcDbEntity
  8
_U+30EC_U+30A4_U+30E4_U+30FC 1
 62
   179
420
  2234388
370
     9
100
AcDbSpline
210
0.0
220
0.0
230
1.0
 70
    11
 71
     3
 72
    17
 73
    13
 74
     0
 42
0.0000000001
 43
0.0000000001
 12
1.0
 22
0.0
 32
0.0
 13
1.0
 23
0.0
 33
0.0
 40
0.0
 40
0.0
 40
0.0
 40
0.0
 40
1.0
 40
1.0
 40
1.0
 40
2.0
 40
2.0
 40
2.0
 40
3.0
 40
3.0
 40
3.0
 40
4.0
 40
4.0
 40
4.0
 40
4.0
 10
67.16627661977886
 20
-105.322440529225
 30
0.0
 10
67.16627661977886
 20
-105.2617980292401
 30
0.0
 10
67.11699356548061
 20
-105.212197473697
 30
0.0
 10
67.0567055387915
 20
-105.212197473697
 30
0.0
 10
66.99574384635173
 20
-105.212197473697
 30
0.0
 10
66.9464607920535
 20
-105.2617980292401
 30
0.0
 10
66.9464607920535
 20
-105.322440529225
 30
0.0
 10
66.9464607920535
 20
-105.3830477514321
 30
0.0
 10
66.99574384635173
 20
-105.432683584753
 30
0.0
 10
67.0567055387915
 20
-105.432683584753
 30
0.0
 10
67.11699356548061
 20
-105.432683584753
 30
0.0
 10
67.16627661977886
 20
-105.3830477514321
 30
0.0
 10
67.16627661977886
 20
-105.322440529225
 30
0.0
  0
SPLINE
  5
9E
330
1F
100
AcDbEntity
  8
_U+30EC_U+30A4_U+30E4_U+30FC 1
 62
   179
420
  2234388
370
     9
100
AcDbSpline
210
0.0
220
0.0
230
1.0
 70
    11
 71
     3
 72
    17
 73
    13
 74
     0
 42
0.0000000001
 43
0.0000000001
 12
1.0
 22
0.0
 32
0.0
 13
1.0
 23
0.0
 33
0.0
 40
0.0
 40
0.0
 40
0.0
 40
0.0
 40
1.0
 40
1.0
 40
1.0
 40
2.0
 40
2.0
 40
2.0
 40
3.0
 40
3.0
 40
3.0
 40
4.0
 40
4.0
 40
4.0
 40
4.0
 10
67.18694939702922
 20
-125.2819369131239
 30
0.0
 10
67.18694939702922
 20
-125.221294413139
 30
0.0
 10
67.13801912049976
 20
-125.1716938575959
 30
0.0
 10
67.07702384427812
 20
-125.1716938575959
 30
0.0
 10
67.01641662360211
 20
-125.1716938575959
 30
0.0
 10
66.96713356930387
 20
-125.221294413139
 30
0.0
 10
66.96713356930387
 20
-125.2819369131239
 30
0.0
 10
66.96713356930387
 20
-125.3432496908866
 30
0.0
 10
67.01641662360211
 20
-125.3921799686519
 30
0.0
 10
67.07702384427812
 20
-125.3921799686519
 30
0.0
 10
67.13801912049976
 20
-125.3921799686519
 30
0.0
 10
67.18694939702922
 20
-125.3432496908866
 30
0.0
 10
67.18694939702922
 20
-125.2819369131239
 30
0.0
  0
SPLINE
  5
9F
330
1F
100
AcDbEntity
  8
_U+30EC_U+30A4_U+30E4_U+30FC 1
 62
   179
420
  2234388
370
     9
100
AcDbSpline
210
0.0
220
0.0
230
1.0
 70
    11
 71
     3
 72
    17
 73
    13
 74
     0
 42
0.0000000001
 43
0.0000000001
 12
1.0
 22
0.0
 32
0.0
 13
1.0
 23
0.0
 33
0.0
 40
0.0
 40
0.0
 40
0.0
 40
0.0
 40
1.0
 40
1.0
 40
1.0
 40
2.0
 40
2.0
 40
2.0
 40
3.0
 40
3.0
 40
3.0
 40
4.0
 40
4.0
 40
4.0
 40
4.0
 10
67.16627661977886
 20
-145.0567894081804
 30
0.0
 10
67.16627661977886
 20
-144.9961469081952
 30
0.0
 10
67.11699356548061
 20
-144.9465463526524
 30
0.0
 10
67.0567055387915
 20
-144.9465463526524
 30
0.0
 10
66.99574384635173
 20
-144.9465463526524
 30
0.0
 10
66.9464607920535
 20
-144.9961469081952
 30
0.0
 10
66.9464607920535
 20
-145.0567894081804
 30
0.0
 10
66.9464607920535
 20
-145.1181021859424
 30
0.0
 10
66.99574384635173
 20
-145.1670324637084
 30
0.0
 10
67.0567055387915
 20
-145.1670324637084
 30
0.0
 10
67.11699356548061
 20
-145.1670324637084
 30
0.0
 10
67.16627661977886
 20
-145.1181021859424
 30
0.0
 10
67.16627661977886
 20
-145.0567894081804
 30
0.0
  0
SPLINE
  5
A0
330
1F
100
AcDbEntity
  8
_U+30EC_U+30A4_U+30E4_U+30FC 1
 62
   179
420
  2234388
370
     9
100
AcDbSpline
210
0.0
220
0.0
230
1.0
 70
    11
 71
     3
 72
    17
 73
    13
 74
     0
 42
0.0000000001
 43
0.0000000001
 12
1.0
 22
0.0
 32
0.0
 13
1.0
 23
0.0
 33
0.0
 40
0.0
 40
0.0
 40
0.0
 40
0.0
 40
1.0
 40
1.0
 40
1.0
 40
2.0
 40
2.0
 40
2.0
 40
3.0
 40
3.0
 40
3.0
 40
4.0
 40
4.0
 40
4.0
 40
4.0
 10
114.5948840208854
 20
-133.8175010776565
 30
0.0
 10
114.5948840208854
 20
-133.7575641332274
 30
0.0
 10
114.5452834665953
 20
-133.7079282999065
 30
0.0
 10
114.4846409681424
 20
-133.7079282999065
 30
0.0
 10
114.4240337474664
 20
-133.7079282999065
 30
0.0
 10
114.3747506931681
 20
-133.7575641332274
 30
0.0
 10
114.3747506931681
 20
-133.8175010776565
 30
0.0
 10
114.3747506931681
 20
-133.8788138554191
 30
0.0
 10
114.4240337474664
 20
-133.9284144109625
 30
0.0
 10
114.4846409681424
 20
-133.9284144109625
 30
0.0
 10
114.5452834665953
 20
-133.9284144109625
 30
0.0
 10
114.5948840208854
 20
-133.8788138554191
 30
0.0
 10
114.5948840208854
 20
-133.8175010776565
 30
0.0
  0
SPLINE
  5
A1
330
1F
100
AcDbEntity
  8
_U+30EC_U+30A4_U+30E4_U+30FC 1
 62
   179
420
  2234388
370
     9
100
AcDbSpline
210
0.0
220
0.0
230
1.0
 70
    11
 71
     3
 72
    17
 73
    13
 74
     0
 42
0.0000000001
 43
0.0000000001
 12
1.0
 22
0.0
 32
0.0
 13
1.0
 23
0.0
 33
0.0
 40
0.0
 40
0.0
 40
0.0
 40
0.0
 40
1.0
 40
1.0
 40
1.0
 40
2.0
 40
2.0
 40
2.0
 40
3.0
 40
3.0
 40
3.0
 40
4.0
 40
4.0
 40
4.0
 40
4.0
 10
114.5948840208854
 20
-134.8861707996116
 30
0.0
 10
114.5948840208854
 20
-134.825528299627
 30
0.0
 10
114.5452834665953
 20
-134.7752221885287
 30
0.0
 10
114.4846409681424
 20
-134.7752221885287
 30
0.0
 10
114.4240337474664
 20
-134.7752221885287
 30
0.0
 10
114.3747506931681
 20
-134.825528299627
 30
0.0
 10
114.3747506931681
 20
-134.8861707996116
 30
0.0
 10
114.3747506931681
 20
-134.9474835773742
 30
0.0
 10
114.4240337474664
 20
-134.9964138551396
 30
0.0
 10
114.4846409681424
 20
-134.9964138551396
 30
0.0
 10
114.5452834665953
 20
-134.9964138551396
 30
0.0
 10
114.5948840208854
 20
-134.9474835773742
 30
0.0
 10
114.5948840208854
 20
-134.8861707996116
 30
0.0
  0
SPLINE
  5
A2
330
1F
100
AcDbEntity
  8
_U+30EC_U+30A4_U+30E4_U+30FC 1
 62
   179
420
  2234388
370
     9
100
AcDbSpline
210
0.0
220
0.0
230
1.0
 70
    11
 71
     3
 72
    17
 73
    13
 74
     0
 42
0.0000000001
 43
0.0000000001
 12
1.0
 22
0.0
 32
0.0
 13
1.0
 23
0.0
 33
0.0
 40
0.0
 40
0.0
 40
0.0
 40
0.0
 40
1.0
 40
1.0
 40
1.0
 40
2.0
 40
2.0
 40
2.0
 40
3.0
 40
3.0
 40
3.0
 40
4.0
 40
4.0
 40
4.0
 40
4.0
 10
114.5948840208854
 20
-144.8707344082266
 30
0.0
 10
114.5948840208854
 20
-144.809421630464
 30
0.0
 10
114.5452834665953
 20
-144.7604913526986
 30
0.0
 10
114.4846409681424
 20
-144.7604913526986
 30
0.0
 10
114.4240337474664
 20
-144.7604913526986
 30
0.0
 10
114.3747506931681
 20
-144.809421630464
 30
0.0
 10
114.3747506931681
 20
-144.8707344082266
 30
0.0
 10
114.3747506931681
 20
-144.9313769082119
 30
0.0
 10
114.4240337474664
 20
-144.9809774637546
 30
0.0
 10
114.4846409681424
 20
-144.9809774637546
 30
0.0
 10
114.5452834665953
 20
-144.9809774637546
 30
0.0
 10
114.5948840208854
 20
-144.9313769082119
 30
0.0
 10
114.5948840208854
 20
-144.8707344082266
 30
0.0
  0
ENDSEC
  0
SECTION
  2
OBJECTS
  0
DICTIONARY
  5
C
330
0
100
AcDbDictionary
281
     1
  3
ACAD_GROUP
350
D
  3
ACAD_LAYOUT
350
1A
  3
ACAD_MATERIAL
350
3B
  3
ACAD_MLEADERSTYLE
350
A4
  3
ACAD_MLINESTYLE
350
17
  3
ACAD_PLOTSETTINGS
350
19
  3
ACAD_PLOTSTYLENAME
350
E
  3
ACAD_TABLESTYLE
350
A3
  3
ACAD_VISUALSTYLE
350
2A
  0
SUN
  5
3F
330
29
100
AcDbSun
 90
        1
290
     0
 63
     7
421
 16777215
 40
1.0
291
     1
 91
  2455826
 92
 54000000
292
     0
 70
     2
 71
   256
280
     1
  0
DICTIONARY
  5
D
102
{ACAD_REACTORS
330
C
102
}
330
C
100
AcDbDictionary
281
     1
  0
DICTIONARY
  5
1A
102
{ACAD_REACTORS
330
C
102
}
330
C
100
AcDbDictionary
281
     1
  3
Layout1
350
1E
  3
Layout2
350
26
  3
Model
350
22
  0
DICTIONARY
  5
3B
102
{ACAD_REACTORS
330
C
102
}
330
C
100
AcDbDictionary
281
     1
  3
ByBlock
350
3D
  3
ByLayer
350
3C
  3
Global
350
3E
  0
DICTIONARY
  5
A4
102
{ACAD_REACTORS
330
C
102
}
330
C
100
AcDbDictionary
281
     1
  0
DICTIONARY
  5
17
102
{ACAD_REACTORS
330
C
102
}
330
C
100
AcDbDictionary
281
     1
  3
Standard
350
18
  0
DICTIONARY
  5
19
102
{ACAD_REACTORS
330
C
102
}
330
C
100
AcDbDictionary
281
     1
  0
ACDBDICTIONARYWDFLT
  5
E
102
{ACAD_REACTORS
330
C
102
}
330
C
100
AcDbDictionary
281
     1
  3
Normal
350
F
100
AcDbDictionaryWithDefault
340
F
  0
DICTIONARY
  5
A3
102
{ACAD_REACTORS
330
C
102
}
330
C
100
AcDbDictionary
281
     1
  0
DICTIONARY
  5
2A
102
{ACAD_REACTORS
330
C
102
}
330
C
100
AcDbDictionary
281
     1
  3
2dWireframe
350
2F
  3
3D Hidden
350
31
  3
3dWireframe
350
30
  3
Basic
350
32
  3
Brighten
350
36
  3
ColorChange
350
3A
  3
Conceptual
350
34
  3
Dim
350
35
  3
Facepattern
350
39
  3
Flat
350
2B
  3
FlatWithEdges
350
2C
  3
Gouraud
350
2D
  3
GouraudWithEdges
350
2E
  3
Linepattern
350
38
  3
Realistic
350
33
  3
Thicken
350
37
  0
LAYOUT
  5
1E
102
{ACAD_REACTORS
330
1A
102
}
330
1A
100
AcDbPlotSettings
  1

  2
none_device
  4

  6

 40
0.0
 41
0.0
 42
0.0
 43
0.0
 44
0.0
 45
0.0
 46
0.0
 47
0.0
 48
0.0
 49
0.0
140
0.0
141
0.0
142
1.0
143
1.0
 70
   688
 72
     0
 73
     0
 74
     5
  7

 75
    16
 76
     0
 77
     2
 78
   300
147
1.0
148
0.0
149
0.0
100
AcDbLayout
  1
Layout1
 70
     1
 71
     1
 10
0.0
 20
0.0
 11
12.0
 21
9.0
 12
0.0
 22
0.0
 32
0.0
 14
1.000000000000000E+20
 24
1.000000000000000E+20
 34
1.000000000000000E+20
 15
-1.000000000000000E+20
 25
-1.000000000000000E+20
 35
-1.000000000000000E+20
146
0.0
 13
0.0
 23
0.0
 33
0.0
 16
1.0
 26
0.0
 36
0.0
 17
0.0
 27
1.0
 37
0.0
 76
     0
330
1B
  0
LAYOUT
  5
26
102
{ACAD_REACTORS
330
1A
102
}
330
1A
100
AcDbPlotSettings
  1

  2
none_device
  4

  6

 40
0.0
 41
0.0
 42
0.0
 43
0.0
 44
0.0
 45
0.0
 46
0.0
 47
0.0
 48
0.0
 49
0.0
140
0.0
141
0.0
142
1.0
143
1.0
 70
   688
 72
     0
 73
     0
 74
     5
  7

 75
    16
 76
     0
 77
     2
 78
   300
147
1.0
148
0.0
149
0.0
100
AcDbLayout
  1
Layout2
 70
     1
 71
     2
 10
0.0
 20
0.0
 11
0.0
 21
0.0
 12
0.0
 22
0.0
 32
0.0
 14
0.0
 24
0.0
 34
0.0
 15
0.0
 25
0.0
 35
0.0
146
0.0
 13
0.0
 23
0.0
 33
0.0
 16
1.0
 26
0.0
 36
0.0
 17
0.0
 27
1.0
 37
0.0
 76
     0
330
23
  0
LAYOUT
  5
22
102
{ACAD_REACTORS
330
1A
102
}
330
1A
100
AcDbPlotSettings
  1

  2
none_device
  4

  6

 40
0.0
 41
0.0
 42
0.0
 43
0.0
 44
0.0
 45
0.0
 46
0.0
 47
0.0
 48
0.0
 49
0.0
140
0.0
141
0.0
142
1.0
143
1.0
 70
  1712
 72
     0
 73
     0
 74
     0
  7

 75
     0
 76
     0
 77
     2
 78
   300
147
1.0
148
0.0
149
0.0
100
AcDbLayout
  1
Model
 70
     1
 71
     0
 10
0.0
 20
0.0
 11
12.0
 21
9.0
 12
0.0
 22
0.0
 32
0.0
 14
1.000000000000000E+20
 24
1.000000000000000E+20
 34
1.000000000000000E+20
 15
-1.000000000000000E+20
 25
-1.000000000000000E+20
 35
-1.000000000000000E+20
146
0.0
 13
0.0
 23
0.0
 33
0.0
 16
1.0
 26
0.0
 36
0.0
 17
0.0
 27
1.0
 37
0.0
 76
     0
330
1F
331
29
  0
MATERIAL
  5
3D
102
{ACAD_REACTORS
330
3B
102
}
330
3B
100
AcDbMaterial
  1
ByBlock
 72
     1
 94
      127
  0
MATERIAL
  5
3C
102
{ACAD_REACTORS
330
3B
102
}
330
3B
100
AcDbMaterial
  1
ByLayer
 72
     1
 94
      127
  0
MATERIAL
  5
3E
102
{ACAD_REACTORS
330
3B
102
}
330
3B
100
AcDbMaterial
  1
Global
 72
     1
 94
      127
  0
MLINESTYLE
  5
18
102
{ACAD_REACTORS
330
17
102
}
330
17
100
AcDbMlineStyle
  2
Standard
 70
     0
  3

 62
   256
 51
90.0
 52
90.0
 71
     2
 49
0.5
 62
   256
  6
BYLAYER
 49
-0.5
 62
   256
  6
BYLAYER
  0
ACDBPLACEHOLDER
  5
F
102
{ACAD_REACTORS
330
E
102
}
330
E
  0
VISUALSTYLE
  5
2F
102
{ACAD_REACTORS
330
2A
102
}
330
2A
100
AcDbVisualStyle
  2
2dWireframe
 70
     4
177
     2
291
     0
 71
     0
176
     1
 72
     2
176
     1
 73
     0
176
     1
 90
        0
176
     1
 40
-0.6
176
     1
 41
-30.0
176
     1
 62
     5
 63
     7
421
 16777215
176
     1
 74
     1
176
     1
 91
        4
176
     1
 64
     7
176
     1
 65
   257
176
     1
 75
     1
176
     1
175
     1
176
     1
 42
1.0
176
     1
 92
        0
176
     1
 66
   257
176
     1
 43
1.0
176
     1
 76
     1
176
     1
 77
     6
176
     1
 78
     2
176
     1
 67
     7
176
     1
 79
     5
176
     1
170
     0
176
     1
171
     0
176
     1
290
     0
176
     1
 93
        1
176
     1
 44
0.0
176
     1
173
     0
176
     1
  0
VISUALSTYLE
  5
31
102
{ACAD_REACTORS
330
2A
102
}
330
2A
100
AcDbVisualStyle
  2
3D Hidden
 70
     6
177
     2
291
     0
 71
     1
176
     1
 72
     2
176
     1
 73
     2
176
     1
 90
        0
176
     1
 40
-0.6
176
     1
 41
-30.0
176
     1
 62
     5
 63
     7
421
 16777215
176
     1
 74
     2
176
     1
 91
        2
176
     1
 64
     7
176
     1
 65
   257
176
     1
 75
     2
176
     1
175
     1
176
     1
 42
40.0
176
     1
 92
        0
176
     1
 66
   257
176
     1
 43
1.0
176
     1
 76
     1
176
     1
 77
     6
176
     1
 78
     2
176
     1
 67
     7
176
     1
 79
     3
176
     1
170
     0
176
     1
171
     0
176
     1
290
     0
176
     1
 93
        1
176
     1
 44
0.0
176
     1
173
     0
176
     1
  0
VISUALSTYLE
  5
30
102
{ACAD_REACTORS
330
2A
102
}
330
2A
100
AcDbVisualStyle
  2
3dWireframe
 70
     5
177
     2
291
     0
 71
     0
176
     1
 72
     2
176
     1
 73
     0
176
     1
 90
        0
176
     1
 40
-0.6
176
     1
 41
-30.0
176
     1
 62
     5
 63
     7
421
 16777215
176
     1
 74
     1
176
     1
 91
        4
176
     1
 64
     7
176
     1
 65
   257
176
     1
 75
     1
176
     1
175
     1
176
     1
 42
1.0
176
     1
 92
        0
176
     1
 66
   257
176
     1
 43
1.0
176
     1
 76
     1
176
     1
 77
     6
176
     1
 78
     2
176
     1
 67
     7
176
     1
 79
     5
176
     1
170
     0
176
     1
171
     0
176
     1
290
     0
176
     1
 93
        1
176
     1
 44
0.0
176
     1
173
     0
176
     1
  0
VISUALSTYLE
  5
32
102
{ACAD_REACTORS
330
2A
102
}
330
2A
100
AcDbVisualStyle
  2
Basic
 70
     7
177
     2
291
     1
 71
     1
176
     1
 72
     0
176
     1
 73
     1
176
     1
 90
        0
176
     1
 40
-0.6
176
     1
 41
-30.0
176
     1
 62
     5
 63
     7
421
 16777215
176
     1
 74
     0
176
     1
 91
        4
176
     1
 64
     7
176
     1
 65
   257
176
     1
 75
     1
176
     1
175
     1
176
     1
 42
1.0
176
     1
 92
        8
176
     1
 66
     7
176
     1
 43
1.0
176
     1
 76
     1
176
     1
 77
     6
176
     1
 78
     2
176
     1
 67
     7
176
     1
 79
     5
176
     1
170
     0
176
     1
171
     0
176
     1
290
     0
176
     1
 93
        1
176
     1
 44
0.0
176
     1
173
     0
176
     1
  0
VISUALSTYLE
  5
36
102
{ACAD_REACTORS
330
2A
102
}
330
2A
100
AcDbVisualStyle
  2
Brighten
 70
    12
177
     2
291
     1
 71
     2
176
     1
 72
     2
176
     1
 73
     0
176
     1
 90
        0
176
     1
 40
-0.6
176
     1
 41
-30.0
176
     1
 62
     5
 63
     7
421
 16777215
176
     1
 74
     1
176
     1
 91
        4
176
     1
 64
     7
176
     1
 65
   257
176
     1
 75
     1
176
     1
175
     1
176
     1
 42
1.0
176
     1
 92
        8
176
     1
 66
     7
176
     1
 43
1.0
176
     1
 76
     1
176
     1
 77
     6
176
     1
 78
     2
176
     1
 67
     7
176
     1
 79
     5
176
     1
170
     0
176
     1
171
     0
176
     1
290
     0
176
     1
 93
        1
176
     1
 44
50.0
176
     1
173
     0
176
     1
  0
VISUALSTYLE
  5
3A
102
{ACAD_REACTORS
330
2A
102
}
330
2A
100
AcDbVisualStyle
  2
ColorChange
 70
    16
177
     2
291
     1
 71
     2
176
     1
 72
     2
176
     1
 73
     3
176
     1
 90
        0
176
     1
 40
-0.6
176
     1
 41
-30.0
176
     1
 62
     5
 63
     8
421
  8421504
176
     1
 74
     1
176
     1
 91
        4
176
     1
 64
     7
176
     1
 65
   257
176
     1
 75
     1
176
     1
175
     1
176
     1
 42
1.0
176
     1
 92
        8
176
     1
 66
     8
424
  8421504
176
     1
 43
1.0
176
     1
 76
     1
176
     1
 77
     6
176
     1
 78
     2
176
     1
 67
     7
176
     1
 79
     5
176
     1
170
     0
176
     1
171
     0
176
     1
290
     0
176
     1
 93
        1
176
     1
 44
0.0
176
     1
173
     0
176
     1
  0
VISUALSTYLE
  5
34
102
{ACAD_REACTORS
330
2A
102
}
330
2A
100
AcDbVisualStyle
  2
Conceptual
 70
     9
177
     2
291
     0
 71
     3
176
     1
 72
     2
176
     1
 73
     0
176
     1
 90
        0
176
     1
 40
-0.6
176
     1
 41
-30.0
176
     1
 62
     5
 63
     7
421
 16777215
176
     1
 74
     2
176
     1
 91
        2
176
     1
 64
     7
176
     1
 65
   257
176
     1
 75
     1
176
     1
175
     1
176
     1
 42
40.0
176
     1
 92
        8
176
     1
 66
     7
176
     1
 43
1.0
176
     1
 76
     1
176
     1
 77
     6
176
     1
 78
     2
176
     1
 67
     7
176
     1
 79
     3
176
     1
170
     0
176
     1
171
     0
176
     1
290
     0
176
     1
 93
        1
176
     1
 44
0.0
176
     1
173
     0
176
     1
  0
VISUALSTYLE
  5
35
102
{ACAD_REACTORS
330
2A
102
}
330
2A
100
AcDbVisualStyle
  2
Dim
 70
    11
177
     2
291
     1
 71
     2
176
     1
 72
     2
176
     1
 73
     0
176
     1
 90
        0
176
     1
 40
-0.6
176
     1
 41
-30.0
176
     1
 62
     5
 63
     7
421
 16777215
176
     1
 74
     1
176
     1
 91
        4
176
     1
 64
     7
176
     1
 65
   257
176
     1
 75
     1
176
     1
175
     1
176
     1
 42
1.0
176
     1
 92
        8
176
     1
 66
     7
176
     1
 43
1.0
176
     1
 76
     1
176
     1
 77
     6
176
     1
 78
     2
176
     1
 67
     7
176
     1
 79
     5
176
     1
170
     0
176
     1
171
     0
176
     1
290
     0
176
     1
 93
        1
176
     1
 44
-50.0
176
     1
173
     0
176
     1
  0
VISUALSTYLE
  5
39
102
{ACAD_REACTORS
330
2A
102
}
330
2A
100
AcDbVisualStyle
  2
Facepattern
 70
    15
177
     2
291
     1
 71
     2
176
     1
 72
     2
176
     1
 73
     0
176
     1
 90
        0
176
     1
 40
-0.6
176
     1
 41
-30.0
176
     1
 62
     5
 63
     7
421
 16777215
176
     1
 74
     1
176
     1
 91
        4
176
     1
 64
     7
176
     1
 65
   257
176
     1
 75
     1
176
     1
175
     1
176
     1
 42
1.0
176
     1
 92
        8
176
     1
 66
     7
176
     1
 43
1.0
176
     1
 76
     1
176
     1
 77
     6
176
     1
 78
     2
176
     1
 67
     7
176
     1
 79
     5
176
     1
170
     0
176
     1
171
     0
176
     1
290
     0
176
     1
 93
        1
176
     1
 44
0.0
176
     1
173
     0
176
     1
  0
VISUALSTYLE
  5
2B
102
{ACAD_REACTORS
330
2A
102
}
330
2A
100
AcDbVisualStyle
  2
Flat
 70
     0
177
     2
291
     1
 71
     2
176
     1
 72
     1
176
     1
 73
     1
176
     1
 90
        2
176
     1
 40
-0.6
176
     1
 41
30.0
176
     1
 62
     5
 63
     7
421
 16777215
176
     1
 74
     0
176
     1
 91
        4
176
     1
 64
     7
176
     1
 65
   257
176
     1
 75
     1
176
     1
175
     1
176
     1
 42
1.0
176
     1
 92
        8
176
     1
 66
     7
176
     1
 43
1.0
176
     1
 76
     1
176
     1
 77
     6
176
     1
 78
     2
176
     1
 67
     7
176
     1
 79
     5
176
     1
170
     0
176
     1
171
     0
176
     1
290
     0
176
     1
 93
       13
176
     1
 44
0.0
176
     1
173
     0
176
     1
  0
VISUALSTYLE
  5
2C
102
{ACAD_REACTORS
330
2A
102
}
330
2A
100
AcDbVisualStyle
  2
FlatWithEdges
 70
     1
177
     2
291
     1
 71
     2
176
     1
 72
     1
176
     1
 73
     1
176
     1
 90
        2
176
     1
 40
-0.6
176
     1
 41
30.0
176
     1
 62
     5
 63
     7
421
 16777215
176
     1
 74
     1
176
     1
 91
        4
176
     1
 64
     7
176
     1
 65
   257
176
     1
 75
     1
176
     1
175
     1
176
     1
 42
1.0
176
     1
 92
        0
176
     1
 66
   257
176
     1
 43
1.0
176
     1
 76
     1
176
     1
 77
     6
176
     1
 78
     2
176
     1
 67
     7
176
     1
 79
     5
176
     1
170
     0
176
     1
171
     0
176
     1
290
     0
176
     1
 93
       13
176
     1
 44
0.0
176
     1
173
     0
176
     1
  0
VISUALSTYLE
  5
2D
102
{ACAD_REACTORS
330
2A
102
}
330
2A
100
AcDbVisualStyle
  2
Gouraud
 70
     2
177
     2
291
     1
 71
     2
176
     1
 72
     2
176
     1
 73
     1
176
     1
 90
        2
176
     1
 40
-0.6
176
     1
 41
30.0
176
     1
 62
     5
 63
     7
421
 16777215
176
     1
 74
     0
176
     1
 91
        4
176
     1
 64
     7
176
     1
 65
   257
176
     1
 75
     1
176
     1
175
     1
176
     1
 42
1.0
176
     1
 92
        0
176
     1
 66
     7
176
     1
 43
1.0
176
     1
 76
     1
176
     1
 77
     6
176
     1
 78
     2
176
     1
 67
     7
176
     1
 79
     5
176
     1
170
     0
176
     1
171
     0
176
     1
290
     0
176
     1
 93
       13
176
     1
 44
0.0
176
     1
173
     0
176
     1
  0
VISUALSTYLE
  5
2E
102
{ACAD_REACTORS
330
2A
102
}
330
2A
100
AcDbVisualStyle
  2
GouraudWithEdges
 70
     3
177
     2
291
     1
 71
     2
176
     1
 72
     2
176
     1
 73
     1
176
     1
 90
        2
176
     1
 40
-0.6
176
     1
 41
30.0
176
     1
 62
     5
 63
     7
421
 16777215
176
     1
 74
     1
176
     1
 91
        4
176
     1
 64
     7
176
     1
 65
   257
176
     1
 75
     1
176
     1
175
     1
176
     1
 42
1.0
176
     1
 92
        0
176
     1
 66
   257
176
     1
 43
1.0
176
     1
 76
     1
176
     1
 77
     6
176
     1
 78
     2
176
     1
 67
     7
176
     1
 79
     5
176
     1
170
     0
176
     1
171
     0
176
     1
290
     0
176
     1
 93
       13
176
     1
 44
0.0
176
     1
173
     0
176
     1
  0
VISUALSTYLE
  5
38
102
{ACAD_REACTORS
330
2A
102
}
330
2A
100
AcDbVisualStyle
  2
Linepattern
 70
    14
177
     2
291
     1
 71
     2
176
     1
 72
     2
176
     1
 73
     0
176
     1
 90
        0
176
     1
 40
-0.6
176
     1
 41
-30.0
176
     1
 62
     5
 63
     7
421
 16777215
176
     1
 74
     1
176
     1
 91
        4
176
     1
 64
     7
176
     1
 65
   257
176
     1
 75
     7
176
     1
175
     7
176
     1
 42
1.0
176
     1
 92
        8
176
     1
 66
     7
176
     1
 43
1.0
176
     1
 76
     1
176
     1
 77
     6
176
     1
 78
     2
176
     1
 67
     7
176
     1
 79
     5
176
     1
170
     0
176
     1
171
     0
176
     1
290
     0
176
     1
 93
        1
176
     1
 44
0.0
176
     1
173
     0
176
     1
  0
VISUALSTYLE
  5
33
102
{ACAD_REACTORS
330
2A
102
}
330
2A
100
AcDbVisualStyle
  2
Realistic
 70
     8
177
     2
291
     0
 71
     2
176
     1
 72
     2
176
     1
 73
     0
176
     1
 90
        0
176
     1
 40
-0.6
176
     1
 41
-30.0
176
     1
 62
     5
 63
     7
421
 16777215
176
     1
 74
     1
176
     1
 91
        0
176
     1
 64
     7
176
     1
 65
   257
176
     1
 75
     1
176
     1
175
     1
176
     1
 42
1.0
176
     1
 92
        8
176
     1
 66
     8
424
  7895160
176
     1
 43
1.0
176
     1
 76
     1
176
     1
 77
     6
176
     1
 78
     2
176
     1
 67
     7
176
     1
 79
     5
176
     1
170
     0
176
     1
171
     0
176
     1
290
     0
176
     1
 93
       13
176
     1
 44
0.0
176
     1
173
     0
176
     1
  0
VISUALSTYLE
  5
37
102
{ACAD_REACTORS
330
2A
102
}
330
2A
100
AcDbVisualStyle
  2
Thicken
 70
    13
177
     2
291
     1
 71
     2
176
     1
 72
     2
176
     1
 73
     0
176
     1
 90
        0
176
     1
 40
-0.6
176
     1
 41
-30.0
176
     1
 62
     5
 63
     7
421
 16777215
176
     1
 74
     1
176
     1
 91
        4
176
     1
 64
     7
176
     1
 65
   257
176
     1
 75
     1
176
     1
175
     1
176
     1
 42
1.0
176
     1
 92
       12
176
     1
 66
     7
176
     1
 43
1.0
176
     1
 76
     1
176
     1
 77
     6
176
     1
 78
     2
176
     1
 67
     7
176
     1
 79
     5
176
     1
170
     0
176
     1
171
     0
176
     1
290
     0
176
     1
 93
        1
176
     1
 44
0.0
176
     1
173
     0
176
     1
  0
ENDSEC
  0
EOF
