  0
SECTION
  2
HEADER
  9
$ACADVER
  1
AC1024
  9
$ACADMAINTVER
 70
     6
  9
$DWGCODEPAGE
  3
UNDEFINED
  9
$INSBASE
 10
0.0
 20
0.0
 30
0.0
  9
$EXTMIN
 10
1.000000000000000E+20
 20
1.000000000000000E+20
 30
1.000000000000000E+20
  9
$EXTMAX
 10
-1.000000000000000E+20
 20
-1.000000000000000E+20
 30
-1.000000000000000E+20
  9
$LIMMIN
 10
0.0
 20
0.0
  9
$LIMMAX
 10
12.0
 20
9.0
  9
$ORTHOMODE
 70
     0
  9
$REGENMODE
 70
     1
  9
$FILLMODE
 70
     1
  9
$QTEXTMODE
 70
     0
  9
$MIRRTEXT
 70
     1
  9
$LTSCALE
 40
1.0
  9
$ATTMODE
 70
     1
  9
$TEXTSIZE
 40
0.2
  9
$TRACEWID
 40
0.05
  9
$TEXTSTYLE
  7
Standard
  9
$CLAYER
  8
0
  9
$CELTYPE
  6
ByLayer
  9
$CECOLOR
 62
   256
  9
$CELTSCALE
 40
1.0
  9
$DISPSILH
 70
     0
  9
$DIMSCALE
 40
1.0
  9
$DIMASZ
 40
0.18
  9
$DIMEXO
 40
0.0625
  9
$DIMDLI
 40
0.38
  9
$DIMRND
 40
0.0
  9
$DIMDLE
 40
0.0
  9
$DIMEXE
 40
0.18
  9
$DIMTP
 40
0.0
  9
$DIMTM
 40
0.0
  9
$DIMTXT
 40
0.18
  9
$DIMCEN
 40
0.09
  9
$DIMTSZ
 40
0.0
  9
$DIMTOL
 70
     0
  9
$DIMLIM
 70
     0
  9
$DIMTIH
 70
     1
  9
$DIMTOH
 70
     1
  9
$DIMSE1
 70
     0
  9
$DIMSE2
 70
     0
  9
$DIMTAD
 70
     0
  9
$DIMZIN
 70
     0
  9
$DIMBLK
  1

  9
$DIMASO
 70
     1
  9
$DIMSHO
 70
     1
  9
$DIMPOST
  1

  9
$DIMAPOST
  1

  9
$DIMALT
 70
     0
  9
$DIMALTD
 70
     2
  9
$DIMALTF
 40
25.4
  9
$DIMLFAC
 40
1.0
  9
$DIMTOFL
 70
     0
  9
$DIMTVP
 40
0.0
  9
$DIMTIX
 70
     0
  9
$DIMSOXD
 70
     0
  9
$DIMSAH
 70
     0
  9
$DIMBLK1
  1

  9
$DIMBLK2
  1

  9
$DIMSTYLE
  2
Standard
  9
$DIMCLRD
 70
     0
  9
$DIMCLRE
 70
     0
  9
$DIMCLRT
 70
     0
  9
$DIMTFAC
 40
1.0
  9
$DIMGAP
 40
0.09
  9
$DIMJUST
 70
     0
  9
$DIMSD1
 70
     0
  9
$DIMSD2
 70
     0
  9
$DIMTOLJ
 70
     1
  9
$DIMTZIN
 70
     0
  9
$DIMALTZ
 70
     0
  9
$DIMALTTZ
 70
     0
  9
$DIMUPT
 70
     0
  9
$DIMDEC
 70
     4
  9
$DIMTDEC
 70
     4
  9
$DIMALTU
 70
     2
  9
$DIMALTTD
 70
     2
  9
$DIMTXSTY
  7
Standard
  9
$DIMAUNIT
 70
     0
  9
$DIMADEC
 70
     0
  9
$DIMALTRND
 40
0.0
  9
$DIMAZIN
 70
     0
  9
$DIMDSEP
 70
    46
  9
$DIMATFIT
 70
     3
  9
$DIMFRAC
 70
     0
  9
$DIMLDRBLK
  1

  9
$DIMLUNIT
 70
     2
  9
$DIMLWD
 70
    -2
  9
$DIMLWE
 70
    -2
  9
$DIMTMOVE
 70
     0
  9
$DIMFXL
 40
1.0
  9
$DIMFXLON
 70
     0
  9
$DIMJOGANG
 40
0.7853981633974483
  9
$DIMTFILL
 70
     0
  9
$DIMTFILLCLR
 70
     0
  9
$DIMARCSYM
 70
     0
  9
$DIMLTYPE
  6

  9
$DIMLTEX1
  6

  9
$DIMLTEX2
  6

  9
$DIMTXTDIRECTION
 70
     0
  9
$LUNITS
 70
     2
  9
$LUPREC
 70
     4
  9
$SKETCHINC
 40
0.1
  9
$FILLETRAD
 40
0.5
  9
$AUNITS
 70
     0
  9
$AUPREC
 70
     0
  9
$MENU
  1
.
  9
$ELEVATION
 40
0.0
  9
$PELEVATION
 40
0.0
  9
$THICKNESS
 40
0.0
  9
$LIMCHECK
 70
     0
  9
$CHAMFERA
 40
0.5
  9
$CHAMFERB
 40
0.5
  9
$CHAMFERC
 40
1.0
  9
$CHAMFERD
 40
0.0
  9
$SKPOLY
 70
     0
  9
$TDCREATE
 40
2458263.58216434
  9
$TDUCREATE
 40
2458263.207164352
  9
$TDUPDATE
 40
2458263.58216434
  9
$TDUUPDATE
 40
2458263.207164352
  9
$TDINDWG
 40
0.0000000116
  9
$TDUSRTIMER
 40
0.0000000116
  9
$USRTIMER
 70
     1
  9
$ANGBASE
 50
0.0
  9
$ANGDIR
 70
     0
  9
$PDMODE
 70
     0
  9
$PDSIZE
 40
0.0
  9
$PLINEWID
 40
0.0
  9
$SPLFRAME
 70
     0
  9
$SPLINETYPE
 70
     6
  9
$SPLINESEGS
 70
     8
  9
$HANDSEED
  5
AC
  9
$SURFTAB1
 70
     6
  9
$SURFTAB2
 70
     6
  9
$SURFTYPE
 70
     6
  9
$SURFU
 70
     6
  9
$SURFV
 70
     6
  9
$UCSBASE
  2

  9
$UCSNAME
  2

  9
$UCSORG
 10
0.0
 20
0.0
 30
0.0
  9
$UCSXDIR
 10
1.0
 20
0.0
 30
0.0
  9
$UCSYDIR
 10
0.0
 20
1.0
 30
0.0
  9
$UCSORTHOREF
  2

  9
$UCSORTHOVIEW
 70
     0
  9
$UCSORGTOP
 10
0.0
 20
0.0
 30
0.0
  9
$UCSORGBOTTOM
 10
0.0
 20
0.0
 30
0.0
  9
$UCSORGLEFT
 10
0.0
 20
0.0
 30
0.0
  9
$UCSORGRIGHT
 10
0.0
 20
0.0
 30
0.0
  9
$UCSORGFRONT
 10
0.0
 20
0.0
 30
0.0
  9
$UCSORGBACK
 10
0.0
 20
0.0
 30
0.0
  9
$PUCSBASE
  2

  9
$PUCSNAME
  2

  9
$PUCSORG
 10
0.0
 20
0.0
 30
0.0
  9
$PUCSXDIR
 10
1.0
 20
0.0
 30
0.0
  9
$PUCSYDIR
 10
0.0
 20
1.0
 30
0.0
  9
$PUCSORTHOREF
  2

  9
$PUCSORTHOVIEW
 70
     0
  9
$PUCSORGTOP
 10
0.0
 20
0.0
 30
0.0
  9
$PUCSORGBOTTOM
 10
0.0
 20
0.0
 30
0.0
  9
$PUCSORGLEFT
 10
0.0
 20
0.0
 30
0.0
  9
$PUCSORGRIGHT
 10
0.0
 20
0.0
 30
0.0
  9
$PUCSORGFRONT
 10
0.0
 20
0.0
 30
0.0
  9
$PUCSORGBACK
 10
0.0
 20
0.0
 30
0.0
  9
$USERI1
 70
     0
  9
$USERI2
 70
     0
  9
$USERI3
 70
     0
  9
$USERI4
 70
     0
  9
$USERI5
 70
     0
  9
$USERR1
 40
0.0
  9
$USERR2
 40
0.0
  9
$USERR3
 40
0.0
  9
$USERR4
 40
0.0
  9
$USERR5
 40
0.0
  9
$WORLDVIEW
 70
     1
  9
$SHADEDGE
 70
     3
  9
$SHADEDIF
 70
    70
  9
$TILEMODE
 70
     1
  9
$MAXACTVP
 70
    64
  9
$PINSBASE
 10
0.0
 20
0.0
 30
0.0
  9
$PLIMCHECK
 70
     0
  9
$PEXTMIN
 10
1.000000000000000E+20
 20
1.000000000000000E+20
 30
1.000000000000000E+20
  9
$PEXTMAX
 10
-1.000000000000000E+20
 20
-1.000000000000000E+20
 30
-1.000000000000000E+20
  9
$PLIMMIN
 10
0.0
 20
0.0
  9
$PLIMMAX
 10
12.0
 20
9.0
  9
$UNITMODE
 70
     0
  9
$VISRETAIN
 70
     1
  9
$PLINEGEN
 70
     0
  9
$PSLTSCALE
 70
     1
  9
$TREEDEPTH
 70
  3020
  9
$CMLSTYLE
  2
Standard
  9
$CMLJUST
 70
     0
  9
$CMLSCALE
 40
1.0
  9
$PROXYGRAPHICS
 70
     1
  9
$MEASUREMENT
 70
     0
  9
$CELWEIGHT
370
    -1
  9
$ENDCAPS
280
     0
  9
$JOINSTYLE
280
     0
  9
$LWDISPLAY
290
     1
  9
$INSUNITS
 70
     1
  9
$HYPERLINKBASE
  1

  9
$STYLESHEET
  1

  9
$XEDIT
290
     1
  9
$CEPSNTYPE
380
     0
  9
$PSTYLEMODE
290
     1
  9
$FINGERPRINTGUID
  2
{565D31E3-6585-1AF7-4565-D0F390AA880A}
  9
$VERSIONGUID
  2
{FAEB1C32-E019-11D5-929B-00C0DF256EC4}
  9
$EXTNAMES
290
     1
  9
$PSVPSCALE
 40
0.0
  9
$OLESTARTUP
290
     0
  9
$SORTENTS
280
   127
  9
$INDEXCTL
280
     0
  9
$HIDETEXT
280
     1
  9
$XCLIPFRAME
280
     2
  9
$HALOGAP
280
     0
  9
$OBSCOLOR
 70
   257
  9
$OBSLTYPE
280
     0
  9
$INTERSECTIONDISPLAY
280
     0
  9
$INTERSECTIONCOLOR
 70
   257
  9
$DIMASSOC
280
     2
  9
$PROJECTNAME
  1

  9
$CAMERADISPLAY
290
     0
  9
$LENSLENGTH
 40
50.0
  9
$CAMERAHEIGHT
 40
0.0
  9
$STEPSPERSEC
 40
2.0
  9
$STEPSIZE
 40
6.0
  9
$3DDWFPREC
 40
2.0
  9
$PSOLWIDTH
 40
0.25
  9
$PSOLHEIGHT
 40
4.0
  9
$LOFTANG1
 40
1.570796326794897
  9
$LOFTANG2
 40
1.570796326794897
  9
$LOFTMAG1
 40
0.0
  9
$LOFTMAG2
 40
0.0
  9
$LOFTPARAM
 70
     7
  9
$LOFTNORMALS
280
     1
  9
$LATITUDE
 40
37.795
  9
$LONGITUDE
 40
-122.394
  9
$NORTHDIRECTION
 40
0.0
  9
$TIMEZONE
 70
 -8000
  9
$LIGHTGLYPHDISPLAY
280
     1
  9
$TILEMODELIGHTSYNCH
280
     1
  9
$CMATERIAL
347
3C
  9
$SOLIDHIST
280
     1
  9
$SHOWHIST
280
     1
  9
$DWFFRAME
280
     2
  9
$DGNFRAME
280
     2
  9
$REALWORLDSCALE
290
     1
  9
$INTERFERECOLOR
 62
   256
  9
$CSHADOW
280
     0
  9
$SHADOWPLANELOCATION
 40
0.0
  0
ENDSEC
  0
SECTION
  2
CLASSES
  0
CLASS
  1
ACDBDICTIONARYWDFLT
  2
AcDbDictionaryWithDefault
  3
ObjectDBX Classes
 90
        0
 91
        4
280
     0
281
     0
  0
CLASS
  1
VISUALSTYLE
  2
AcDbVisualStyle
  3
ObjectDBX Classes
 90
     4095
 91
        4
280
     0
281
     0
  0
CLASS
  1
MATERIAL
  2
AcDbMaterial
  3
ObjectDBX Classes
 90
     1153
 91
        4
280
     0
281
     0
  0
CLASS
  1
SUN
  2
AcDbSun
  3
SCENEOE
 90
     1024
 91
        4
280
     0
281
     0
  0
ENDSEC
  0
SECTION
  2
TABLES
  0
TABLE
  2
VPORT
  5
8
330
0
100
AcDbSymbolTable
 70
     1
  0
VPORT
  5
29
330
8
100
AcDbSymbolTableRecord
100
AcDbViewportTableRecord
  2
*Active
 70
     0
 10
0.0
 20
0.0
 11
1.0
 21
1.0
 12
0.0
 22
0.0
 13
0.0
 23
0.0
 14
0.5
 24
0.5
 15
0.5
 25
0.5
 16
0.0
 26
0.0
 36
1.0
 17
105.0007777515277
 27
-148.5000416295416
 37
0.0
 40
297.0000832590831
 41
0.7070757462376333
 42
50.0
 43
0.0
 44
0.0
 50
0.0
 51
0.0
 71
     0
 72
   100
 73
     1
 74
     3
 75
     0
 76
     0
 77
     0
 78
     0
281
     0
 65
     1
110
0.0
120
0.0
130
0.0
111
1.0
121
0.0
131
0.0
112
0.0
122
1.0
132
0.0
 79
     0
146
0.0
 60
     3
 61
     5
292
     1
282
     1
141
0.0
142
0.0
 63
   250
361
3F
  0
ENDTAB
  0
TABLE
  2
LTYPE
  5
5
330
0
100
AcDbSymbolTable
 70
     2
  0
LTYPE
  5
14
330
5
100
AcDbSymbolTableRecord
100
AcDbLinetypeTableRecord
  2
ByBlock
 70
     0
  3

 72
    65
 73
     0
 40
0.0
  0
LTYPE
  5
15
330
5
100
AcDbSymbolTableRecord
100
AcDbLinetypeTableRecord
  2
ByLayer
 70
     0
  3

 72
    65
 73
     0
 40
0.0
  0
LTYPE
  5
16
330
5
100
AcDbSymbolTableRecord
100
AcDbLinetypeTableRecord
  2
Continuous
 70
     0
  3
Solid line
 72
    65
 73
     0
 40
0.0
  0
LTYPE
  5
A8
330
5
100
AcDbSymbolTableRecord
100
AcDbLinetypeTableRecord
  2
AI-Linetype-1
 70
     0
  3
Adobe Illustrator Linetype No. 1
 72
    65
 73
     2
 40
1.411111110758333
 49
0.7055555553791667
 74
     0
 49
-0.7055555553791667
 74
     0
  0
ENDTAB
  0
TABLE
  2
LAYER
  5
2
330
0
100
AcDbSymbolTable
 70
     2
  0
LAYER
  5
10
330
2
100
AcDbSymbolTableRecord
100
AcDbLayerTableRecord
  2
0
 70
     0
 62
     7
  6
Continuous
370
    -3
390
F
347
3E
  0
LAYER
  5
40
330
2
100
AcDbSymbolTableRecord
100
AcDbLayerTableRecord
  2
_U+30EC_U+30A4_U+30E4_U+30FC 1
 70
     0
 62
     7
  6
Continuous
370
    -3
390
F
347
3E
  0
ENDTAB
  0
TABLE
  2
STYLE
  5
3
330
0
100
AcDbSymbolTable
 70
     1
  0
STYLE
  5
11
330
3
100
AcDbSymbolTableRecord
100
AcDbTextStyleTableRecord
  2
Standard
 70
     0
 40
0.0
 41
1.0
 50
0.0
 71
     0
 42
0.2
  3
txt
  4

  0
ENDTAB
  0
TABLE
  2
VIEW
  5
6
330
0
100
AcDbSymbolTable
 70
     0
  0
ENDTAB
  0
TABLE
  2
UCS
  5
7
330
0
100
AcDbSymbolTable
 70
     0
  0
ENDTAB
  0
TABLE
  2
APPID
  5
9
330
0
100
AcDbSymbolTable
 70
     1
  0
APPID
  5
12
330
9
100
AcDbSymbolTableRecord
100
AcDbRegAppTableRecord
  2
ACAD
 70
     0
  0
ENDTAB
  0
TABLE
  2
DIMSTYLE
  5
A
330
0
100
AcDbSymbolTable
 70
     1
100
AcDbDimStyleTable
  0
DIMSTYLE
105
27
330
A
100
AcDbSymbolTableRecord
100
AcDbDimStyleTableRecord
  2
Standard
 70
     0
178
     0
340
11
  0
ENDTAB
  0
TABLE
  2
BLOCK_RECORD
  5
1
330
0
100
AcDbSymbolTable
 70
     6
  0
BLOCK_RECORD
  5
1F
330
1
100
AcDbSymbolTableRecord
100
AcDbBlockTableRecord
  2
*Model_Space
340
22
 70
     0
280
     1
281
     0
  0
BLOCK_RECORD
  5
1B
330
1
100
AcDbSymbolTableRecord
100
AcDbBlockTableRecord
  2
*Paper_Space
340
1E
 70
     0
280
     1
281
     0
  0
BLOCK_RECORD
  5
23
330
1
100
AcDbSymbolTableRecord
100
AcDbBlockTableRecord
  2
*Paper_Space0
340
26
 70
     0
280
     1
281
     0
  0
BLOCK_RECORD
  5
56
330
1
100
AcDbSymbolTableRecord
100
AcDbBlockTableRecord
  2
block 2
340
0
102
{BLKREFS
331
57
102
}
 70
     0
280
     1
281
     0
  0
BLOCK_RECORD
  5
6A
330
1
100
AcDbSymbolTableRecord
100
AcDbBlockTableRecord
  2
block 3
340
0
102
{BLKREFS
331
6B
102
}
 70
     0
280
     1
281
     0
  0
BLOCK_RECORD
  5
80
330
1
100
AcDbSymbolTableRecord
100
AcDbBlockTableRecord
  2
block 4
340
0
102
{BLKREFS
331
81
102
}
 70
     0
280
     1
281
     0
  0
BLOCK_RECORD
  5
91
330
1
100
AcDbSymbolTableRecord
100
AcDbBlockTableRecord
  2
block 5
340
0
102
{BLKREFS
331
92
102
}
 70
     0
280
     1
281
     0
  0
BLOCK_RECORD
  5
99
330
1
100
AcDbSymbolTableRecord
100
AcDbBlockTableRecord
  2
block 6
340
0
102
{BLKREFS
331
9A
102
}
 70
     0
280
     1
281
     0
  0
ENDTAB
  0
ENDSEC
  0
SECTION
  2
BLOCKS
  0
BLOCK
  5
20
330
1F
100
AcDbEntity
  8
0
100
AcDbBlockBegin
  2
*Model_Space
 70
     0
 10
0.0
 20
0.0
 30
0.0
  3
*Model_Space
  1

  0
ENDBLK
  5
21
330
1F
100
AcDbEntity
  8
0
100
AcDbBlockEnd
  0
BLOCK
  5
1C
330
1B
100
AcDbEntity
 67
     1
  8
0
100
AcDbBlockBegin
  2
*Paper_Space
 70
     0
 10
0.0
 20
0.0
 30
0.0
  3
*Paper_Space
  1

  0
ENDBLK
  5
1D
330
1B
100
AcDbEntity
 67
     1
  8
0
100
AcDbBlockEnd
  0
BLOCK
  5
24
330
23
100
AcDbEntity
  8
0
100
AcDbBlockBegin
  2
*Paper_Space0
 70
     0
 10
0.0
 20
0.0
 30
0.0
  3
*Paper_Space0
  1

  0
ENDBLK
  5
25
330
23
100
AcDbEntity
  8
0
100
AcDbBlockEnd
  0
BLOCK
  5
58
330
56
100
AcDbEntity
  8
0
100
AcDbBlockBegin
  2
block 2
 70
     0
 10
0.0
 20
0.0
 30
0.0
  3
block 2
  1

  0
SPLINE
  5
5A
330
56
100
AcDbEntity
  8
_U+30EC_U+30A4_U+30E4_U+30FC 1
370
     0
100
AcDbSpline
210
0.0
220
0.0
230
1.0
 70
    11
 71
     3
 72
    29
 73
    25
 74
     0
 42
0.0000000001
 43
0.0000000001
 12
1.0
 22
0.0
 32
0.0
 13
1.0
 23
0.0
 33
0.0
 40
0.0
 40
0.0
 40
0.0
 40
0.0
 40
1.0
 40
1.0
 40
1.0
 40
2.0
 40
2.0
 40
2.0
 40
3.0
 40
3.0
 40
3.0
 40
4.0
 40
4.0
 40
4.0
 40
5.0
 40
5.0
 40
5.0
 40
6.0
 40
6.0
 40
6.0
 40
7.0
 40
7.0
 40
7.0
 40
8.0
 40
8.0
 40
8.0
 40
8.0
 10
98.9758707434852
 20
-137.7471475892611
 30
0.0
 10
98.69096134685505
 20
-137.7471475892611
 30
0.0
 10
98.41966007739161
 20
-137.6096882793997
 30
0.0
 10
98.41966007739161
 20
-137.2607001067439
 30
0.0
 10
98.41966007739161
 20
-137.0047295121898
 30
0.0
 10
98.57107202396834
 20
-136.9096448767969
 30
0.0
 10
98.68424341065881
 20
-136.8483221771594
 30
0.0
 10
98.55074596060537
 20
-136.7890665348131
 30
0.0
 10
98.46944170715348
 20
-136.6746893647029
 30
0.0
 10
98.46944170715348
 20
-136.5138034055417
 30
0.0
 10
98.46944170715348
 20
-136.2388847858188
 30
0.0
 10
98.6820040985934
 20
-136.1034925332484
 30
0.0
 10
98.9758707434852
 20
-136.1034925332484
 30
0.0
 10
99.27869463663866
 20
-136.1034925332484
 30
0.0
 10
99.48229977981693
 20
-136.2474975245319
 30
0.0
 10
99.48229977981693
 20
-136.5138034055417
 30
0.0
 10
99.48229977981693
 20
-136.6746893647029
 30
0.0
 10
99.39858395952535
 20
-136.7890665348131
 30
0.0
 10
99.26525876424618
 20
-136.8483221771594
 30
0.0
 10
99.36017114486482
 20
-136.8989650807926
 30
0.0
 10
99.52966984273911
 20
-136.9940497161855
 30
0.0
 10
99.52966984273911
 20
-137.2565659921616
 30
0.0
 10
99.52966984273911
 20
-137.6310478714082
 30
0.0
 10
99.23132457371648
 20
-137.7471475892611
 30
0.0
 10
98.9758707434852
 20
-137.7471475892611
 30
0.0
  0
SPLINE
  5
5B
330
56
100
AcDbEntity
  8
_U+30EC_U+30A4_U+30E4_U+30FC 1
370
     0
100
AcDbSpline
210
0.0
220
0.0
230
1.0
 70
    11
 71
     3
 72
    17
 73
    13
 74
     0
 42
0.0000000001
 43
0.0000000001
 12
1.0
 22
0.0
 32
0.0
 13
1.0
 23
0.0
 33
0.0
 40
0.0
 40
0.0
 40
0.0
 40
0.0
 40
1.0
 40
1.0
 40
1.0
 40
2.0
 40
2.0
 40
2.0
 40
3.0
 40
3.0
 40
3.0
 40
4.0
 40
4.0
 40
4.0
 40
4.0
 10
98.9758707434852
 20
-136.9561536658478
 30
0.0
 10
98.8220472300688
 20
-136.9561536658478
 30
0.0
 10
98.65926646839074
 20
-137.0429700720761
 30
0.0
 10
98.65926646839074
 20
-137.2458861961573
 30
0.0
 10
98.65926646839074
 20
-137.4512138870782
 30
0.0
 10
98.7950032305096
 20
-137.5524996943445
 30
0.0
 10
98.9758707434852
 20
-137.5524996943445
 30
0.0
 10
99.17482500775839
 20
-137.5524996943445
 30
0.0
 10
99.2923027638054
 20
-137.4298542950696
 30
0.0
 10
99.2923027638054
 20
-137.2520873680307
 30
0.0
 10
99.2923027638054
 20
-137.0302232187806
 30
0.0
 10
99.11832544180028
 20
-136.9561536658478
 30
0.0
 10
98.9758707434852
 20
-136.9561536658478
 30
0.0
  0
SPLINE
  5
5C
330
56
100
AcDbEntity
  8
_U+30EC_U+30A4_U+30E4_U+30FC 1
370
     0
100
AcDbSpline
210
0.0
220
0.0
230
1.0
 70
    11
 71
     3
 72
    17
 73
    13
 74
     0
 42
0.0000000001
 43
0.0000000001
 12
1.0
 22
0.0
 32
0.0
 13
1.0
 23
0.0
 33
0.0
 40
0.0
 40
0.0
 40
0.0
 40
0.0
 40
1.0
 40
1.0
 40
1.0
 40
2.0
 40
2.0
 40
2.0
 40
3.0
 40
3.0
 40
3.0
 40
4.0
 40
4.0
 40
4.0
 40
4.0
 10
98.9758707434852
 20
-136.2960733708739
 30
0.0
 10
98.7994818546404
 20
-136.2960733708739
 30
0.0
 10
98.7090480981526
 20
-136.3911580062668
 30
0.0
 10
98.7090480981526
 20
-136.5265502588371
 30
0.0
 10
98.7090480981526
 20
-136.649195658112
 30
0.0
 10
98.78587372747367
 20
-136.7677069428046
 30
0.0
 10
98.9758707434852
 20
-136.7677069428046
 30
0.0
 10
99.16569550472246
 20
-136.7677069428046
 30
0.0
 10
99.24252113404354
 20
-136.649195658112
 30
0.0
 10
99.24252113404354
 20
-136.5265502588371
 30
0.0
 10
99.24252113404354
 20
-136.3911580062668
 30
0.0
 10
99.14984806549032
 20
-136.2960733708739
 30
0.0
 10
98.9758707434852
 20
-136.2960733708739
 30
0.0
  0
HATCH
  5
5D
330
56
100
AcDbEntity
  8
_U+30EC_U+30A4_U+30E4_U+30FC 1
 62
   179
420
  2234388
100
AcDbHatch
 10
0.0
 20
0.0
 30
0.0
210
0.0
220
0.0
230
1.0
  2
SOLID
 70
     1
 71
     0
 91
        3
 92
        1
 93
        1
 72
     4
 94
        3
 73
     0
 74
     1
 95
       29
 96
       25
 40
0.0
 40
0.0
 40
0.0
 40
0.0
 40
1.0
 40
1.0
 40
1.0
 40
2.0
 40
2.0
 40
2.0
 40
3.0
 40
3.0
 40
3.0
 40
4.0
 40
4.0
 40
4.0
 40
5.0
 40
5.0
 40
5.0
 40
6.0
 40
6.0
 40
6.0
 40
7.0
 40
7.0
 40
7.0
 40
8.0
 40
8.0
 40
8.0
 40
8.0
 10
98.9758707434852
 20
-137.7471475892611
 10
98.69096134685505
 20
-137.7471475892611
 10
98.41966007739161
 20
-137.6096882793997
 10
98.41966007739161
 20
-137.2607001067439
 10
98.41966007739161
 20
-137.0047295121898
 10
98.57107202396834
 20
-136.9096448767969
 10
98.68424341065881
 20
-136.8483221771594
 10
98.55074596060537
 20
-136.7890665348131
 10
98.46944170715348
 20
-136.6746893647029
 10
98.46944170715348
 20
-136.5138034055417
 10
98.46944170715348
 20
-136.2388847858188
 10
98.6820040985934
 20
-136.1034925332484
 10
98.9758707434852
 20
-136.1034925332484
 10
99.27869463663866
 20
-136.1034925332484
 10
99.48229977981693
 20
-136.2474975245319
 10
99.48229977981693
 20
-136.5138034055417
 10
99.48229977981693
 20
-136.6746893647029
 10
99.39858395952535
 20
-136.7890665348131
 10
99.26525876424618
 20
-136.8483221771594
 10
99.36017114486482
 20
-136.8989650807926
 10
99.52966984273911
 20
-136.9940497161855
 10
99.52966984273911
 20
-137.2565659921616
 10
99.52966984273911
 20
-137.6310478714082
 10
99.23132457371648
 20
-137.7471475892611
 10
98.9758707434852
 20
-137.7471475892611
 97
        0
 97
        0
 92
        1
 93
        1
 72
     4
 94
        3
 73
     0
 74
     1
 95
       17
 96
       13
 40
0.0
 40
0.0
 40
0.0
 40
0.0
 40
1.0
 40
1.0
 40
1.0
 40
2.0
 40
2.0
 40
2.0
 40
3.0
 40
3.0
 40
3.0
 40
4.0
 40
4.0
 40
4.0
 40
4.0
 10
98.9758707434852
 20
-136.9561536658478
 10
98.8220472300688
 20
-136.9561536658478
 10
98.65926646839074
 20
-137.0429700720761
 10
98.65926646839074
 20
-137.2458861961573
 10
98.65926646839074
 20
-137.4512138870782
 10
98.7950032305096
 20
-137.5524996943445
 10
98.9758707434852
 20
-137.5524996943445
 10
99.17482500775839
 20
-137.5524996943445
 10
99.2923027638054
 20
-137.4298542950696
 10
99.2923027638054
 20
-137.2520873680307
 10
99.2923027638054
 20
-137.0302232187806
 10
99.11832544180028
 20
-136.9561536658478
 10
98.9758707434852
 20
-136.9561536658478
 97
        0
 97
        0
 92
        1
 93
        1
 72
     4
 94
        3
 73
     0
 74
     1
 95
       17
 96
       13
 40
0.0
 40
0.0
 40
0.0
 40
0.0
 40
1.0
 40
1.0
 40
1.0
 40
2.0
 40
2.0
 40
2.0
 40
3.0
 40
3.0
 40
3.0
 40
4.0
 40
4.0
 40
4.0
 40
4.0
 10
98.9758707434852
 20
-136.2960733708739
 10
98.7994818546404
 20
-136.2960733708739
 10
98.7090480981526
 20
-136.3911580062668
 10
98.7090480981526
 20
-136.5265502588371
 10
98.7090480981526
 20
-136.649195658112
 10
98.78587372747367
 20
-136.7677069428046
 10
98.9758707434852
 20
-136.7677069428046
 10
99.16569550472246
 20
-136.7677069428046
 10
99.24252113404354
 20
-136.649195658112
 10
99.24252113404354
 20
-136.5265502588371
 10
99.24252113404354
 20
-136.3911580062668
 10
99.14984806549032
 20
-136.2960733708739
 10
98.9758707434852
 20
-136.2960733708739
 97
        0
 97
        0
 75
     2
 76
     1
 98
        0
  0
ENDBLK
  5
59
330
56
100
AcDbEntity
  8
0
100
AcDbBlockEnd
  0
BLOCK
  5
6C
330
6A
100
AcDbEntity
  8
0
100
AcDbBlockBegin
  2
block 3
 70
     0
 10
0.0
 20
0.0
 30
0.0
  3
block 3
  1

  0
SPLINE
  5
6E
330
6A
100
AcDbEntity
  8
_U+30EC_U+30A4_U+30E4_U+30FC 1
370
     0
100
AcDbSpline
210
0.0
220
0.0
230
1.0
 70
    11
 71
     3
 72
    26
 73
    22
 74
     0
 42
0.0000000001
 43
0.0000000001
 12
1.0
 22
0.0
 32
0.0
 13
1.0
 23
0.0
 33
0.0
 40
0.0
 40
0.0
 40
0.0
 40
0.0
 40
1.0
 40
1.0
 40
1.0
 40
2.0
 40
2.0
 40
2.0
 40
3.0
 40
3.0
 40
3.0
 40
4.0
 40
4.0
 40
4.0
 40
5.0
 40
5.0
 40
5.0
 40
6.0
 40
6.0
 40
6.0
 40
7.0
 40
7.0
 40
7.0
 40
7.0
 10
103.2577799221022
 20
-160.6961343999301
 30
0.0
 10
103.2577799221022
 20
-160.6961343999301
 30
0.0
 10
103.2577799221022
 20
-159.5919812969076
 30
0.0
 10
103.2577799221022
 20
-159.5919812969076
 30
0.0
 10
103.2577799221022
 20
-159.5919812969076
 30
0.0
 10
102.9050021444126
 20
-159.5919812969076
 30
0.0
 10
102.9050021444126
 20
-159.5919812969076
 30
0.0
 10
102.9050021444126
 20
-159.5919812969076
 30
0.0
 10
102.9050021444126
 20
-159.4438421910418
 30
0.0
 10
102.9050021444126
 20
-159.4438421910418
 30
0.0
 10
103.2600192341676
 20
-159.4290282804552
 30
0.0
 10
103.3098008639295
 20
-159.2660752640029
 30
0.0
 10
103.3414957423938
 20
-159.1516980938926
 30
0.0
 10
103.3414957423938
 20
-159.1516980938926
 30
0.0
 10
103.4973863131014
 20
-159.1516980938926
 30
0.0
 10
103.4973863131014
 20
-159.1516980938926
 30
0.0
 10
103.4973863131014
 20
-159.1516980938926
 30
0.0
 10
103.4973863131014
 20
-160.6961343999301
 30
0.0
 10
103.4973863131014
 20
-160.6961343999301
 30
0.0
 10
103.4973863131014
 20
-160.6961343999301
 30
0.0
 10
103.2577799221022
 20
-160.6961343999301
 30
0.0
 10
103.2577799221022
 20
-160.6961343999301
 30
0.0
  0
HATCH
  5
6F
330
6A
100
AcDbEntity
  8
_U+30EC_U+30A4_U+30E4_U+30FC 1
 62
   179
420
  2234388
100
AcDbHatch
 10
0.0
 20
0.0
 30
0.0
210
0.0
220
0.0
230
1.0
  2
SOLID
 70
     1
 71
     0
 91
        1
 92
        1
 93
        1
 72
     4
 94
        3
 73
     0
 74
     1
 95
       26
 96
       22
 40
0.0
 40
0.0
 40
0.0
 40
0.0
 40
1.0
 40
1.0
 40
1.0
 40
2.0
 40
2.0
 40
2.0
 40
3.0
 40
3.0
 40
3.0
 40
4.0
 40
4.0
 40
4.0
 40
5.0
 40
5.0
 40
5.0
 40
6.0
 40
6.0
 40
6.0
 40
7.0
 40
7.0
 40
7.0
 40
7.0
 10
103.2577799221022
 20
-160.6961343999301
 10
103.2577799221022
 20
-160.6961343999301
 10
103.2577799221022
 20
-159.5919812969076
 10
103.2577799221022
 20
-159.5919812969076
 10
103.2577799221022
 20
-159.5919812969076
 10
102.9050021444126
 20
-159.5919812969076
 10
102.9050021444126
 20
-159.5919812969076
 10
102.9050021444126
 20
-159.5919812969076
 10
102.9050021444126
 20
-159.4438421910418
 10
102.9050021444126
 20
-159.4438421910418
 10
103.2600192341676
 20
-159.4290282804552
 10
103.3098008639295
 20
-159.2660752640029
 10
103.3414957423938
 20
-159.1516980938926
 10
103.3414957423938
 20
-159.1516980938926
 10
103.4973863131014
 20
-159.1516980938926
 10
103.4973863131014
 20
-159.1516980938926
 10
103.4973863131014
 20
-159.1516980938926
 10
103.4973863131014
 20
-160.6961343999301
 10
103.4973863131014
 20
-160.6961343999301
 10
103.4973863131014
 20
-160.6961343999301
 10
103.2577799221022
 20
-160.6961343999301
 10
103.2577799221022
 20
-160.6961343999301
 97
        0
 97
        0
 75
     2
 76
     1
 98
        0
  0
SPLINE
  5
70
330
6A
100
AcDbEntity
  8
_U+30EC_U+30A4_U+30E4_U+30FC 1
370
     0
100
AcDbSpline
210
0.0
220
0.0
230
1.0
 70
    11
 71
     3
 72
    29
 73
    25
 74
     0
 42
0.0000000001
 43
0.0000000001
 12
1.0
 22
0.0
 32
0.0
 13
1.0
 23
0.0
 33
0.0
 40
0.0
 40
0.0
 40
0.0
 40
0.0
 40
1.0
 40
1.0
 40
1.0
 40
2.0
 40
2.0
 40
2.0
 40
3.0
 40
3.0
 40
3.0
 40
4.0
 40
4.0
 40
4.0
 40
5.0
 40
5.0
 40
5.0
 40
6.0
 40
6.0
 40
6.0
 40
7.0
 40
7.0
 40
7.0
 40
8.0
 40
8.0
 40
8.0
 40
8.0
 10
104.5676052255942
 20
-160.7467773035633
 30
0.0
 10
104.2826958289641
 20
-160.7467773035633
 30
0.0
 10
104.0113945595006
 20
-160.6093179937018
 30
0.0
 10
104.0113945595006
 20
-160.260329821046
 30
0.0
 10
104.0113945595006
 20
-160.004359226492
 30
0.0
 10
104.1628065060774
 20
-159.9092745910991
 30
0.0
 10
104.2759778927678
 20
-159.8479518914616
 30
0.0
 10
104.1424804427144
 20
-159.7886962491153
 30
0.0
 10
104.0611761892625
 20
-159.674319079005
 30
0.0
 10
104.0611761892625
 20
-159.5134331198439
 30
0.0
 10
104.0611761892625
 20
-159.2385145001209
 30
0.0
 10
104.2737385807024
 20
-159.1031222475506
 30
0.0
 10
104.5676052255942
 20
-159.1031222475506
 30
0.0
 10
104.8704291187477
 20
-159.1031222475506
 30
0.0
 10
105.0740342619259
 20
-159.2471272388341
 30
0.0
 10
105.0740342619259
 20
-159.5134331198439
 30
0.0
 10
105.0740342619259
 20
-159.674319079005
 30
0.0
 10
104.9903184416344
 20
-159.7886962491153
 30
0.0
 10
104.8569932463552
 20
-159.8479518914616
 30
0.0
 10
104.9519056269738
 20
-159.8985947950948
 30
0.0
 10
105.1214043248481
 20
-159.9936794304877
 30
0.0
 10
105.1214043248481
 20
-160.2561957064637
 30
0.0
 10
105.1214043248481
 20
-160.6306775857104
 30
0.0
 10
104.8230590558255
 20
-160.7467773035633
 30
0.0
 10
104.5676052255942
 20
-160.7467773035633
 30
0.0
  0
SPLINE
  5
71
330
6A
100
AcDbEntity
  8
_U+30EC_U+30A4_U+30E4_U+30FC 1
370
     0
100
AcDbSpline
210
0.0
220
0.0
230
1.0
 70
    11
 71
     3
 72
    17
 73
    13
 74
     0
 42
0.0000000001
 43
0.0000000001
 12
1.0
 22
0.0
 32
0.0
 13
1.0
 23
0.0
 33
0.0
 40
0.0
 40
0.0
 40
0.0
 40
0.0
 40
1.0
 40
1.0
 40
1.0
 40
2.0
 40
2.0
 40
2.0
 40
3.0
 40
3.0
 40
3.0
 40
4.0
 40
4.0
 40
4.0
 40
4.0
 10
104.5676052255942
 20
-159.9557833801499
 30
0.0
 10
104.4137817121778
 20
-159.9557833801499
 30
0.0
 10
104.2510009504998
 20
-160.0425997863782
 30
0.0
 10
104.2510009504998
 20
-160.2455159104595
 30
0.0
 10
104.2510009504998
 20
-160.4508436013803
 30
0.0
 10
104.3867377126186
 20
-160.5521294086467
 30
0.0
 10
104.5676052255942
 20
-160.5521294086467
 30
0.0
 10
104.7665594898674
 20
-160.5521294086467
 30
0.0
 10
104.8840372459144
 20
-160.4294840093718
 30
0.0
 10
104.8840372459144
 20
-160.2517170823329
 30
0.0
 10
104.8840372459144
 20
-160.0298529330828
 30
0.0
 10
104.7100599239093
 20
-159.9557833801499
 30
0.0
 10
104.5676052255942
 20
-159.9557833801499
 30
0.0
  0
SPLINE
  5
72
330
6A
100
AcDbEntity
  8
_U+30EC_U+30A4_U+30E4_U+30FC 1
370
     0
100
AcDbSpline
210
0.0
220
0.0
230
1.0
 70
    11
 71
     3
 72
    17
 73
    13
 74
     0
 42
0.0000000001
 43
0.0000000001
 12
1.0
 22
0.0
 32
0.0
 13
1.0
 23
0.0
 33
0.0
 40
0.0
 40
0.0
 40
0.0
 40
0.0
 40
1.0
 40
1.0
 40
1.0
 40
2.0
 40
2.0
 40
2.0
 40
3.0
 40
3.0
 40
3.0
 40
4.0
 40
4.0
 40
4.0
 40
4.0
 10
104.5676052255942
 20
-159.2957030851761
 30
0.0
 10
104.3912163367494
 20
-159.2957030851761
 30
0.0
 10
104.3007825802616
 20
-159.390787720569
 30
0.0
 10
104.3007825802616
 20
-159.5261799731393
 30
0.0
 10
104.3007825802616
 20
-159.6488253724142
 30
0.0
 10
104.3776082095827
 20
-159.7673366571068
 30
0.0
 10
104.5676052255942
 20
-159.7673366571068
 30
0.0
 10
104.7574299868315
 20
-159.7673366571068
 30
0.0
 10
104.8342556161525
 20
-159.6488253724142
 30
0.0
 10
104.8342556161525
 20
-159.5261799731393
 30
0.0
 10
104.8342556161525
 20
-159.390787720569
 30
0.0
 10
104.7415825475993
 20
-159.2957030851761
 30
0.0
 10
104.5676052255942
 20
-159.2957030851761
 30
0.0
  0
HATCH
  5
73
330
6A
100
AcDbEntity
  8
_U+30EC_U+30A4_U+30E4_U+30FC 1
 62
   179
420
  2234388
100
AcDbHatch
 10
0.0
 20
0.0
 30
0.0
210
0.0
220
0.0
230
1.0
  2
SOLID
 70
     1
 71
     0
 91
        3
 92
        1
 93
        1
 72
     4
 94
        3
 73
     0
 74
     1
 95
       29
 96
       25
 40
0.0
 40
0.0
 40
0.0
 40
0.0
 40
1.0
 40
1.0
 40
1.0
 40
2.0
 40
2.0
 40
2.0
 40
3.0
 40
3.0
 40
3.0
 40
4.0
 40
4.0
 40
4.0
 40
5.0
 40
5.0
 40
5.0
 40
6.0
 40
6.0
 40
6.0
 40
7.0
 40
7.0
 40
7.0
 40
8.0
 40
8.0
 40
8.0
 40
8.0
 10
104.5676052255942
 20
-160.7467773035633
 10
104.2826958289641
 20
-160.7467773035633
 10
104.0113945595006
 20
-160.6093179937018
 10
104.0113945595006
 20
-160.260329821046
 10
104.0113945595006
 20
-160.004359226492
 10
104.1628065060774
 20
-159.9092745910991
 10
104.2759778927678
 20
-159.8479518914616
 10
104.1424804427144
 20
-159.7886962491153
 10
104.0611761892625
 20
-159.674319079005
 10
104.0611761892625
 20
-159.5134331198439
 10
104.0611761892625
 20
-159.2385145001209
 10
104.2737385807024
 20
-159.1031222475506
 10
104.5676052255942
 20
-159.1031222475506
 10
104.8704291187477
 20
-159.1031222475506
 10
105.0740342619259
 20
-159.2471272388341
 10
105.0740342619259
 20
-159.5134331198439
 10
105.0740342619259
 20
-159.674319079005
 10
104.9903184416344
 20
-159.7886962491153
 10
104.8569932463552
 20
-159.8479518914616
 10
104.9519056269738
 20
-159.8985947950948
 10
105.1214043248481
 20
-159.9936794304877
 10
105.1214043248481
 20
-160.2561957064637
 10
105.1214043248481
 20
-160.6306775857104
 10
104.8230590558255
 20
-160.7467773035633
 10
104.5676052255942
 20
-160.7467773035633
 97
        0
 97
        0
 92
        1
 93
        1
 72
     4
 94
        3
 73
     0
 74
     1
 95
       17
 96
       13
 40
0.0
 40
0.0
 40
0.0
 40
0.0
 40
1.0
 40
1.0
 40
1.0
 40
2.0
 40
2.0
 40
2.0
 40
3.0
 40
3.0
 40
3.0
 40
4.0
 40
4.0
 40
4.0
 40
4.0
 10
104.5676052255942
 20
-159.9557833801499
 10
104.4137817121778
 20
-159.9557833801499
 10
104.2510009504998
 20
-160.0425997863782
 10
104.2510009504998
 20
-160.2455159104595
 10
104.2510009504998
 20
-160.4508436013803
 10
104.3867377126186
 20
-160.5521294086467
 10
104.5676052255942
 20
-160.5521294086467
 10
104.7665594898674
 20
-160.5521294086467
 10
104.8840372459144
 20
-160.4294840093718
 10
104.8840372459144
 20
-160.2517170823329
 10
104.8840372459144
 20
-160.0298529330828
 10
104.7100599239093
 20
-159.9557833801499
 10
104.5676052255942
 20
-159.9557833801499
 97
        0
 97
        0
 92
        1
 93
        1
 72
     4
 94
        3
 73
     0
 74
     1
 95
       17
 96
       13
 40
0.0
 40
0.0
 40
0.0
 40
0.0
 40
1.0
 40
1.0
 40
1.0
 40
2.0
 40
2.0
 40
2.0
 40
3.0
 40
3.0
 40
3.0
 40
4.0
 40
4.0
 40
4.0
 40
4.0
 10
104.5676052255942
 20
-159.2957030851761
 10
104.3912163367494
 20
-159.2957030851761
 10
104.3007825802616
 20
-159.390787720569
 10
104.3007825802616
 20
-159.5261799731393
 10
104.3007825802616
 20
-159.6488253724142
 10
104.3776082095827
 20
-159.7673366571068
 10
104.5676052255942
 20
-159.7673366571068
 10
104.7574299868315
 20
-159.7673366571068
 10
104.8342556161525
 20
-159.6488253724142
 10
104.8342556161525
 20
-159.5261799731393
 10
104.8342556161525
 20
-159.390787720569
 10
104.7415825475993
 20
-159.2957030851761
 10
104.5676052255942
 20
-159.2957030851761
 97
        0
 97
        0
 75
     2
 76
     1
 98
        0
  0
ENDBLK
  5
6D
330
6A
100
AcDbEntity
  8
0
100
AcDbBlockEnd
  0
BLOCK
  5
82
330
80
100
AcDbEntity
  8
0
100
AcDbBlockBegin
  2
block 4
 70
     0
 10
0.0
 20
0.0
 30
0.0
  3
block 4
  1

  0
SPLINE
  5
84
330
80
100
AcDbEntity
  8
_U+30EC_U+30A4_U+30E4_U+30FC 1
370
     0
100
AcDbSpline
210
0.0
220
0.0
230
1.0
 70
    11
 71
     3
 72
    26
 73
    22
 74
     0
 42
0.0000000001
 43
0.0000000001
 12
1.0
 22
0.0
 32
0.0
 13
1.0
 23
0.0
 33
0.0
 40
0.0
 40
0.0
 40
0.0
 40
0.0
 40
1.0
 40
1.0
 40
1.0
 40
2.0
 40
2.0
 40
2.0
 40
3.0
 40
3.0
 40
3.0
 40
4.0
 40
4.0
 40
4.0
 40
5.0
 40
5.0
 40
5.0
 40
6.0
 40
6.0
 40
6.0
 40
7.0
 40
7.0
 40
7.0
 40
7.0
 10
115.4575520544689
 20
-150.4683349233204
 30
0.0
 10
115.4575520544689
 20
-150.4683349233204
 30
0.0
 10
114.3533989514464
 20
-150.4683349233204
 30
0.0
 10
114.3533989514464
 20
-150.4683349233204
 30
0.0
 10
114.3533989514464
 20
-150.4683349233204
 30
0.0
 10
114.3533989514464
 20
-150.82111270101
 30
0.0
 10
114.3533989514464
 20
-150.82111270101
 30
0.0
 10
114.3533989514464
 20
-150.82111270101
 30
0.0
 10
114.2052598455806
 20
-150.82111270101
 30
0.0
 10
114.2052598455806
 20
-150.82111270101
 30
0.0
 10
114.1904459349941
 20
-150.4659233564807
 30
0.0
 10
114.0274929185417
 20
-150.4163139814931
 30
0.0
 10
113.9131157484315
 20
-150.3846191030289
 30
0.0
 10
113.9131157484315
 20
-150.3846191030289
 30
0.0
 10
113.9131157484315
 20
-150.2289007870956
 30
0.0
 10
113.9131157484315
 20
-150.2289007870956
 30
0.0
 10
113.9131157484315
 20
-150.2289007870956
 30
0.0
 10
115.4575520544689
 20
-150.2289007870956
 30
0.0
 10
115.4575520544689
 20
-150.2289007870956
 30
0.0
 10
115.4575520544689
 20
-150.2289007870956
 30
0.0
 10
115.4575520544689
 20
-150.4683349233204
 30
0.0
 10
115.4575520544689
 20
-150.4683349233204
 30
0.0
  0
HATCH
  5
85
330
80
100
AcDbEntity
  8
_U+30EC_U+30A4_U+30E4_U+30FC 1
 62
   179
420
  2234388
100
AcDbHatch
 10
0.0
 20
0.0
 30
0.0
210
0.0
220
0.0
230
1.0
  2
SOLID
 70
     1
 71
     0
 91
        1
 92
        1
 93
        1
 72
     4
 94
        3
 73
     0
 74
     1
 95
       26
 96
       22
 40
0.0
 40
0.0
 40
0.0
 40
0.0
 40
1.0
 40
1.0
 40
1.0
 40
2.0
 40
2.0
 40
2.0
 40
3.0
 40
3.0
 40
3.0
 40
4.0
 40
4.0
 40
4.0
 40
5.0
 40
5.0
 40
5.0
 40
6.0
 40
6.0
 40
6.0
 40
7.0
 40
7.0
 40
7.0
 40
7.0
 10
115.4575520544689
 20
-150.4683349233204
 10
115.4575520544689
 20
-150.4683349233204
 10
114.3533989514464
 20
-150.4683349233204
 10
114.3533989514464
 20
-150.4683349233204
 10
114.3533989514464
 20
-150.4683349233204
 10
114.3533989514464
 20
-150.82111270101
 10
114.3533989514464
 20
-150.82111270101
 10
114.3533989514464
 20
-150.82111270101
 10
114.2052598455806
 20
-150.82111270101
 10
114.2052598455806
 20
-150.82111270101
 10
114.1904459349941
 20
-150.4659233564807
 10
114.0274929185417
 20
-150.4163139814931
 10
113.9131157484315
 20
-150.3846191030289
 10
113.9131157484315
 20
-150.3846191030289
 10
113.9131157484315
 20
-150.2289007870956
 10
113.9131157484315
 20
-150.2289007870956
 10
113.9131157484315
 20
-150.2289007870956
 10
115.4575520544689
 20
-150.2289007870956
 10
115.4575520544689
 20
-150.2289007870956
 10
115.4575520544689
 20
-150.2289007870956
 10
115.4575520544689
 20
-150.4683349233204
 10
115.4575520544689
 20
-150.4683349233204
 97
        0
 97
        0
 75
     2
 76
     1
 98
        0
  0
SPLINE
  5
86
330
80
100
AcDbEntity
  8
_U+30EC_U+30A4_U+30E4_U+30FC 1
370
     0
100
AcDbSpline
210
0.0
220
0.0
230
1.0
 70
    11
 71
     3
 72
    62
 73
    58
 74
     0
 42
0.0000000001
 43
0.0000000001
 12
1.0
 22
0.0
 32
0.0
 13
1.0
 23
0.0
 33
0.0
 40
0.0
 40
0.0
 40
0.0
 40
0.0
 40
1.0
 40
1.0
 40
1.0
 40
2.0
 40
2.0
 40
2.0
 40
3.0
 40
3.0
 40
3.0
 40
4.0
 40
4.0
 40
4.0
 40
5.0
 40
5.0
 40
5.0
 40
6.0
 40
6.0
 40
6.0
 40
7.0
 40
7.0
 40
7.0
 40
8.0
 40
8.0
 40
8.0
 40
9.0
 40
9.0
 40
9.0
 40
10.0
 40
10.0
 40
10.0
 40
11.0
 40
11.0
 40
11.0
 40
12.0
 40
12.0
 40
12.0
 40
13.0
 40
13.0
 40
13.0
 40
14.0
 40
14.0
 40
14.0
 40
15.0
 40
15.0
 40
15.0
 40
16.0
 40
16.0
 40
16.0
 40
17.0
 40
17.0
 40
17.0
 40
18.0
 40
18.0
 40
18.0
 40
19.0
 40
19.0
 40
19.0
 40
19.0
 10
115.5081949581021
 20
-149.1678113776386
 30
0.0
 10
115.5081949581021
 20
-149.269097184905
 30
0.0
 10
115.4871798756421
 20
-149.5019856397078
 30
0.0
 10
115.3011447194386
 20
-149.6356553445355
 30
0.0
 10
115.1888346066195
 20
-149.7148925406963
 30
0.0
 10
115.0896158566443
 20
-149.7190266552786
 30
0.0
 10
115.0048665077071
 20
-149.7238497889579
 30
0.0
 10
115.0048665077071
 20
-149.7238497889579
 30
0.0
 10
115.0048665077071
 20
-149.4885497673154
 30
0.0
 10
115.0048665077071
 20
-149.4885497673154
 30
0.0
 10
115.07893606064
 20
-149.4861382004757
 30
0.0
 10
115.3135470631855
 20
-149.4751138949229
 30
0.0
 10
115.3135470631855
 20
-149.1719454922209
 30
0.0
 10
115.3135470631855
 20
-149.0251844245493
 30
0.0
 10
115.2439561343835
 20
-148.8624036628712
 30
0.0
 10
115.0155463037114
 20
-148.8624036628712
 30
0.0
 10
114.89910207631
 20
-148.8624036628712
 30
0.0
 10
114.8505262299679
 20
-148.9032280443714
 30
0.0
 10
114.8188313515036
 20
-148.9369899801269
 30
0.0
 10
114.7447617985708
 20
-149.0162271762876
 30
0.0
 10
114.7320149452753
 20
-149.1402506137566
 30
0.0
 10
114.7320149452753
 20
-149.1991617465544
 30
0.0
 10
114.7320149452753
 20
-149.2194878099174
 30
0.0
 10
114.7340820025665
 20
-149.2580728793521
 30
0.0
 10
114.7382161171488
 20
-149.2873561909768
 30
0.0
 10
114.7382161171488
 20
-149.2873561909768
 30
0.0
 10
114.5435682222322
 20
-149.2873561909768
 30
0.0
 10
114.5435682222322
 20
-149.2873561909768
 30
0.0
 10
114.5501139036542
 20
-149.2467040642508
 30
0.0
 10
114.5521809609453
 20
-149.2015733133941
 30
0.0
 10
114.5521809609453
 20
-149.1946831224236
 30
0.0
 10
114.5521809609453
 20
-149.1244031745245
 30
0.0
 10
114.5308213689367
 20
-148.9121852926331
 30
0.0
 10
114.2941433091001
 20
-148.9121852926331
 30
0.0
 10
114.1163763820612
 20
-148.9121852926331
 30
0.0
 10
114.0612548542972
 20
-149.0520561693342
 30
0.0
 10
114.0612548542972
 20
-149.1698784349298
 30
0.0
 10
114.0612548542972
 20
-149.4523762647202
 30
0.0
 10
114.2941433091001
 20
-149.4613335129819
 30
0.0
 10
114.3658012951933
 20
-149.4661566466612
 30
0.0
 10
114.3658012951933
 20
-149.4661566466612
 30
0.0
 10
114.3658012951933
 20
-149.683197662232
 30
0.0
 10
114.3658012951933
 20
-149.683197662232
 30
0.0
 10
114.2410888386272
 20
-149.6742404139703
 30
0.0
 10
113.8645399020894
 20
-149.6446125927972
 30
0.0
 10
113.8645399020894
 20
-149.1560980529888
 30
0.0
 10
113.8645399020894
 20
-148.9166639167639
 30
0.0
 10
113.9916639254951
 20
-148.6589707744672
 30
0.0
 10
114.2875976276781
 20
-148.6589707744672
 30
0.0
 10
114.4739772934301
 20
-148.6589707744672
 30
0.0
 10
114.5563150755276
 20
-148.7606010912821
 30
0.0
 10
114.617637775165
 20
-148.866882287002
 30
0.0
 10
114.645198539047
 20
-148.801253218008
 30
0.0
 10
114.7254692638534
 20
-148.6069498326399
 30
0.0
 10
115.002799450416
 20
-148.6069498326399
 30
0.0
 10
115.3411078270675
 20
-148.6069498326399
 30
0.0
 10
115.5081949581021
 20
-148.8713609111329
 30
0.0
 10
115.5081949581021
 20
-149.1678113776386
 30
0.0
  0
HATCH
  5
87
330
80
100
AcDbEntity
  8
_U+30EC_U+30A4_U+30E4_U+30FC 1
 62
   179
420
  2234388
100
AcDbHatch
 10
0.0
 20
0.0
 30
0.0
210
0.0
220
0.0
230
1.0
  2
SOLID
 70
     1
 71
     0
 91
        1
 92
        1
 93
        1
 72
     4
 94
        3
 73
     0
 74
     1
 95
       62
 96
       58
 40
0.0
 40
0.0
 40
0.0
 40
0.0
 40
1.0
 40
1.0
 40
1.0
 40
2.0
 40
2.0
 40
2.0
 40
3.0
 40
3.0
 40
3.0
 40
4.0
 40
4.0
 40
4.0
 40
5.0
 40
5.0
 40
5.0
 40
6.0
 40
6.0
 40
6.0
 40
7.0
 40
7.0
 40
7.0
 40
8.0
 40
8.0
 40
8.0
 40
9.0
 40
9.0
 40
9.0
 40
10.0
 40
10.0
 40
10.0
 40
11.0
 40
11.0
 40
11.0
 40
12.0
 40
12.0
 40
12.0
 40
13.0
 40
13.0
 40
13.0
 40
14.0
 40
14.0
 40
14.0
 40
15.0
 40
15.0
 40
15.0
 40
16.0
 40
16.0
 40
16.0
 40
17.0
 40
17.0
 40
17.0
 40
18.0
 40
18.0
 40
18.0
 40
19.0
 40
19.0
 40
19.0
 40
19.0
 10
115.5081949581021
 20
-149.1678113776386
 10
115.5081949581021
 20
-149.269097184905
 10
115.4871798756421
 20
-149.5019856397078
 10
115.3011447194386
 20
-149.6356553445355
 10
115.1888346066195
 20
-149.7148925406963
 10
115.0896158566443
 20
-149.7190266552786
 10
115.0048665077071
 20
-149.7238497889579
 10
115.0048665077071
 20
-149.7238497889579
 10
115.0048665077071
 20
-149.4885497673154
 10
115.0048665077071
 20
-149.4885497673154
 10
115.07893606064
 20
-149.4861382004757
 10
115.3135470631855
 20
-149.4751138949229
 10
115.3135470631855
 20
-149.1719454922209
 10
115.3135470631855
 20
-149.0251844245493
 10
115.2439561343835
 20
-148.8624036628712
 10
115.0155463037114
 20
-148.8624036628712
 10
114.89910207631
 20
-148.8624036628712
 10
114.8505262299679
 20
-148.9032280443714
 10
114.8188313515036
 20
-148.9369899801269
 10
114.7447617985708
 20
-149.0162271762876
 10
114.7320149452753
 20
-149.1402506137566
 10
114.7320149452753
 20
-149.1991617465544
 10
114.7320149452753
 20
-149.2194878099174
 10
114.7340820025665
 20
-149.2580728793521
 10
114.7382161171488
 20
-149.2873561909768
 10
114.7382161171488
 20
-149.2873561909768
 10
114.5435682222322
 20
-149.2873561909768
 10
114.5435682222322
 20
-149.2873561909768
 10
114.5501139036542
 20
-149.2467040642508
 10
114.5521809609453
 20
-149.2015733133941
 10
114.5521809609453
 20
-149.1946831224236
 10
114.5521809609453
 20
-149.1244031745245
 10
114.5308213689367
 20
-148.9121852926331
 10
114.2941433091001
 20
-148.9121852926331
 10
114.1163763820612
 20
-148.9121852926331
 10
114.0612548542972
 20
-149.0520561693342
 10
114.0612548542972
 20
-149.1698784349298
 10
114.0612548542972
 20
-149.4523762647202
 10
114.2941433091001
 20
-149.4613335129819
 10
114.3658012951933
 20
-149.4661566466612
 10
114.3658012951933
 20
-149.4661566466612
 10
114.3658012951933
 20
-149.683197662232
 10
114.3658012951933
 20
-149.683197662232
 10
114.2410888386272
 20
-149.6742404139703
 10
113.8645399020894
 20
-149.6446125927972
 10
113.8645399020894
 20
-149.1560980529888
 10
113.8645399020894
 20
-148.9166639167639
 10
113.9916639254951
 20
-148.6589707744672
 10
114.2875976276781
 20
-148.6589707744672
 10
114.4739772934301
 20
-148.6589707744672
 10
114.5563150755276
 20
-148.7606010912821
 10
114.617637775165
 20
-148.866882287002
 10
114.645198539047
 20
-148.801253218008
 10
114.7254692638534
 20
-148.6069498326399
 10
115.002799450416
 20
-148.6069498326399
 10
115.3411078270675
 20
-148.6069498326399
 10
115.5081949581021
 20
-148.8713609111329
 10
115.5081949581021
 20
-149.1678113776386
 97
        0
 97
        0
 75
     2
 76
     1
 98
        0
  0
ENDBLK
  5
83
330
80
100
AcDbEntity
  8
0
100
AcDbBlockEnd
  0
BLOCK
  5
93
330
91
100
AcDbEntity
  8
0
100
AcDbBlockBegin
  2
block 5
 70
     0
 10
0.0
 20
0.0
 30
0.0
  3
block 5
  1

  0
SPLINE
  5
95
330
91
100
AcDbEntity
  8
_U+30EC_U+30A4_U+30E4_U+30FC 1
370
     0
100
AcDbSpline
210
0.0
220
0.0
230
1.0
 70
    11
 71
     3
 72
    26
 73
    22
 74
     0
 42
0.0000000001
 43
0.0000000001
 12
1.0
 22
0.0
 32
0.0
 13
1.0
 23
0.0
 33
0.0
 40
0.0
 40
0.0
 40
0.0
 40
0.0
 40
1.0
 40
1.0
 40
1.0
 40
2.0
 40
2.0
 40
2.0
 40
3.0
 40
3.0
 40
3.0
 40
4.0
 40
4.0
 40
4.0
 40
5.0
 40
5.0
 40
5.0
 40
6.0
 40
6.0
 40
6.0
 40
7.0
 40
7.0
 40
7.0
 40
7.0
 10
115.4575520544689
 20
-156.8148898262477
 30
0.0
 10
115.4575520544689
 20
-156.8148898262477
 30
0.0
 10
114.3530544418979
 20
-156.8148898262477
 30
0.0
 10
114.3530544418979
 20
-156.8148898262477
 30
0.0
 10
114.3530544418979
 20
-156.8148898262477
 30
0.0
 10
114.3530544418979
 20
-157.1676676039372
 30
0.0
 10
114.3530544418979
 20
-157.1676676039372
 30
0.0
 10
114.3530544418979
 20
-157.1676676039372
 30
0.0
 10
114.2049153360321
 20
-157.1676676039372
 30
0.0
 10
114.2049153360321
 20
-157.1676676039372
 30
0.0
 10
114.1904459349941
 20
-156.812478259408
 30
0.0
 10
114.0271484089932
 20
-156.7628688844204
 30
0.0
 10
113.9127712388829
 20
-156.7311740059561
 30
0.0
 10
113.9127712388829
 20
-156.7311740059561
 30
0.0
 10
113.9127712388829
 20
-156.5754556900228
 30
0.0
 10
113.9127712388829
 20
-156.5754556900228
 30
0.0
 10
113.9127712388829
 20
-156.5754556900228
 30
0.0
 10
115.4575520544689
 20
-156.5754556900228
 30
0.0
 10
115.4575520544689
 20
-156.5754556900228
 30
0.0
 10
115.4575520544689
 20
-156.5754556900228
 30
0.0
 10
115.4575520544689
 20
-156.8148898262477
 30
0.0
 10
115.4575520544689
 20
-156.8148898262477
 30
0.0
  0
HATCH
  5
96
330
91
100
AcDbEntity
  8
_U+30EC_U+30A4_U+30E4_U+30FC 1
 62
   179
420
  2234388
100
AcDbHatch
 10
0.0
 20
0.0
 30
0.0
210
0.0
220
0.0
230
1.0
  2
SOLID
 70
     1
 71
     0
 91
        1
 92
        1
 93
        1
 72
     4
 94
        3
 73
     0
 74
     1
 95
       26
 96
       22
 40
0.0
 40
0.0
 40
0.0
 40
0.0
 40
1.0
 40
1.0
 40
1.0
 40
2.0
 40
2.0
 40
2.0
 40
3.0
 40
3.0
 40
3.0
 40
4.0
 40
4.0
 40
4.0
 40
5.0
 40
5.0
 40
5.0
 40
6.0
 40
6.0
 40
6.0
 40
7.0
 40
7.0
 40
7.0
 40
7.0
 10
115.4575520544689
 20
-156.8148898262477
 10
115.4575520544689
 20
-156.8148898262477
 10
114.3530544418979
 20
-156.8148898262477
 10
114.3530544418979
 20
-156.8148898262477
 10
114.3530544418979
 20
-156.8148898262477
 10
114.3530544418979
 20
-157.1676676039372
 10
114.3530544418979
 20
-157.1676676039372
 10
114.3530544418979
 20
-157.1676676039372
 10
114.2049153360321
 20
-157.1676676039372
 10
114.2049153360321
 20
-157.1676676039372
 10
114.1904459349941
 20
-156.812478259408
 10
114.0271484089932
 20
-156.7628688844204
 10
113.9127712388829
 20
-156.7311740059561
 10
113.9127712388829
 20
-156.7311740059561
 10
113.9127712388829
 20
-156.5754556900228
 10
113.9127712388829
 20
-156.5754556900228
 10
113.9127712388829
 20
-156.5754556900228
 10
115.4575520544689
 20
-156.5754556900228
 10
115.4575520544689
 20
-156.5754556900228
 10
115.4575520544689
 20
-156.5754556900228
 10
115.4575520544689
 20
-156.8148898262477
 10
115.4575520544689
 20
-156.8148898262477
 97
        0
 97
        0
 75
     2
 76
     1
 98
        0
  0
ENDBLK
  5
94
330
91
100
AcDbEntity
  8
0
100
AcDbBlockEnd
  0
BLOCK
  5
9B
330
99
100
AcDbEntity
  8
0
100
AcDbBlockBegin
  2
block 6
 70
     0
 10
0.0
 20
0.0
 30
0.0
  3
block 6
  1

  0
SPLINE
  5
9D
330
99
100
AcDbEntity
  8
_U+30EC_U+30A4_U+30E4_U+30FC 1
370
     0
100
AcDbSpline
210
0.0
220
0.0
230
1.0
 70
    11
 71
     3
 72
    26
 73
    22
 74
     0
 42
0.0000000001
 43
0.0000000001
 12
1.0
 22
0.0
 32
0.0
 13
1.0
 23
0.0
 33
0.0
 40
0.0
 40
0.0
 40
0.0
 40
0.0
 40
1.0
 40
1.0
 40
1.0
 40
2.0
 40
2.0
 40
2.0
 40
3.0
 40
3.0
 40
3.0
 40
4.0
 40
4.0
 40
4.0
 40
5.0
 40
5.0
 40
5.0
 40
6.0
 40
6.0
 40
6.0
 40
7.0
 40
7.0
 40
7.0
 40
7.0
 10
93.07511119634928
 20
-149.1361164991743
 30
0.0
 10
93.07511119634928
 20
-149.1361164991743
 30
0.0
 10
93.07511119634928
 20
-148.032135650926
 30
0.0
 10
93.07511119634928
 20
-148.032135650926
 30
0.0
 10
93.07511119634928
 20
-148.032135650926
 30
0.0
 10
92.74507104886234
 20
-148.032135650926
 30
0.0
 10
92.74507104886234
 20
-148.032135650926
 30
0.0
 10
92.74507104886234
 20
-148.032135650926
 30
0.0
 10
92.74507104886234
 20
-147.8839965450603
 30
0.0
 10
92.74507104886234
 20
-147.8839965450603
 30
0.0
 10
93.07717825364043
 20
-147.8691826344737
 30
0.0
 10
93.1236870426913
 20
-147.7062296180214
 30
0.0
 10
93.15331486386445
 20
-147.5918524479111
 30
0.0
 10
93.15331486386445
 20
-147.5918524479111
 30
0.0
 10
93.29938691243905
 20
-147.5918524479111
 30
0.0
 10
93.29938691243905
 20
-147.5918524479111
 30
0.0
 10
93.29938691243905
 20
-147.5918524479111
 30
0.0
 10
93.29938691243905
 20
-149.1361164991743
 30
0.0
 10
93.29938691243905
 20
-149.1361164991743
 30
0.0
 10
93.29938691243905
 20
-149.1361164991743
 30
0.0
 10
93.07511119634928
 20
-149.1361164991743
 30
0.0
 10
93.07511119634928
 20
-149.1361164991743
 30
0.0
  0
HATCH
  5
9E
330
99
100
AcDbEntity
  8
_U+30EC_U+30A4_U+30E4_U+30FC 1
 62
   179
420
  2234388
100
AcDbHatch
 10
0.0
 20
0.0
 30
0.0
210
0.0
220
0.0
230
1.0
  2
SOLID
 70
     1
 71
     0
 91
        1
 92
        1
 93
        1
 72
     4
 94
        3
 73
     0
 74
     1
 95
       26
 96
       22
 40
0.0
 40
0.0
 40
0.0
 40
0.0
 40
1.0
 40
1.0
 40
1.0
 40
2.0
 40
2.0
 40
2.0
 40
3.0
 40
3.0
 40
3.0
 40
4.0
 40
4.0
 40
4.0
 40
5.0
 40
5.0
 40
5.0
 40
6.0
 40
6.0
 40
6.0
 40
7.0
 40
7.0
 40
7.0
 40
7.0
 10
93.07511119634928
 20
-149.1361164991743
 10
93.07511119634928
 20
-149.1361164991743
 10
93.07511119634928
 20
-148.032135650926
 10
93.07511119634928
 20
-148.032135650926
 10
93.07511119634928
 20
-148.032135650926
 10
92.74507104886234
 20
-148.032135650926
 10
92.74507104886234
 20
-148.032135650926
 10
92.74507104886234
 20
-148.032135650926
 10
92.74507104886234
 20
-147.8839965450603
 10
92.74507104886234
 20
-147.8839965450603
 10
93.07717825364043
 20
-147.8691826344737
 10
93.1236870426913
 20
-147.7062296180214
 10
93.15331486386445
 20
-147.5918524479111
 10
93.15331486386445
 20
-147.5918524479111
 10
93.29938691243905
 20
-147.5918524479111
 10
93.29938691243905
 20
-147.5918524479111
 10
93.29938691243905
 20
-147.5918524479111
 10
93.29938691243905
 20
-149.1361164991743
 10
93.29938691243905
 20
-149.1361164991743
 10
93.29938691243905
 20
-149.1361164991743
 10
93.07511119634928
 20
-149.1361164991743
 10
93.07511119634928
 20
-149.1361164991743
 97
        0
 97
        0
 75
     2
 76
     1
 98
        0
  0
ENDBLK
  5
9C
330
99
100
AcDbEntity
  8
0
100
AcDbBlockEnd
  0
ENDSEC
  0
SECTION
  2
ENTITIES
  0
SPLINE
  5
41
330
1F
100
AcDbEntity
  8
_U+30EC_U+30A4_U+30E4_U+30FC 1
370
     0
100
AcDbSpline
210
0.0
220
0.0
230
1.0
 70
    11
 71
     3
 72
    44
 73
    40
 74
     0
 42
0.0000000001
 43
0.0000000001
 12
1.0
 22
0.0
 32
0.0
 13
1.0
 23
0.0
 33
0.0
 40
0.0
 40
0.0
 40
0.0
 40
0.0
 40
1.0
 40
1.0
 40
1.0
 40
2.0
 40
2.0
 40
2.0
 40
3.0
 40
3.0
 40
3.0
 40
4.0
 40
4.0
 40
4.0
 40
5.0
 40
5.0
 40
5.0
 40
6.0
 40
6.0
 40
6.0
 40
7.0
 40
7.0
 40
7.0
 40
8.0
 40
8.0
 40
8.0
 40
9.0
 40
9.0
 40
9.0
 40
10.0
 40
10.0
 40
10.0
 40
11.0
 40
11.0
 40
11.0
 40
12.0
 40
12.0
 40
12.0
 40
13.0
 40
13.0
 40
13.0
 40
13.0
 10
112.4328874095003
 20
-156.7925828329807
 30
0.0
 10
112.4328874095003
 20
-156.7925828329807
 30
0.0
 10
102.9325817486606
 20
-156.7925828329807
 30
0.0
 10
102.9325817486606
 20
-156.7925828329807
 30
0.0
 10
102.7540746643885
 20
-156.4831971095201
 30
0.0
 10
102.4242283035226
 20
-156.2930547535428
 30
0.0
 10
102.0672168264594
 20
-156.2930547535428
 30
0.0
 10
102.0672168264594
 20
-156.2930547535428
 30
0.0
 10
95.93311665573813
 20
-156.2930547535428
 30
0.0
 10
95.93311665573813
 20
-156.2930547535428
 30
0.0
 10
95.93311665573813
 20
-156.2930547535428
 30
0.0
 10
95.93311665573813
 20
-143.2924863245149
 30
0.0
 10
95.93311665573813
 20
-143.2924863245149
 30
0.0
 10
95.93311665573813
 20
-143.2924863245149
 30
0.0
 10
102.9325817486606
 20
-143.2924863245149
 30
0.0
 10
102.9325817486606
 20
-143.2924863245149
 30
0.0
 10
102.9325817486606
 20
-143.2924863245149
 30
0.0
 10
102.9325817486606
 20
-142.692409903563
 30
0.0
 10
102.9325817486606
 20
-142.692409903563
 30
0.0
 10
102.9325817486606
 20
-142.692409903563
 30
0.0
 10
100.9228072443955
 20
-142.4920345374025
 30
0.0
 10
100.9228072443955
 20
-142.4920345374025
 30
0.0
 10
99.59706721465017
 20
-142.3590323198247
 30
0.0
 10
98.26533056557581
 20
-142.2927142317337
 30
0.0
 10
96.9332413325104
 20
-142.2927142317337
 30
0.0
 10
96.9332413325104
 20
-142.2927142317337
 30
0.0
 10
94.93334456295693
 20
-142.2927142317337
 30
0.0
 10
94.93334456295693
 20
-142.2927142317337
 30
0.0
 10
94.93334456295693
 20
-142.2927142317337
 30
0.0
 10
94.93334456295693
 20
-156.4927249517216
 30
0.0
 10
94.93334456295693
 20
-156.4927249517216
 30
0.0
 10
94.93334456295693
 20
-156.9344023418157
 30
0.0
 10
95.29141379199339
 20
-157.292826846324
 30
0.0
 10
95.7330911820875
 20
-157.292826846324
 30
0.0
 10
95.7330911820875
 20
-157.292826846324
 30
0.0
 10
112.9324154889381
 20
-157.292826846324
 30
0.0
 10
112.9324154889381
 20
-157.292826846324
 30
0.0
 10
112.9324154889381
 20
-157.0166001669091
 30
0.0
 10
112.7084035379714
 20
-156.7925828329807
 30
0.0
 10
112.4328874095003
 20
-156.7925828329807
 30
0.0
  0
HATCH
  5
42
330
1F
100
AcDbEntity
  8
_U+30EC_U+30A4_U+30E4_U+30FC 1
 62
     9
420
 13224394
100
AcDbHatch
 10
0.0
 20
0.0
 30
0.0
210
0.0
220
0.0
230
1.0
  2
SOLID
 70
     1
 71
     0
 91
        1
 92
        1
 93
        2
 72
     4
 94
        3
 73
     0
 74
     0
 95
       44
 96
       40
 40
0.0
 40
0.0
 40
0.0
 40
0.0
 40
0.3527777776895833
 40
0.3527777776895833
 40
0.3527777776895833
 40
0.7055555553791667
 40
0.7055555553791667
 40
0.7055555553791667
 40
1.05833333306875
 40
1.05833333306875
 40
1.05833333306875
 40
1.411111110758333
 40
1.411111110758333
 40
1.411111110758333
 40
1.763888888447917
 40
1.763888888447917
 40
1.763888888447917
 40
2.1166666661375
 40
2.1166666661375
 40
2.1166666661375
 40
2.469444443827083
 40
2.469444443827083
 40
2.469444443827083
 40
2.822222221516667
 40
2.822222221516667
 40
2.822222221516667
 40
3.17499999920625
 40
3.17499999920625
 40
3.17499999920625
 40
3.527777776895833
 40
3.527777776895833
 40
3.527777776895833
 40
3.880555554585417
 40
3.880555554585417
 40
3.880555554585417
 40
4.233333332275
 40
4.233333332275
 40
4.233333332275
 40
4.586111109964584
 40
4.586111109964584
 40
4.586111109964584
 40
4.586111109964584
 10
112.4328874095003
 20
-156.7925828329807
 10
112.4328874095003
 20
-156.7925828329807
 10
102.9325817486606
 20
-156.7925828329807
 10
102.9325817486606
 20
-156.7925828329807
 10
102.7540746643885
 20
-156.4831971095201
 10
102.4242283035226
 20
-156.2930547535428
 10
102.0672168264594
 20
-156.2930547535428
 10
102.0672168264594
 20
-156.2930547535428
 10
95.93311665573813
 20
-156.2930547535428
 10
95.93311665573813
 20
-156.2930547535428
 10
95.93311665573813
 20
-156.2930547535428
 10
95.93311665573813
 20
-143.2924863245149
 10
95.93311665573813
 20
-143.2924863245149
 10
95.93311665573813
 20
-143.2924863245149
 10
102.9325817486606
 20
-143.2924863245149
 10
102.9325817486606
 20
-143.2924863245149
 10
102.9325817486606
 20
-143.2924863245149
 10
102.9325817486606
 20
-142.692409903563
 10
102.9325817486606
 20
-142.692409903563
 10
102.9325817486606
 20
-142.692409903563
 10
100.9228072443955
 20
-142.4920345374025
 10
100.9228072443955
 20
-142.4920345374025
 10
99.59706721465017
 20
-142.3590323198247
 10
98.26533056557581
 20
-142.2927142317337
 10
96.9332413325104
 20
-142.2927142317337
 10
96.9332413325104
 20
-142.2927142317337
 10
94.93334456295693
 20
-142.2927142317337
 10
94.93334456295693
 20
-142.2927142317337
 10
94.93334456295693
 20
-142.2927142317337
 10
94.93334456295693
 20
-156.4927249517216
 10
94.93334456295693
 20
-156.4927249517216
 10
94.93334456295693
 20
-156.9344023418157
 10
95.29141379199339
 20
-157.292826846324
 10
95.7330911820875
 20
-157.292826846324
 10
95.7330911820875
 20
-157.292826846324
 10
112.9324154889381
 20
-157.292826846324
 10
112.9324154889381
 20
-157.292826846324
 10
112.9324154889381
 20
-157.0166001669091
 10
112.7084035379714
 20
-156.7925828329807
 10
112.4328874095003
 20
-156.7925828329807
 97
        0
 72
     1
 10
112.4328874095003
 20
-156.7925828329807
 11
112.4328874095003
 21
-156.7925828329807
 97
        0
 75
     2
 76
     1
 98
        0
  0
SPLINE
  5
43
330
1F
100
AcDbEntity
  8
_U+30EC_U+30A4_U+30E4_U+30FC 1
 62
   179
420
  2234388
370
    25
100
AcDbSpline
210
0.0
220
0.0
230
1.0
 70
    11
 71
     3
 72
    44
 73
    40
 74
     0
 42
0.0000000001
 43
0.0000000001
 12
1.0
 22
0.0
 32
0.0
 13
1.0
 23
0.0
 33
0.0
 40
0.0
 40
0.0
 40
0.0
 40
0.0
 40
1.0
 40
1.0
 40
1.0
 40
2.0
 40
2.0
 40
2.0
 40
3.0
 40
3.0
 40
3.0
 40
4.0
 40
4.0
 40
4.0
 40
5.0
 40
5.0
 40
5.0
 40
6.0
 40
6.0
 40
6.0
 40
7.0
 40
7.0
 40
7.0
 40
8.0
 40
8.0
 40
8.0
 40
9.0
 40
9.0
 40
9.0
 40
10.0
 40
10.0
 40
10.0
 40
11.0
 40
11.0
 40
11.0
 40
12.0
 40
12.0
 40
12.0
 40
13.0
 40
13.0
 40
13.0
 40
13.0
 10
100.9228422336465
 20
-142.4919968566703
 30
0.0
 10
99.59710220390119
 20
-142.3590000220546
 30
0.0
 10
98.26536555482684
 20
-142.2930318264737
 30
0.0
 10
96.93327632176143
 20
-142.2930318264737
 30
0.0
 10
96.93327632176143
 20
-142.2930318264737
 30
0.0
 10
94.9330269682169
 20
-142.2930318264737
 30
0.0
 10
94.9330269682169
 20
-142.2930318264737
 30
0.0
 10
94.9330269682169
 20
-142.2930318264737
 30
0.0
 10
94.9330269682169
 20
-156.4930425464616
 30
0.0
 10
94.9330269682169
 20
-156.4930425464616
 30
0.0
 10
94.9330269682169
 20
-156.9343700440455
 30
0.0
 10
95.29144878124441
 20
-157.2927891655922
 30
0.0
 10
95.73312617133853
 20
-157.2927891655922
 30
0.0
 10
95.73312617133853
 20
-157.2927891655922
 30
0.0
 10
112.93245316967
 20
-157.2927891655922
 30
0.0
 10
112.93245316967
 20
-157.2927891655922
 30
0.0
 10
112.93245316967
 20
-157.0165678691389
 30
0.0
 10
112.7084412187033
 20
-156.7925505352105
 30
0.0
 10
112.4329197072705
 20
-156.7925505352105
 30
0.0
 10
112.4329197072705
 20
-156.7925505352105
 30
0.0
 10
102.9326167379116
 20
-156.7925505352105
 30
0.0
 10
102.9326167379116
 20
-156.7925505352105
 30
0.0
 10
102.7541096536395
 20
-156.48316481175
 30
0.0
 10
102.4242632927737
 20
-156.293017072811
 30
0.0
 10
102.0672518157104
 20
-156.293017072811
 30
0.0
 10
102.0672518157104
 20
-156.293017072811
 30
0.0
 10
95.9327990609981
 20
-156.293017072811
 30
0.0
 10
95.9327990609981
 20
-156.293017072811
 30
0.0
 10
95.9327990609981
 20
-156.293017072811
 30
0.0
 10
95.9327990609981
 20
-143.2928039192549
 30
0.0
 10
95.9327990609981
 20
-143.2928039192549
 30
0.0
 10
95.9327990609981
 20
-143.2928039192549
 30
0.0
 10
102.9326167379116
 20
-143.2928039192549
 30
0.0
 10
102.9326167379116
 20
-143.2928039192549
 30
0.0
 10
102.9326167379116
 20
-143.2928039192549
 30
0.0
 10
102.9326167379116
 20
-142.6923776057928
 30
0.0
 10
102.9326167379116
 20
-142.6923776057928
 30
0.0
 10
102.9326167379116
 20
-142.6923776057928
 30
0.0
 10
100.9228422336465
 20
-142.4919968566703
 30
0.0
 10
100.9228422336465
 20
-142.4919968566703
 30
0.0
  0
SPLINE
  5
44
330
1F
100
AcDbEntity
  8
_U+30EC_U+30A4_U+30E4_U+30FC 1
 62
   179
420
  2234388
370
     9
100
AcDbSpline
210
0.0
220
0.0
230
1.0
 70
    11
 71
     3
 72
    17
 73
    13
 74
     0
 42
0.0000000001
 43
0.0000000001
 12
1.0
 22
0.0
 32
0.0
 13
1.0
 23
0.0
 33
0.0
 40
0.0
 40
0.0
 40
0.0
 40
0.0
 40
1.0
 40
1.0
 40
1.0
 40
2.0
 40
2.0
 40
2.0
 40
3.0
 40
3.0
 40
3.0
 40
4.0
 40
4.0
 40
4.0
 40
4.0
 10
95.03307738577406
 20
-138.2924254601508
 30
0.0
 10
95.03307738577406
 20
-138.2373954427356
 30
0.0
 10
94.9882723040999
 20
-138.1925930525422
 30
0.0
 10
94.93323959520387
 20
-138.1925930525422
 30
0.0
 10
94.87820688630785
 20
-138.1925930525422
 30
0.0
 10
94.83340449611451
 20
-138.2373954427356
 30
0.0
 10
94.83340449611451
 20
-138.2924254601508
 30
0.0
 10
94.83340449611451
 20
-138.3481660285098
 30
0.0
 10
94.87820688630785
 20
-138.3929684187031
 30
0.0
 10
94.93323959520387
 20
-138.3929684187031
 30
0.0
 10
94.9882723040999
 20
-138.3929684187031
 30
0.0
 10
95.03307738577406
 20
-138.3481660285098
 30
0.0
 10
95.03307738577406
 20
-138.2924254601508
 30
0.0
  0
SPLINE
  5
45
330
1F
100
AcDbEntity
  8
_U+30EC_U+30A4_U+30E4_U+30FC 1
 62
   179
420
  2234388
370
     9
100
AcDbSpline
210
0.0
220
0.0
230
1.0
 70
    11
 71
     3
 72
    17
 73
    13
 74
     0
 42
0.0000000001
 43
0.0000000001
 12
1.0
 22
0.0
 32
0.0
 13
1.0
 23
0.0
 33
0.0
 40
0.0
 40
0.0
 40
0.0
 40
0.0
 40
1.0
 40
1.0
 40
1.0
 40
2.0
 40
2.0
 40
2.0
 40
3.0
 40
3.0
 40
3.0
 40
4.0
 40
4.0
 40
4.0
 40
4.0
 10
103.033299653468
 20
-138.2924254601508
 30
0.0
 10
103.033299653468
 20
-138.2373954427356
 30
0.0
 10
102.9884945717938
 20
-138.1925930525422
 30
0.0
 10
102.9327566949157
 20
-138.1925930525422
 30
0.0
 10
102.8777239860197
 20
-138.1925930525422
 30
0.0
 10
102.8329215958263
 20
-138.2373954427356
 30
0.0
 10
102.8329215958263
 20
-138.2924254601508
 30
0.0
 10
102.8329215958263
 20
-138.3481660285098
 30
0.0
 10
102.8777239860197
 20
-138.3929684187031
 30
0.0
 10
102.9327566949157
 20
-138.3929684187031
 30
0.0
 10
102.9884945717938
 20
-138.3929684187031
 30
0.0
 10
103.033299653468
 20
-138.3481660285098
 30
0.0
 10
103.033299653468
 20
-138.2924254601508
 30
0.0
  0
SPLINE
  5
46
330
1F
100
AcDbEntity
  8
_U+30EC_U+30A4_U+30E4_U+30FC 1
 62
   179
420
  2234388
370
     9
100
AcDbSpline
210
0.0
220
0.0
230
1.0
 70
    11
 71
     3
 72
    17
 73
    13
 74
     0
 42
0.0000000001
 43
0.0000000001
 12
1.0
 22
0.0
 32
0.0
 13
1.0
 23
0.0
 33
0.0
 40
0.0
 40
0.0
 40
0.0
 40
0.0
 40
1.0
 40
1.0
 40
1.0
 40
2.0
 40
2.0
 40
2.0
 40
3.0
 40
3.0
 40
3.0
 40
4.0
 40
4.0
 40
4.0
 40
4.0
 10
116.8577788166786
 20
-143.2926639622509
 30
0.0
 10
116.8577788166786
 20
-143.2376339448357
 30
0.0
 10
116.8129710435235
 20
-143.1928315546423
 30
0.0
 10
116.7579410261084
 20
-143.1928315546423
 30
0.0
 10
116.7029056257315
 20
-143.1928315546423
 30
0.0
 10
116.6581032355382
 20
-143.2376339448357
 30
0.0
 10
116.6581032355382
 20
-143.2926639622509
 30
0.0
 10
116.6581032355382
 20
-143.3476993626277
 30
0.0
 10
116.7029056257315
 20
-143.392501752821
 30
0.0
 10
116.7579410261084
 20
-143.392501752821
 30
0.0
 10
116.8129710435235
 20
-143.392501752821
 30
0.0
 10
116.8577788166786
 20
-143.3476993626277
 30
0.0
 10
116.8577788166786
 20
-143.2926639622509
 30
0.0
  0
SPLINE
  5
47
330
1F
100
AcDbEntity
  8
_U+30EC_U+30A4_U+30E4_U+30FC 1
 62
   179
420
  2234388
370
     9
100
AcDbSpline
210
0.0
220
0.0
230
1.0
 70
    11
 71
     3
 72
    17
 73
    13
 74
     0
 42
0.0000000001
 43
0.0000000001
 12
1.0
 22
0.0
 32
0.0
 13
1.0
 23
0.0
 33
0.0
 40
0.0
 40
0.0
 40
0.0
 40
0.0
 40
1.0
 40
1.0
 40
1.0
 40
2.0
 40
2.0
 40
2.0
 40
3.0
 40
3.0
 40
3.0
 40
4.0
 40
4.0
 40
4.0
 40
4.0
 10
116.8577788166786
 20
-156.2930493705811
 30
0.0
 10
116.8577788166786
 20
-156.2373141851838
 30
0.0
 10
116.8129710435235
 20
-156.1925117949905
 30
0.0
 10
116.7579410261084
 20
-156.1925117949905
 30
0.0
 10
116.7029056257315
 20
-156.1925117949905
 30
0.0
 10
116.6581032355382
 20
-156.2373141851838
 30
0.0
 10
116.6581032355382
 20
-156.2930493705811
 30
0.0
 10
116.6581032355382
 20
-156.348084770958
 30
0.0
 10
116.7029056257315
 20
-156.3928871611514
 30
0.0
 10
116.7579410261084
 20
-156.3928871611514
 30
0.0
 10
116.8129710435235
 20
-156.3928871611514
 30
0.0
 10
116.8577788166786
 20
-156.348084770958
 30
0.0
 10
116.8577788166786
 20
-156.2930493705811
 30
0.0
  0
SPLINE
  5
48
330
1F
100
AcDbEntity
  8
_U+30EC_U+30A4_U+30E4_U+30FC 1
 62
   179
420
  2234388
370
     9
100
AcDbSpline
210
0.0
220
0.0
230
1.0
 70
    11
 71
     3
 72
    17
 73
    13
 74
     0
 42
0.0000000001
 43
0.0000000001
 12
1.0
 22
0.0
 32
0.0
 13
1.0
 23
0.0
 33
0.0
 40
0.0
 40
0.0
 40
0.0
 40
0.0
 40
1.0
 40
1.0
 40
1.0
 40
2.0
 40
2.0
 40
2.0
 40
3.0
 40
3.0
 40
3.0
 40
4.0
 40
4.0
 40
4.0
 40
4.0
 10
95.03307738577406
 20
-161.2932555749111
 30
0.0
 10
95.03307738577406
 20
-161.2382255574959
 30
0.0
 10
94.9882723040999
 20
-161.1934231673026
 30
0.0
 10
94.93323959520387
 20
-161.1934231673026
 30
0.0
 10
94.87820688630785
 20
-161.1934231673026
 30
0.0
 10
94.83340449611451
 20
-161.2382255574959
 30
0.0
 10
94.83340449611451
 20
-161.2932555749111
 30
0.0
 10
94.83340449611451
 20
-161.3482909752879
 30
0.0
 10
94.87820688630785
 20
-161.3930933654813
 30
0.0
 10
94.93323959520387
 20
-161.3930933654813
 30
0.0
 10
94.9882723040999
 20
-161.3930933654813
 30
0.0
 10
95.03307738577406
 20
-161.3482909752879
 30
0.0
 10
95.03307738577406
 20
-161.2932555749111
 30
0.0
  0
SPLINE
  5
49
330
1F
100
AcDbEntity
  8
_U+30EC_U+30A4_U+30E4_U+30FC 1
 62
   179
420
  2234388
370
     9
100
AcDbSpline
210
0.0
220
0.0
230
1.0
 70
    11
 71
     3
 72
    17
 73
    13
 74
     0
 42
0.0000000001
 43
0.0000000001
 12
1.0
 22
0.0
 32
0.0
 13
1.0
 23
0.0
 33
0.0
 40
0.0
 40
0.0
 40
0.0
 40
0.0
 40
1.0
 40
1.0
 40
1.0
 40
2.0
 40
2.0
 40
2.0
 40
3.0
 40
3.0
 40
3.0
 40
4.0
 40
4.0
 40
4.0
 40
4.0
 10
113.0323286409721
 20
-161.2932555749111
 30
0.0
 10
113.0323286409721
 20
-161.2382255574959
 30
0.0
 10
112.987520867817
 20
-161.1934231673026
 30
0.0
 10
112.9324908504019
 20
-161.1934231673026
 30
0.0
 10
112.877455450025
 20
-161.1934231673026
 30
0.0
 10
112.8326530598317
 20
-161.2382255574959
 30
0.0
 10
112.8326530598317
 20
-161.2932555749111
 30
0.0
 10
112.8326530598317
 20
-161.3482909752879
 30
0.0
 10
112.877455450025
 20
-161.3930933654813
 30
0.0
 10
112.9324908504019
 20
-161.3930933654813
 30
0.0
 10
112.987520867817
 20
-161.3930933654813
 30
0.0
 10
113.0323286409721
 20
-161.3482909752879
 30
0.0
 10
113.0323286409721
 20
-161.2932555749111
 30
0.0
  0
POLYLINE
  5
4A
330
1F
100
AcDbEntity
  8
_U+30EC_U+30A4_U+30E4_U+30FC 1
 62
   179
420
  2234388
370
     9
100
AcDb2dPolyline
 66
     1
 10
0.0
 20
0.0
 30
0.0
  0
VERTEX
  5
4B
330
4A
100
AcDbEntity
  8
_U+30EC_U+30A4_U+30E4_U+30FC 1
 62
   179
420
  2234388
370
     9
100
AcDbVertex
100
AcDb2dVertex
 10
94.93316961670182
 20
-138.2924254601508
 30
0.0
  0
VERTEX
  5
4C
330
4A
100
AcDbEntity
  8
_U+30EC_U+30A4_U+30E4_U+30FC 1
 62
   179
420
  2234388
370
     9
100
AcDbVertex
100
AcDb2dVertex
 10
102.9327566949157
 20
-138.2924254601508
 30
0.0
  0
SEQEND
  5
4D
330
4A
100
AcDbEntity
  8
_U+30EC_U+30A4_U+30E4_U+30FC 1
 62
   179
420
  2234388
370
     9
  0
POLYLINE
  5
4E
330
1F
100
AcDbEntity
  8
_U+30EC_U+30A4_U+30E4_U+30FC 1
 62
   179
420
  2234388
370
     9
100
AcDb2dPolyline
 66
     1
 10
0.0
 20
0.0
 30
0.0
  0
VERTEX
  5
4F
330
4E
100
AcDbEntity
  8
_U+30EC_U+30A4_U+30E4_U+30FC 1
 62
   179
420
  2234388
370
     9
100
AcDbVertex
100
AcDb2dVertex
 10
94.93316961670182
 20
-139.752467692723
 30
0.0
  0
VERTEX
  5
50
330
4E
100
AcDbEntity
  8
_U+30EC_U+30A4_U+30E4_U+30FC 1
 62
   179
420
  2234388
370
     9
100
AcDbVertex
100
AcDb2dVertex
 10
94.93316961670182
 20
-137.2925510910973
 30
0.0
  0
SEQEND
  5
51
330
4E
100
AcDbEntity
  8
_U+30EC_U+30A4_U+30E4_U+30FC 1
 62
   179
420
  2234388
370
     9
  0
POLYLINE
  5
52
330
1F
100
AcDbEntity
  8
_U+30EC_U+30A4_U+30E4_U+30FC 1
 62
   179
420
  2234388
370
     9
100
AcDb2dPolyline
 66
     1
 10
0.0
 20
0.0
 30
0.0
  0
VERTEX
  5
53
330
52
100
AcDbEntity
  8
_U+30EC_U+30A4_U+30E4_U+30FC 1
 62
   179
420
  2234388
370
     9
100
AcDbVertex
100
AcDb2dVertex
 10
102.9326544186435
 20
-140.1527985540324
 30
0.0
  0
VERTEX
  5
54
330
52
100
AcDbEntity
  8
_U+30EC_U+30A4_U+30E4_U+30FC 1
 62
   179
420
  2234388
370
     9
100
AcDbVertex
100
AcDb2dVertex
 10
102.9326544186435
 20
-137.2928310051055
 30
0.0
  0
SEQEND
  5
55
330
52
100
AcDbEntity
  8
_U+30EC_U+30A4_U+30E4_U+30FC 1
 62
   179
420
  2234388
370
     9
  0
INSERT
  5
57
330
1F
100
AcDbEntity
  8
_U+30EC_U+30A4_U+30E4_U+30FC 1
100
AcDbBlockReference
  2
block 2
 10
0.0
 20
0.0
 30
0.0
  0
POLYLINE
  5
5E
330
1F
100
AcDbEntity
  8
_U+30EC_U+30A4_U+30E4_U+30FC 1
 62
   179
420
  2234388
370
     9
100
AcDb2dPolyline
 66
     1
 10
0.0
 20
0.0
 30
0.0
  0
VERTEX
  5
5F
330
5E
100
AcDbEntity
  8
_U+30EC_U+30A4_U+30E4_U+30FC 1
 62
   179
420
  2234388
370
     9
100
AcDbVertex
100
AcDb2dVertex
 10
94.93316961670182
 20
-161.2932555749111
 30
0.0
  0
VERTEX
  5
60
330
5E
100
AcDbEntity
  8
_U+30EC_U+30A4_U+30E4_U+30FC 1
 62
   179
420
  2234388
370
     9
100
AcDbVertex
100
AcDb2dVertex
 10
112.9322432341639
 20
-161.2932555749111
 30
0.0
  0
SEQEND
  5
61
330
5E
100
AcDbEntity
  8
_U+30EC_U+30A4_U+30E4_U+30FC 1
 62
   179
420
  2234388
370
     9
  0
POLYLINE
  5
62
330
1F
100
AcDbEntity
  8
_U+30EC_U+30A4_U+30E4_U+30FC 1
 62
   179
420
  2234388
370
     9
100
AcDb2dPolyline
 66
     1
 10
0.0
 20
0.0
 30
0.0
  0
VERTEX
  5
63
330
62
100
AcDbEntity
  8
_U+30EC_U+30A4_U+30E4_U+30FC 1
 62
   179
420
  2234388
370
     9
100
AcDbVertex
100
AcDb2dVertex
 10
94.93316961670182
 20
-159.0332890854723
 30
0.0
  0
VERTEX
  5
64
330
62
100
AcDbEntity
  8
_U+30EC_U+30A4_U+30E4_U+30FC 1
 62
   179
420
  2234388
370
     9
100
AcDbVertex
100
AcDb2dVertex
 10
94.93316961670182
 20
-162.2929576891902
 30
0.0
  0
SEQEND
  5
65
330
62
100
AcDbEntity
  8
_U+30EC_U+30A4_U+30E4_U+30FC 1
 62
   179
420
  2234388
370
     9
  0
POLYLINE
  5
66
330
1F
100
AcDbEntity
  8
_U+30EC_U+30A4_U+30E4_U+30FC 1
 62
   179
420
  2234388
370
     9
100
AcDb2dPolyline
 66
     1
 10
0.0
 20
0.0
 30
0.0
  0
VERTEX
  5
67
330
66
100
AcDbEntity
  8
_U+30EC_U+30A4_U+30E4_U+30FC 1
 62
   179
420
  2234388
370
     9
100
AcDbVertex
100
AcDb2dVertex
 10
112.9324208718998
 20
-159.833245640109
 30
0.0
  0
VERTEX
  5
68
330
66
100
AcDbEntity
  8
_U+30EC_U+30A4_U+30E4_U+30FC 1
 62
   179
420
  2234388
370
     9
100
AcDbVertex
100
AcDb2dVertex
 10
112.9324208718998
 20
-162.2931676246964
 30
0.0
  0
SEQEND
  5
69
330
66
100
AcDbEntity
  8
_U+30EC_U+30A4_U+30E4_U+30FC 1
 62
   179
420
  2234388
370
     9
  0
INSERT
  5
6B
330
1F
100
AcDbEntity
  8
_U+30EC_U+30A4_U+30E4_U+30FC 1
100
AcDbBlockReference
  2
block 3
 10
0.0
 20
0.0
 30
0.0
  0
POLYLINE
  5
74
330
1F
100
AcDbEntity
  8
_U+30EC_U+30A4_U+30E4_U+30FC 1
 62
   179
420
  2234388
370
     9
100
AcDb2dPolyline
 66
     1
 10
0.0
 20
0.0
 30
0.0
  0
VERTEX
  5
75
330
74
100
AcDbEntity
  8
_U+30EC_U+30A4_U+30E4_U+30FC 1
 62
   179
420
  2234388
370
     9
100
AcDbVertex
100
AcDb2dVertex
 10
116.7578387498362
 20
-156.2930493705811
 30
0.0
  0
VERTEX
  5
76
330
74
100
AcDbEntity
  8
_U+30EC_U+30A4_U+30E4_U+30FC 1
 62
   179
420
  2234388
370
     9
100
AcDbVertex
100
AcDb2dVertex
 10
116.7578387498362
 20
-143.2924863245149
 30
0.0
  0
SEQEND
  5
77
330
74
100
AcDbEntity
  8
_U+30EC_U+30A4_U+30E4_U+30FC 1
 62
   179
420
  2234388
370
     9
  0
POLYLINE
  5
78
330
1F
100
AcDbEntity
  8
_U+30EC_U+30A4_U+30E4_U+30FC 1
 62
   179
420
  2234388
370
     9
100
AcDb2dPolyline
 66
     1
 10
0.0
 20
0.0
 30
0.0
  0
VERTEX
  5
79
330
78
100
AcDbEntity
  8
_U+30EC_U+30A4_U+30E4_U+30FC 1
 62
   179
420
  2234388
370
     9
100
AcDbVertex
100
AcDb2dVertex
 10
115.6306411877943
 20
-156.2930493705811
 30
0.0
  0
VERTEX
  5
7A
330
78
100
AcDbEntity
  8
_U+30EC_U+30A4_U+30E4_U+30FC 1
 62
   179
420
  2234388
370
     9
100
AcDbVertex
100
AcDb2dVertex
 10
117.7582406491357
 20
-156.2930493705811
 30
0.0
  0
SEQEND
  5
7B
330
78
100
AcDbEntity
  8
_U+30EC_U+30A4_U+30E4_U+30FC 1
 62
   179
420
  2234388
370
     9
  0
POLYLINE
  5
7C
330
1F
100
AcDbEntity
  8
_U+30EC_U+30A4_U+30E4_U+30FC 1
 62
   179
420
  2234388
370
     9
100
AcDb2dPolyline
 66
     1
 10
0.0
 20
0.0
 30
0.0
  0
VERTEX
  5
7D
330
7C
100
AcDbEntity
  8
_U+30EC_U+30A4_U+30E4_U+30FC 1
 62
   179
420
  2234388
370
     9
100
AcDbVertex
100
AcDb2dVertex
 10
115.6306411877943
 20
-143.2926639622509
 30
0.0
  0
VERTEX
  5
7E
330
7C
100
AcDbEntity
  8
_U+30EC_U+30A4_U+30E4_U+30FC 1
 62
   179
420
  2234388
370
     9
100
AcDbVertex
100
AcDb2dVertex
 10
117.7582406491357
 20
-143.2926639622509
 30
0.0
  0
SEQEND
  5
7F
330
7C
100
AcDbEntity
  8
_U+30EC_U+30A4_U+30E4_U+30FC 1
 62
   179
420
  2234388
370
     9
  0
INSERT
  5
81
330
1F
100
AcDbEntity
  8
_U+30EC_U+30A4_U+30E4_U+30FC 1
100
AcDbBlockReference
  2
block 4
 10
0.0
 20
0.0
 30
0.0
  0
SPLINE
  5
88
330
1F
100
AcDbEntity
  8
_U+30EC_U+30A4_U+30E4_U+30FC 1
 62
   179
420
  2234388
370
     9
100
AcDbSpline
210
0.0
220
0.0
230
1.0
 70
    11
 71
     3
 72
    17
 73
    13
 74
     0
 42
0.0000000001
 43
0.0000000001
 12
1.0
 22
0.0
 32
0.0
 13
1.0
 23
0.0
 33
0.0
 40
0.0
 40
0.0
 40
0.0
 40
0.0
 40
1.0
 40
1.0
 40
1.0
 40
2.0
 40
2.0
 40
2.0
 40
3.0
 40
3.0
 40
3.0
 40
4.0
 40
4.0
 40
4.0
 40
4.0
 10
116.8584516868905
 20
-157.2921162953802
 30
0.0
 10
116.8584516868905
 20
-157.2363811099829
 30
0.0
 10
116.8136439137355
 20
-157.1915787197896
 30
0.0
 10
116.7586138963203
 20
-157.1915787197896
 30
0.0
 10
116.7035784959435
 20
-157.1915787197896
 30
0.0
 10
116.6587761057501
 20
-157.2363811099829
 30
0.0
 10
116.6587761057501
 20
-157.2921162953802
 30
0.0
 10
116.6587761057501
 20
-157.3471516957571
 30
0.0
 10
116.7035784959435
 20
-157.3919540859504
 30
0.0
 10
116.7586138963203
 20
-157.3919540859504
 30
0.0
 10
116.8136439137355
 20
-157.3919540859504
 30
0.0
 10
116.8584516868905
 20
-157.3471516957571
 30
0.0
 10
116.8584516868905
 20
-157.2921162953802
 30
0.0
  0
POLYLINE
  5
89
330
1F
100
AcDbEntity
  8
_U+30EC_U+30A4_U+30E4_U+30FC 1
 62
   179
420
  2234388
370
     9
100
AcDb2dPolyline
 66
     1
 10
0.0
 20
0.0
 30
0.0
  0
VERTEX
  5
8A
330
89
100
AcDbEntity
  8
_U+30EC_U+30A4_U+30E4_U+30FC 1
 62
   179
420
  2234388
370
     9
100
AcDbVertex
100
AcDb2dVertex
 10
116.7585439178183
 20
-157.29144880813
 30
0.0
  0
VERTEX
  5
8B
330
89
100
AcDbEntity
  8
_U+30EC_U+30A4_U+30E4_U+30FC 1
 62
   179
420
  2234388
370
     9
100
AcDbVertex
100
AcDb2dVertex
 10
116.7585439178183
 20
-154.4900424994906
 30
0.0
  0
SEQEND
  5
8C
330
89
100
AcDbEntity
  8
_U+30EC_U+30A4_U+30E4_U+30FC 1
 62
   179
420
  2234388
370
     9
  0
POLYLINE
  5
8D
330
1F
100
AcDbEntity
  8
_U+30EC_U+30A4_U+30E4_U+30FC 1
 62
   179
420
  2234388
370
     9
100
AcDb2dPolyline
 66
     1
 10
0.0
 20
0.0
 30
0.0
  0
VERTEX
  5
8E
330
8D
100
AcDbEntity
  8
_U+30EC_U+30A4_U+30E4_U+30FC 1
 62
   179
420
  2234388
370
     9
100
AcDbVertex
100
AcDb2dVertex
 10
115.6306411877943
 20
-157.29144880813
 30
0.0
  0
VERTEX
  5
8F
330
8D
100
AcDbEntity
  8
_U+30EC_U+30A4_U+30E4_U+30FC 1
 62
   179
420
  2234388
370
     9
100
AcDbVertex
100
AcDb2dVertex
 10
117.7582406491357
 20
-157.29144880813
 30
0.0
  0
SEQEND
  5
90
330
8D
100
AcDbEntity
  8
_U+30EC_U+30A4_U+30E4_U+30FC 1
 62
   179
420
  2234388
370
     9
  0
INSERT
  5
92
330
1F
100
AcDbEntity
  8
_U+30EC_U+30A4_U+30E4_U+30FC 1
100
AcDbBlockReference
  2
block 5
 10
0.0
 20
0.0
 30
0.0
  0
SPLINE
  5
97
330
1F
100
AcDbEntity
  8
_U+30EC_U+30A4_U+30E4_U+30FC 1
 62
   179
420
  2234388
370
     9
100
AcDbSpline
210
0.0
220
0.0
230
1.0
 70
    11
 71
     3
 72
    17
 73
    13
 74
     0
 42
0.0000000001
 43
0.0000000001
 12
1.0
 22
0.0
 32
0.0
 13
1.0
 23
0.0
 33
0.0
 40
0.0
 40
0.0
 40
0.0
 40
0.0
 40
1.0
 40
1.0
 40
1.0
 40
2.0
 40
2.0
 40
2.0
 40
3.0
 40
3.0
 40
3.0
 40
4.0
 40
4.0
 40
4.0
 40
4.0
 10
95.03723841516485
 20
-149.7253193375008
 30
0.0
 10
95.03723841516485
 20
-149.6702893200857
 30
0.0
 10
94.99243333349067
 20
-149.6254869298924
 30
0.0
 10
94.93740062459497
 20
-149.6254869298924
 30
0.0
 10
94.88236791569862
 20
-149.6254869298924
 30
0.0
 10
94.8375655255053
 20
-149.6702893200857
 30
0.0
 10
94.8375655255053
 20
-149.7253193375008
 30
0.0
 10
94.8375655255053
 20
-149.7803547378777
 30
0.0
 10
94.88236791569862
 20
-149.8251571280711
 30
0.0
 10
94.93740062459497
 20
-149.8251571280711
 30
0.0
 10
94.99243333349067
 20
-149.8251571280711
 30
0.0
 10
95.03723841516485
 20
-149.7803547378777
 30
0.0
 10
95.03723841516485
 20
-149.7253193375008
 30
0.0
  0
SPLINE
  5
98
330
1F
100
AcDbEntity
  8
_U+30EC_U+30A4_U+30E4_U+30FC 1
 62
   179
420
  2234388
370
     9
100
AcDbSpline
210
0.0
220
0.0
230
1.0
 70
    11
 71
     3
 72
    17
 73
    13
 74
     0
 42
0.0000000001
 43
0.0000000001
 12
1.0
 22
0.0
 32
0.0
 13
1.0
 23
0.0
 33
0.0
 40
0.0
 40
0.0
 40
0.0
 40
0.0
 40
1.0
 40
1.0
 40
1.0
 40
2.0
 40
2.0
 40
2.0
 40
3.0
 40
3.0
 40
3.0
 40
4.0
 40
4.0
 40
4.0
 40
4.0
 10
96.0370131994269
 20
-149.7253193375008
 30
0.0
 10
96.0370131994269
 20
-149.6702893200857
 30
0.0
 10
95.99220811775271
 20
-149.6254869298924
 30
0.0
 10
95.93717540885669
 20
-149.6254869298924
 30
0.0
 10
95.88214269996068
 20
-149.6254869298924
 30
0.0
 10
95.83734030976734
 20
-149.6702893200857
 30
0.0
 10
95.83734030976734
 20
-149.7253193375008
 30
0.0
 10
95.83734030976734
 20
-149.7803547378777
 30
0.0
 10
95.88214269996068
 20
-149.8251571280711
 30
0.0
 10
95.93717540885669
 20
-149.8251571280711
 30
0.0
 10
95.99220811775271
 20
-149.8251571280711
 30
0.0
 10
96.0370131994269
 20
-149.7803547378777
 30
0.0
 10
96.0370131994269
 20
-149.7253193375008
 30
0.0
  0
INSERT
  5
9A
330
1F
100
AcDbEntity
  8
_U+30EC_U+30A4_U+30E4_U+30FC 1
100
AcDbBlockReference
  2
block 6
 10
0.0
 20
0.0
 30
0.0
  0
POLYLINE
  5
9F
330
1F
100
AcDbEntity
  8
_U+30EC_U+30A4_U+30E4_U+30FC 1
 62
   179
420
  2234388
370
     9
100
AcDb2dPolyline
 66
     1
 10
0.0
 20
0.0
 30
0.0
  0
VERTEX
  5
A0
330
9F
100
AcDbEntity
  8
_U+30EC_U+30A4_U+30E4_U+30FC 1
 62
   179
420
  2234388
370
     9
100
AcDbVertex
100
AcDb2dVertex
 10
96.79837661018627
 20
-149.7253193375008
 30
0.0
  0
VERTEX
  5
A1
330
9F
100
AcDbEntity
  8
_U+30EC_U+30A4_U+30E4_U+30FC 1
 62
   179
420
  2234388
370
     9
100
AcDbVertex
100
AcDb2dVertex
 10
92.29834174921682
 20
-149.7253193375008
 30
0.0
  0
SEQEND
  5
A2
330
9F
100
AcDbEntity
  8
_U+30EC_U+30A4_U+30E4_U+30FC 1
 62
   179
420
  2234388
370
     9
  0
POLYLINE
  5
A3
330
1F
100
AcDbEntity
  8
_U+30EC_U+30A4_U+30E4_U+30FC 1
  6
AI-Linetype-1
 62
     8
420
  8223869
370
    25
100
AcDb2dPolyline
 66
     1
 10
0.0
 20
0.0
 30
0.0
  0
VERTEX
  5
A4
330
A3
100
AcDbEntity
  8
_U+30EC_U+30A4_U+30E4_U+30FC 1
  6
AI-Linetype-1
 62
     8
420
  8223869
370
    25
100
AcDbVertex
100
AcDb2dVertex
 10
103.4935697932591
 20
-143.3512252025384
 30
0.0
  0
VERTEX
  5
A5
330
A3
100
AcDbEntity
  8
_U+30EC_U+30A4_U+30E4_U+30FC 1
  6
AI-Linetype-1
 62
     8
420
  8223869
370
    25
100
AcDbVertex
100
AcDb2dVertex
 10
103.4935697932591
 20
-141.7196279807241
 30
0.0
  0
VERTEX
  5
A6
330
A3
100
AcDbEntity
  8
_U+30EC_U+30A4_U+30E4_U+30FC 1
  6
AI-Linetype-1
 62
     8
420
  8223869
370
    25
100
AcDbVertex
100
AcDb2dVertex
 10
94.32134757332993
 20
-141.7196279807241
 30
0.0
  0
VERTEX
  5
A7
330
A3
100
AcDbEntity
  8
_U+30EC_U+30A4_U+30E4_U+30FC 1
  6
AI-Linetype-1
 62
     8
420
  8223869
370
    25
100
AcDbVertex
100
AcDb2dVertex
 10
94.32134757332993
 20
-157.29300448406
 30
0.0
  0
SEQEND
  5
A9
330
A3
100
AcDbEntity
  8
_U+30EC_U+30A4_U+30E4_U+30FC 1
  6
AI-Linetype-1
 62
     8
420
  8223869
370
    25
  0
ENDSEC
  0
SECTION
  2
OBJECTS
  0
DICTIONARY
  5
C
330
0
100
AcDbDictionary
281
     1
  3
ACAD_GROUP
350
D
  3
ACAD_LAYOUT
350
1A
  3
ACAD_MATERIAL
350
3B
  3
ACAD_MLEADERSTYLE
350
AB
  3
ACAD_MLINESTYLE
350
17
  3
ACAD_PLOTSETTINGS
350
19
  3
ACAD_PLOTSTYLENAME
350
E
  3
ACAD_TABLESTYLE
350
AA
  3
ACAD_VISUALSTYLE
350
2A
  0
SUN
  5
3F
330
29
100
AcDbSun
 90
        1
290
     0
 63
     7
421
 16777215
 40
1.0
291
     1
 91
  2455826
 92
 54000000
292
     0
 70
     2
 71
   256
280
     1
  0
DICTIONARY
  5
D
102
{ACAD_REACTORS
330
C
102
}
330
C
100
AcDbDictionary
281
     1
  0
DICTIONARY
  5
1A
102
{ACAD_REACTORS
330
C
102
}
330
C
100
AcDbDictionary
281
     1
  3
Layout1
350
1E
  3
Layout2
350
26
  3
Model
350
22
  0
DICTIONARY
  5
3B
102
{ACAD_REACTORS
330
C
102
}
330
C
100
AcDbDictionary
281
     1
  3
ByBlock
350
3D
  3
ByLayer
350
3C
  3
Global
350
3E
  0
DICTIONARY
  5
AB
102
{ACAD_REACTORS
330
C
102
}
330
C
100
AcDbDictionary
281
     1
  0
DICTIONARY
  5
17
102
{ACAD_REACTORS
330
C
102
}
330
C
100
AcDbDictionary
281
     1
  3
Standard
350
18
  0
DICTIONARY
  5
19
102
{ACAD_REACTORS
330
C
102
}
330
C
100
AcDbDictionary
281
     1
  0
ACDBDICTIONARYWDFLT
  5
E
102
{ACAD_REACTORS
330
C
102
}
330
C
100
AcDbDictionary
281
     1
  3
Normal
350
F
100
AcDbDictionaryWithDefault
340
F
  0
DICTIONARY
  5
AA
102
{ACAD_REACTORS
330
C
102
}
330
C
100
AcDbDictionary
281
     1
  0
DICTIONARY
  5
2A
102
{ACAD_REACTORS
330
C
102
}
330
C
100
AcDbDictionary
281
     1
  3
2dWireframe
350
2F
  3
3D Hidden
350
31
  3
3dWireframe
350
30
  3
Basic
350
32
  3
Brighten
350
36
  3
ColorChange
350
3A
  3
Conceptual
350
34
  3
Dim
350
35
  3
Facepattern
350
39
  3
Flat
350
2B
  3
FlatWithEdges
350
2C
  3
Gouraud
350
2D
  3
GouraudWithEdges
350
2E
  3
Linepattern
350
38
  3
Realistic
350
33
  3
Thicken
350
37
  0
LAYOUT
  5
1E
102
{ACAD_REACTORS
330
1A
102
}
330
1A
100
AcDbPlotSettings
  1

  2
none_device
  4

  6

 40
0.0
 41
0.0
 42
0.0
 43
0.0
 44
0.0
 45
0.0
 46
0.0
 47
0.0
 48
0.0
 49
0.0
140
0.0
141
0.0
142
1.0
143
1.0
 70
   688
 72
     0
 73
     0
 74
     5
  7

 75
    16
 76
     0
 77
     2
 78
   300
147
1.0
148
0.0
149
0.0
100
AcDbLayout
  1
Layout1
 70
     1
 71
     1
 10
0.0
 20
0.0
 11
12.0
 21
9.0
 12
0.0
 22
0.0
 32
0.0
 14
1.000000000000000E+20
 24
1.000000000000000E+20
 34
1.000000000000000E+20
 15
-1.000000000000000E+20
 25
-1.000000000000000E+20
 35
-1.000000000000000E+20
146
0.0
 13
0.0
 23
0.0
 33
0.0
 16
1.0
 26
0.0
 36
0.0
 17
0.0
 27
1.0
 37
0.0
 76
     0
330
1B
  0
LAYOUT
  5
26
102
{ACAD_REACTORS
330
1A
102
}
330
1A
100
AcDbPlotSettings
  1

  2
none_device
  4

  6

 40
0.0
 41
0.0
 42
0.0
 43
0.0
 44
0.0
 45
0.0
 46
0.0
 47
0.0
 48
0.0
 49
0.0
140
0.0
141
0.0
142
1.0
143
1.0
 70
   688
 72
     0
 73
     0
 74
     5
  7

 75
    16
 76
     0
 77
     2
 78
   300
147
1.0
148
0.0
149
0.0
100
AcDbLayout
  1
Layout2
 70
     1
 71
     2
 10
0.0
 20
0.0
 11
0.0
 21
0.0
 12
0.0
 22
0.0
 32
0.0
 14
0.0
 24
0.0
 34
0.0
 15
0.0
 25
0.0
 35
0.0
146
0.0
 13
0.0
 23
0.0
 33
0.0
 16
1.0
 26
0.0
 36
0.0
 17
0.0
 27
1.0
 37
0.0
 76
     0
330
23
  0
LAYOUT
  5
22
102
{ACAD_REACTORS
330
1A
102
}
330
1A
100
AcDbPlotSettings
  1

  2
none_device
  4

  6

 40
0.0
 41
0.0
 42
0.0
 43
0.0
 44
0.0
 45
0.0
 46
0.0
 47
0.0
 48
0.0
 49
0.0
140
0.0
141
0.0
142
1.0
143
1.0
 70
  1712
 72
     0
 73
     0
 74
     0
  7

 75
     0
 76
     0
 77
     2
 78
   300
147
1.0
148
0.0
149
0.0
100
AcDbLayout
  1
Model
 70
     1
 71
     0
 10
0.0
 20
0.0
 11
12.0
 21
9.0
 12
0.0
 22
0.0
 32
0.0
 14
1.000000000000000E+20
 24
1.000000000000000E+20
 34
1.000000000000000E+20
 15
-1.000000000000000E+20
 25
-1.000000000000000E+20
 35
-1.000000000000000E+20
146
0.0
 13
0.0
 23
0.0
 33
0.0
 16
1.0
 26
0.0
 36
0.0
 17
0.0
 27
1.0
 37
0.0
 76
     0
330
1F
331
29
  0
MATERIAL
  5
3D
102
{ACAD_REACTORS
330
3B
102
}
330
3B
100
AcDbMaterial
  1
ByBlock
 72
     1
 94
      127
  0
MATERIAL
  5
3C
102
{ACAD_REACTORS
330
3B
102
}
330
3B
100
AcDbMaterial
  1
ByLayer
 72
     1
 94
      127
  0
MATERIAL
  5
3E
102
{ACAD_REACTORS
330
3B
102
}
330
3B
100
AcDbMaterial
  1
Global
 72
     1
 94
      127
  0
MLINESTYLE
  5
18
102
{ACAD_REACTORS
330
17
102
}
330
17
100
AcDbMlineStyle
  2
Standard
 70
     0
  3

 62
   256
 51
90.0
 52
90.0
 71
     2
 49
0.5
 62
   256
  6
BYLAYER
 49
-0.5
 62
   256
  6
BYLAYER
  0
ACDBPLACEHOLDER
  5
F
102
{ACAD_REACTORS
330
E
102
}
330
E
  0
VISUALSTYLE
  5
2F
102
{ACAD_REACTORS
330
2A
102
}
330
2A
100
AcDbVisualStyle
  2
2dWireframe
 70
     4
177
     2
291
     0
 71
     0
176
     1
 72
     2
176
     1
 73
     0
176
     1
 90
        0
176
     1
 40
-0.6
176
     1
 41
-30.0
176
     1
 62
     5
 63
     7
421
 16777215
176
     1
 74
     1
176
     1
 91
        4
176
     1
 64
     7
176
     1
 65
   257
176
     1
 75
     1
176
     1
175
     1
176
     1
 42
1.0
176
     1
 92
        0
176
     1
 66
   257
176
     1
 43
1.0
176
     1
 76
     1
176
     1
 77
     6
176
     1
 78
     2
176
     1
 67
     7
176
     1
 79
     5
176
     1
170
     0
176
     1
171
     0
176
     1
290
     0
176
     1
 93
        1
176
     1
 44
0.0
176
     1
173
     0
176
     1
  0
VISUALSTYLE
  5
31
102
{ACAD_REACTORS
330
2A
102
}
330
2A
100
AcDbVisualStyle
  2
3D Hidden
 70
     6
177
     2
291
     0
 71
     1
176
     1
 72
     2
176
     1
 73
     2
176
     1
 90
        0
176
     1
 40
-0.6
176
     1
 41
-30.0
176
     1
 62
     5
 63
     7
421
 16777215
176
     1
 74
     2
176
     1
 91
        2
176
     1
 64
     7
176
     1
 65
   257
176
     1
 75
     2
176
     1
175
     1
176
     1
 42
40.0
176
     1
 92
        0
176
     1
 66
   257
176
     1
 43
1.0
176
     1
 76
     1
176
     1
 77
     6
176
     1
 78
     2
176
     1
 67
     7
176
     1
 79
     3
176
     1
170
     0
176
     1
171
     0
176
     1
290
     0
176
     1
 93
        1
176
     1
 44
0.0
176
     1
173
     0
176
     1
  0
VISUALSTYLE
  5
30
102
{ACAD_REACTORS
330
2A
102
}
330
2A
100
AcDbVisualStyle
  2
3dWireframe
 70
     5
177
     2
291
     0
 71
     0
176
     1
 72
     2
176
     1
 73
     0
176
     1
 90
        0
176
     1
 40
-0.6
176
     1
 41
-30.0
176
     1
 62
     5
 63
     7
421
 16777215
176
     1
 74
     1
176
     1
 91
        4
176
     1
 64
     7
176
     1
 65
   257
176
     1
 75
     1
176
     1
175
     1
176
     1
 42
1.0
176
     1
 92
        0
176
     1
 66
   257
176
     1
 43
1.0
176
     1
 76
     1
176
     1
 77
     6
176
     1
 78
     2
176
     1
 67
     7
176
     1
 79
     5
176
     1
170
     0
176
     1
171
     0
176
     1
290
     0
176
     1
 93
        1
176
     1
 44
0.0
176
     1
173
     0
176
     1
  0
VISUALSTYLE
  5
32
102
{ACAD_REACTORS
330
2A
102
}
330
2A
100
AcDbVisualStyle
  2
Basic
 70
     7
177
     2
291
     1
 71
     1
176
     1
 72
     0
176
     1
 73
     1
176
     1
 90
        0
176
     1
 40
-0.6
176
     1
 41
-30.0
176
     1
 62
     5
 63
     7
421
 16777215
176
     1
 74
     0
176
     1
 91
        4
176
     1
 64
     7
176
     1
 65
   257
176
     1
 75
     1
176
     1
175
     1
176
     1
 42
1.0
176
     1
 92
        8
176
     1
 66
     7
176
     1
 43
1.0
176
     1
 76
     1
176
     1
 77
     6
176
     1
 78
     2
176
     1
 67
     7
176
     1
 79
     5
176
     1
170
     0
176
     1
171
     0
176
     1
290
     0
176
     1
 93
        1
176
     1
 44
0.0
176
     1
173
     0
176
     1
  0
VISUALSTYLE
  5
36
102
{ACAD_REACTORS
330
2A
102
}
330
2A
100
AcDbVisualStyle
  2
Brighten
 70
    12
177
     2
291
     1
 71
     2
176
     1
 72
     2
176
     1
 73
     0
176
     1
 90
        0
176
     1
 40
-0.6
176
     1
 41
-30.0
176
     1
 62
     5
 63
     7
421
 16777215
176
     1
 74
     1
176
     1
 91
        4
176
     1
 64
     7
176
     1
 65
   257
176
     1
 75
     1
176
     1
175
     1
176
     1
 42
1.0
176
     1
 92
        8
176
     1
 66
     7
176
     1
 43
1.0
176
     1
 76
     1
176
     1
 77
     6
176
     1
 78
     2
176
     1
 67
     7
176
     1
 79
     5
176
     1
170
     0
176
     1
171
     0
176
     1
290
     0
176
     1
 93
        1
176
     1
 44
50.0
176
     1
173
     0
176
     1
  0
VISUALSTYLE
  5
3A
102
{ACAD_REACTORS
330
2A
102
}
330
2A
100
AcDbVisualStyle
  2
ColorChange
 70
    16
177
     2
291
     1
 71
     2
176
     1
 72
     2
176
     1
 73
     3
176
     1
 90
        0
176
     1
 40
-0.6
176
     1
 41
-30.0
176
     1
 62
     5
 63
     8
421
  8421504
176
     1
 74
     1
176
     1
 91
        4
176
     1
 64
     7
176
     1
 65
   257
176
     1
 75
     1
176
     1
175
     1
176
     1
 42
1.0
176
     1
 92
        8
176
     1
 66
     8
424
  8421504
176
     1
 43
1.0
176
     1
 76
     1
176
     1
 77
     6
176
     1
 78
     2
176
     1
 67
     7
176
     1
 79
     5
176
     1
170
     0
176
     1
171
     0
176
     1
290
     0
176
     1
 93
        1
176
     1
 44
0.0
176
     1
173
     0
176
     1
  0
VISUALSTYLE
  5
34
102
{ACAD_REACTORS
330
2A
102
}
330
2A
100
AcDbVisualStyle
  2
Conceptual
 70
     9
177
     2
291
     0
 71
     3
176
     1
 72
     2
176
     1
 73
     0
176
     1
 90
        0
176
     1
 40
-0.6
176
     1
 41
-30.0
176
     1
 62
     5
 63
     7
421
 16777215
176
     1
 74
     2
176
     1
 91
        2
176
     1
 64
     7
176
     1
 65
   257
176
     1
 75
     1
176
     1
175
     1
176
     1
 42
40.0
176
     1
 92
        8
176
     1
 66
     7
176
     1
 43
1.0
176
     1
 76
     1
176
     1
 77
     6
176
     1
 78
     2
176
     1
 67
     7
176
     1
 79
     3
176
     1
170
     0
176
     1
171
     0
176
     1
290
     0
176
     1
 93
        1
176
     1
 44
0.0
176
     1
173
     0
176
     1
  0
VISUALSTYLE
  5
35
102
{ACAD_REACTORS
330
2A
102
}
330
2A
100
AcDbVisualStyle
  2
Dim
 70
    11
177
     2
291
     1
 71
     2
176
     1
 72
     2
176
     1
 73
     0
176
     1
 90
        0
176
     1
 40
-0.6
176
     1
 41
-30.0
176
     1
 62
     5
 63
     7
421
 16777215
176
     1
 74
     1
176
     1
 91
        4
176
     1
 64
     7
176
     1
 65
   257
176
     1
 75
     1
176
     1
175
     1
176
     1
 42
1.0
176
     1
 92
        8
176
     1
 66
     7
176
     1
 43
1.0
176
     1
 76
     1
176
     1
 77
     6
176
     1
 78
     2
176
     1
 67
     7
176
     1
 79
     5
176
     1
170
     0
176
     1
171
     0
176
     1
290
     0
176
     1
 93
        1
176
     1
 44
-50.0
176
     1
173
     0
176
     1
  0
VISUALSTYLE
  5
39
102
{ACAD_REACTORS
330
2A
102
}
330
2A
100
AcDbVisualStyle
  2
Facepattern
 70
    15
177
     2
291
     1
 71
     2
176
     1
 72
     2
176
     1
 73
     0
176
     1
 90
        0
176
     1
 40
-0.6
176
     1
 41
-30.0
176
     1
 62
     5
 63
     7
421
 16777215
176
     1
 74
     1
176
     1
 91
        4
176
     1
 64
     7
176
     1
 65
   257
176
     1
 75
     1
176
     1
175
     1
176
     1
 42
1.0
176
     1
 92
        8
176
     1
 66
     7
176
     1
 43
1.0
176
     1
 76
     1
176
     1
 77
     6
176
     1
 78
     2
176
     1
 67
     7
176
     1
 79
     5
176
     1
170
     0
176
     1
171
     0
176
     1
290
     0
176
     1
 93
        1
176
     1
 44
0.0
176
     1
173
     0
176
     1
  0
VISUALSTYLE
  5
2B
102
{ACAD_REACTORS
330
2A
102
}
330
2A
100
AcDbVisualStyle
  2
Flat
 70
     0
177
     2
291
     1
 71
     2
176
     1
 72
     1
176
     1
 73
     1
176
     1
 90
        2
176
     1
 40
-0.6
176
     1
 41
30.0
176
     1
 62
     5
 63
     7
421
 16777215
176
     1
 74
     0
176
     1
 91
        4
176
     1
 64
     7
176
     1
 65
   257
176
     1
 75
     1
176
     1
175
     1
176
     1
 42
1.0
176
     1
 92
        8
176
     1
 66
     7
176
     1
 43
1.0
176
     1
 76
     1
176
     1
 77
     6
176
     1
 78
     2
176
     1
 67
     7
176
     1
 79
     5
176
     1
170
     0
176
     1
171
     0
176
     1
290
     0
176
     1
 93
       13
176
     1
 44
0.0
176
     1
173
     0
176
     1
  0
VISUALSTYLE
  5
2C
102
{ACAD_REACTORS
330
2A
102
}
330
2A
100
AcDbVisualStyle
  2
FlatWithEdges
 70
     1
177
     2
291
     1
 71
     2
176
     1
 72
     1
176
     1
 73
     1
176
     1
 90
        2
176
     1
 40
-0.6
176
     1
 41
30.0
176
     1
 62
     5
 63
     7
421
 16777215
176
     1
 74
     1
176
     1
 91
        4
176
     1
 64
     7
176
     1
 65
   257
176
     1
 75
     1
176
     1
175
     1
176
     1
 42
1.0
176
     1
 92
        0
176
     1
 66
   257
176
     1
 43
1.0
176
     1
 76
     1
176
     1
 77
     6
176
     1
 78
     2
176
     1
 67
     7
176
     1
 79
     5
176
     1
170
     0
176
     1
171
     0
176
     1
290
     0
176
     1
 93
       13
176
     1
 44
0.0
176
     1
173
     0
176
     1
  0
VISUALSTYLE
  5
2D
102
{ACAD_REACTORS
330
2A
102
}
330
2A
100
AcDbVisualStyle
  2
Gouraud
 70
     2
177
     2
291
     1
 71
     2
176
     1
 72
     2
176
     1
 73
     1
176
     1
 90
        2
176
     1
 40
-0.6
176
     1
 41
30.0
176
     1
 62
     5
 63
     7
421
 16777215
176
     1
 74
     0
176
     1
 91
        4
176
     1
 64
     7
176
     1
 65
   257
176
     1
 75
     1
176
     1
175
     1
176
     1
 42
1.0
176
     1
 92
        0
176
     1
 66
     7
176
     1
 43
1.0
176
     1
 76
     1
176
     1
 77
     6
176
     1
 78
     2
176
     1
 67
     7
176
     1
 79
     5
176
     1
170
     0
176
     1
171
     0
176
     1
290
     0
176
     1
 93
       13
176
     1
 44
0.0
176
     1
173
     0
176
     1
  0
VISUALSTYLE
  5
2E
102
{ACAD_REACTORS
330
2A
102
}
330
2A
100
AcDbVisualStyle
  2
GouraudWithEdges
 70
     3
177
     2
291
     1
 71
     2
176
     1
 72
     2
176
     1
 73
     1
176
     1
 90
        2
176
     1
 40
-0.6
176
     1
 41
30.0
176
     1
 62
     5
 63
     7
421
 16777215
176
     1
 74
     1
176
     1
 91
        4
176
     1
 64
     7
176
     1
 65
   257
176
     1
 75
     1
176
     1
175
     1
176
     1
 42
1.0
176
     1
 92
        0
176
     1
 66
   257
176
     1
 43
1.0
176
     1
 76
     1
176
     1
 77
     6
176
     1
 78
     2
176
     1
 67
     7
176
     1
 79
     5
176
     1
170
     0
176
     1
171
     0
176
     1
290
     0
176
     1
 93
       13
176
     1
 44
0.0
176
     1
173
     0
176
     1
  0
VISUALSTYLE
  5
38
102
{ACAD_REACTORS
330
2A
102
}
330
2A
100
AcDbVisualStyle
  2
Linepattern
 70
    14
177
     2
291
     1
 71
     2
176
     1
 72
     2
176
     1
 73
     0
176
     1
 90
        0
176
     1
 40
-0.6
176
     1
 41
-30.0
176
     1
 62
     5
 63
     7
421
 16777215
176
     1
 74
     1
176
     1
 91
        4
176
     1
 64
     7
176
     1
 65
   257
176
     1
 75
     7
176
     1
175
     7
176
     1
 42
1.0
176
     1
 92
        8
176
     1
 66
     7
176
     1
 43
1.0
176
     1
 76
     1
176
     1
 77
     6
176
     1
 78
     2
176
     1
 67
     7
176
     1
 79
     5
176
     1
170
     0
176
     1
171
     0
176
     1
290
     0
176
     1
 93
        1
176
     1
 44
0.0
176
     1
173
     0
176
     1
  0
VISUALSTYLE
  5
33
102
{ACAD_REACTORS
330
2A
102
}
330
2A
100
AcDbVisualStyle
  2
Realistic
 70
     8
177
     2
291
     0
 71
     2
176
     1
 72
     2
176
     1
 73
     0
176
     1
 90
        0
176
     1
 40
-0.6
176
     1
 41
-30.0
176
     1
 62
     5
 63
     7
421
 16777215
176
     1
 74
     1
176
     1
 91
        0
176
     1
 64
     7
176
     1
 65
   257
176
     1
 75
     1
176
     1
175
     1
176
     1
 42
1.0
176
     1
 92
        8
176
     1
 66
     8
424
  7895160
176
     1
 43
1.0
176
     1
 76
     1
176
     1
 77
     6
176
     1
 78
     2
176
     1
 67
     7
176
     1
 79
     5
176
     1
170
     0
176
     1
171
     0
176
     1
290
     0
176
     1
 93
       13
176
     1
 44
0.0
176
     1
173
     0
176
     1
  0
VISUALSTYLE
  5
37
102
{ACAD_REACTORS
330
2A
102
}
330
2A
100
AcDbVisualStyle
  2
Thicken
 70
    13
177
     2
291
     1
 71
     2
176
     1
 72
     2
176
     1
 73
     0
176
     1
 90
        0
176
     1
 40
-0.6
176
     1
 41
-30.0
176
     1
 62
     5
 63
     7
421
 16777215
176
     1
 74
     1
176
     1
 91
        4
176
     1
 64
     7
176
     1
 65
   257
176
     1
 75
     1
176
     1
175
     1
176
     1
 42
1.0
176
     1
 92
       12
176
     1
 66
     7
176
     1
 43
1.0
176
     1
 76
     1
176
     1
 77
     6
176
     1
 78
     2
176
     1
 67
     7
176
     1
 79
     5
176
     1
170
     0
176
     1
171
     0
176
     1
290
     0
176
     1
 93
        1
176
     1
 44
0.0
176
     1
173
     0
176
     1
  0
ENDSEC
  0
EOF
