  0
SECTION
  2
HEADER
  9
$ACADVER
  1
AC1024
  9
$ACADMAINTVER
 70
     6
  9
$DWGCODEPAGE
  3
UNDEFINED
  9
$INSBASE
 10
0.0
 20
0.0
 30
0.0
  9
$EXTMIN
 10
1.000000000000000E+20
 20
1.000000000000000E+20
 30
1.000000000000000E+20
  9
$EXTMAX
 10
-1.000000000000000E+20
 20
-1.000000000000000E+20
 30
-1.000000000000000E+20
  9
$LIMMIN
 10
0.0
 20
0.0
  9
$LIMMAX
 10
12.0
 20
9.0
  9
$ORTHOMODE
 70
     0
  9
$REGENMODE
 70
     1
  9
$FILLMODE
 70
     1
  9
$QTEXTMODE
 70
     0
  9
$MIRRTEXT
 70
     1
  9
$LTSCALE
 40
1.0
  9
$ATTMODE
 70
     1
  9
$TEXTSIZE
 40
0.2
  9
$TRACEWID
 40
0.05
  9
$TEXTSTYLE
  7
Standard
  9
$CLAYER
  8
0
  9
$CELTYPE
  6
ByLayer
  9
$CECOLOR
 62
   256
  9
$CELTSCALE
 40
1.0
  9
$DISPSILH
 70
     0
  9
$DIMSCALE
 40
1.0
  9
$DIMASZ
 40
0.18
  9
$DIMEXO
 40
0.0625
  9
$DIMDLI
 40
0.38
  9
$DIMRND
 40
0.0
  9
$DIMDLE
 40
0.0
  9
$DIMEXE
 40
0.18
  9
$DIMTP
 40
0.0
  9
$DIMTM
 40
0.0
  9
$DIMTXT
 40
0.18
  9
$DIMCEN
 40
0.09
  9
$DIMTSZ
 40
0.0
  9
$DIMTOL
 70
     0
  9
$DIMLIM
 70
     0
  9
$DIMTIH
 70
     1
  9
$DIMTOH
 70
     1
  9
$DIMSE1
 70
     0
  9
$DIMSE2
 70
     0
  9
$DIMTAD
 70
     0
  9
$DIMZIN
 70
     0
  9
$DIMBLK
  1

  9
$DIMASO
 70
     1
  9
$DIMSHO
 70
     1
  9
$DIMPOST
  1

  9
$DIMAPOST
  1

  9
$DIMALT
 70
     0
  9
$DIMALTD
 70
     2
  9
$DIMALTF
 40
25.4
  9
$DIMLFAC
 40
1.0
  9
$DIMTOFL
 70
     0
  9
$DIMTVP
 40
0.0
  9
$DIMTIX
 70
     0
  9
$DIMSOXD
 70
     0
  9
$DIMSAH
 70
     0
  9
$DIMBLK1
  1

  9
$DIMBLK2
  1

  9
$DIMSTYLE
  2
Standard
  9
$DIMCLRD
 70
     0
  9
$DIMCLRE
 70
     0
  9
$DIMCLRT
 70
     0
  9
$DIMTFAC
 40
1.0
  9
$DIMGAP
 40
0.09
  9
$DIMJUST
 70
     0
  9
$DIMSD1
 70
     0
  9
$DIMSD2
 70
     0
  9
$DIMTOLJ
 70
     1
  9
$DIMTZIN
 70
     0
  9
$DIMALTZ
 70
     0
  9
$DIMALTTZ
 70
     0
  9
$DIMUPT
 70
     0
  9
$DIMDEC
 70
     4
  9
$DIMTDEC
 70
     4
  9
$DIMALTU
 70
     2
  9
$DIMALTTD
 70
     2
  9
$DIMTXSTY
  7
Standard
  9
$DIMAUNIT
 70
     0
  9
$DIMADEC
 70
     0
  9
$DIMALTRND
 40
0.0
  9
$DIMAZIN
 70
     0
  9
$DIMDSEP
 70
    46
  9
$DIMATFIT
 70
     3
  9
$DIMFRAC
 70
     0
  9
$DIMLDRBLK
  1

  9
$DIMLUNIT
 70
     2
  9
$DIMLWD
 70
    -2
  9
$DIMLWE
 70
    -2
  9
$DIMTMOVE
 70
     0
  9
$DIMFXL
 40
1.0
  9
$DIMFXLON
 70
     0
  9
$DIMJOGANG
 40
0.7853981633974483
  9
$DIMTFILL
 70
     0
  9
$DIMTFILLCLR
 70
     0
  9
$DIMARCSYM
 70
     0
  9
$DIMLTYPE
  6

  9
$DIMLTEX1
  6

  9
$DIMLTEX2
  6

  9
$DIMTXTDIRECTION
 70
     0
  9
$LUNITS
 70
     2
  9
$LUPREC
 70
     4
  9
$SKETCHINC
 40
0.1
  9
$FILLETRAD
 40
0.5
  9
$AUNITS
 70
     0
  9
$AUPREC
 70
     0
  9
$MENU
  1
.
  9
$ELEVATION
 40
0.0
  9
$PELEVATION
 40
0.0
  9
$THICKNESS
 40
0.0
  9
$LIMCHECK
 70
     0
  9
$CHAMFERA
 40
0.5
  9
$CHAMFERB
 40
0.5
  9
$CHAMFERC
 40
1.0
  9
$CHAMFERD
 40
0.0
  9
$SKPOLY
 70
     0
  9
$TDCREATE
 40
2458263.582118056
  9
$TDUCREATE
 40
2458263.207118056
  9
$TDUPDATE
 40
2458263.582118056
  9
$TDUUPDATE
 40
2458263.207118056
  9
$TDINDWG
 40
0.0000000116
  9
$TDUSRTIMER
 40
0.0000000116
  9
$USRTIMER
 70
     1
  9
$ANGBASE
 50
0.0
  9
$ANGDIR
 70
     0
  9
$PDMODE
 70
     0
  9
$PDSIZE
 40
0.0
  9
$PLINEWID
 40
0.0
  9
$SPLFRAME
 70
     0
  9
$SPLINETYPE
 70
     6
  9
$SPLINESEGS
 70
     8
  9
$HANDSEED
  5
A9
  9
$SURFTAB1
 70
     6
  9
$SURFTAB2
 70
     6
  9
$SURFTYPE
 70
     6
  9
$SURFU
 70
     6
  9
$SURFV
 70
     6
  9
$UCSBASE
  2

  9
$UCSNAME
  2

  9
$UCSORG
 10
0.0
 20
0.0
 30
0.0
  9
$UCSXDIR
 10
1.0
 20
0.0
 30
0.0
  9
$UCSYDIR
 10
0.0
 20
1.0
 30
0.0
  9
$UCSORTHOREF
  2

  9
$UCSORTHOVIEW
 70
     0
  9
$UCSORGTOP
 10
0.0
 20
0.0
 30
0.0
  9
$UCSORGBOTTOM
 10
0.0
 20
0.0
 30
0.0
  9
$UCSORGLEFT
 10
0.0
 20
0.0
 30
0.0
  9
$UCSORGRIGHT
 10
0.0
 20
0.0
 30
0.0
  9
$UCSORGFRONT
 10
0.0
 20
0.0
 30
0.0
  9
$UCSORGBACK
 10
0.0
 20
0.0
 30
0.0
  9
$PUCSBASE
  2

  9
$PUCSNAME
  2

  9
$PUCSORG
 10
0.0
 20
0.0
 30
0.0
  9
$PUCSXDIR
 10
1.0
 20
0.0
 30
0.0
  9
$PUCSYDIR
 10
0.0
 20
1.0
 30
0.0
  9
$PUCSORTHOREF
  2

  9
$PUCSORTHOVIEW
 70
     0
  9
$PUCSORGTOP
 10
0.0
 20
0.0
 30
0.0
  9
$PUCSORGBOTTOM
 10
0.0
 20
0.0
 30
0.0
  9
$PUCSORGLEFT
 10
0.0
 20
0.0
 30
0.0
  9
$PUCSORGRIGHT
 10
0.0
 20
0.0
 30
0.0
  9
$PUCSORGFRONT
 10
0.0
 20
0.0
 30
0.0
  9
$PUCSORGBACK
 10
0.0
 20
0.0
 30
0.0
  9
$USERI1
 70
     0
  9
$USERI2
 70
     0
  9
$USERI3
 70
     0
  9
$USERI4
 70
     0
  9
$USERI5
 70
     0
  9
$USERR1
 40
0.0
  9
$USERR2
 40
0.0
  9
$USERR3
 40
0.0
  9
$USERR4
 40
0.0
  9
$USERR5
 40
0.0
  9
$WORLDVIEW
 70
     1
  9
$SHADEDGE
 70
     3
  9
$SHADEDIF
 70
    70
  9
$TILEMODE
 70
     1
  9
$MAXACTVP
 70
    64
  9
$PINSBASE
 10
0.0
 20
0.0
 30
0.0
  9
$PLIMCHECK
 70
     0
  9
$PEXTMIN
 10
1.000000000000000E+20
 20
1.000000000000000E+20
 30
1.000000000000000E+20
  9
$PEXTMAX
 10
-1.000000000000000E+20
 20
-1.000000000000000E+20
 30
-1.000000000000000E+20
  9
$PLIMMIN
 10
0.0
 20
0.0
  9
$PLIMMAX
 10
12.0
 20
9.0
  9
$UNITMODE
 70
     0
  9
$VISRETAIN
 70
     1
  9
$PLINEGEN
 70
     0
  9
$PSLTSCALE
 70
     1
  9
$TREEDEPTH
 70
  3020
  9
$CMLSTYLE
  2
Standard
  9
$CMLJUST
 70
     0
  9
$CMLSCALE
 40
1.0
  9
$PROXYGRAPHICS
 70
     1
  9
$MEASUREMENT
 70
     0
  9
$CELWEIGHT
370
    -1
  9
$ENDCAPS
280
     0
  9
$JOINSTYLE
280
     0
  9
$LWDISPLAY
290
     1
  9
$INSUNITS
 70
     1
  9
$HYPERLINKBASE
  1

  9
$STYLESHEET
  1

  9
$XEDIT
290
     1
  9
$CEPSNTYPE
380
     0
  9
$PSTYLEMODE
290
     1
  9
$FINGERPRINTGUID
  2
{48B78329-2302-4BFD-9BC6-BD0CFBC9E465}
  9
$VERSIONGUID
  2
{FAEB1C32-E019-11D5-929B-00C0DF256EC4}
  9
$EXTNAMES
290
     1
  9
$PSVPSCALE
 40
0.0
  9
$OLESTARTUP
290
     0
  9
$SORTENTS
280
   127
  9
$INDEXCTL
280
     0
  9
$HIDETEXT
280
     1
  9
$XCLIPFRAME
280
     2
  9
$HALOGAP
280
     0
  9
$OBSCOLOR
 70
   257
  9
$OBSLTYPE
280
     0
  9
$INTERSECTIONDISPLAY
280
     0
  9
$INTERSECTIONCOLOR
 70
   257
  9
$DIMASSOC
280
     2
  9
$PROJECTNAME
  1

  9
$CAMERADISPLAY
290
     0
  9
$LENSLENGTH
 40
50.0
  9
$CAMERAHEIGHT
 40
0.0
  9
$STEPSPERSEC
 40
2.0
  9
$STEPSIZE
 40
6.0
  9
$3DDWFPREC
 40
2.0
  9
$PSOLWIDTH
 40
0.25
  9
$PSOLHEIGHT
 40
4.0
  9
$LOFTANG1
 40
1.570796326794897
  9
$LOFTANG2
 40
1.570796326794897
  9
$LOFTMAG1
 40
0.0
  9
$LOFTMAG2
 40
0.0
  9
$LOFTPARAM
 70
     7
  9
$LOFTNORMALS
280
     1
  9
$LATITUDE
 40
37.795
  9
$LONGITUDE
 40
-122.394
  9
$NORTHDIRECTION
 40
0.0
  9
$TIMEZONE
 70
 -8000
  9
$LIGHTGLYPHDISPLAY
280
     1
  9
$TILEMODELIGHTSYNCH
280
     1
  9
$CMATERIAL
347
3C
  9
$SOLIDHIST
280
     1
  9
$SHOWHIST
280
     1
  9
$DWFFRAME
280
     2
  9
$DGNFRAME
280
     2
  9
$REALWORLDSCALE
290
     1
  9
$INTERFERECOLOR
 62
   256
  9
$CSHADOW
280
     0
  9
$SHADOWPLANELOCATION
 40
0.0
  0
ENDSEC
  0
SECTION
  2
CLASSES
  0
CLASS
  1
ACDBDICTIONARYWDFLT
  2
AcDbDictionaryWithDefault
  3
ObjectDBX Classes
 90
        0
 91
        4
280
     0
281
     0
  0
CLASS
  1
VISUALSTYLE
  2
AcDbVisualStyle
  3
ObjectDBX Classes
 90
     4095
 91
        4
280
     0
281
     0
  0
CLASS
  1
MATERIAL
  2
AcDbMaterial
  3
ObjectDBX Classes
 90
     1153
 91
        4
280
     0
281
     0
  0
CLASS
  1
SUN
  2
AcDbSun
  3
SCENEOE
 90
     1024
 91
        4
280
     0
281
     0
  0
ENDSEC
  0
SECTION
  2
TABLES
  0
TABLE
  2
VPORT
  5
8
330
0
100
AcDbSymbolTable
 70
     1
  0
VPORT
  5
29
330
8
100
AcDbSymbolTableRecord
100
AcDbViewportTableRecord
  2
*Active
 70
     0
 10
0.0
 20
0.0
 11
1.0
 21
1.0
 12
0.0
 22
0.0
 13
0.0
 23
0.0
 14
0.5
 24
0.5
 15
0.5
 25
0.5
 16
0.0
 26
0.0
 36
1.0
 17
105.0007777515277
 27
-148.5000416295416
 37
0.0
 40
297.0000832590831
 41
0.7070757462376333
 42
50.0
 43
0.0
 44
0.0
 50
0.0
 51
0.0
 71
     0
 72
   100
 73
     1
 74
     3
 75
     0
 76
     0
 77
     0
 78
     0
281
     0
 65
     1
110
0.0
120
0.0
130
0.0
111
1.0
121
0.0
131
0.0
112
0.0
122
1.0
132
0.0
 79
     0
146
0.0
 60
     3
 61
     5
292
     1
282
     1
141
0.0
142
0.0
 63
   250
361
3F
  0
ENDTAB
  0
TABLE
  2
LTYPE
  5
5
330
0
100
AcDbSymbolTable
 70
     2
  0
LTYPE
  5
14
330
5
100
AcDbSymbolTableRecord
100
AcDbLinetypeTableRecord
  2
ByBlock
 70
     0
  3

 72
    65
 73
     0
 40
0.0
  0
LTYPE
  5
15
330
5
100
AcDbSymbolTableRecord
100
AcDbLinetypeTableRecord
  2
ByLayer
 70
     0
  3

 72
    65
 73
     0
 40
0.0
  0
LTYPE
  5
16
330
5
100
AcDbSymbolTableRecord
100
AcDbLinetypeTableRecord
  2
Continuous
 70
     0
  3
Solid line
 72
    65
 73
     0
 40
0.0
  0
LTYPE
  5
A5
330
5
100
AcDbSymbolTableRecord
100
AcDbLinetypeTableRecord
  2
AI-Linetype-1
 70
     0
  3
Adobe Illustrator Linetype No. 1
 72
    65
 73
     2
 40
1.411111110758333
 49
0.7055555553791667
 74
     0
 49
-0.7055555553791667
 74
     0
  0
ENDTAB
  0
TABLE
  2
LAYER
  5
2
330
0
100
AcDbSymbolTable
 70
     2
  0
LAYER
  5
10
330
2
100
AcDbSymbolTableRecord
100
AcDbLayerTableRecord
  2
0
 70
     0
 62
     7
  6
Continuous
370
    -3
390
F
347
3E
  0
LAYER
  5
40
330
2
100
AcDbSymbolTableRecord
100
AcDbLayerTableRecord
  2
_U+30EC_U+30A4_U+30E4_U+30FC 1
 70
     0
 62
     7
  6
Continuous
370
    -3
390
F
347
3E
  0
ENDTAB
  0
TABLE
  2
STYLE
  5
3
330
0
100
AcDbSymbolTable
 70
     1
  0
STYLE
  5
11
330
3
100
AcDbSymbolTableRecord
100
AcDbTextStyleTableRecord
  2
Standard
 70
     0
 40
0.0
 41
1.0
 50
0.0
 71
     0
 42
0.2
  3
txt
  4

  0
ENDTAB
  0
TABLE
  2
VIEW
  5
6
330
0
100
AcDbSymbolTable
 70
     0
  0
ENDTAB
  0
TABLE
  2
UCS
  5
7
330
0
100
AcDbSymbolTable
 70
     0
  0
ENDTAB
  0
TABLE
  2
APPID
  5
9
330
0
100
AcDbSymbolTable
 70
     1
  0
APPID
  5
12
330
9
100
AcDbSymbolTableRecord
100
AcDbRegAppTableRecord
  2
ACAD
 70
     0
  0
ENDTAB
  0
TABLE
  2
DIMSTYLE
  5
A
330
0
100
AcDbSymbolTable
 70
     1
100
AcDbDimStyleTable
  0
DIMSTYLE
105
27
330
A
100
AcDbSymbolTableRecord
100
AcDbDimStyleTableRecord
  2
Standard
 70
     0
178
     0
340
11
  0
ENDTAB
  0
TABLE
  2
BLOCK_RECORD
  5
1
330
0
100
AcDbSymbolTable
 70
     6
  0
BLOCK_RECORD
  5
1F
330
1
100
AcDbSymbolTableRecord
100
AcDbBlockTableRecord
  2
*Model_Space
340
22
 70
     0
280
     1
281
     0
  0
BLOCK_RECORD
  5
1B
330
1
100
AcDbSymbolTableRecord
100
AcDbBlockTableRecord
  2
*Paper_Space
340
1E
 70
     0
280
     1
281
     0
  0
BLOCK_RECORD
  5
23
330
1
100
AcDbSymbolTableRecord
100
AcDbBlockTableRecord
  2
*Paper_Space0
340
26
 70
     0
280
     1
281
     0
  0
BLOCK_RECORD
  5
57
330
1
100
AcDbSymbolTableRecord
100
AcDbBlockTableRecord
  2
block 2
340
0
102
{BLKREFS
331
58
102
}
 70
     0
280
     1
281
     0
  0
BLOCK_RECORD
  5
6B
330
1
100
AcDbSymbolTableRecord
100
AcDbBlockTableRecord
  2
block 3
340
0
102
{BLKREFS
331
6C
102
}
 70
     0
280
     1
281
     0
  0
BLOCK_RECORD
  5
85
330
1
100
AcDbSymbolTableRecord
100
AcDbBlockTableRecord
  2
block 4
340
0
102
{BLKREFS
331
86
102
}
 70
     0
280
     1
281
     0
  0
BLOCK_RECORD
  5
8E
330
1
100
AcDbSymbolTableRecord
100
AcDbBlockTableRecord
  2
block 5
340
0
102
{BLKREFS
331
8F
102
}
 70
     0
280
     1
281
     0
  0
BLOCK_RECORD
  5
96
330
1
100
AcDbSymbolTableRecord
100
AcDbBlockTableRecord
  2
block 6
340
0
102
{BLKREFS
331
97
102
}
 70
     0
280
     1
281
     0
  0
ENDTAB
  0
ENDSEC
  0
SECTION
  2
BLOCKS
  0
BLOCK
  5
20
330
1F
100
AcDbEntity
  8
0
100
AcDbBlockBegin
  2
*Model_Space
 70
     0
 10
0.0
 20
0.0
 30
0.0
  3
*Model_Space
  1

  0
ENDBLK
  5
21
330
1F
100
AcDbEntity
  8
0
100
AcDbBlockEnd
  0
BLOCK
  5
1C
330
1B
100
AcDbEntity
 67
     1
  8
0
100
AcDbBlockBegin
  2
*Paper_Space
 70
     0
 10
0.0
 20
0.0
 30
0.0
  3
*Paper_Space
  1

  0
ENDBLK
  5
1D
330
1B
100
AcDbEntity
 67
     1
  8
0
100
AcDbBlockEnd
  0
BLOCK
  5
24
330
23
100
AcDbEntity
  8
0
100
AcDbBlockBegin
  2
*Paper_Space0
 70
     0
 10
0.0
 20
0.0
 30
0.0
  3
*Paper_Space0
  1

  0
ENDBLK
  5
25
330
23
100
AcDbEntity
  8
0
100
AcDbBlockEnd
  0
BLOCK
  5
59
330
57
100
AcDbEntity
  8
0
100
AcDbBlockBegin
  2
block 2
 70
     0
 10
0.0
 20
0.0
 30
0.0
  3
block 2
  1

  0
SPLINE
  5
5B
330
57
100
AcDbEntity
  8
_U+30EC_U+30A4_U+30E4_U+30FC 1
370
     0
100
AcDbSpline
210
0.0
220
0.0
230
1.0
 70
    11
 71
     3
 72
    29
 73
    25
 74
     0
 42
0.0000000001
 43
0.0000000001
 12
1.0
 22
0.0
 32
0.0
 13
1.0
 23
0.0
 33
0.0
 40
0.0
 40
0.0
 40
0.0
 40
0.0
 40
1.0
 40
1.0
 40
1.0
 40
2.0
 40
2.0
 40
2.0
 40
3.0
 40
3.0
 40
3.0
 40
4.0
 40
4.0
 40
4.0
 40
5.0
 40
5.0
 40
5.0
 40
6.0
 40
6.0
 40
6.0
 40
7.0
 40
7.0
 40
7.0
 40
8.0
 40
8.0
 40
8.0
 40
8.0
 10
98.99034014452326
 20
-139.1599812477621
 30
0.0
 10
98.70543074789309
 20
-139.1599812477621
 30
0.0
 10
98.43430173320392
 20
-139.0225219379006
 30
0.0
 10
98.43430173320392
 20
-138.6735337652448
 30
0.0
 10
98.43430173320392
 20
-138.4175631706908
 30
0.0
 10
98.58588593455492
 20
-138.3224785352978
 30
0.0
 10
98.69888506647112
 20
-138.2611558356604
 30
0.0
 10
98.56555987119195
 20
-138.2019001933141
 30
0.0
 10
98.48391110819152
 20
-138.0875230232038
 30
0.0
 10
98.48391110819152
 20
-137.9266370640427
 30
0.0
 10
98.48391110819152
 20
-137.6517184443197
 30
0.0
 10
98.69647349963144
 20
-137.5163261917494
 30
0.0
 10
98.99034014452326
 20
-137.5163261917494
 30
0.0
 10
99.29350854722524
 20
-137.5163261917494
 30
0.0
 10
99.49676918085498
 20
-137.6603311830328
 30
0.0
 10
99.49676918085498
 20
-137.9266370640427
 30
0.0
 10
99.49676918085498
 20
-138.0875230232038
 30
0.0
 10
99.41339787011194
 20
-138.2019001933141
 30
0.0
 10
99.27972816528424
 20
-138.2611558356604
 30
0.0
 10
99.37481280067713
 20
-138.3117987392936
 30
0.0
 10
99.54431149855142
 20
-138.4068833746865
 30
0.0
 10
99.54431149855142
 20
-138.6693996506625
 30
0.0
 10
99.54431149855142
 20
-139.0438815299092
 30
0.0
 10
99.24596622952879
 20
-139.1599812477621
 30
0.0
 10
98.99034014452326
 20
-139.1599812477621
 30
0.0
  0
SPLINE
  5
5C
330
57
100
AcDbEntity
  8
_U+30EC_U+30A4_U+30E4_U+30FC 1
370
     0
100
AcDbSpline
210
0.0
220
0.0
230
1.0
 70
    11
 71
     3
 72
    17
 73
    13
 74
     0
 42
0.0000000001
 43
0.0000000001
 12
1.0
 22
0.0
 32
0.0
 13
1.0
 23
0.0
 33
0.0
 40
0.0
 40
0.0
 40
0.0
 40
0.0
 40
1.0
 40
1.0
 40
1.0
 40
2.0
 40
2.0
 40
2.0
 40
3.0
 40
3.0
 40
3.0
 40
4.0
 40
4.0
 40
4.0
 40
4.0
 10
98.99034014452326
 20
-138.3689873243487
 30
0.0
 10
98.83668888588112
 20
-138.3689873243487
 30
0.0
 10
98.67408037897732
 20
-138.455803730577
 30
0.0
 10
98.67408037897732
 20
-138.6587198546582
 30
0.0
 10
98.67408037897732
 20
-138.8640475455791
 30
0.0
 10
98.80947263154764
 20
-138.9653333528455
 30
0.0
 10
98.99034014452326
 20
-138.9653333528455
 30
0.0
 10
99.1894666635707
 20
-138.9653333528455
 30
0.0
 10
99.30694441961771
 20
-138.8426879535706
 30
0.0
 10
99.30694441961771
 20
-138.6649210265317
 30
0.0
 10
99.30694441961771
 20
-138.4430568772816
 30
0.0
 10
99.13296709761259
 20
-138.3689873243487
 30
0.0
 10
98.99034014452326
 20
-138.3689873243487
 30
0.0
  0
SPLINE
  5
5D
330
57
100
AcDbEntity
  8
_U+30EC_U+30A4_U+30E4_U+30FC 1
370
     0
100
AcDbSpline
210
0.0
220
0.0
230
1.0
 70
    11
 71
     3
 72
    17
 73
    13
 74
     0
 42
0.0000000001
 43
0.0000000001
 12
1.0
 22
0.0
 32
0.0
 13
1.0
 23
0.0
 33
0.0
 40
0.0
 40
0.0
 40
0.0
 40
0.0
 40
1.0
 40
1.0
 40
1.0
 40
2.0
 40
2.0
 40
2.0
 40
3.0
 40
3.0
 40
3.0
 40
4.0
 40
4.0
 40
4.0
 40
4.0
 10
98.99034014452326
 20
-137.7089070293749
 30
0.0
 10
98.81429576522699
 20
-137.7089070293749
 30
0.0
 10
98.72368975396492
 20
-137.8039916647678
 30
0.0
 10
98.72368975396492
 20
-137.9393839173381
 30
0.0
 10
98.72368975396492
 20
-138.062029316613
 30
0.0
 10
98.80051538328598
 20
-138.1805406013056
 30
0.0
 10
98.99034014452326
 20
-138.1805406013056
 30
0.0
 10
99.18050941530905
 20
-138.1805406013056
 30
0.0
 10
99.25733504463011
 20
-138.062029316613
 30
0.0
 10
99.25733504463011
 20
-137.9393839173381
 30
0.0
 10
99.25733504463011
 20
-137.8039916647678
 30
0.0
 10
99.1646619760769
 20
-137.7089070293749
 30
0.0
 10
98.99034014452326
 20
-137.7089070293749
 30
0.0
  0
HATCH
  5
5E
330
57
100
AcDbEntity
  8
_U+30EC_U+30A4_U+30E4_U+30FC 1
 62
   179
420
  2234388
100
AcDbHatch
 10
0.0
 20
0.0
 30
0.0
210
0.0
220
0.0
230
1.0
  2
SOLID
 70
     1
 71
     0
 91
        3
 92
        1
 93
        1
 72
     4
 94
        3
 73
     0
 74
     1
 95
       29
 96
       25
 40
0.0
 40
0.0
 40
0.0
 40
0.0
 40
1.0
 40
1.0
 40
1.0
 40
2.0
 40
2.0
 40
2.0
 40
3.0
 40
3.0
 40
3.0
 40
4.0
 40
4.0
 40
4.0
 40
5.0
 40
5.0
 40
5.0
 40
6.0
 40
6.0
 40
6.0
 40
7.0
 40
7.0
 40
7.0
 40
8.0
 40
8.0
 40
8.0
 40
8.0
 10
98.99034014452326
 20
-139.1599812477621
 10
98.70543074789309
 20
-139.1599812477621
 10
98.43430173320392
 20
-139.0225219379006
 10
98.43430173320392
 20
-138.6735337652448
 10
98.43430173320392
 20
-138.4175631706908
 10
98.58588593455492
 20
-138.3224785352978
 10
98.69888506647112
 20
-138.2611558356604
 10
98.56555987119195
 20
-138.2019001933141
 10
98.48391110819152
 20
-138.0875230232038
 10
98.48391110819152
 20
-137.9266370640427
 10
98.48391110819152
 20
-137.6517184443197
 10
98.69647349963144
 20
-137.5163261917494
 10
98.99034014452326
 20
-137.5163261917494
 10
99.29350854722524
 20
-137.5163261917494
 10
99.49676918085498
 20
-137.6603311830328
 10
99.49676918085498
 20
-137.9266370640427
 10
99.49676918085498
 20
-138.0875230232038
 10
99.41339787011194
 20
-138.2019001933141
 10
99.27972816528424
 20
-138.2611558356604
 10
99.37481280067713
 20
-138.3117987392936
 10
99.54431149855142
 20
-138.4068833746865
 10
99.54431149855142
 20
-138.6693996506625
 10
99.54431149855142
 20
-139.0438815299092
 10
99.24596622952879
 20
-139.1599812477621
 10
98.99034014452326
 20
-139.1599812477621
 97
        0
 97
        0
 92
        1
 93
        1
 72
     4
 94
        3
 73
     0
 74
     1
 95
       17
 96
       13
 40
0.0
 40
0.0
 40
0.0
 40
0.0
 40
1.0
 40
1.0
 40
1.0
 40
2.0
 40
2.0
 40
2.0
 40
3.0
 40
3.0
 40
3.0
 40
4.0
 40
4.0
 40
4.0
 40
4.0
 10
98.99034014452326
 20
-138.3689873243487
 10
98.83668888588112
 20
-138.3689873243487
 10
98.67408037897732
 20
-138.455803730577
 10
98.67408037897732
 20
-138.6587198546582
 10
98.67408037897732
 20
-138.8640475455791
 10
98.80947263154764
 20
-138.9653333528455
 10
98.99034014452326
 20
-138.9653333528455
 10
99.1894666635707
 20
-138.9653333528455
 10
99.30694441961771
 20
-138.8426879535706
 10
99.30694441961771
 20
-138.6649210265317
 10
99.30694441961771
 20
-138.4430568772816
 10
99.13296709761259
 20
-138.3689873243487
 10
98.99034014452326
 20
-138.3689873243487
 97
        0
 97
        0
 92
        1
 93
        1
 72
     4
 94
        3
 73
     0
 74
     1
 95
       17
 96
       13
 40
0.0
 40
0.0
 40
0.0
 40
0.0
 40
1.0
 40
1.0
 40
1.0
 40
2.0
 40
2.0
 40
2.0
 40
3.0
 40
3.0
 40
3.0
 40
4.0
 40
4.0
 40
4.0
 40
4.0
 10
98.99034014452326
 20
-137.7089070293749
 10
98.81429576522699
 20
-137.7089070293749
 10
98.72368975396492
 20
-137.8039916647678
 10
98.72368975396492
 20
-137.9393839173381
 10
98.72368975396492
 20
-138.062029316613
 10
98.80051538328598
 20
-138.1805406013056
 10
98.99034014452326
 20
-138.1805406013056
 10
99.18050941530905
 20
-138.1805406013056
 10
99.25733504463011
 20
-138.062029316613
 10
99.25733504463011
 20
-137.9393839173381
 10
99.25733504463011
 20
-137.8039916647678
 10
99.1646619760769
 20
-137.7089070293749
 10
98.99034014452326
 20
-137.7089070293749
 97
        0
 97
        0
 75
     2
 76
     1
 98
        0
  0
ENDBLK
  5
5A
330
57
100
AcDbEntity
  8
0
100
AcDbBlockEnd
  0
BLOCK
  5
6D
330
6B
100
AcDbEntity
  8
0
100
AcDbBlockBegin
  2
block 3
 70
     0
 10
0.0
 20
0.0
 30
0.0
  3
block 3
  1

  0
SPLINE
  5
6F
330
6B
100
AcDbEntity
  8
_U+30EC_U+30A4_U+30E4_U+30FC 1
370
     0
100
AcDbSpline
210
0.0
220
0.0
230
1.0
 70
    11
 71
     3
 72
    26
 73
    22
 74
     0
 42
0.0000000001
 43
0.0000000001
 12
1.0
 22
0.0
 32
0.0
 13
1.0
 23
0.0
 33
0.0
 40
0.0
 40
0.0
 40
0.0
 40
0.0
 40
1.0
 40
1.0
 40
1.0
 40
2.0
 40
2.0
 40
2.0
 40
3.0
 40
3.0
 40
3.0
 40
4.0
 40
4.0
 40
4.0
 40
5.0
 40
5.0
 40
5.0
 40
6.0
 40
6.0
 40
6.0
 40
7.0
 40
7.0
 40
7.0
 40
7.0
 10
103.2715603040432
 20
-159.1093234194241
 30
0.0
 10
103.2715603040432
 20
-159.1093234194241
 30
0.0
 10
103.2715603040432
 20
-158.0051703164015
 30
0.0
 10
103.2715603040432
 20
-158.0051703164015
 30
0.0
 10
103.2715603040432
 20
-158.0051703164015
 30
0.0
 10
102.9191270359022
 20
-158.0051703164015
 30
0.0
 10
102.9191270359022
 20
-158.0051703164015
 30
0.0
 10
102.9191270359022
 20
-158.0051703164015
 30
0.0
 10
102.9191270359022
 20
-157.8570312105358
 30
0.0
 10
102.9191270359022
 20
-157.8570312105358
 30
0.0
 10
103.2739718708829
 20
-157.8422172999492
 30
0.0
 10
103.3235812458705
 20
-157.6792642834968
 30
0.0
 10
103.3552761243348
 20
-157.5648871133866
 30
0.0
 10
103.3552761243348
 20
-157.5648871133866
 30
0.0
 10
103.5113389498166
 20
-157.5648871133866
 30
0.0
 10
103.5113389498166
 20
-157.5648871133866
 30
0.0
 10
103.5113389498166
 20
-157.5648871133866
 30
0.0
 10
103.5113389498166
 20
-159.1093234194241
 30
0.0
 10
103.5113389498166
 20
-159.1093234194241
 30
0.0
 10
103.5113389498166
 20
-159.1093234194241
 30
0.0
 10
103.2715603040432
 20
-159.1093234194241
 30
0.0
 10
103.2715603040432
 20
-159.1093234194241
 30
0.0
  0
HATCH
  5
70
330
6B
100
AcDbEntity
  8
_U+30EC_U+30A4_U+30E4_U+30FC 1
 62
   179
420
  2234388
100
AcDbHatch
 10
0.0
 20
0.0
 30
0.0
210
0.0
220
0.0
230
1.0
  2
SOLID
 70
     1
 71
     0
 91
        1
 92
        1
 93
        1
 72
     4
 94
        3
 73
     0
 74
     1
 95
       26
 96
       22
 40
0.0
 40
0.0
 40
0.0
 40
0.0
 40
1.0
 40
1.0
 40
1.0
 40
2.0
 40
2.0
 40
2.0
 40
3.0
 40
3.0
 40
3.0
 40
4.0
 40
4.0
 40
4.0
 40
5.0
 40
5.0
 40
5.0
 40
6.0
 40
6.0
 40
6.0
 40
7.0
 40
7.0
 40
7.0
 40
7.0
 10
103.2715603040432
 20
-159.1093234194241
 10
103.2715603040432
 20
-159.1093234194241
 10
103.2715603040432
 20
-158.0051703164015
 10
103.2715603040432
 20
-158.0051703164015
 10
103.2715603040432
 20
-158.0051703164015
 10
102.9191270359022
 20
-158.0051703164015
 10
102.9191270359022
 20
-158.0051703164015
 10
102.9191270359022
 20
-158.0051703164015
 10
102.9191270359022
 20
-157.8570312105358
 10
102.9191270359022
 20
-157.8570312105358
 10
103.2739718708829
 20
-157.8422172999492
 10
103.3235812458705
 20
-157.6792642834968
 10
103.3552761243348
 20
-157.5648871133866
 10
103.3552761243348
 20
-157.5648871133866
 10
103.5113389498166
 20
-157.5648871133866
 10
103.5113389498166
 20
-157.5648871133866
 10
103.5113389498166
 20
-157.5648871133866
 10
103.5113389498166
 20
-159.1093234194241
 10
103.5113389498166
 20
-159.1093234194241
 10
103.5113389498166
 20
-159.1093234194241
 10
103.2715603040432
 20
-159.1093234194241
 10
103.2715603040432
 20
-159.1093234194241
 97
        0
 97
        0
 75
     2
 76
     1
 98
        0
  0
SPLINE
  5
71
330
6B
100
AcDbEntity
  8
_U+30EC_U+30A4_U+30E4_U+30FC 1
370
     0
100
AcDbSpline
210
0.0
220
0.0
230
1.0
 70
    11
 71
     3
 72
    29
 73
    25
 74
     0
 42
0.0000000001
 43
0.0000000001
 12
1.0
 22
0.0
 32
0.0
 13
1.0
 23
0.0
 33
0.0
 40
0.0
 40
0.0
 40
0.0
 40
0.0
 40
1.0
 40
1.0
 40
1.0
 40
2.0
 40
2.0
 40
2.0
 40
3.0
 40
3.0
 40
3.0
 40
4.0
 40
4.0
 40
4.0
 40
5.0
 40
5.0
 40
5.0
 40
6.0
 40
6.0
 40
6.0
 40
7.0
 40
7.0
 40
7.0
 40
8.0
 40
8.0
 40
8.0
 40
8.0
 10
104.5813856075352
 20
-159.1599663230572
 30
0.0
 10
104.2968207204536
 20
-159.1599663230572
 30
0.0
 10
104.0253471962159
 20
-159.0225070131958
 30
0.0
 10
104.0253471962159
 20
-158.67351884054
 30
0.0
 10
104.0253471962159
 20
-158.4175482459859
 30
0.0
 10
104.1769313975669
 20
-158.322463610593
 30
0.0
 10
104.2899305294831
 20
-158.2611409109556
 30
0.0
 10
104.1566053342039
 20
-158.2018852686093
 30
0.0
 10
104.0749565712035
 20
-158.087508098499
 30
0.0
 10
104.0749565712035
 20
-157.9266221393378
 30
0.0
 10
104.0749565712035
 20
-157.6517035196149
 30
0.0
 10
104.2875189626434
 20
-157.5163112670445
 30
0.0
 10
104.5813856075352
 20
-157.5163112670445
 30
0.0
 10
104.8845540102372
 20
-157.5163112670445
 30
0.0
 10
105.0878146438669
 20
-157.660316258328
 30
0.0
 10
105.0878146438669
 20
-157.9266221393378
 30
0.0
 10
105.0878146438669
 20
-158.087508098499
 30
0.0
 10
105.0044433331239
 20
-158.2018852686093
 30
0.0
 10
104.8707736282962
 20
-158.2611409109556
 30
0.0
 10
104.9658582636891
 20
-158.3117838145887
 30
0.0
 10
105.1353569615634
 20
-158.4068684499816
 30
0.0
 10
105.1353569615634
 20
-158.6693847259577
 30
0.0
 10
105.1353569615634
 20
-159.0438666052043
 30
0.0
 10
104.8370116925408
 20
-159.1599663230572
 30
0.0
 10
104.5813856075352
 20
-159.1599663230572
 30
0.0
  0
SPLINE
  5
72
330
6B
100
AcDbEntity
  8
_U+30EC_U+30A4_U+30E4_U+30FC 1
370
     0
100
AcDbSpline
210
0.0
220
0.0
230
1.0
 70
    11
 71
     3
 72
    17
 73
    13
 74
     0
 42
0.0000000001
 43
0.0000000001
 12
1.0
 22
0.0
 32
0.0
 13
1.0
 23
0.0
 33
0.0
 40
0.0
 40
0.0
 40
0.0
 40
0.0
 40
1.0
 40
1.0
 40
1.0
 40
2.0
 40
2.0
 40
2.0
 40
3.0
 40
3.0
 40
3.0
 40
4.0
 40
4.0
 40
4.0
 40
4.0
 10
104.5813856075352
 20
-158.3689723996439
 30
0.0
 10
104.4277343488931
 20
-158.3689723996439
 30
0.0
 10
104.2651258419893
 20
-158.4557888058722
 30
0.0
 10
104.2651258419893
 20
-158.6587049299534
 30
0.0
 10
104.2651258419893
 20
-158.8640326208743
 30
0.0
 10
104.4005180945596
 20
-158.9653184281406
 30
0.0
 10
104.5813856075352
 20
-158.9653184281406
 30
0.0
 10
104.7805121265827
 20
-158.9653184281406
 30
0.0
 10
104.8979898826297
 20
-158.8426730288657
 30
0.0
 10
104.8979898826297
 20
-158.6649061018268
 30
0.0
 10
104.8979898826297
 20
-158.4430419525767
 30
0.0
 10
104.7240125606246
 20
-158.3689723996439
 30
0.0
 10
104.5813856075352
 20
-158.3689723996439
 30
0.0
  0
SPLINE
  5
73
330
6B
100
AcDbEntity
  8
_U+30EC_U+30A4_U+30E4_U+30FC 1
370
     0
100
AcDbSpline
210
0.0
220
0.0
230
1.0
 70
    11
 71
     3
 72
    17
 73
    13
 74
     0
 42
0.0000000001
 43
0.0000000001
 12
1.0
 22
0.0
 32
0.0
 13
1.0
 23
0.0
 33
0.0
 40
0.0
 40
0.0
 40
0.0
 40
0.0
 40
1.0
 40
1.0
 40
1.0
 40
2.0
 40
2.0
 40
2.0
 40
3.0
 40
3.0
 40
3.0
 40
4.0
 40
4.0
 40
4.0
 40
4.0
 10
104.5813856075352
 20
-157.70889210467
 30
0.0
 10
104.4049967186904
 20
-157.70889210467
 30
0.0
 10
104.3147352169769
 20
-157.8039767400629
 30
0.0
 10
104.3147352169769
 20
-157.9393689926332
 30
0.0
 10
104.3147352169769
 20
-158.0620143919081
 30
0.0
 10
104.3915608462979
 20
-158.1805256766007
 30
0.0
 10
104.5813856075352
 20
-158.1805256766007
 30
0.0
 10
104.771554878321
 20
-158.1805256766007
 30
0.0
 10
104.8483805076421
 20
-158.0620143919081
 30
0.0
 10
104.8483805076421
 20
-157.9393689926332
 30
0.0
 10
104.8483805076421
 20
-157.8039767400629
 30
0.0
 10
104.7557074390889
 20
-157.70889210467
 30
0.0
 10
104.5813856075352
 20
-157.70889210467
 30
0.0
  0
HATCH
  5
74
330
6B
100
AcDbEntity
  8
_U+30EC_U+30A4_U+30E4_U+30FC 1
 62
   179
420
  2234388
100
AcDbHatch
 10
0.0
 20
0.0
 30
0.0
210
0.0
220
0.0
230
1.0
  2
SOLID
 70
     1
 71
     0
 91
        3
 92
        1
 93
        1
 72
     4
 94
        3
 73
     0
 74
     1
 95
       29
 96
       25
 40
0.0
 40
0.0
 40
0.0
 40
0.0
 40
1.0
 40
1.0
 40
1.0
 40
2.0
 40
2.0
 40
2.0
 40
3.0
 40
3.0
 40
3.0
 40
4.0
 40
4.0
 40
4.0
 40
5.0
 40
5.0
 40
5.0
 40
6.0
 40
6.0
 40
6.0
 40
7.0
 40
7.0
 40
7.0
 40
8.0
 40
8.0
 40
8.0
 40
8.0
 10
104.5813856075352
 20
-159.1599663230572
 10
104.2968207204536
 20
-159.1599663230572
 10
104.0253471962159
 20
-159.0225070131958
 10
104.0253471962159
 20
-158.67351884054
 10
104.0253471962159
 20
-158.4175482459859
 10
104.1769313975669
 20
-158.322463610593
 10
104.2899305294831
 20
-158.2611409109556
 10
104.1566053342039
 20
-158.2018852686093
 10
104.0749565712035
 20
-158.087508098499
 10
104.0749565712035
 20
-157.9266221393378
 10
104.0749565712035
 20
-157.6517035196149
 10
104.2875189626434
 20
-157.5163112670445
 10
104.5813856075352
 20
-157.5163112670445
 10
104.8845540102372
 20
-157.5163112670445
 10
105.0878146438669
 20
-157.660316258328
 10
105.0878146438669
 20
-157.9266221393378
 10
105.0878146438669
 20
-158.087508098499
 10
105.0044433331239
 20
-158.2018852686093
 10
104.8707736282962
 20
-158.2611409109556
 10
104.9658582636891
 20
-158.3117838145887
 10
105.1353569615634
 20
-158.4068684499816
 10
105.1353569615634
 20
-158.6693847259577
 10
105.1353569615634
 20
-159.0438666052043
 10
104.8370116925408
 20
-159.1599663230572
 10
104.5813856075352
 20
-159.1599663230572
 97
        0
 97
        0
 92
        1
 93
        1
 72
     4
 94
        3
 73
     0
 74
     1
 95
       17
 96
       13
 40
0.0
 40
0.0
 40
0.0
 40
0.0
 40
1.0
 40
1.0
 40
1.0
 40
2.0
 40
2.0
 40
2.0
 40
3.0
 40
3.0
 40
3.0
 40
4.0
 40
4.0
 40
4.0
 40
4.0
 10
104.5813856075352
 20
-158.3689723996439
 10
104.4277343488931
 20
-158.3689723996439
 10
104.2651258419893
 20
-158.4557888058722
 10
104.2651258419893
 20
-158.6587049299534
 10
104.2651258419893
 20
-158.8640326208743
 10
104.4005180945596
 20
-158.9653184281406
 10
104.5813856075352
 20
-158.9653184281406
 10
104.7805121265827
 20
-158.9653184281406
 10
104.8979898826297
 20
-158.8426730288657
 10
104.8979898826297
 20
-158.6649061018268
 10
104.8979898826297
 20
-158.4430419525767
 10
104.7240125606246
 20
-158.3689723996439
 10
104.5813856075352
 20
-158.3689723996439
 97
        0
 97
        0
 92
        1
 93
        1
 72
     4
 94
        3
 73
     0
 74
     1
 95
       17
 96
       13
 40
0.0
 40
0.0
 40
0.0
 40
0.0
 40
1.0
 40
1.0
 40
1.0
 40
2.0
 40
2.0
 40
2.0
 40
3.0
 40
3.0
 40
3.0
 40
4.0
 40
4.0
 40
4.0
 40
4.0
 10
104.5813856075352
 20
-157.70889210467
 10
104.4049967186904
 20
-157.70889210467
 10
104.3147352169769
 20
-157.8039767400629
 10
104.3147352169769
 20
-157.9393689926332
 10
104.3147352169769
 20
-158.0620143919081
 10
104.3915608462979
 20
-158.1805256766007
 10
104.5813856075352
 20
-158.1805256766007
 10
104.771554878321
 20
-158.1805256766007
 10
104.8483805076421
 20
-158.0620143919081
 10
104.8483805076421
 20
-157.9393689926332
 10
104.8483805076421
 20
-157.8039767400629
 10
104.7557074390889
 20
-157.70889210467
 10
104.5813856075352
 20
-157.70889210467
 97
        0
 97
        0
 75
     2
 76
     1
 98
        0
  0
ENDBLK
  5
6E
330
6B
100
AcDbEntity
  8
0
100
AcDbBlockEnd
  0
BLOCK
  5
87
330
85
100
AcDbEntity
  8
0
100
AcDbBlockBegin
  2
block 4
 70
     0
 10
0.0
 20
0.0
 30
0.0
  3
block 4
  1

  0
SPLINE
  5
89
330
85
100
AcDbEntity
  8
_U+30EC_U+30A4_U+30E4_U+30FC 1
370
     0
100
AcDbSpline
210
0.0
220
0.0
230
1.0
 70
    11
 71
     3
 72
    26
 73
    22
 74
     0
 42
0.0000000001
 43
0.0000000001
 12
1.0
 22
0.0
 32
0.0
 13
1.0
 23
0.0
 33
0.0
 40
0.0
 40
0.0
 40
0.0
 40
0.0
 40
1.0
 40
1.0
 40
1.0
 40
2.0
 40
2.0
 40
2.0
 40
3.0
 40
3.0
 40
3.0
 40
4.0
 40
4.0
 40
4.0
 40
5.0
 40
5.0
 40
5.0
 40
6.0
 40
6.0
 40
6.0
 40
7.0
 40
7.0
 40
7.0
 40
7.0
 10
115.299422171696
 20
-150.3818630266406
 30
0.0
 10
115.299422171696
 20
-150.3818630266406
 30
0.0
 10
114.1952690686734
 20
-150.3818630266406
 30
0.0
 10
114.1952690686734
 20
-150.3818630266406
 30
0.0
 10
114.1952690686734
 20
-150.3818630266406
 30
0.0
 10
114.1952690686734
 20
-150.7342962947817
 30
0.0
 10
114.1952690686734
 20
-150.7342962947817
 30
0.0
 10
114.1952690686734
 20
-150.7342962947817
 30
0.0
 10
114.0471299628077
 20
-150.7342962947817
 30
0.0
 10
114.0471299628077
 20
-150.7342962947817
 30
0.0
 10
114.0323160522211
 20
-150.379451459801
 30
0.0
 10
113.8693630357688
 20
-150.3298420848134
 30
0.0
 10
113.7549858656585
 20
-150.2981472063491
 30
0.0
 10
113.7549858656585
 20
-150.2981472063491
 30
0.0
 10
113.7549858656585
 20
-150.1420843808673
 30
0.0
 10
113.7549858656585
 20
-150.1420843808673
 30
0.0
 10
113.7549858656585
 20
-150.1420843808673
 30
0.0
 10
115.299422171696
 20
-150.1420843808673
 30
0.0
 10
115.299422171696
 20
-150.1420843808673
 30
0.0
 10
115.299422171696
 20
-150.1420843808673
 30
0.0
 10
115.299422171696
 20
-150.3818630266406
 30
0.0
 10
115.299422171696
 20
-150.3818630266406
 30
0.0
  0
HATCH
  5
8A
330
85
100
AcDbEntity
  8
_U+30EC_U+30A4_U+30E4_U+30FC 1
 62
   179
420
  2234388
100
AcDbHatch
 10
0.0
 20
0.0
 30
0.0
210
0.0
220
0.0
230
1.0
  2
SOLID
 70
     1
 71
     0
 91
        1
 92
        1
 93
        1
 72
     4
 94
        3
 73
     0
 74
     1
 95
       26
 96
       22
 40
0.0
 40
0.0
 40
0.0
 40
0.0
 40
1.0
 40
1.0
 40
1.0
 40
2.0
 40
2.0
 40
2.0
 40
3.0
 40
3.0
 40
3.0
 40
4.0
 40
4.0
 40
4.0
 40
5.0
 40
5.0
 40
5.0
 40
6.0
 40
6.0
 40
6.0
 40
7.0
 40
7.0
 40
7.0
 40
7.0
 10
115.299422171696
 20
-150.3818630266406
 10
115.299422171696
 20
-150.3818630266406
 10
114.1952690686734
 20
-150.3818630266406
 10
114.1952690686734
 20
-150.3818630266406
 10
114.1952690686734
 20
-150.3818630266406
 10
114.1952690686734
 20
-150.7342962947817
 10
114.1952690686734
 20
-150.7342962947817
 10
114.1952690686734
 20
-150.7342962947817
 10
114.0471299628077
 20
-150.7342962947817
 10
114.0471299628077
 20
-150.7342962947817
 10
114.0323160522211
 20
-150.379451459801
 10
113.8693630357688
 20
-150.3298420848134
 10
113.7549858656585
 20
-150.2981472063491
 10
113.7549858656585
 20
-150.2981472063491
 10
113.7549858656585
 20
-150.1420843808673
 10
113.7549858656585
 20
-150.1420843808673
 10
113.7549858656585
 20
-150.1420843808673
 10
115.299422171696
 20
-150.1420843808673
 10
115.299422171696
 20
-150.1420843808673
 10
115.299422171696
 20
-150.1420843808673
 10
115.299422171696
 20
-150.3818630266406
 10
115.299422171696
 20
-150.3818630266406
 97
        0
 97
        0
 75
     2
 76
     1
 98
        0
  0
SPLINE
  5
8B
330
85
100
AcDbEntity
  8
_U+30EC_U+30A4_U+30E4_U+30FC 1
370
     0
100
AcDbSpline
210
0.0
220
0.0
230
1.0
 70
    11
 71
     3
 72
    29
 73
    25
 74
     0
 42
0.0000000001
 43
0.0000000001
 12
1.0
 22
0.0
 32
0.0
 13
1.0
 23
0.0
 33
0.0
 40
0.0
 40
0.0
 40
0.0
 40
0.0
 40
1.0
 40
1.0
 40
1.0
 40
2.0
 40
2.0
 40
2.0
 40
3.0
 40
3.0
 40
3.0
 40
4.0
 40
4.0
 40
4.0
 40
5.0
 40
5.0
 40
5.0
 40
6.0
 40
6.0
 40
6.0
 40
7.0
 40
7.0
 40
7.0
 40
8.0
 40
8.0
 40
8.0
 40
8.0
 10
115.1216552446571
 20
-148.6469129402688
 30
0.0
 10
115.3311170501603
 20
-148.7623236390247
 30
0.0
 10
115.3500650753292
 20
-148.9476697761311
 30
0.0
 10
115.3500650753292
 20
-149.0720377231487
 30
0.0
 10
115.3500650753292
 20
-149.2436034783141
 30
0.0
 10
115.3035562862783
 20
-149.3951876796651
 30
0.0
 10
115.1216552446571
 20
-149.49681799648
 30
0.0
 10
114.9270073497405
 20
-149.607750071105
 30
0.0
 10
114.6899847803553
 20
-149.628076134468
 30
0.0
 10
114.5273762734515
 20
-149.628076134468
 30
0.0
 10
114.3833712821681
 20
-149.628076134468
 30
0.0
 10
114.1315348021963
 20
-149.6101616379447
 30
0.0
 10
113.9327527926974
 20
-149.49681799648
 30
0.0
 10
113.7298366686162
 20
-149.3817518072726
 30
0.0
 10
113.7064100193165
 20
-149.2098415425586
 30
0.0
 10
113.7064100193165
 20
-149.0720377231487
 30
0.0
 10
113.7064100193165
 20
-148.9021945157259
 30
0.0
 10
113.7508517510762
 20
-148.7485432570837
 30
0.0
 10
113.9327527926974
 20
-148.6469129402688
 30
0.0
 10
114.1253336303228
 20
-148.5404594897746
 30
0.0
 10
114.3537434609949
 20
-148.5156548022808
 30
0.0
 10
114.5273762734515
 20
-148.5156548022808
 30
0.0
 10
114.6985975190684
 20
-148.5156548022808
 30
0.0
 10
114.9290744070316
 20
-148.5383924324835
 30
0.0
 10
115.1216552446571
 20
-148.6469129402688
 30
0.0
  0
SPLINE
  5
8C
330
85
100
AcDbEntity
  8
_U+30EC_U+30A4_U+30E4_U+30FC 1
370
     0
100
AcDbSpline
210
0.0
220
0.0
230
1.0
 70
    11
 71
     3
 72
    17
 73
    13
 74
     0
 42
0.0000000001
 43
0.0000000001
 12
1.0
 22
0.0
 32
0.0
 13
1.0
 23
0.0
 33
0.0
 40
0.0
 40
0.0
 40
0.0
 40
0.0
 40
1.0
 40
1.0
 40
1.0
 40
2.0
 40
2.0
 40
2.0
 40
3.0
 40
3.0
 40
3.0
 40
4.0
 40
4.0
 40
4.0
 40
4.0
 10
113.8989908569419
 20
-149.0720377231487
 30
0.0
 10
113.8989908569419
 20
-149.338688113707
 30
0.0
 10
114.182522215378
 20
-149.3882974886946
 30
0.0
 10
114.5273762734515
 20
-149.3882974886946
 30
0.0
 10
114.8467366249342
 20
-149.3882974886946
 30
0.0
 10
115.1554171804125
 20
-149.3500569288083
 30
0.0
 10
115.1554171804125
 20
-149.0720377231487
 30
0.0
 10
115.1554171804125
 20
-148.8074543898815
 30
0.0
 10
114.8742973888162
 20
-148.7554334480542
 30
0.0
 10
114.5273762734515
 20
-148.7554334480542
 30
0.0
 10
114.2076714124203
 20
-148.7554334480542
 30
0.0
 10
113.8989908569419
 20
-148.7960855747802
 30
0.0
 10
113.8989908569419
 20
-149.0720377231487
 30
0.0
  0
HATCH
  5
8D
330
85
100
AcDbEntity
  8
_U+30EC_U+30A4_U+30E4_U+30FC 1
 62
   179
420
  2234388
100
AcDbHatch
 10
0.0
 20
0.0
 30
0.0
210
0.0
220
0.0
230
1.0
  2
SOLID
 70
     1
 71
     0
 91
        2
 92
        1
 93
        1
 72
     4
 94
        3
 73
     0
 74
     1
 95
       29
 96
       25
 40
0.0
 40
0.0
 40
0.0
 40
0.0
 40
1.0
 40
1.0
 40
1.0
 40
2.0
 40
2.0
 40
2.0
 40
3.0
 40
3.0
 40
3.0
 40
4.0
 40
4.0
 40
4.0
 40
5.0
 40
5.0
 40
5.0
 40
6.0
 40
6.0
 40
6.0
 40
7.0
 40
7.0
 40
7.0
 40
8.0
 40
8.0
 40
8.0
 40
8.0
 10
115.1216552446571
 20
-148.6469129402688
 10
115.3311170501603
 20
-148.7623236390247
 10
115.3500650753292
 20
-148.9476697761311
 10
115.3500650753292
 20
-149.0720377231487
 10
115.3500650753292
 20
-149.2436034783141
 10
115.3035562862783
 20
-149.3951876796651
 10
115.1216552446571
 20
-149.49681799648
 10
114.9270073497405
 20
-149.607750071105
 10
114.6899847803553
 20
-149.628076134468
 10
114.5273762734515
 20
-149.628076134468
 10
114.3833712821681
 20
-149.628076134468
 10
114.1315348021963
 20
-149.6101616379447
 10
113.9327527926974
 20
-149.49681799648
 10
113.7298366686162
 20
-149.3817518072726
 10
113.7064100193165
 20
-149.2098415425586
 10
113.7064100193165
 20
-149.0720377231487
 10
113.7064100193165
 20
-148.9021945157259
 10
113.7508517510762
 20
-148.7485432570837
 10
113.9327527926974
 20
-148.6469129402688
 10
114.1253336303228
 20
-148.5404594897746
 10
114.3537434609949
 20
-148.5156548022808
 10
114.5273762734515
 20
-148.5156548022808
 10
114.6985975190684
 20
-148.5156548022808
 10
114.9290744070316
 20
-148.5383924324835
 10
115.1216552446571
 20
-148.6469129402688
 97
        0
 97
        0
 92
        1
 93
        1
 72
     4
 94
        3
 73
     0
 74
     1
 95
       17
 96
       13
 40
0.0
 40
0.0
 40
0.0
 40
0.0
 40
1.0
 40
1.0
 40
1.0
 40
2.0
 40
2.0
 40
2.0
 40
3.0
 40
3.0
 40
3.0
 40
4.0
 40
4.0
 40
4.0
 40
4.0
 10
113.8989908569419
 20
-149.0720377231487
 10
113.8989908569419
 20
-149.338688113707
 10
114.182522215378
 20
-149.3882974886946
 10
114.5273762734515
 20
-149.3882974886946
 10
114.8467366249342
 20
-149.3882974886946
 10
115.1554171804125
 20
-149.3500569288083
 10
115.1554171804125
 20
-149.0720377231487
 10
115.1554171804125
 20
-148.8074543898815
 10
114.8742973888162
 20
-148.7554334480542
 10
114.5273762734515
 20
-148.7554334480542
 10
114.2076714124203
 20
-148.7554334480542
 10
113.8989908569419
 20
-148.7960855747802
 10
113.8989908569419
 20
-149.0720377231487
 97
        0
 97
        0
 75
     2
 76
     1
 98
        0
  0
ENDBLK
  5
88
330
85
100
AcDbEntity
  8
0
100
AcDbBlockEnd
  0
BLOCK
  5
90
330
8E
100
AcDbEntity
  8
0
100
AcDbBlockBegin
  2
block 5
 70
     0
 10
0.0
 20
0.0
 30
0.0
  3
block 5
  1

  0
SPLINE
  5
92
330
8E
100
AcDbEntity
  8
_U+30EC_U+30A4_U+30E4_U+30FC 1
370
     0
100
AcDbSpline
210
0.0
220
0.0
230
1.0
 70
    11
 71
     3
 72
    26
 73
    22
 74
     0
 42
0.0000000001
 43
0.0000000001
 12
1.0
 22
0.0
 32
0.0
 13
1.0
 23
0.0
 33
0.0
 40
0.0
 40
0.0
 40
0.0
 40
0.0
 40
1.0
 40
1.0
 40
1.0
 40
2.0
 40
2.0
 40
2.0
 40
3.0
 40
3.0
 40
3.0
 40
4.0
 40
4.0
 40
4.0
 40
5.0
 40
5.0
 40
5.0
 40
6.0
 40
6.0
 40
6.0
 40
7.0
 40
7.0
 40
7.0
 40
7.0
 10
115.299422171696
 20
-155.2249782598049
 30
0.0
 10
115.299422171696
 20
-155.2249782598049
 30
0.0
 10
114.1952690686734
 20
-155.2249782598049
 30
0.0
 10
114.1952690686734
 20
-155.2249782598049
 30
0.0
 10
114.1952690686734
 20
-155.2249782598049
 30
0.0
 10
114.1952690686734
 20
-155.5774115279459
 30
0.0
 10
114.1952690686734
 20
-155.5774115279459
 30
0.0
 10
114.1952690686734
 20
-155.5774115279459
 30
0.0
 10
114.0471299628077
 20
-155.5774115279459
 30
0.0
 10
114.0471299628077
 20
-155.5774115279459
 30
0.0
 10
114.0323160522211
 20
-155.2225666929652
 30
0.0
 10
113.8693630357688
 20
-155.1729573179776
 30
0.0
 10
113.7549858656585
 20
-155.1412624395133
 30
0.0
 10
113.7549858656585
 20
-155.1412624395133
 30
0.0
 10
113.7549858656585
 20
-154.9851996140315
 30
0.0
 10
113.7549858656585
 20
-154.9851996140315
 30
0.0
 10
113.7549858656585
 20
-154.9851996140315
 30
0.0
 10
115.299422171696
 20
-154.9851996140315
 30
0.0
 10
115.299422171696
 20
-154.9851996140315
 30
0.0
 10
115.299422171696
 20
-154.9851996140315
 30
0.0
 10
115.299422171696
 20
-155.2249782598049
 30
0.0
 10
115.299422171696
 20
-155.2249782598049
 30
0.0
  0
HATCH
  5
93
330
8E
100
AcDbEntity
  8
_U+30EC_U+30A4_U+30E4_U+30FC 1
 62
   179
420
  2234388
100
AcDbHatch
 10
0.0
 20
0.0
 30
0.0
210
0.0
220
0.0
230
1.0
  2
SOLID
 70
     1
 71
     0
 91
        1
 92
        1
 93
        1
 72
     4
 94
        3
 73
     0
 74
     1
 95
       26
 96
       22
 40
0.0
 40
0.0
 40
0.0
 40
0.0
 40
1.0
 40
1.0
 40
1.0
 40
2.0
 40
2.0
 40
2.0
 40
3.0
 40
3.0
 40
3.0
 40
4.0
 40
4.0
 40
4.0
 40
5.0
 40
5.0
 40
5.0
 40
6.0
 40
6.0
 40
6.0
 40
7.0
 40
7.0
 40
7.0
 40
7.0
 10
115.299422171696
 20
-155.2249782598049
 10
115.299422171696
 20
-155.2249782598049
 10
114.1952690686734
 20
-155.2249782598049
 10
114.1952690686734
 20
-155.2249782598049
 10
114.1952690686734
 20
-155.2249782598049
 10
114.1952690686734
 20
-155.5774115279459
 10
114.1952690686734
 20
-155.5774115279459
 10
114.1952690686734
 20
-155.5774115279459
 10
114.0471299628077
 20
-155.5774115279459
 10
114.0471299628077
 20
-155.5774115279459
 10
114.0323160522211
 20
-155.2225666929652
 10
113.8693630357688
 20
-155.1729573179776
 10
113.7549858656585
 20
-155.1412624395133
 10
113.7549858656585
 20
-155.1412624395133
 10
113.7549858656585
 20
-154.9851996140315
 10
113.7549858656585
 20
-154.9851996140315
 10
113.7549858656585
 20
-154.9851996140315
 10
115.299422171696
 20
-154.9851996140315
 10
115.299422171696
 20
-154.9851996140315
 10
115.299422171696
 20
-154.9851996140315
 10
115.299422171696
 20
-155.2249782598049
 10
115.299422171696
 20
-155.2249782598049
 97
        0
 97
        0
 75
     2
 76
     1
 98
        0
  0
ENDBLK
  5
91
330
8E
100
AcDbEntity
  8
0
100
AcDbBlockEnd
  0
BLOCK
  5
98
330
96
100
AcDbEntity
  8
0
100
AcDbBlockBegin
  2
block 6
 70
     0
 10
0.0
 20
0.0
 30
0.0
  3
block 6
  1

  0
SPLINE
  5
9A
330
96
100
AcDbEntity
  8
_U+30EC_U+30A4_U+30E4_U+30FC 1
370
     0
100
AcDbSpline
210
0.0
220
0.0
230
1.0
 70
    11
 71
     3
 72
    26
 73
    22
 74
     0
 42
0.0000000001
 43
0.0000000001
 12
1.0
 22
0.0
 32
0.0
 13
1.0
 23
0.0
 33
0.0
 40
0.0
 40
0.0
 40
0.0
 40
0.0
 40
1.0
 40
1.0
 40
1.0
 40
2.0
 40
2.0
 40
2.0
 40
3.0
 40
3.0
 40
3.0
 40
4.0
 40
4.0
 40
4.0
 40
5.0
 40
5.0
 40
5.0
 40
6.0
 40
6.0
 40
6.0
 40
7.0
 40
7.0
 40
7.0
 40
7.0
 10
93.09302569287259
 20
-149.1481743333727
 30
0.0
 10
93.09302569287259
 20
-149.1481743333727
 30
0.0
 10
93.09302569287259
 20
-148.0441934851244
 30
0.0
 10
93.09302569287259
 20
-148.0441934851244
 30
0.0
 10
93.09302569287259
 20
-148.0441934851244
 30
0.0
 10
92.76298554538565
 20
-148.0441934851244
 30
0.0
 10
92.76298554538565
 20
-148.0441934851244
 30
0.0
 10
92.76298554538565
 20
-148.0441934851244
 30
0.0
 10
92.76298554538565
 20
-147.8960543792586
 30
0.0
 10
92.76298554538565
 20
-147.8960543792586
 30
0.0
 10
93.09509275016373
 20
-147.881240468672
 30
0.0
 10
93.1416015392146
 20
-147.7182874522197
 30
0.0
 10
93.17122936038776
 20
-147.6039102821094
 30
0.0
 10
93.17122936038776
 20
-147.6039102821094
 30
0.0
 10
93.31730140896235
 20
-147.6039102821094
 30
0.0
 10
93.31730140896235
 20
-147.6039102821094
 30
0.0
 10
93.31730140896235
 20
-147.6039102821094
 30
0.0
 10
93.31730140896235
 20
-149.1481743333727
 30
0.0
 10
93.31730140896235
 20
-149.1481743333727
 30
0.0
 10
93.31730140896235
 20
-149.1481743333727
 30
0.0
 10
93.09302569287259
 20
-149.1481743333727
 30
0.0
 10
93.09302569287259
 20
-149.1481743333727
 30
0.0
  0
HATCH
  5
9B
330
96
100
AcDbEntity
  8
_U+30EC_U+30A4_U+30E4_U+30FC 1
 62
   179
420
  2234388
100
AcDbHatch
 10
0.0
 20
0.0
 30
0.0
210
0.0
220
0.0
230
1.0
  2
SOLID
 70
     1
 71
     0
 91
        1
 92
        1
 93
        1
 72
     4
 94
        3
 73
     0
 74
     1
 95
       26
 96
       22
 40
0.0
 40
0.0
 40
0.0
 40
0.0
 40
1.0
 40
1.0
 40
1.0
 40
2.0
 40
2.0
 40
2.0
 40
3.0
 40
3.0
 40
3.0
 40
4.0
 40
4.0
 40
4.0
 40
5.0
 40
5.0
 40
5.0
 40
6.0
 40
6.0
 40
6.0
 40
7.0
 40
7.0
 40
7.0
 40
7.0
 10
93.09302569287259
 20
-149.1481743333727
 10
93.09302569287259
 20
-149.1481743333727
 10
93.09302569287259
 20
-148.0441934851244
 10
93.09302569287259
 20
-148.0441934851244
 10
93.09302569287259
 20
-148.0441934851244
 10
92.76298554538565
 20
-148.0441934851244
 10
92.76298554538565
 20
-148.0441934851244
 10
92.76298554538565
 20
-148.0441934851244
 10
92.76298554538565
 20
-147.8960543792586
 10
92.76298554538565
 20
-147.8960543792586
 10
93.09509275016373
 20
-147.881240468672
 10
93.1416015392146
 20
-147.7182874522197
 10
93.17122936038776
 20
-147.6039102821094
 10
93.17122936038776
 20
-147.6039102821094
 10
93.31730140896235
 20
-147.6039102821094
 10
93.31730140896235
 20
-147.6039102821094
 10
93.31730140896235
 20
-147.6039102821094
 10
93.31730140896235
 20
-149.1481743333727
 10
93.31730140896235
 20
-149.1481743333727
 10
93.31730140896235
 20
-149.1481743333727
 10
93.09302569287259
 20
-149.1481743333727
 10
93.09302569287259
 20
-149.1481743333727
 97
        0
 97
        0
 75
     2
 76
     1
 98
        0
  0
ENDBLK
  5
99
330
96
100
AcDbEntity
  8
0
100
AcDbBlockEnd
  0
ENDSEC
  0
SECTION
  2
ENTITIES
  0
SPLINE
  5
41
330
1F
100
AcDbEntity
  8
_U+30EC_U+30A4_U+30E4_U+30FC 1
370
     0
100
AcDbSpline
210
0.0
220
0.0
230
1.0
 70
    11
 71
     3
 72
    44
 73
    40
 74
     0
 42
0.0000000001
 43
0.0000000001
 12
1.0
 22
0.0
 32
0.0
 13
1.0
 23
0.0
 33
0.0
 40
0.0
 40
0.0
 40
0.0
 40
0.0
 40
1.0
 40
1.0
 40
1.0
 40
2.0
 40
2.0
 40
2.0
 40
3.0
 40
3.0
 40
3.0
 40
4.0
 40
4.0
 40
4.0
 40
5.0
 40
5.0
 40
5.0
 40
6.0
 40
6.0
 40
6.0
 40
7.0
 40
7.0
 40
7.0
 40
8.0
 40
8.0
 40
8.0
 40
9.0
 40
9.0
 40
9.0
 40
10.0
 40
10.0
 40
10.0
 40
11.0
 40
11.0
 40
11.0
 40
12.0
 40
12.0
 40
12.0
 40
13.0
 40
13.0
 40
13.0
 40
13.0
 10
112.4480565955588
 20
-155.2057933843214
 30
0.0
 10
112.4480565955588
 20
-155.2057933843214
 30
0.0
 10
102.9477428602765
 20
-155.2057933843214
 30
0.0
 10
102.9477428602765
 20
-155.2057933843214
 30
0.0
 10
102.769243850447
 20
-154.8964130438225
 30
0.0
 10
102.4393974895811
 20
-154.7062653048835
 30
0.0
 10
102.0820334285268
 20
-154.7062653048835
 30
0.0
 10
102.0820334285268
 20
-154.7062653048835
 30
0.0
 10
95.94793325780587
 20
-154.7062653048835
 30
0.0
 10
95.94793325780587
 20
-154.7062653048835
 30
0.0
 10
95.94793325780587
 20
-154.7062653048835
 30
0.0
 10
95.94793325780587
 20
-144.7053684296711
 30
0.0
 10
95.94793325780587
 20
-144.7053684296711
 30
0.0
 10
95.94793325780587
 20
-144.7053684296711
 30
0.0
 10
102.9477428602765
 20
-144.7053684296711
 30
0.0
 10
102.9477428602765
 20
-144.7053684296711
 30
0.0
 10
102.9477428602765
 20
-144.7053684296711
 30
0.0
 10
102.9477428602765
 20
-144.1052973916809
 30
0.0
 10
102.9477428602765
 20
-144.1052973916809
 30
0.0
 10
102.9477428602765
 20
-144.1052973916809
 30
0.0
 10
100.9379710474923
 20
-143.9049112595967
 30
0.0
 10
100.9379710474923
 20
-143.9049112595967
 30
0.0
 10
99.6118784337562
 20
-143.7719198079427
 30
0.0
 10
98.28049975163431
 20
-143.7055909539282
 30
0.0
 10
96.94805524309697
 20
-143.7055909539282
 30
0.0
 10
96.94805524309697
 20
-143.7055909539282
 30
0.0
 10
94.94815578206266
 20
-143.7055909539282
 30
0.0
 10
94.94815578206266
 20
-143.7055909539282
 30
0.0
 10
94.94815578206266
 20
-143.7055909539282
 30
0.0
 10
94.94815578206266
 20
-154.905940886024
 30
0.0
 10
94.94815578206266
 20
-154.905940886024
 30
0.0
 10
94.94815578206266
 20
-155.3476128931564
 30
0.0
 10
95.30623039406082
 20
-155.7060427806265
 30
0.0
 10
95.74790240119324
 20
-155.7060427806265
 30
0.0
 10
95.74790240119324
 20
-155.7060427806265
 30
0.0
 10
112.9475846749966
 20
-155.7060427806265
 30
0.0
 10
112.9475846749966
 20
-155.7060427806265
 30
0.0
 10
112.9475846749966
 20
-155.4298107182498
 30
0.0
 10
112.7235673410682
 20
-155.2057933843214
 30
0.0
 10
112.4480565955588
 20
-155.2057933843214
 30
0.0
  0
HATCH
  5
42
330
1F
100
AcDbEntity
  8
_U+30EC_U+30A4_U+30E4_U+30FC 1
 62
     9
420
 13224394
100
AcDbHatch
 10
0.0
 20
0.0
 30
0.0
210
0.0
220
0.0
230
1.0
  2
SOLID
 70
     1
 71
     0
 91
        1
 92
        1
 93
        2
 72
     4
 94
        3
 73
     0
 74
     0
 95
       44
 96
       40
 40
0.0
 40
0.0
 40
0.0
 40
0.0
 40
0.3527777776895833
 40
0.3527777776895833
 40
0.3527777776895833
 40
0.7055555553791667
 40
0.7055555553791667
 40
0.7055555553791667
 40
1.05833333306875
 40
1.05833333306875
 40
1.05833333306875
 40
1.411111110758333
 40
1.411111110758333
 40
1.411111110758333
 40
1.763888888447917
 40
1.763888888447917
 40
1.763888888447917
 40
2.1166666661375
 40
2.1166666661375
 40
2.1166666661375
 40
2.469444443827083
 40
2.469444443827083
 40
2.469444443827083
 40
2.822222221516667
 40
2.822222221516667
 40
2.822222221516667
 40
3.17499999920625
 40
3.17499999920625
 40
3.17499999920625
 40
3.527777776895833
 40
3.527777776895833
 40
3.527777776895833
 40
3.880555554585417
 40
3.880555554585417
 40
3.880555554585417
 40
4.233333332275
 40
4.233333332275
 40
4.233333332275
 40
4.586111109964584
 40
4.586111109964584
 40
4.586111109964584
 40
4.586111109964584
 10
112.4480565955588
 20
-155.2057933843214
 10
112.4480565955588
 20
-155.2057933843214
 10
102.9477428602765
 20
-155.2057933843214
 10
102.9477428602765
 20
-155.2057933843214
 10
102.769243850447
 20
-154.8964130438225
 10
102.4393974895811
 20
-154.7062653048835
 10
102.0820334285268
 20
-154.7062653048835
 10
102.0820334285268
 20
-154.7062653048835
 10
95.94793325780587
 20
-154.7062653048835
 10
95.94793325780587
 20
-154.7062653048835
 10
95.94793325780587
 20
-154.7062653048835
 10
95.94793325780587
 20
-144.7053684296711
 10
95.94793325780587
 20
-144.7053684296711
 10
95.94793325780587
 20
-144.7053684296711
 10
102.9477428602765
 20
-144.7053684296711
 10
102.9477428602765
 20
-144.7053684296711
 10
102.9477428602765
 20
-144.7053684296711
 10
102.9477428602765
 20
-144.1052973916809
 10
102.9477428602765
 20
-144.1052973916809
 10
102.9477428602765
 20
-144.1052973916809
 10
100.9379710474923
 20
-143.9049112595967
 10
100.9379710474923
 20
-143.9049112595967
 10
99.6118784337562
 20
-143.7719198079427
 10
98.28049975163431
 20
-143.7055909539282
 10
96.94805524309697
 20
-143.7055909539282
 10
96.94805524309697
 20
-143.7055909539282
 10
94.94815578206266
 20
-143.7055909539282
 10
94.94815578206266
 20
-143.7055909539282
 10
94.94815578206266
 20
-143.7055909539282
 10
94.94815578206266
 20
-154.905940886024
 10
94.94815578206266
 20
-154.905940886024
 10
94.94815578206266
 20
-155.3476128931564
 10
95.30623039406082
 20
-155.7060427806265
 10
95.74790240119324
 20
-155.7060427806265
 10
95.74790240119324
 20
-155.7060427806265
 10
112.9475846749966
 20
-155.7060427806265
 10
112.9475846749966
 20
-155.7060427806265
 10
112.9475846749966
 20
-155.4298107182498
 10
112.7235673410682
 20
-155.2057933843214
 10
112.4480565955588
 20
-155.2057933843214
 97
        0
 72
     1
 10
112.4480565955588
 20
-155.2057933843214
 11
112.4480565955588
 21
-155.2057933843214
 97
        0
 75
     2
 76
     1
 98
        0
  0
SPLINE
  5
43
330
1F
100
AcDbEntity
  8
_U+30EC_U+30A4_U+30E4_U+30FC 1
 62
   179
420
  2234388
370
    25
100
AcDbSpline
210
0.0
220
0.0
230
1.0
 70
    11
 71
     3
 72
    44
 73
    40
 74
     0
 42
0.0000000001
 43
0.0000000001
 12
1.0
 22
0.0
 32
0.0
 13
1.0
 23
0.0
 33
0.0
 40
0.0
 40
0.0
 40
0.0
 40
0.0
 40
1.0
 40
1.0
 40
1.0
 40
2.0
 40
2.0
 40
2.0
 40
3.0
 40
3.0
 40
3.0
 40
4.0
 40
4.0
 40
4.0
 40
5.0
 40
5.0
 40
5.0
 40
6.0
 40
6.0
 40
6.0
 40
7.0
 40
7.0
 40
7.0
 40
8.0
 40
8.0
 40
8.0
 40
9.0
 40
9.0
 40
9.0
 40
10.0
 40
10.0
 40
10.0
 40
11.0
 40
11.0
 40
11.0
 40
12.0
 40
12.0
 40
12.0
 40
13.0
 40
13.0
 40
13.0
 40
13.0
 10
96.94820596602446
 20
-143.7057309109323
 30
0.0
 10
98.28028443316647
 20
-143.7057309109323
 30
0.0
 10
99.61202915668336
 20
-143.7720597649471
 30
0.0
 10
100.9381217704198
 20
-143.9047067070523
 30
0.0
 10
100.9381217704198
 20
-143.9047067070523
 30
0.0
 10
102.947893583204
 20
-144.105437348685
 30
0.0
 10
102.947893583204
 20
-144.105437348685
 30
0.0
 10
102.947893583204
 20
-144.105437348685
 30
0.0
 10
102.947893583204
 20
-144.7055083866755
 30
0.0
 10
102.947893583204
 20
-144.7055083866755
 30
0.0
 10
102.947893583204
 20
-144.7055083866755
 30
0.0
 10
95.94771793933772
 20
-144.7055083866755
 30
0.0
 10
95.94771793933772
 20
-144.7055083866755
 30
0.0
 10
95.94771793933772
 20
-144.7055083866755
 30
0.0
 10
95.94771793933772
 20
-154.7064052618877
 30
0.0
 10
95.94771793933772
 20
-154.7064052618877
 30
0.0
 10
95.94771793933772
 20
-154.7064052618877
 30
0.0
 10
102.0821733855309
 20
-154.7064052618877
 30
0.0
 10
102.0821733855309
 20
-154.7064052618877
 30
0.0
 10
102.4391821711136
 20
-154.7064052618877
 30
0.0
 10
102.7693838074511
 20
-154.8965530008267
 30
0.0
 10
102.947893583204
 20
-155.2059333413255
 30
0.0
 10
102.947893583204
 20
-155.2059333413255
 30
0.0
 10
112.4481965525629
 20
-155.2059333413255
 30
0.0
 10
112.4481965525629
 20
-155.2059333413255
 30
0.0
 10
112.7237180639957
 20
-155.2059333413255
 30
0.0
 10
112.9477353979241
 20
-155.4295953997819
 30
0.0
 10
112.9477353979241
 20
-155.7061719717071
 30
0.0
 10
112.9477353979241
 20
-155.7061719717071
 30
0.0
 10
95.74805312412072
 20
-155.7061719717071
 30
0.0
 10
95.74805312412072
 20
-155.7061719717071
 30
0.0
 10
95.30637035106523
 20
-155.7061719717071
 30
0.0
 10
94.94795122951822
 20
-155.3477528501605
 30
0.0
 10
94.94795122951822
 20
-154.906080843028
 30
0.0
 10
94.94795122951822
 20
-154.906080843028
 30
0.0
 10
94.94795122951822
 20
-143.7057309109323
 30
0.0
 10
94.94795122951822
 20
-143.7057309109323
 30
0.0
 10
94.94795122951822
 20
-143.7057309109323
 30
0.0
 10
96.94820596602446
 20
-143.7057309109323
 30
0.0
 10
96.94820596602446
 20
-143.7057309109323
 30
0.0
  0
SPLINE
  5
44
330
1F
100
AcDbEntity
  8
_U+30EC_U+30A4_U+30E4_U+30FC 1
 62
   179
420
  2234388
370
     9
100
AcDbSpline
210
0.0
220
0.0
230
1.0
 70
    11
 71
     3
 72
    17
 73
    13
 74
     0
 42
0.0000000001
 43
0.0000000001
 12
1.0
 22
0.0
 32
0.0
 13
1.0
 23
0.0
 33
0.0
 40
0.0
 40
0.0
 40
0.0
 40
0.0
 40
1.0
 40
1.0
 40
1.0
 40
2.0
 40
2.0
 40
2.0
 40
3.0
 40
3.0
 40
3.0
 40
4.0
 40
4.0
 40
4.0
 40
4.0
 10
95.04789129636065
 20
-139.7052645016134
 30
0.0
 10
95.04789129636065
 20
-139.6502398671599
 30
0.0
 10
95.00308352320562
 20
-139.6054320940049
 30
0.0
 10
94.94804812282875
 20
-139.6054320940049
 30
0.0
 10
94.89301272245189
 20
-139.6054320940049
 30
0.0
 10
94.84821571522025
 20
-139.6502398671599
 30
0.0
 10
94.84821571522025
 20
-139.7052645016134
 30
0.0
 10
94.84821571522025
 20
-139.7610104529341
 30
0.0
 10
94.89301272245189
 20
-139.8058074601661
 30
0.0
 10
94.94804812282875
 20
-139.8058074601661
 30
0.0
 10
95.00308352320562
 20
-139.8058074601661
 30
0.0
 10
95.04789129636065
 20
-139.7610104529341
 30
0.0
 10
95.04789129636065
 20
-139.7052645016134
 30
0.0
  0
SPLINE
  5
45
330
1F
100
AcDbEntity
  8
_U+30EC_U+30A4_U+30E4_U+30FC 1
 62
   179
420
  2234388
370
     9
100
AcDbSpline
210
0.0
220
0.0
230
1.0
 70
    11
 71
     3
 72
    17
 73
    13
 74
     0
 42
0.0000000001
 43
0.0000000001
 12
1.0
 22
0.0
 32
0.0
 13
1.0
 23
0.0
 33
0.0
 40
0.0
 40
0.0
 40
0.0
 40
0.0
 40
1.0
 40
1.0
 40
1.0
 40
2.0
 40
2.0
 40
2.0
 40
3.0
 40
3.0
 40
3.0
 40
4.0
 40
4.0
 40
4.0
 40
4.0
 10
103.0481135640546
 20
-139.7052645016134
 30
0.0
 10
103.0481135640546
 20
-139.6502398671599
 30
0.0
 10
103.0033057908996
 20
-139.6054320940049
 30
0.0
 10
102.9479151150508
 20
-139.6054320940049
 30
0.0
 10
102.8928904805973
 20
-139.6054320940049
 30
0.0
 10
102.8480827074423
 20
-139.6502398671599
 30
0.0
 10
102.8480827074423
 20
-139.7052645016134
 30
0.0
 10
102.8480827074423
 20
-139.7610104529341
 30
0.0
 10
102.8928904805973
 20
-139.8058074601661
 30
0.0
 10
102.9479151150508
 20
-139.8058074601661
 30
0.0
 10
103.0033057908996
 20
-139.8058074601661
 30
0.0
 10
103.0481135640546
 20
-139.7610104529341
 30
0.0
 10
103.0481135640546
 20
-139.7052645016134
 30
0.0
  0
SPLINE
  5
46
330
1F
100
AcDbEntity
  8
_U+30EC_U+30A4_U+30E4_U+30FC 1
 62
   179
420
  2234388
370
     9
100
AcDbSpline
210
0.0
220
0.0
230
1.0
 70
    11
 71
     3
 72
    17
 73
    13
 74
     0
 42
0.0000000001
 43
0.0000000001
 12
1.0
 22
0.0
 32
0.0
 13
1.0
 23
0.0
 33
0.0
 40
0.0
 40
0.0
 40
0.0
 40
0.0
 40
1.0
 40
1.0
 40
1.0
 40
2.0
 40
2.0
 40
2.0
 40
3.0
 40
3.0
 40
3.0
 40
4.0
 40
4.0
 40
4.0
 40
4.0
 10
116.9256148999678
 20
-144.7054653229816
 30
0.0
 10
116.9256148999678
 20
-144.6504406885282
 30
0.0
 10
116.8808071268128
 20
-144.6056329153731
 30
0.0
 10
116.8257717264359
 20
-144.6056329153731
 30
0.0
 10
116.7707363260591
 20
-144.6056329153731
 30
0.0
 10
116.7259393188274
 20
-144.6504406885282
 30
0.0
 10
116.7259393188274
 20
-144.7054653229816
 30
0.0
 10
116.7259393188274
 20
-144.7605007233585
 30
0.0
 10
116.7707363260591
 20
-144.8053084965135
 30
0.0
 10
116.8257717264359
 20
-144.8053084965135
 30
0.0
 10
116.8808071268128
 20
-144.8053084965135
 30
0.0
 10
116.9256148999678
 20
-144.7605007233585
 30
0.0
 10
116.9256148999678
 20
-144.7054653229816
 30
0.0
  0
SPLINE
  5
47
330
1F
100
AcDbEntity
  8
_U+30EC_U+30A4_U+30E4_U+30FC 1
 62
   179
420
  2234388
370
     9
100
AcDbSpline
210
0.0
220
0.0
230
1.0
 70
    11
 71
     3
 72
    17
 73
    13
 74
     0
 42
0.0000000001
 43
0.0000000001
 12
1.0
 22
0.0
 32
0.0
 13
1.0
 23
0.0
 33
0.0
 40
0.0
 40
0.0
 40
0.0
 40
0.0
 40
1.0
 40
1.0
 40
1.0
 40
2.0
 40
2.0
 40
2.0
 40
3.0
 40
3.0
 40
3.0
 40
4.0
 40
4.0
 40
4.0
 40
4.0
 10
116.9256148999678
 20
-154.7062545389602
 30
0.0
 10
116.9256148999678
 20
-154.6505193535629
 30
0.0
 10
116.8808071268128
 20
-154.6057223463312
 30
0.0
 10
116.8257717264359
 20
-154.6057223463312
 30
0.0
 10
116.7707363260591
 20
-154.6057223463312
 30
0.0
 10
116.7259393188274
 20
-154.6505193535629
 30
0.0
 10
116.7259393188274
 20
-154.7062545389602
 30
0.0
 10
116.7259393188274
 20
-154.761289939337
 30
0.0
 10
116.7707363260591
 20
-154.8060977124921
 30
0.0
 10
116.8257717264359
 20
-154.8060977124921
 30
0.0
 10
116.8808071268128
 20
-154.8060977124921
 30
0.0
 10
116.9256148999678
 20
-154.761289939337
 30
0.0
 10
116.9256148999678
 20
-154.7062545389602
 30
0.0
  0
SPLINE
  5
48
330
1F
100
AcDbEntity
  8
_U+30EC_U+30A4_U+30E4_U+30FC 1
 62
   179
420
  2234388
370
     9
100
AcDbSpline
210
0.0
220
0.0
230
1.0
 70
    11
 71
     3
 72
    17
 73
    13
 74
     0
 42
0.0000000001
 43
0.0000000001
 12
1.0
 22
0.0
 32
0.0
 13
1.0
 23
0.0
 33
0.0
 40
0.0
 40
0.0
 40
0.0
 40
0.0
 40
1.0
 40
1.0
 40
1.0
 40
2.0
 40
2.0
 40
2.0
 40
3.0
 40
3.0
 40
3.0
 40
4.0
 40
4.0
 40
4.0
 40
4.0
 10
116.9256148999678
 20
-155.7011981151003
 30
0.0
 10
116.9256148999678
 20
-155.645462929703
 30
0.0
 10
116.8808071268128
 20
-155.6006659224714
 30
0.0
 10
116.8257717264359
 20
-155.6006659224714
 30
0.0
 10
116.7707363260591
 20
-155.6006659224714
 30
0.0
 10
116.7259393188274
 20
-155.645462929703
 30
0.0
 10
116.7259393188274
 20
-155.7011981151003
 30
0.0
 10
116.7259393188274
 20
-155.7562335154772
 30
0.0
 10
116.7707363260591
 20
-155.8010412886322
 30
0.0
 10
116.8257717264359
 20
-155.8010412886322
 30
0.0
 10
116.8808071268128
 20
-155.8010412886322
 30
0.0
 10
116.9256148999678
 20
-155.7562335154772
 30
0.0
 10
116.9256148999678
 20
-155.7011981151003
 30
0.0
  0
SPLINE
  5
49
330
1F
100
AcDbEntity
  8
_U+30EC_U+30A4_U+30E4_U+30FC 1
 62
   179
420
  2234388
370
     9
100
AcDbSpline
210
0.0
220
0.0
230
1.0
 70
    11
 71
     3
 72
    17
 73
    13
 74
     0
 42
0.0000000001
 43
0.0000000001
 12
1.0
 22
0.0
 32
0.0
 13
1.0
 23
0.0
 33
0.0
 40
0.0
 40
0.0
 40
0.0
 40
0.0
 40
1.0
 40
1.0
 40
1.0
 40
2.0
 40
2.0
 40
2.0
 40
3.0
 40
3.0
 40
3.0
 40
4.0
 40
4.0
 40
4.0
 40
4.0
 10
95.04789129636065
 20
-159.7057232775378
 30
0.0
 10
95.04789129636065
 20
-159.6506986430843
 30
0.0
 10
95.00308352320562
 20
-159.6058908699293
 30
0.0
 10
94.94804812282875
 20
-159.6058908699293
 30
0.0
 10
94.89301272245189
 20
-159.6058908699293
 30
0.0
 10
94.84821571522025
 20
-159.6506986430843
 30
0.0
 10
94.84821571522025
 20
-159.7057232775378
 30
0.0
 10
94.84821571522025
 20
-159.7607586779146
 30
0.0
 10
94.89301272245189
 20
-159.8055664510697
 30
0.0
 10
94.94804812282875
 20
-159.8055664510697
 30
0.0
 10
95.00308352320562
 20
-159.8055664510697
 30
0.0
 10
95.04789129636065
 20
-159.7607586779146
 30
0.0
 10
95.04789129636065
 20
-159.7057232775378
 30
0.0
  0
SPLINE
  5
4A
330
1F
100
AcDbEntity
  8
_U+30EC_U+30A4_U+30E4_U+30FC 1
 62
   179
420
  2234388
370
     9
100
AcDbSpline
210
0.0
220
0.0
230
1.0
 70
    11
 71
     3
 72
    17
 73
    13
 74
     0
 42
0.0000000001
 43
0.0000000001
 12
1.0
 22
0.0
 32
0.0
 13
1.0
 23
0.0
 33
0.0
 40
0.0
 40
0.0
 40
0.0
 40
0.0
 40
1.0
 40
1.0
 40
1.0
 40
2.0
 40
2.0
 40
2.0
 40
3.0
 40
3.0
 40
3.0
 40
4.0
 40
4.0
 40
4.0
 40
4.0
 10
113.0474924440689
 20
-159.7057232775378
 30
0.0
 10
113.0474924440689
 20
-159.6506986430843
 30
0.0
 10
113.0026846709138
 20
-159.6058908699293
 30
0.0
 10
112.947649270537
 20
-159.6058908699293
 30
0.0
 10
112.8926138701601
 20
-159.6058908699293
 30
0.0
 10
112.8478168629285
 20
-159.6506986430843
 30
0.0
 10
112.8478168629285
 20
-159.7057232775378
 30
0.0
 10
112.8478168629285
 20
-159.7607586779146
 30
0.0
 10
112.8926138701601
 20
-159.8055664510697
 30
0.0
 10
112.947649270537
 20
-159.8055664510697
 30
0.0
 10
113.0026846709138
 20
-159.8055664510697
 30
0.0
 10
113.0474924440689
 20
-159.7607586779146
 30
0.0
 10
113.0474924440689
 20
-159.7057232775378
 30
0.0
  0
POLYLINE
  5
4B
330
1F
100
AcDbEntity
  8
_U+30EC_U+30A4_U+30E4_U+30FC 1
 62
   179
420
  2234388
370
     9
100
AcDb2dPolyline
 66
     1
 10
0.0
 20
0.0
 30
0.0
  0
VERTEX
  5
4C
330
4B
100
AcDbEntity
  8
_U+30EC_U+30A4_U+30E4_U+30FC 1
 62
   179
420
  2234388
370
     9
100
AcDbVertex
100
AcDb2dVertex
 10
94.9479835272884
 20
-139.7052645016134
 30
0.0
  0
VERTEX
  5
4D
330
4B
100
AcDbEntity
  8
_U+30EC_U+30A4_U+30E4_U+30FC 1
 62
   179
420
  2234388
370
     9
100
AcDbVertex
100
AcDb2dVertex
 10
102.9479151150508
 20
-139.7052645016134
 30
0.0
  0
SEQEND
  5
4E
330
4B
100
AcDbEntity
  8
_U+30EC_U+30A4_U+30E4_U+30FC 1
 62
   179
420
  2234388
370
     9
  0
POLYLINE
  5
4F
330
1F
100
AcDbEntity
  8
_U+30EC_U+30A4_U+30E4_U+30FC 1
 62
   179
420
  2234388
370
     9
100
AcDb2dPolyline
 66
     1
 10
0.0
 20
0.0
 30
0.0
  0
VERTEX
  5
50
330
4F
100
AcDbEntity
  8
_U+30EC_U+30A4_U+30E4_U+30FC 1
 62
   179
420
  2234388
370
     9
100
AcDbVertex
100
AcDb2dVertex
 10
94.9479835272884
 20
-141.1653067341857
 30
0.0
  0
VERTEX
  5
51
330
4F
100
AcDbEntity
  8
_U+30EC_U+30A4_U+30E4_U+30FC 1
 62
   179
420
  2234388
370
     9
100
AcDbVertex
100
AcDb2dVertex
 10
94.9479835272884
 20
-138.70539013256
 30
0.0
  0
SEQEND
  5
52
330
4F
100
AcDbEntity
  8
_U+30EC_U+30A4_U+30E4_U+30FC 1
 62
   179
420
  2234388
370
     9
  0
POLYLINE
  5
53
330
1F
100
AcDbEntity
  8
_U+30EC_U+30A4_U+30E4_U+30FC 1
 62
   179
420
  2234388
370
     9
100
AcDb2dPolyline
 66
     1
 10
0.0
 20
0.0
 30
0.0
  0
VERTEX
  5
54
330
53
100
AcDbEntity
  8
_U+30EC_U+30A4_U+30E4_U+30FC 1
 62
   179
420
  2234388
370
     9
100
AcDbVertex
100
AcDb2dVertex
 10
102.9478182217403
 20
-141.5656052977249
 30
0.0
  0
VERTEX
  5
55
330
53
100
AcDbEntity
  8
_U+30EC_U+30A4_U+30E4_U+30FC 1
 62
   179
420
  2234388
370
     9
100
AcDbVertex
100
AcDb2dVertex
 10
102.9478182217403
 20
-138.705637748798
 30
0.0
  0
SEQEND
  5
56
330
53
100
AcDbEntity
  8
_U+30EC_U+30A4_U+30E4_U+30FC 1
 62
   179
420
  2234388
370
     9
  0
INSERT
  5
58
330
1F
100
AcDbEntity
  8
_U+30EC_U+30A4_U+30E4_U+30FC 1
100
AcDbBlockReference
  2
block 2
 10
0.0
 20
0.0
 30
0.0
  0
POLYLINE
  5
5F
330
1F
100
AcDbEntity
  8
_U+30EC_U+30A4_U+30E4_U+30FC 1
 62
   179
420
  2234388
370
     9
100
AcDb2dPolyline
 66
     1
 10
0.0
 20
0.0
 30
0.0
  0
VERTEX
  5
60
330
5F
100
AcDbEntity
  8
_U+30EC_U+30A4_U+30E4_U+30FC 1
 62
   179
420
  2234388
370
     9
100
AcDbVertex
100
AcDb2dVertex
 10
94.9479835272884
 20
-159.7057232775378
 30
0.0
  0
VERTEX
  5
61
330
5F
100
AcDbEntity
  8
_U+30EC_U+30A4_U+30E4_U+30FC 1
 62
   179
420
  2234388
370
     9
100
AcDbVertex
100
AcDb2dVertex
 10
112.947401654299
 20
-159.7057232775378
 30
0.0
  0
SEQEND
  5
62
330
5F
100
AcDbEntity
  8
_U+30EC_U+30A4_U+30E4_U+30FC 1
 62
   179
420
  2234388
370
     9
  0
POLYLINE
  5
63
330
1F
100
AcDbEntity
  8
_U+30EC_U+30A4_U+30E4_U+30FC 1
 62
   179
420
  2234388
370
     9
100
AcDb2dPolyline
 66
     1
 10
0.0
 20
0.0
 30
0.0
  0
VERTEX
  5
64
330
63
100
AcDbEntity
  8
_U+30EC_U+30A4_U+30E4_U+30FC 1
 62
   179
420
  2234388
370
     9
100
AcDbVertex
100
AcDb2dVertex
 10
94.9479835272884
 20
-157.4457837029074
 30
0.0
  0
VERTEX
  5
65
330
63
100
AcDbEntity
  8
_U+30EC_U+30A4_U+30E4_U+30FC 1
 62
   179
420
  2234388
370
     9
100
AcDbVertex
100
AcDb2dVertex
 10
94.9479835272884
 20
-160.7054576895871
 30
0.0
  0
SEQEND
  5
66
330
63
100
AcDbEntity
  8
_U+30EC_U+30A4_U+30E4_U+30FC 1
 62
   179
420
  2234388
370
     9
  0
POLYLINE
  5
67
330
1F
100
AcDbEntity
  8
_U+30EC_U+30A4_U+30E4_U+30FC 1
 62
   179
420
  2234388
370
     9
100
AcDb2dPolyline
 66
     1
 10
0.0
 20
0.0
 30
0.0
  0
VERTEX
  5
68
330
67
100
AcDbEntity
  8
_U+30EC_U+30A4_U+30E4_U+30FC 1
 62
   179
420
  2234388
370
     9
100
AcDbVertex
100
AcDb2dVertex
 10
112.94759544092
 20
-158.2457456405058
 30
0.0
  0
VERTEX
  5
69
330
67
100
AcDbEntity
  8
_U+30EC_U+30A4_U+30E4_U+30FC 1
 62
   179
420
  2234388
370
     9
100
AcDbVertex
100
AcDb2dVertex
 10
112.94759544092
 20
-160.7056730080549
 30
0.0
  0
SEQEND
  5
6A
330
67
100
AcDbEntity
  8
_U+30EC_U+30A4_U+30E4_U+30FC 1
 62
   179
420
  2234388
370
     9
  0
INSERT
  5
6C
330
1F
100
AcDbEntity
  8
_U+30EC_U+30A4_U+30E4_U+30FC 1
100
AcDbBlockReference
  2
block 3
 10
0.0
 20
0.0
 30
0.0
  0
POLYLINE
  5
75
330
1F
100
AcDbEntity
  8
_U+30EC_U+30A4_U+30E4_U+30FC 1
 62
   179
420
  2234388
370
     9
100
AcDb2dPolyline
 66
     1
 10
0.0
 20
0.0
 30
0.0
  0
VERTEX
  5
76
330
75
100
AcDbEntity
  8
_U+30EC_U+30A4_U+30E4_U+30FC 1
 62
   179
420
  2234388
370
     9
100
AcDbVertex
100
AcDb2dVertex
 10
116.8257071308956
 20
-155.7011981151003
 30
0.0
  0
VERTEX
  5
77
330
75
100
AcDbEntity
  8
_U+30EC_U+30A4_U+30E4_U+30FC 1
 62
   179
420
  2234388
370
     9
100
AcDbVertex
100
AcDb2dVertex
 10
116.8257071308956
 20
-144.705476088905
 30
0.0
  0
SEQEND
  5
78
330
75
100
AcDbEntity
  8
_U+30EC_U+30A4_U+30E4_U+30FC 1
 62
   179
420
  2234388
370
     9
  0
POLYLINE
  5
79
330
1F
100
AcDbEntity
  8
_U+30EC_U+30A4_U+30E4_U+30FC 1
 62
   179
420
  2234388
370
     9
100
AcDb2dPolyline
 66
     1
 10
0.0
 20
0.0
 30
0.0
  0
VERTEX
  5
7A
330
79
100
AcDbEntity
  8
_U+30EC_U+30A4_U+30E4_U+30FC 1
 62
   179
420
  2234388
370
     9
100
AcDbVertex
100
AcDb2dVertex
 10
115.3449943254118
 20
-154.7062545389602
 30
0.0
  0
VERTEX
  5
7B
330
79
100
AcDbEntity
  8
_U+30EC_U+30A4_U+30E4_U+30FC 1
 62
   179
420
  2234388
370
     9
100
AcDbVertex
100
AcDb2dVertex
 10
117.8257214569531
 20
-154.7062545389602
 30
0.0
  0
SEQEND
  5
7C
330
79
100
AcDbEntity
  8
_U+30EC_U+30A4_U+30E4_U+30FC 1
 62
   179
420
  2234388
370
     9
  0
POLYLINE
  5
7D
330
1F
100
AcDbEntity
  8
_U+30EC_U+30A4_U+30E4_U+30FC 1
 62
   179
420
  2234388
370
     9
100
AcDb2dPolyline
 66
     1
 10
0.0
 20
0.0
 30
0.0
  0
VERTEX
  5
7E
330
7D
100
AcDbEntity
  8
_U+30EC_U+30A4_U+30E4_U+30FC 1
 62
   179
420
  2234388
370
     9
100
AcDbVertex
100
AcDb2dVertex
 10
115.3449943254118
 20
-155.7011981151003
 30
0.0
  0
VERTEX
  5
7F
330
7D
100
AcDbEntity
  8
_U+30EC_U+30A4_U+30E4_U+30FC 1
 62
   179
420
  2234388
370
     9
100
AcDbVertex
100
AcDb2dVertex
 10
117.8257214569531
 20
-155.7011981151003
 30
0.0
  0
SEQEND
  5
80
330
7D
100
AcDbEntity
  8
_U+30EC_U+30A4_U+30E4_U+30FC 1
 62
   179
420
  2234388
370
     9
  0
POLYLINE
  5
81
330
1F
100
AcDbEntity
  8
_U+30EC_U+30A4_U+30E4_U+30FC 1
 62
   179
420
  2234388
370
     9
100
AcDb2dPolyline
 66
     1
 10
0.0
 20
0.0
 30
0.0
  0
VERTEX
  5
82
330
81
100
AcDbEntity
  8
_U+30EC_U+30A4_U+30E4_U+30FC 1
 62
   179
420
  2234388
370
     9
100
AcDbVertex
100
AcDb2dVertex
 10
115.3656756642467
 20
-144.7054653229816
 30
0.0
  0
VERTEX
  5
83
330
81
100
AcDbEntity
  8
_U+30EC_U+30A4_U+30E4_U+30FC 1
 62
   179
420
  2234388
370
     9
100
AcDbVertex
100
AcDb2dVertex
 10
117.8259475413443
 20
-144.7054653229816
 30
0.0
  0
SEQEND
  5
84
330
81
100
AcDbEntity
  8
_U+30EC_U+30A4_U+30E4_U+30FC 1
 62
   179
420
  2234388
370
     9
  0
INSERT
  5
86
330
1F
100
AcDbEntity
  8
_U+30EC_U+30A4_U+30E4_U+30FC 1
100
AcDbBlockReference
  2
block 4
 10
0.0
 20
0.0
 30
0.0
  0
INSERT
  5
8F
330
1F
100
AcDbEntity
  8
_U+30EC_U+30A4_U+30E4_U+30FC 1
100
AcDbBlockReference
  2
block 5
 10
0.0
 20
0.0
 30
0.0
  0
SPLINE
  5
94
330
1F
100
AcDbEntity
  8
_U+30EC_U+30A4_U+30E4_U+30FC 1
 62
   179
420
  2234388
370
     9
100
AcDbSpline
210
0.0
220
0.0
230
1.0
 70
    11
 71
     3
 72
    17
 73
    13
 74
     0
 42
0.0000000001
 43
0.0000000001
 12
1.0
 22
0.0
 32
0.0
 13
1.0
 23
0.0
 33
0.0
 40
0.0
 40
0.0
 40
0.0
 40
0.0
 40
1.0
 40
1.0
 40
1.0
 40
2.0
 40
2.0
 40
2.0
 40
3.0
 40
3.0
 40
3.0
 40
4.0
 40
4.0
 40
4.0
 40
4.0
 10
95.04203463403572
 20
-149.737027279189
 30
0.0
 10
95.04203463403572
 20
-149.6820026447355
 30
0.0
 10
94.99722686088069
 20
-149.6371948715805
 30
0.0
 10
94.9418361850319
 20
-149.6371948715805
 30
0.0
 10
94.88681155057843
 20
-149.6371948715805
 30
0.0
 10
94.8420037774234
 20
-149.6820026447355
 30
0.0
 10
94.8420037774234
 20
-149.737027279189
 30
0.0
 10
94.8420037774234
 20
-149.7920626795659
 30
0.0
 10
94.88681155057843
 20
-149.8368704527209
 30
0.0
 10
94.9418361850319
 20
-149.8368704527209
 30
0.0
 10
94.99722686088069
 20
-149.8368704527209
 30
0.0
 10
95.04203463403572
 20
-149.7920626795659
 30
0.0
 10
95.04203463403572
 20
-149.737027279189
 30
0.0
  0
SPLINE
  5
95
330
1F
100
AcDbEntity
  8
_U+30EC_U+30A4_U+30E4_U+30FC 1
 62
   179
420
  2234388
370
     9
100
AcDbSpline
210
0.0
220
0.0
230
1.0
 70
    11
 71
     3
 72
    17
 73
    13
 74
     0
 42
0.0000000001
 43
0.0000000001
 12
1.0
 22
0.0
 32
0.0
 13
1.0
 23
0.0
 33
0.0
 40
0.0
 40
0.0
 40
0.0
 40
0.0
 40
1.0
 40
1.0
 40
1.0
 40
2.0
 40
2.0
 40
2.0
 40
3.0
 40
3.0
 40
3.0
 40
4.0
 40
4.0
 40
4.0
 40
4.0
 10
96.04176904608505
 20
-149.737027279189
 30
0.0
 10
96.04176904608505
 20
-149.6820026447355
 30
0.0
 10
95.99696127293002
 20
-149.6371948715805
 30
0.0
 10
95.94157059708124
 20
-149.6371948715805
 30
0.0
 10
95.88654596262776
 20
-149.6371948715805
 30
0.0
 10
95.84173818947305
 20
-149.6820026447355
 30
0.0
 10
95.84173818947305
 20
-149.737027279189
 30
0.0
 10
95.84173818947305
 20
-149.7920626795659
 30
0.0
 10
95.88654596262776
 20
-149.8368704527209
 30
0.0
 10
95.94157059708124
 20
-149.8368704527209
 30
0.0
 10
95.99696127293002
 20
-149.8368704527209
 30
0.0
 10
96.04176904608505
 20
-149.7920626795659
 30
0.0
 10
96.04176904608505
 20
-149.737027279189
 30
0.0
  0
INSERT
  5
97
330
1F
100
AcDbEntity
  8
_U+30EC_U+30A4_U+30E4_U+30FC 1
100
AcDbBlockReference
  2
block 6
 10
0.0
 20
0.0
 30
0.0
  0
POLYLINE
  5
9C
330
1F
100
AcDbEntity
  8
_U+30EC_U+30A4_U+30E4_U+30FC 1
 62
   179
420
  2234388
370
     9
100
AcDb2dPolyline
 66
     1
 10
0.0
 20
0.0
 30
0.0
  0
VERTEX
  5
9D
330
9C
100
AcDbEntity
  8
_U+30EC_U+30A4_U+30E4_U+30FC 1
 62
   179
420
  2234388
370
     9
100
AcDbVertex
100
AcDb2dVertex
 10
96.80313514832527
 20
-149.737027279189
 30
0.0
  0
VERTEX
  5
9E
330
9C
100
AcDbEntity
  8
_U+30EC_U+30A4_U+30E4_U+30FC 1
 62
   179
420
  2234388
370
     9
100
AcDbVertex
100
AcDb2dVertex
 10
92.30309759587497
 20
-149.737027279189
 30
0.0
  0
SEQEND
  5
9F
330
9C
100
AcDbEntity
  8
_U+30EC_U+30A4_U+30E4_U+30FC 1
 62
   179
420
  2234388
370
     9
  0
POLYLINE
  5
A0
330
1F
100
AcDbEntity
  8
_U+30EC_U+30A4_U+30E4_U+30FC 1
  6
AI-Linetype-1
 62
     8
420
  8223869
370
    25
100
AcDb2dPolyline
 66
     1
 10
0.0
 20
0.0
 30
0.0
  0
VERTEX
  5
A1
330
A0
100
AcDbEntity
  8
_U+30EC_U+30A4_U+30E4_U+30FC 1
  6
AI-Linetype-1
 62
     8
420
  8223869
370
    25
100
AcDbVertex
100
AcDb2dVertex
 10
103.5083460231138
 20
-144.764064244001
 30
0.0
  0
VERTEX
  5
A2
330
A0
100
AcDbEntity
  8
_U+30EC_U+30A4_U+30E4_U+30FC 1
  6
AI-Linetype-1
 62
     8
420
  8223869
370
    25
100
AcDbVertex
100
AcDb2dVertex
 10
103.5083460231138
 20
-143.1324670221867
 30
0.0
  0
VERTEX
  5
A3
330
A0
100
AcDbEntity
  8
_U+30EC_U+30A4_U+30E4_U+30FC 1
  6
AI-Linetype-1
 62
     8
420
  8223869
370
    25
100
AcDbVertex
100
AcDb2dVertex
 10
94.33612380318463
 20
-143.1324670221867
 30
0.0
  0
VERTEX
  5
A4
330
A0
100
AcDbEntity
  8
_U+30EC_U+30A4_U+30E4_U+30FC 1
  6
AI-Linetype-1
 62
     8
420
  8223869
370
    25
100
AcDbVertex
100
AcDb2dVertex
 10
94.33612380318463
 20
-155.7061827376305
 30
0.0
  0
SEQEND
  5
A6
330
A0
100
AcDbEntity
  8
_U+30EC_U+30A4_U+30E4_U+30FC 1
  6
AI-Linetype-1
 62
     8
420
  8223869
370
    25
  0
ENDSEC
  0
SECTION
  2
OBJECTS
  0
DICTIONARY
  5
C
330
0
100
AcDbDictionary
281
     1
  3
ACAD_GROUP
350
D
  3
ACAD_LAYOUT
350
1A
  3
ACAD_MATERIAL
350
3B
  3
ACAD_MLEADERSTYLE
350
A8
  3
ACAD_MLINESTYLE
350
17
  3
ACAD_PLOTSETTINGS
350
19
  3
ACAD_PLOTSTYLENAME
350
E
  3
ACAD_TABLESTYLE
350
A7
  3
ACAD_VISUALSTYLE
350
2A
  0
SUN
  5
3F
330
29
100
AcDbSun
 90
        1
290
     0
 63
     7
421
 16777215
 40
1.0
291
     1
 91
  2455826
 92
 54000000
292
     0
 70
     2
 71
   256
280
     1
  0
DICTIONARY
  5
D
102
{ACAD_REACTORS
330
C
102
}
330
C
100
AcDbDictionary
281
     1
  0
DICTIONARY
  5
1A
102
{ACAD_REACTORS
330
C
102
}
330
C
100
AcDbDictionary
281
     1
  3
Layout1
350
1E
  3
Layout2
350
26
  3
Model
350
22
  0
DICTIONARY
  5
3B
102
{ACAD_REACTORS
330
C
102
}
330
C
100
AcDbDictionary
281
     1
  3
ByBlock
350
3D
  3
ByLayer
350
3C
  3
Global
350
3E
  0
DICTIONARY
  5
A8
102
{ACAD_REACTORS
330
C
102
}
330
C
100
AcDbDictionary
281
     1
  0
DICTIONARY
  5
17
102
{ACAD_REACTORS
330
C
102
}
330
C
100
AcDbDictionary
281
     1
  3
Standard
350
18
  0
DICTIONARY
  5
19
102
{ACAD_REACTORS
330
C
102
}
330
C
100
AcDbDictionary
281
     1
  0
ACDBDICTIONARYWDFLT
  5
E
102
{ACAD_REACTORS
330
C
102
}
330
C
100
AcDbDictionary
281
     1
  3
Normal
350
F
100
AcDbDictionaryWithDefault
340
F
  0
DICTIONARY
  5
A7
102
{ACAD_REACTORS
330
C
102
}
330
C
100
AcDbDictionary
281
     1
  0
DICTIONARY
  5
2A
102
{ACAD_REACTORS
330
C
102
}
330
C
100
AcDbDictionary
281
     1
  3
2dWireframe
350
2F
  3
3D Hidden
350
31
  3
3dWireframe
350
30
  3
Basic
350
32
  3
Brighten
350
36
  3
ColorChange
350
3A
  3
Conceptual
350
34
  3
Dim
350
35
  3
Facepattern
350
39
  3
Flat
350
2B
  3
FlatWithEdges
350
2C
  3
Gouraud
350
2D
  3
GouraudWithEdges
350
2E
  3
Linepattern
350
38
  3
Realistic
350
33
  3
Thicken
350
37
  0
LAYOUT
  5
1E
102
{ACAD_REACTORS
330
1A
102
}
330
1A
100
AcDbPlotSettings
  1

  2
none_device
  4

  6

 40
0.0
 41
0.0
 42
0.0
 43
0.0
 44
0.0
 45
0.0
 46
0.0
 47
0.0
 48
0.0
 49
0.0
140
0.0
141
0.0
142
1.0
143
1.0
 70
   688
 72
     0
 73
     0
 74
     5
  7

 75
    16
 76
     0
 77
     2
 78
   300
147
1.0
148
0.0
149
0.0
100
AcDbLayout
  1
Layout1
 70
     1
 71
     1
 10
0.0
 20
0.0
 11
12.0
 21
9.0
 12
0.0
 22
0.0
 32
0.0
 14
1.000000000000000E+20
 24
1.000000000000000E+20
 34
1.000000000000000E+20
 15
-1.000000000000000E+20
 25
-1.000000000000000E+20
 35
-1.000000000000000E+20
146
0.0
 13
0.0
 23
0.0
 33
0.0
 16
1.0
 26
0.0
 36
0.0
 17
0.0
 27
1.0
 37
0.0
 76
     0
330
1B
  0
LAYOUT
  5
26
102
{ACAD_REACTORS
330
1A
102
}
330
1A
100
AcDbPlotSettings
  1

  2
none_device
  4

  6

 40
0.0
 41
0.0
 42
0.0
 43
0.0
 44
0.0
 45
0.0
 46
0.0
 47
0.0
 48
0.0
 49
0.0
140
0.0
141
0.0
142
1.0
143
1.0
 70
   688
 72
     0
 73
     0
 74
     5
  7

 75
    16
 76
     0
 77
     2
 78
   300
147
1.0
148
0.0
149
0.0
100
AcDbLayout
  1
Layout2
 70
     1
 71
     2
 10
0.0
 20
0.0
 11
0.0
 21
0.0
 12
0.0
 22
0.0
 32
0.0
 14
0.0
 24
0.0
 34
0.0
 15
0.0
 25
0.0
 35
0.0
146
0.0
 13
0.0
 23
0.0
 33
0.0
 16
1.0
 26
0.0
 36
0.0
 17
0.0
 27
1.0
 37
0.0
 76
     0
330
23
  0
LAYOUT
  5
22
102
{ACAD_REACTORS
330
1A
102
}
330
1A
100
AcDbPlotSettings
  1

  2
none_device
  4

  6

 40
0.0
 41
0.0
 42
0.0
 43
0.0
 44
0.0
 45
0.0
 46
0.0
 47
0.0
 48
0.0
 49
0.0
140
0.0
141
0.0
142
1.0
143
1.0
 70
  1712
 72
     0
 73
     0
 74
     0
  7

 75
     0
 76
     0
 77
     2
 78
   300
147
1.0
148
0.0
149
0.0
100
AcDbLayout
  1
Model
 70
     1
 71
     0
 10
0.0
 20
0.0
 11
12.0
 21
9.0
 12
0.0
 22
0.0
 32
0.0
 14
1.000000000000000E+20
 24
1.000000000000000E+20
 34
1.000000000000000E+20
 15
-1.000000000000000E+20
 25
-1.000000000000000E+20
 35
-1.000000000000000E+20
146
0.0
 13
0.0
 23
0.0
 33
0.0
 16
1.0
 26
0.0
 36
0.0
 17
0.0
 27
1.0
 37
0.0
 76
     0
330
1F
331
29
  0
MATERIAL
  5
3D
102
{ACAD_REACTORS
330
3B
102
}
330
3B
100
AcDbMaterial
  1
ByBlock
 72
     1
 94
      127
  0
MATERIAL
  5
3C
102
{ACAD_REACTORS
330
3B
102
}
330
3B
100
AcDbMaterial
  1
ByLayer
 72
     1
 94
      127
  0
MATERIAL
  5
3E
102
{ACAD_REACTORS
330
3B
102
}
330
3B
100
AcDbMaterial
  1
Global
 72
     1
 94
      127
  0
MLINESTYLE
  5
18
102
{ACAD_REACTORS
330
17
102
}
330
17
100
AcDbMlineStyle
  2
Standard
 70
     0
  3

 62
   256
 51
90.0
 52
90.0
 71
     2
 49
0.5
 62
   256
  6
BYLAYER
 49
-0.5
 62
   256
  6
BYLAYER
  0
ACDBPLACEHOLDER
  5
F
102
{ACAD_REACTORS
330
E
102
}
330
E
  0
VISUALSTYLE
  5
2F
102
{ACAD_REACTORS
330
2A
102
}
330
2A
100
AcDbVisualStyle
  2
2dWireframe
 70
     4
177
     2
291
     0
 71
     0
176
     1
 72
     2
176
     1
 73
     0
176
     1
 90
        0
176
     1
 40
-0.6
176
     1
 41
-30.0
176
     1
 62
     5
 63
     7
421
 16777215
176
     1
 74
     1
176
     1
 91
        4
176
     1
 64
     7
176
     1
 65
   257
176
     1
 75
     1
176
     1
175
     1
176
     1
 42
1.0
176
     1
 92
        0
176
     1
 66
   257
176
     1
 43
1.0
176
     1
 76
     1
176
     1
 77
     6
176
     1
 78
     2
176
     1
 67
     7
176
     1
 79
     5
176
     1
170
     0
176
     1
171
     0
176
     1
290
     0
176
     1
 93
        1
176
     1
 44
0.0
176
     1
173
     0
176
     1
  0
VISUALSTYLE
  5
31
102
{ACAD_REACTORS
330
2A
102
}
330
2A
100
AcDbVisualStyle
  2
3D Hidden
 70
     6
177
     2
291
     0
 71
     1
176
     1
 72
     2
176
     1
 73
     2
176
     1
 90
        0
176
     1
 40
-0.6
176
     1
 41
-30.0
176
     1
 62
     5
 63
     7
421
 16777215
176
     1
 74
     2
176
     1
 91
        2
176
     1
 64
     7
176
     1
 65
   257
176
     1
 75
     2
176
     1
175
     1
176
     1
 42
40.0
176
     1
 92
        0
176
     1
 66
   257
176
     1
 43
1.0
176
     1
 76
     1
176
     1
 77
     6
176
     1
 78
     2
176
     1
 67
     7
176
     1
 79
     3
176
     1
170
     0
176
     1
171
     0
176
     1
290
     0
176
     1
 93
        1
176
     1
 44
0.0
176
     1
173
     0
176
     1
  0
VISUALSTYLE
  5
30
102
{ACAD_REACTORS
330
2A
102
}
330
2A
100
AcDbVisualStyle
  2
3dWireframe
 70
     5
177
     2
291
     0
 71
     0
176
     1
 72
     2
176
     1
 73
     0
176
     1
 90
        0
176
     1
 40
-0.6
176
     1
 41
-30.0
176
     1
 62
     5
 63
     7
421
 16777215
176
     1
 74
     1
176
     1
 91
        4
176
     1
 64
     7
176
     1
 65
   257
176
     1
 75
     1
176
     1
175
     1
176
     1
 42
1.0
176
     1
 92
        0
176
     1
 66
   257
176
     1
 43
1.0
176
     1
 76
     1
176
     1
 77
     6
176
     1
 78
     2
176
     1
 67
     7
176
     1
 79
     5
176
     1
170
     0
176
     1
171
     0
176
     1
290
     0
176
     1
 93
        1
176
     1
 44
0.0
176
     1
173
     0
176
     1
  0
VISUALSTYLE
  5
32
102
{ACAD_REACTORS
330
2A
102
}
330
2A
100
AcDbVisualStyle
  2
Basic
 70
     7
177
     2
291
     1
 71
     1
176
     1
 72
     0
176
     1
 73
     1
176
     1
 90
        0
176
     1
 40
-0.6
176
     1
 41
-30.0
176
     1
 62
     5
 63
     7
421
 16777215
176
     1
 74
     0
176
     1
 91
        4
176
     1
 64
     7
176
     1
 65
   257
176
     1
 75
     1
176
     1
175
     1
176
     1
 42
1.0
176
     1
 92
        8
176
     1
 66
     7
176
     1
 43
1.0
176
     1
 76
     1
176
     1
 77
     6
176
     1
 78
     2
176
     1
 67
     7
176
     1
 79
     5
176
     1
170
     0
176
     1
171
     0
176
     1
290
     0
176
     1
 93
        1
176
     1
 44
0.0
176
     1
173
     0
176
     1
  0
VISUALSTYLE
  5
36
102
{ACAD_REACTORS
330
2A
102
}
330
2A
100
AcDbVisualStyle
  2
Brighten
 70
    12
177
     2
291
     1
 71
     2
176
     1
 72
     2
176
     1
 73
     0
176
     1
 90
        0
176
     1
 40
-0.6
176
     1
 41
-30.0
176
     1
 62
     5
 63
     7
421
 16777215
176
     1
 74
     1
176
     1
 91
        4
176
     1
 64
     7
176
     1
 65
   257
176
     1
 75
     1
176
     1
175
     1
176
     1
 42
1.0
176
     1
 92
        8
176
     1
 66
     7
176
     1
 43
1.0
176
     1
 76
     1
176
     1
 77
     6
176
     1
 78
     2
176
     1
 67
     7
176
     1
 79
     5
176
     1
170
     0
176
     1
171
     0
176
     1
290
     0
176
     1
 93
        1
176
     1
 44
50.0
176
     1
173
     0
176
     1
  0
VISUALSTYLE
  5
3A
102
{ACAD_REACTORS
330
2A
102
}
330
2A
100
AcDbVisualStyle
  2
ColorChange
 70
    16
177
     2
291
     1
 71
     2
176
     1
 72
     2
176
     1
 73
     3
176
     1
 90
        0
176
     1
 40
-0.6
176
     1
 41
-30.0
176
     1
 62
     5
 63
     8
421
  8421504
176
     1
 74
     1
176
     1
 91
        4
176
     1
 64
     7
176
     1
 65
   257
176
     1
 75
     1
176
     1
175
     1
176
     1
 42
1.0
176
     1
 92
        8
176
     1
 66
     8
424
  8421504
176
     1
 43
1.0
176
     1
 76
     1
176
     1
 77
     6
176
     1
 78
     2
176
     1
 67
     7
176
     1
 79
     5
176
     1
170
     0
176
     1
171
     0
176
     1
290
     0
176
     1
 93
        1
176
     1
 44
0.0
176
     1
173
     0
176
     1
  0
VISUALSTYLE
  5
34
102
{ACAD_REACTORS
330
2A
102
}
330
2A
100
AcDbVisualStyle
  2
Conceptual
 70
     9
177
     2
291
     0
 71
     3
176
     1
 72
     2
176
     1
 73
     0
176
     1
 90
        0
176
     1
 40
-0.6
176
     1
 41
-30.0
176
     1
 62
     5
 63
     7
421
 16777215
176
     1
 74
     2
176
     1
 91
        2
176
     1
 64
     7
176
     1
 65
   257
176
     1
 75
     1
176
     1
175
     1
176
     1
 42
40.0
176
     1
 92
        8
176
     1
 66
     7
176
     1
 43
1.0
176
     1
 76
     1
176
     1
 77
     6
176
     1
 78
     2
176
     1
 67
     7
176
     1
 79
     3
176
     1
170
     0
176
     1
171
     0
176
     1
290
     0
176
     1
 93
        1
176
     1
 44
0.0
176
     1
173
     0
176
     1
  0
VISUALSTYLE
  5
35
102
{ACAD_REACTORS
330
2A
102
}
330
2A
100
AcDbVisualStyle
  2
Dim
 70
    11
177
     2
291
     1
 71
     2
176
     1
 72
     2
176
     1
 73
     0
176
     1
 90
        0
176
     1
 40
-0.6
176
     1
 41
-30.0
176
     1
 62
     5
 63
     7
421
 16777215
176
     1
 74
     1
176
     1
 91
        4
176
     1
 64
     7
176
     1
 65
   257
176
     1
 75
     1
176
     1
175
     1
176
     1
 42
1.0
176
     1
 92
        8
176
     1
 66
     7
176
     1
 43
1.0
176
     1
 76
     1
176
     1
 77
     6
176
     1
 78
     2
176
     1
 67
     7
176
     1
 79
     5
176
     1
170
     0
176
     1
171
     0
176
     1
290
     0
176
     1
 93
        1
176
     1
 44
-50.0
176
     1
173
     0
176
     1
  0
VISUALSTYLE
  5
39
102
{ACAD_REACTORS
330
2A
102
}
330
2A
100
AcDbVisualStyle
  2
Facepattern
 70
    15
177
     2
291
     1
 71
     2
176
     1
 72
     2
176
     1
 73
     0
176
     1
 90
        0
176
     1
 40
-0.6
176
     1
 41
-30.0
176
     1
 62
     5
 63
     7
421
 16777215
176
     1
 74
     1
176
     1
 91
        4
176
     1
 64
     7
176
     1
 65
   257
176
     1
 75
     1
176
     1
175
     1
176
     1
 42
1.0
176
     1
 92
        8
176
     1
 66
     7
176
     1
 43
1.0
176
     1
 76
     1
176
     1
 77
     6
176
     1
 78
     2
176
     1
 67
     7
176
     1
 79
     5
176
     1
170
     0
176
     1
171
     0
176
     1
290
     0
176
     1
 93
        1
176
     1
 44
0.0
176
     1
173
     0
176
     1
  0
VISUALSTYLE
  5
2B
102
{ACAD_REACTORS
330
2A
102
}
330
2A
100
AcDbVisualStyle
  2
Flat
 70
     0
177
     2
291
     1
 71
     2
176
     1
 72
     1
176
     1
 73
     1
176
     1
 90
        2
176
     1
 40
-0.6
176
     1
 41
30.0
176
     1
 62
     5
 63
     7
421
 16777215
176
     1
 74
     0
176
     1
 91
        4
176
     1
 64
     7
176
     1
 65
   257
176
     1
 75
     1
176
     1
175
     1
176
     1
 42
1.0
176
     1
 92
        8
176
     1
 66
     7
176
     1
 43
1.0
176
     1
 76
     1
176
     1
 77
     6
176
     1
 78
     2
176
     1
 67
     7
176
     1
 79
     5
176
     1
170
     0
176
     1
171
     0
176
     1
290
     0
176
     1
 93
       13
176
     1
 44
0.0
176
     1
173
     0
176
     1
  0
VISUALSTYLE
  5
2C
102
{ACAD_REACTORS
330
2A
102
}
330
2A
100
AcDbVisualStyle
  2
FlatWithEdges
 70
     1
177
     2
291
     1
 71
     2
176
     1
 72
     1
176
     1
 73
     1
176
     1
 90
        2
176
     1
 40
-0.6
176
     1
 41
30.0
176
     1
 62
     5
 63
     7
421
 16777215
176
     1
 74
     1
176
     1
 91
        4
176
     1
 64
     7
176
     1
 65
   257
176
     1
 75
     1
176
     1
175
     1
176
     1
 42
1.0
176
     1
 92
        0
176
     1
 66
   257
176
     1
 43
1.0
176
     1
 76
     1
176
     1
 77
     6
176
     1
 78
     2
176
     1
 67
     7
176
     1
 79
     5
176
     1
170
     0
176
     1
171
     0
176
     1
290
     0
176
     1
 93
       13
176
     1
 44
0.0
176
     1
173
     0
176
     1
  0
VISUALSTYLE
  5
2D
102
{ACAD_REACTORS
330
2A
102
}
330
2A
100
AcDbVisualStyle
  2
Gouraud
 70
     2
177
     2
291
     1
 71
     2
176
     1
 72
     2
176
     1
 73
     1
176
     1
 90
        2
176
     1
 40
-0.6
176
     1
 41
30.0
176
     1
 62
     5
 63
     7
421
 16777215
176
     1
 74
     0
176
     1
 91
        4
176
     1
 64
     7
176
     1
 65
   257
176
     1
 75
     1
176
     1
175
     1
176
     1
 42
1.0
176
     1
 92
        0
176
     1
 66
     7
176
     1
 43
1.0
176
     1
 76
     1
176
     1
 77
     6
176
     1
 78
     2
176
     1
 67
     7
176
     1
 79
     5
176
     1
170
     0
176
     1
171
     0
176
     1
290
     0
176
     1
 93
       13
176
     1
 44
0.0
176
     1
173
     0
176
     1
  0
VISUALSTYLE
  5
2E
102
{ACAD_REACTORS
330
2A
102
}
330
2A
100
AcDbVisualStyle
  2
GouraudWithEdges
 70
     3
177
     2
291
     1
 71
     2
176
     1
 72
     2
176
     1
 73
     1
176
     1
 90
        2
176
     1
 40
-0.6
176
     1
 41
30.0
176
     1
 62
     5
 63
     7
421
 16777215
176
     1
 74
     1
176
     1
 91
        4
176
     1
 64
     7
176
     1
 65
   257
176
     1
 75
     1
176
     1
175
     1
176
     1
 42
1.0
176
     1
 92
        0
176
     1
 66
   257
176
     1
 43
1.0
176
     1
 76
     1
176
     1
 77
     6
176
     1
 78
     2
176
     1
 67
     7
176
     1
 79
     5
176
     1
170
     0
176
     1
171
     0
176
     1
290
     0
176
     1
 93
       13
176
     1
 44
0.0
176
     1
173
     0
176
     1
  0
VISUALSTYLE
  5
38
102
{ACAD_REACTORS
330
2A
102
}
330
2A
100
AcDbVisualStyle
  2
Linepattern
 70
    14
177
     2
291
     1
 71
     2
176
     1
 72
     2
176
     1
 73
     0
176
     1
 90
        0
176
     1
 40
-0.6
176
     1
 41
-30.0
176
     1
 62
     5
 63
     7
421
 16777215
176
     1
 74
     1
176
     1
 91
        4
176
     1
 64
     7
176
     1
 65
   257
176
     1
 75
     7
176
     1
175
     7
176
     1
 42
1.0
176
     1
 92
        8
176
     1
 66
     7
176
     1
 43
1.0
176
     1
 76
     1
176
     1
 77
     6
176
     1
 78
     2
176
     1
 67
     7
176
     1
 79
     5
176
     1
170
     0
176
     1
171
     0
176
     1
290
     0
176
     1
 93
        1
176
     1
 44
0.0
176
     1
173
     0
176
     1
  0
VISUALSTYLE
  5
33
102
{ACAD_REACTORS
330
2A
102
}
330
2A
100
AcDbVisualStyle
  2
Realistic
 70
     8
177
     2
291
     0
 71
     2
176
     1
 72
     2
176
     1
 73
     0
176
     1
 90
        0
176
     1
 40
-0.6
176
     1
 41
-30.0
176
     1
 62
     5
 63
     7
421
 16777215
176
     1
 74
     1
176
     1
 91
        0
176
     1
 64
     7
176
     1
 65
   257
176
     1
 75
     1
176
     1
175
     1
176
     1
 42
1.0
176
     1
 92
        8
176
     1
 66
     8
424
  7895160
176
     1
 43
1.0
176
     1
 76
     1
176
     1
 77
     6
176
     1
 78
     2
176
     1
 67
     7
176
     1
 79
     5
176
     1
170
     0
176
     1
171
     0
176
     1
290
     0
176
     1
 93
       13
176
     1
 44
0.0
176
     1
173
     0
176
     1
  0
VISUALSTYLE
  5
37
102
{ACAD_REACTORS
330
2A
102
}
330
2A
100
AcDbVisualStyle
  2
Thicken
 70
    13
177
     2
291
     1
 71
     2
176
     1
 72
     2
176
     1
 73
     0
176
     1
 90
        0
176
     1
 40
-0.6
176
     1
 41
-30.0
176
     1
 62
     5
 63
     7
421
 16777215
176
     1
 74
     1
176
     1
 91
        4
176
     1
 64
     7
176
     1
 65
   257
176
     1
 75
     1
176
     1
175
     1
176
     1
 42
1.0
176
     1
 92
       12
176
     1
 66
     7
176
     1
 43
1.0
176
     1
 76
     1
176
     1
 77
     6
176
     1
 78
     2
176
     1
 67
     7
176
     1
 79
     5
176
     1
170
     0
176
     1
171
     0
176
     1
290
     0
176
     1
 93
        1
176
     1
 44
0.0
176
     1
173
     0
176
     1
  0
ENDSEC
  0
EOF
