  0
SECTION
  2
HEADER
  9
$ACADVER
  1
AC1024
  9
$ACADMAINTVER
 70
     6
  9
$DWGCODEPAGE
  3
UNDEFINED
  9
$INSBASE
 10
0.0
 20
0.0
 30
0.0
  9
$EXTMIN
 10
1.000000000000000E+20
 20
1.000000000000000E+20
 30
1.000000000000000E+20
  9
$EXTMAX
 10
-1.000000000000000E+20
 20
-1.000000000000000E+20
 30
-1.000000000000000E+20
  9
$LIMMIN
 10
0.0
 20
0.0
  9
$LIMMAX
 10
12.0
 20
9.0
  9
$ORTHOMODE
 70
     0
  9
$REGENMODE
 70
     1
  9
$FILLMODE
 70
     1
  9
$QTEXTMODE
 70
     0
  9
$MIRRTEXT
 70
     1
  9
$LTSCALE
 40
1.0
  9
$ATTMODE
 70
     1
  9
$TEXTSIZE
 40
0.2
  9
$TRACEWID
 40
0.05
  9
$TEXTSTYLE
  7
Standard
  9
$CLAYER
  8
0
  9
$CELTYPE
  6
ByLayer
  9
$CECOLOR
 62
   256
  9
$CELTSCALE
 40
1.0
  9
$DISPSILH
 70
     0
  9
$DIMSCALE
 40
1.0
  9
$DIMASZ
 40
0.18
  9
$DIMEXO
 40
0.0625
  9
$DIMDLI
 40
0.38
  9
$DIMRND
 40
0.0
  9
$DIMDLE
 40
0.0
  9
$DIMEXE
 40
0.18
  9
$DIMTP
 40
0.0
  9
$DIMTM
 40
0.0
  9
$DIMTXT
 40
0.18
  9
$DIMCEN
 40
0.09
  9
$DIMTSZ
 40
0.0
  9
$DIMTOL
 70
     0
  9
$DIMLIM
 70
     0
  9
$DIMTIH
 70
     1
  9
$DIMTOH
 70
     1
  9
$DIMSE1
 70
     0
  9
$DIMSE2
 70
     0
  9
$DIMTAD
 70
     0
  9
$DIMZIN
 70
     0
  9
$DIMBLK
  1

  9
$DIMASO
 70
     1
  9
$DIMSHO
 70
     1
  9
$DIMPOST
  1

  9
$DIMAPOST
  1

  9
$DIMALT
 70
     0
  9
$DIMALTD
 70
     2
  9
$DIMALTF
 40
25.4
  9
$DIMLFAC
 40
1.0
  9
$DIMTOFL
 70
     0
  9
$DIMTVP
 40
0.0
  9
$DIMTIX
 70
     0
  9
$DIMSOXD
 70
     0
  9
$DIMSAH
 70
     0
  9
$DIMBLK1
  1

  9
$DIMBLK2
  1

  9
$DIMSTYLE
  2
Standard
  9
$DIMCLRD
 70
     0
  9
$DIMCLRE
 70
     0
  9
$DIMCLRT
 70
     0
  9
$DIMTFAC
 40
1.0
  9
$DIMGAP
 40
0.09
  9
$DIMJUST
 70
     0
  9
$DIMSD1
 70
     0
  9
$DIMSD2
 70
     0
  9
$DIMTOLJ
 70
     1
  9
$DIMTZIN
 70
     0
  9
$DIMALTZ
 70
     0
  9
$DIMALTTZ
 70
     0
  9
$DIMUPT
 70
     0
  9
$DIMDEC
 70
     4
  9
$DIMTDEC
 70
     4
  9
$DIMALTU
 70
     2
  9
$DIMALTTD
 70
     2
  9
$DIMTXSTY
  7
Standard
  9
$DIMAUNIT
 70
     0
  9
$DIMADEC
 70
     0
  9
$DIMALTRND
 40
0.0
  9
$DIMAZIN
 70
     0
  9
$DIMDSEP
 70
    46
  9
$DIMATFIT
 70
     3
  9
$DIMFRAC
 70
     0
  9
$DIMLDRBLK
  1

  9
$DIMLUNIT
 70
     2
  9
$DIMLWD
 70
    -2
  9
$DIMLWE
 70
    -2
  9
$DIMTMOVE
 70
     0
  9
$DIMFXL
 40
1.0
  9
$DIMFXLON
 70
     0
  9
$DIMJOGANG
 40
0.7853981633974483
  9
$DIMTFILL
 70
     0
  9
$DIMTFILLCLR
 70
     0
  9
$DIMARCSYM
 70
     0
  9
$DIMLTYPE
  6

  9
$DIMLTEX1
  6

  9
$DIMLTEX2
  6

  9
$DIMTXTDIRECTION
 70
     0
  9
$LUNITS
 70
     2
  9
$LUPREC
 70
     4
  9
$SKETCHINC
 40
0.1
  9
$FILLETRAD
 40
0.5
  9
$AUNITS
 70
     0
  9
$AUPREC
 70
     0
  9
$MENU
  1
.
  9
$ELEVATION
 40
0.0
  9
$PELEVATION
 40
0.0
  9
$THICKNESS
 40
0.0
  9
$LIMCHECK
 70
     0
  9
$CHAMFERA
 40
0.5
  9
$CHAMFERB
 40
0.5
  9
$CHAMFERC
 40
1.0
  9
$CHAMFERD
 40
0.0
  9
$SKPOLY
 70
     0
  9
$TDCREATE
 40
2457917.617858796
  9
$TDUCREATE
 40
2457917.242858796
  9
$TDUPDATE
 40
2457917.617858796
  9
$TDUUPDATE
 40
2457917.242858796
  9
$TDINDWG
 40
0.0000000116
  9
$TDUSRTIMER
 40
0.0000000116
  9
$USRTIMER
 70
     1
  9
$ANGBASE
 50
0.0
  9
$ANGDIR
 70
     0
  9
$PDMODE
 70
     0
  9
$PDSIZE
 40
0.0
  9
$PLINEWID
 40
0.0
  9
$SPLFRAME
 70
     0
  9
$SPLINETYPE
 70
     6
  9
$SPLINESEGS
 70
     8
  9
$HANDSEED
  5
DC
  9
$SURFTAB1
 70
     6
  9
$SURFTAB2
 70
     6
  9
$SURFTYPE
 70
     6
  9
$SURFU
 70
     6
  9
$SURFV
 70
     6
  9
$UCSBASE
  2

  9
$UCSNAME
  2

  9
$UCSORG
 10
0.0
 20
0.0
 30
0.0
  9
$UCSXDIR
 10
1.0
 20
0.0
 30
0.0
  9
$UCSYDIR
 10
0.0
 20
1.0
 30
0.0
  9
$UCSORTHOREF
  2

  9
$UCSORTHOVIEW
 70
     0
  9
$UCSORGTOP
 10
0.0
 20
0.0
 30
0.0
  9
$UCSORGBOTTOM
 10
0.0
 20
0.0
 30
0.0
  9
$UCSORGLEFT
 10
0.0
 20
0.0
 30
0.0
  9
$UCSORGRIGHT
 10
0.0
 20
0.0
 30
0.0
  9
$UCSORGFRONT
 10
0.0
 20
0.0
 30
0.0
  9
$UCSORGBACK
 10
0.0
 20
0.0
 30
0.0
  9
$PUCSBASE
  2

  9
$PUCSNAME
  2

  9
$PUCSORG
 10
0.0
 20
0.0
 30
0.0
  9
$PUCSXDIR
 10
1.0
 20
0.0
 30
0.0
  9
$PUCSYDIR
 10
0.0
 20
1.0
 30
0.0
  9
$PUCSORTHOREF
  2

  9
$PUCSORTHOVIEW
 70
     0
  9
$PUCSORGTOP
 10
0.0
 20
0.0
 30
0.0
  9
$PUCSORGBOTTOM
 10
0.0
 20
0.0
 30
0.0
  9
$PUCSORGLEFT
 10
0.0
 20
0.0
 30
0.0
  9
$PUCSORGRIGHT
 10
0.0
 20
0.0
 30
0.0
  9
$PUCSORGFRONT
 10
0.0
 20
0.0
 30
0.0
  9
$PUCSORGBACK
 10
0.0
 20
0.0
 30
0.0
  9
$USERI1
 70
     0
  9
$USERI2
 70
     0
  9
$USERI3
 70
     0
  9
$USERI4
 70
     0
  9
$USERI5
 70
     0
  9
$USERR1
 40
0.0
  9
$USERR2
 40
0.0
  9
$USERR3
 40
0.0
  9
$USERR4
 40
0.0
  9
$USERR5
 40
0.0
  9
$WORLDVIEW
 70
     1
  9
$SHADEDGE
 70
     3
  9
$SHADEDIF
 70
    70
  9
$TILEMODE
 70
     1
  9
$MAXACTVP
 70
    64
  9
$PINSBASE
 10
0.0
 20
0.0
 30
0.0
  9
$PLIMCHECK
 70
     0
  9
$PEXTMIN
 10
1.000000000000000E+20
 20
1.000000000000000E+20
 30
1.000000000000000E+20
  9
$PEXTMAX
 10
-1.000000000000000E+20
 20
-1.000000000000000E+20
 30
-1.000000000000000E+20
  9
$PLIMMIN
 10
0.0
 20
0.0
  9
$PLIMMAX
 10
12.0
 20
9.0
  9
$UNITMODE
 70
     0
  9
$VISRETAIN
 70
     1
  9
$PLINEGEN
 70
     0
  9
$PSLTSCALE
 70
     1
  9
$TREEDEPTH
 70
  3020
  9
$CMLSTYLE
  2
Standard
  9
$CMLJUST
 70
     0
  9
$CMLSCALE
 40
1.0
  9
$PROXYGRAPHICS
 70
     1
  9
$MEASUREMENT
 70
     0
  9
$CELWEIGHT
370
    -1
  9
$ENDCAPS
280
     0
  9
$JOINSTYLE
280
     0
  9
$LWDISPLAY
290
     1
  9
$INSUNITS
 70
     1
  9
$HYPERLINKBASE
  1

  9
$STYLESHEET
  1

  9
$XEDIT
290
     1
  9
$CEPSNTYPE
380
     0
  9
$PSTYLEMODE
290
     1
  9
$FINGERPRINTGUID
  2
{FD105F78-DCD5-23ED-C6AE-9E1DE1FBB380}
  9
$VERSIONGUID
  2
{FAEB1C32-E019-11D5-929B-00C0DF256EC4}
  9
$EXTNAMES
290
     1
  9
$PSVPSCALE
 40
0.0
  9
$OLESTARTUP
290
     0
  9
$SORTENTS
280
   127
  9
$INDEXCTL
280
     0
  9
$HIDETEXT
280
     1
  9
$XCLIPFRAME
280
     2
  9
$HALOGAP
280
     0
  9
$OBSCOLOR
 70
   257
  9
$OBSLTYPE
280
     0
  9
$INTERSECTIONDISPLAY
280
     0
  9
$INTERSECTIONCOLOR
 70
   257
  9
$DIMASSOC
280
     2
  9
$PROJECTNAME
  1

  9
$CAMERADISPLAY
290
     0
  9
$LENSLENGTH
 40
50.0
  9
$CAMERAHEIGHT
 40
0.0
  9
$STEPSPERSEC
 40
2.0
  9
$STEPSIZE
 40
6.0
  9
$3DDWFPREC
 40
2.0
  9
$PSOLWIDTH
 40
0.25
  9
$PSOLHEIGHT
 40
4.0
  9
$LOFTANG1
 40
1.570796326794897
  9
$LOFTANG2
 40
1.570796326794897
  9
$LOFTMAG1
 40
0.0
  9
$LOFTMAG2
 40
0.0
  9
$LOFTPARAM
 70
     7
  9
$LOFTNORMALS
280
     1
  9
$LATITUDE
 40
37.795
  9
$LONGITUDE
 40
-122.394
  9
$NORTHDIRECTION
 40
0.0
  9
$TIMEZONE
 70
 -8000
  9
$LIGHTGLYPHDISPLAY
280
     1
  9
$TILEMODELIGHTSYNCH
280
     1
  9
$CMATERIAL
347
3C
  9
$SOLIDHIST
280
     1
  9
$SHOWHIST
280
     1
  9
$DWFFRAME
280
     2
  9
$DGNFRAME
280
     2
  9
$REALWORLDSCALE
290
     1
  9
$INTERFERECOLOR
 62
   256
  9
$CSHADOW
280
     0
  9
$SHADOWPLANELOCATION
 40
0.0
  0
ENDSEC
  0
SECTION
  2
CLASSES
  0
CLASS
  1
ACDBDICTIONARYWDFLT
  2
AcDbDictionaryWithDefault
  3
ObjectDBX Classes
 90
        0
 91
        4
280
     0
281
     0
  0
CLASS
  1
VISUALSTYLE
  2
AcDbVisualStyle
  3
ObjectDBX Classes
 90
     4095
 91
        4
280
     0
281
     0
  0
CLASS
  1
MATERIAL
  2
AcDbMaterial
  3
ObjectDBX Classes
 90
     1153
 91
        4
280
     0
281
     0
  0
CLASS
  1
SUN
  2
AcDbSun
  3
SCENEOE
 90
     1024
 91
        4
280
     0
281
     0
  0
ENDSEC
  0
SECTION
  2
TABLES
  0
TABLE
  2
VPORT
  5
8
330
0
100
AcDbSymbolTable
 70
     1
  0
VPORT
  5
29
330
8
100
AcDbSymbolTableRecord
100
AcDbViewportTableRecord
  2
*Active
 70
     0
 10
0.0
 20
0.0
 11
1.0
 21
1.0
 12
0.0
 22
0.0
 13
0.0
 23
0.0
 14
0.5
 24
0.5
 15
0.5
 25
0.5
 16
0.0
 26
0.0
 36
1.0
 17
91.00082462281999
 27
-128.4993055234307
 37
0.0
 40
256.9986110468615
 41
0.7081814508812795
 42
50.0
 43
0.0
 44
0.0
 50
0.0
 51
0.0
 71
     0
 72
   100
 73
     1
 74
     3
 75
     0
 76
     0
 77
     0
 78
     0
281
     0
 65
     1
110
0.0
120
0.0
130
0.0
111
1.0
121
0.0
131
0.0
112
0.0
122
1.0
132
0.0
 79
     0
146
0.0
 60
     3
 61
     5
292
     1
282
     1
141
0.0
142
0.0
 63
   250
361
3F
  0
ENDTAB
  0
TABLE
  2
LTYPE
  5
5
330
0
100
AcDbSymbolTable
 70
     2
  0
LTYPE
  5
14
330
5
100
AcDbSymbolTableRecord
100
AcDbLinetypeTableRecord
  2
ByBlock
 70
     0
  3

 72
    65
 73
     0
 40
0.0
  0
LTYPE
  5
15
330
5
100
AcDbSymbolTableRecord
100
AcDbLinetypeTableRecord
  2
ByLayer
 70
     0
  3

 72
    65
 73
     0
 40
0.0
  0
LTYPE
  5
16
330
5
100
AcDbSymbolTableRecord
100
AcDbLinetypeTableRecord
  2
Continuous
 70
     0
  3
Solid line
 72
    65
 73
     0
 40
0.0
  0
LTYPE
  5
BD
330
5
100
AcDbSymbolTableRecord
100
AcDbLinetypeTableRecord
  2
AI-Linetype-1
 70
     0
  3
Adobe Illustrator Linetype No. 1
 72
    65
 73
     2
 40
1.411111110758333
 49
0.7055555553791667
 74
     0
 49
-0.7055555553791667
 74
     0
  0
ENDTAB
  0
TABLE
  2
LAYER
  5
2
330
0
100
AcDbSymbolTable
 70
     2
  0
LAYER
  5
10
330
2
100
AcDbSymbolTableRecord
100
AcDbLayerTableRecord
  2
0
 70
     0
 62
     7
  6
Continuous
370
    -3
390
F
347
3E
  0
LAYER
  5
40
330
2
100
AcDbSymbolTableRecord
100
AcDbLayerTableRecord
  2
_U+30EC_U+30A4_U+30E4_U+30FC 1
 70
     0
 62
     7
  6
Continuous
370
    -3
390
F
347
3E
  0
ENDTAB
  0
TABLE
  2
STYLE
  5
3
330
0
100
AcDbSymbolTable
 70
     1
  0
STYLE
  5
11
330
3
100
AcDbSymbolTableRecord
100
AcDbTextStyleTableRecord
  2
Standard
 70
     0
 40
0.0
 41
1.0
 50
0.0
 71
     0
 42
0.2
  3
txt
  4

  0
ENDTAB
  0
TABLE
  2
VIEW
  5
6
330
0
100
AcDbSymbolTable
 70
     0
  0
ENDTAB
  0
TABLE
  2
UCS
  5
7
330
0
100
AcDbSymbolTable
 70
     0
  0
ENDTAB
  0
TABLE
  2
APPID
  5
9
330
0
100
AcDbSymbolTable
 70
     1
  0
APPID
  5
12
330
9
100
AcDbSymbolTableRecord
100
AcDbRegAppTableRecord
  2
ACAD
 70
     0
  0
ENDTAB
  0
TABLE
  2
DIMSTYLE
  5
A
330
0
100
AcDbSymbolTable
 70
     1
100
AcDbDimStyleTable
  0
DIMSTYLE
105
27
330
A
100
AcDbSymbolTableRecord
100
AcDbDimStyleTableRecord
  2
Standard
 70
     0
178
     0
340
11
  0
ENDTAB
  0
TABLE
  2
BLOCK_RECORD
  5
1
330
0
100
AcDbSymbolTable
 70
     6
  0
BLOCK_RECORD
  5
1F
330
1
100
AcDbSymbolTableRecord
100
AcDbBlockTableRecord
  2
*Model_Space
340
22
 70
     0
280
     1
281
     0
  0
BLOCK_RECORD
  5
1B
330
1
100
AcDbSymbolTableRecord
100
AcDbBlockTableRecord
  2
*Paper_Space
340
1E
 70
     0
280
     1
281
     0
  0
BLOCK_RECORD
  5
23
330
1
100
AcDbSymbolTableRecord
100
AcDbBlockTableRecord
  2
*Paper_Space0
340
26
 70
     0
280
     1
281
     0
  0
BLOCK_RECORD
  5
7D
330
1
100
AcDbSymbolTableRecord
100
AcDbBlockTableRecord
  2
block 2
340
0
102
{BLKREFS
331
7E
102
}
 70
     0
280
     1
281
     0
  0
BLOCK_RECORD
  5
91
330
1
100
AcDbSymbolTableRecord
100
AcDbBlockTableRecord
  2
block 3
340
0
102
{BLKREFS
331
92
102
}
 70
     0
280
     1
281
     0
  0
BLOCK_RECORD
  5
A7
330
1
100
AcDbSymbolTableRecord
100
AcDbBlockTableRecord
  2
block 4
340
0
102
{BLKREFS
331
A8
102
}
 70
     0
280
     1
281
     0
  0
BLOCK_RECORD
  5
C1
330
1
100
AcDbSymbolTableRecord
100
AcDbBlockTableRecord
  2
block 5
340
0
102
{BLKREFS
331
C2
102
}
 70
     0
280
     1
281
     0
  0
BLOCK_RECORD
  5
D4
330
1
100
AcDbSymbolTableRecord
100
AcDbBlockTableRecord
  2
block 6
340
0
102
{BLKREFS
331
D5
102
}
 70
     0
280
     1
281
     0
  0
ENDTAB
  0
ENDSEC
  0
SECTION
  2
BLOCKS
  0
BLOCK
  5
20
330
1F
100
AcDbEntity
  8
0
100
AcDbBlockBegin
  2
*Model_Space
 70
     0
 10
0.0
 20
0.0
 30
0.0
  3
*Model_Space
  1

  0
ENDBLK
  5
21
330
1F
100
AcDbEntity
  8
0
100
AcDbBlockEnd
  0
BLOCK
  5
1C
330
1B
100
AcDbEntity
 67
     1
  8
0
100
AcDbBlockBegin
  2
*Paper_Space
 70
     0
 10
0.0
 20
0.0
 30
0.0
  3
*Paper_Space
  1

  0
ENDBLK
  5
1D
330
1B
100
AcDbEntity
 67
     1
  8
0
100
AcDbBlockEnd
  0
BLOCK
  5
24
330
23
100
AcDbEntity
  8
0
100
AcDbBlockBegin
  2
*Paper_Space0
 70
     0
 10
0.0
 20
0.0
 30
0.0
  3
*Paper_Space0
  1

  0
ENDBLK
  5
25
330
23
100
AcDbEntity
  8
0
100
AcDbBlockEnd
  0
BLOCK
  5
7F
330
7D
100
AcDbEntity
  8
0
100
AcDbBlockBegin
  2
block 2
 70
     0
 10
0.0
 20
0.0
 30
0.0
  3
block 2
  1

  0
SPLINE
  5
81
330
7D
100
AcDbEntity
  8
_U+30EC_U+30A4_U+30E4_U+30FC 1
370
     0
100
AcDbSpline
210
0.0
220
0.0
230
1.0
 70
    11
 71
     3
 72
    29
 73
    25
 74
     0
 42
0.0000000001
 43
0.0000000001
 12
1.0
 22
0.0
 32
0.0
 13
1.0
 23
0.0
 33
0.0
 40
0.0
 40
0.0
 40
0.0
 40
0.0
 40
1.0
 40
1.0
 40
1.0
 40
2.0
 40
2.0
 40
2.0
 40
3.0
 40
3.0
 40
3.0
 40
4.0
 40
4.0
 40
4.0
 40
5.0
 40
5.0
 40
5.0
 40
6.0
 40
6.0
 40
6.0
 40
7.0
 40
7.0
 40
7.0
 40
8.0
 40
8.0
 40
8.0
 40
8.0
 10
84.72643905216908
 20
-120.6594739824219
 30
0.0
 10
84.44152965553893
 20
-120.6594739824219
 30
0.0
 10
84.17022838607551
 20
-120.5218424177862
 30
0.0
 10
84.17022838607551
 20
-120.1728542451304
 30
0.0
 10
84.17022838607551
 20
-119.9168836505763
 30
0.0
 10
84.32164033265224
 20
-119.8216267604092
 30
0.0
 10
84.43481171934269
 20
-119.7603040607717
 30
0.0
 10
84.30131426928926
 20
-119.7010484184254
 30
0.0
 10
84.22001001583736
 20
-119.5868435030894
 30
0.0
 10
84.22001001583736
 20
-119.4261297987025
 30
0.0
 10
84.22001001583736
 20
-119.1510389242053
 30
0.0
 10
84.43240015250302
 20
-119.015646671635
 30
0.0
 10
84.72643905216908
 20
-119.015646671635
 30
0.0
 10
85.02943520009681
 20
-119.015646671635
 30
0.0
 10
85.23286808850081
 20
-119.1594794081442
 30
0.0
 10
85.23286808850081
 20
-119.4261297987025
 30
0.0
 10
85.23286808850081
 20
-119.5868435030894
 30
0.0
 10
85.14915226820925
 20
-119.7010484184254
 30
0.0
 10
85.01582707293008
 20
-119.7603040607717
 30
0.0
 10
85.1107394535487
 20
-119.8111192191792
 30
0.0
 10
85.280238151423
 20
-119.9063761093463
 30
0.0
 10
85.280238151423
 20
-120.1687201305481
 30
0.0
 10
85.280238151423
 20
-120.5430297550205
 30
0.0
 10
84.98189288240036
 20
-120.6594739824219
 30
0.0
 10
84.72643905216908
 20
-120.6594739824219
 30
0.0
  0
SPLINE
  5
82
330
7D
100
AcDbEntity
  8
_U+30EC_U+30A4_U+30E4_U+30FC 1
370
     0
100
AcDbSpline
210
0.0
220
0.0
230
1.0
 70
    11
 71
     3
 72
    17
 73
    13
 74
     0
 42
0.0000000001
 43
0.0000000001
 12
1.0
 22
0.0
 32
0.0
 13
1.0
 23
0.0
 33
0.0
 40
0.0
 40
0.0
 40
0.0
 40
0.0
 40
1.0
 40
1.0
 40
1.0
 40
2.0
 40
2.0
 40
2.0
 40
3.0
 40
3.0
 40
3.0
 40
4.0
 40
4.0
 40
4.0
 40
4.0
 10
84.72643905216908
 20
-119.8683078042343
 30
0.0
 10
84.57261553875269
 20
-119.8683078042343
 30
0.0
 10
84.40983477707462
 20
-119.9549519556883
 30
0.0
 10
84.40983477707462
 20
-120.1580403345438
 30
0.0
 10
84.40983477707462
 20
-120.3631957706905
 30
0.0
 10
84.54557153919347
 20
-120.4648260875053
 30
0.0
 10
84.72643905216908
 20
-120.4648260875053
 30
0.0
 10
84.92539331644227
 20
-120.4648260875053
 30
0.0
 10
85.04287107248929
 20
-120.3421806882304
 30
0.0
 10
85.04287107248929
 20
-120.1644137611915
 30
0.0
 10
85.04287107248929
 20
-119.9422051023929
 30
0.0
 10
84.86889375048418
 20
-119.8683078042343
 30
0.0
 10
84.72643905216908
 20
-119.8683078042343
 30
0.0
  0
SPLINE
  5
83
330
7D
100
AcDbEntity
  8
_U+30EC_U+30A4_U+30E4_U+30FC 1
370
     0
100
AcDbSpline
210
0.0
220
0.0
230
1.0
 70
    11
 71
     3
 72
    17
 73
    13
 74
     0
 42
0.0000000001
 43
0.0000000001
 12
1.0
 22
0.0
 32
0.0
 13
1.0
 23
0.0
 33
0.0
 40
0.0
 40
0.0
 40
0.0
 40
0.0
 40
1.0
 40
1.0
 40
1.0
 40
2.0
 40
2.0
 40
2.0
 40
3.0
 40
3.0
 40
3.0
 40
4.0
 40
4.0
 40
4.0
 40
4.0
 10
84.72643905216908
 20
-119.2082275092605
 30
0.0
 10
84.5500501633243
 20
-119.2082275092605
 30
0.0
 10
84.45961640683649
 20
-119.3033121446533
 30
0.0
 10
84.45961640683649
 20
-119.4387043972237
 30
0.0
 10
84.45961640683649
 20
-119.5615220512728
 30
0.0
 10
84.53644203615757
 20
-119.6800333359654
 30
0.0
 10
84.72643905216908
 20
-119.6800333359654
 30
0.0
 10
84.91626381340636
 20
-119.6800333359654
 30
0.0
 10
84.9932616975017
 20
-119.5615220512728
 30
0.0
 10
84.9932616975017
 20
-119.4387043972237
 30
0.0
 10
84.9932616975017
 20
-119.3033121446533
 30
0.0
 10
84.9004163741742
 20
-119.2082275092605
 30
0.0
 10
84.72643905216908
 20
-119.2082275092605
 30
0.0
  0
HATCH
  5
84
330
7D
100
AcDbEntity
  8
_U+30EC_U+30A4_U+30E4_U+30FC 1
 62
     7
420
 16777215
100
AcDbHatch
 10
0.0
 20
0.0
 30
0.0
210
0.0
220
0.0
230
1.0
  2
SOLID
 70
     1
 71
     0
 91
        3
 92
        1
 93
        1
 72
     4
 94
        3
 73
     0
 74
     1
 95
       29
 96
       25
 40
0.0
 40
0.0
 40
0.0
 40
0.0
 40
1.0
 40
1.0
 40
1.0
 40
2.0
 40
2.0
 40
2.0
 40
3.0
 40
3.0
 40
3.0
 40
4.0
 40
4.0
 40
4.0
 40
5.0
 40
5.0
 40
5.0
 40
6.0
 40
6.0
 40
6.0
 40
7.0
 40
7.0
 40
7.0
 40
8.0
 40
8.0
 40
8.0
 40
8.0
 10
84.72643905216908
 20
-120.6594739824219
 10
84.44152965553893
 20
-120.6594739824219
 10
84.17022838607551
 20
-120.5218424177862
 10
84.17022838607551
 20
-120.1728542451304
 10
84.17022838607551
 20
-119.9168836505763
 10
84.32164033265224
 20
-119.8216267604092
 10
84.43481171934269
 20
-119.7603040607717
 10
84.30131426928926
 20
-119.7010484184254
 10
84.22001001583736
 20
-119.5868435030894
 10
84.22001001583736
 20
-119.4261297987025
 10
84.22001001583736
 20
-119.1510389242053
 10
84.43240015250302
 20
-119.015646671635
 10
84.72643905216908
 20
-119.015646671635
 10
85.02943520009681
 20
-119.015646671635
 10
85.23286808850081
 20
-119.1594794081442
 10
85.23286808850081
 20
-119.4261297987025
 10
85.23286808850081
 20
-119.5868435030894
 10
85.14915226820925
 20
-119.7010484184254
 10
85.01582707293008
 20
-119.7603040607717
 10
85.1107394535487
 20
-119.8111192191792
 10
85.280238151423
 20
-119.9063761093463
 10
85.280238151423
 20
-120.1687201305481
 10
85.280238151423
 20
-120.5430297550205
 10
84.98189288240036
 20
-120.6594739824219
 10
84.72643905216908
 20
-120.6594739824219
 97
        0
 97
        0
 92
        1
 93
        1
 72
     4
 94
        3
 73
     0
 74
     1
 95
       17
 96
       13
 40
0.0
 40
0.0
 40
0.0
 40
0.0
 40
1.0
 40
1.0
 40
1.0
 40
2.0
 40
2.0
 40
2.0
 40
3.0
 40
3.0
 40
3.0
 40
4.0
 40
4.0
 40
4.0
 40
4.0
 10
84.72643905216908
 20
-119.8683078042343
 10
84.57261553875269
 20
-119.8683078042343
 10
84.40983477707462
 20
-119.9549519556883
 10
84.40983477707462
 20
-120.1580403345438
 10
84.40983477707462
 20
-120.3631957706905
 10
84.54557153919347
 20
-120.4648260875053
 10
84.72643905216908
 20
-120.4648260875053
 10
84.92539331644227
 20
-120.4648260875053
 10
85.04287107248929
 20
-120.3421806882304
 10
85.04287107248929
 20
-120.1644137611915
 10
85.04287107248929
 20
-119.9422051023929
 10
84.86889375048418
 20
-119.8683078042343
 10
84.72643905216908
 20
-119.8683078042343
 97
        0
 97
        0
 92
        1
 93
        1
 72
     4
 94
        3
 73
     0
 74
     1
 95
       17
 96
       13
 40
0.0
 40
0.0
 40
0.0
 40
0.0
 40
1.0
 40
1.0
 40
1.0
 40
2.0
 40
2.0
 40
2.0
 40
3.0
 40
3.0
 40
3.0
 40
4.0
 40
4.0
 40
4.0
 40
4.0
 10
84.72643905216908
 20
-119.2082275092605
 10
84.5500501633243
 20
-119.2082275092605
 10
84.45961640683649
 20
-119.3033121446533
 10
84.45961640683649
 20
-119.4387043972237
 10
84.45961640683649
 20
-119.5615220512728
 10
84.53644203615757
 20
-119.6800333359654
 10
84.72643905216908
 20
-119.6800333359654
 10
84.91626381340636
 20
-119.6800333359654
 10
84.9932616975017
 20
-119.5615220512728
 10
84.9932616975017
 20
-119.4387043972237
 10
84.9932616975017
 20
-119.3033121446533
 10
84.9004163741742
 20
-119.2082275092605
 10
84.72643905216908
 20
-119.2082275092605
 97
        0
 97
        0
 75
     2
 76
     1
 98
        0
  0
ENDBLK
  5
80
330
7D
100
AcDbEntity
  8
0
100
AcDbBlockEnd
  0
BLOCK
  5
93
330
91
100
AcDbEntity
  8
0
100
AcDbBlockBegin
  2
block 3
 70
     0
 10
0.0
 20
0.0
 30
0.0
  3
block 3
  1

  0
SPLINE
  5
95
330
91
100
AcDbEntity
  8
_U+30EC_U+30A4_U+30E4_U+30FC 1
370
     0
100
AcDbSpline
210
0.0
220
0.0
230
1.0
 70
    11
 71
     3
 72
    26
 73
    22
 74
     0
 42
0.0000000001
 43
0.0000000001
 12
1.0
 22
0.0
 32
0.0
 13
1.0
 23
0.0
 33
0.0
 40
0.0
 40
0.0
 40
0.0
 40
0.0
 40
1.0
 40
1.0
 40
1.0
 40
2.0
 40
2.0
 40
2.0
 40
3.0
 40
3.0
 40
3.0
 40
4.0
 40
4.0
 40
4.0
 40
5.0
 40
5.0
 40
5.0
 40
6.0
 40
6.0
 40
6.0
 40
7.0
 40
7.0
 40
7.0
 40
7.0
 10
89.00714244736628
 20
-137.1085991410701
 30
0.0
 10
89.00714244736628
 20
-137.1085991410701
 30
0.0
 10
89.00714244736628
 20
-136.0044460380475
 30
0.0
 10
89.00714244736628
 20
-136.0044460380475
 30
0.0
 10
89.00714244736628
 20
-136.0044460380475
 30
0.0
 10
88.65470917922522
 20
-136.0044460380475
 30
0.0
 10
88.65470917922522
 20
-136.0044460380475
 30
0.0
 10
88.65470917922522
 20
-136.0044460380475
 30
0.0
 10
88.65470917922522
 20
-135.8563069321818
 30
0.0
 10
88.65470917922522
 20
-135.8563069321818
 30
0.0
 10
89.00955401420595
 20
-135.8414930215952
 30
0.0
 10
89.05916338919354
 20
-135.6785400051429
 30
0.0
 10
89.09085826765785
 20
-135.5641628350326
 30
0.0
 10
89.09085826765785
 20
-135.5641628350326
 30
0.0
 10
89.24692109313966
 20
-135.5641628350326
 30
0.0
 10
89.24692109313966
 20
-135.5641628350326
 30
0.0
 10
89.24692109313966
 20
-135.5641628350326
 30
0.0
 10
89.24692109313966
 20
-137.1085991410701
 30
0.0
 10
89.24692109313966
 20
-137.1085991410701
 30
0.0
 10
89.24692109313966
 20
-137.1085991410701
 30
0.0
 10
89.00714244736628
 20
-137.1085991410701
 30
0.0
 10
89.00714244736628
 20
-137.1085991410701
 30
0.0
  0
HATCH
  5
96
330
91
100
AcDbEntity
  8
_U+30EC_U+30A4_U+30E4_U+30FC 1
 62
     7
420
 16777215
100
AcDbHatch
 10
0.0
 20
0.0
 30
0.0
210
0.0
220
0.0
230
1.0
  2
SOLID
 70
     1
 71
     0
 91
        1
 92
        1
 93
        1
 72
     4
 94
        3
 73
     0
 74
     1
 95
       26
 96
       22
 40
0.0
 40
0.0
 40
0.0
 40
0.0
 40
1.0
 40
1.0
 40
1.0
 40
2.0
 40
2.0
 40
2.0
 40
3.0
 40
3.0
 40
3.0
 40
4.0
 40
4.0
 40
4.0
 40
5.0
 40
5.0
 40
5.0
 40
6.0
 40
6.0
 40
6.0
 40
7.0
 40
7.0
 40
7.0
 40
7.0
 10
89.00714244736628
 20
-137.1085991410701
 10
89.00714244736628
 20
-137.1085991410701
 10
89.00714244736628
 20
-136.0044460380475
 10
89.00714244736628
 20
-136.0044460380475
 10
89.00714244736628
 20
-136.0044460380475
 10
88.65470917922522
 20
-136.0044460380475
 10
88.65470917922522
 20
-136.0044460380475
 10
88.65470917922522
 20
-136.0044460380475
 10
88.65470917922522
 20
-135.8563069321818
 10
88.65470917922522
 20
-135.8563069321818
 10
89.00955401420595
 20
-135.8414930215952
 10
89.05916338919354
 20
-135.6785400051429
 10
89.09085826765785
 20
-135.5641628350326
 10
89.09085826765785
 20
-135.5641628350326
 10
89.24692109313966
 20
-135.5641628350326
 10
89.24692109313966
 20
-135.5641628350326
 10
89.24692109313966
 20
-135.5641628350326
 10
89.24692109313966
 20
-137.1085991410701
 10
89.24692109313966
 20
-137.1085991410701
 10
89.24692109313966
 20
-137.1085991410701
 10
89.00714244736628
 20
-137.1085991410701
 10
89.00714244736628
 20
-137.1085991410701
 97
        0
 97
        0
 75
     2
 76
     1
 98
        0
  0
SPLINE
  5
97
330
91
100
AcDbEntity
  8
_U+30EC_U+30A4_U+30E4_U+30FC 1
370
     0
100
AcDbSpline
210
0.0
220
0.0
230
1.0
 70
    11
 71
     3
 72
    29
 73
    25
 74
     0
 42
0.0000000001
 43
0.0000000001
 12
1.0
 22
0.0
 32
0.0
 13
1.0
 23
0.0
 33
0.0
 40
0.0
 40
0.0
 40
0.0
 40
0.0
 40
1.0
 40
1.0
 40
1.0
 40
2.0
 40
2.0
 40
2.0
 40
3.0
 40
3.0
 40
3.0
 40
4.0
 40
4.0
 40
4.0
 40
5.0
 40
5.0
 40
5.0
 40
6.0
 40
6.0
 40
6.0
 40
7.0
 40
7.0
 40
7.0
 40
8.0
 40
8.0
 40
8.0
 40
8.0
 10
90.31696775085827
 20
-137.1592420447033
 30
0.0
 10
90.0320583542281
 20
-137.1592420447033
 30
0.0
 10
89.76092933953893
 20
-137.0217827348418
 30
0.0
 10
89.76092933953893
 20
-136.672794562186
 30
0.0
 10
89.76092933953893
 20
-136.4168239676319
 30
0.0
 10
89.91251354088993
 20
-136.321739332239
 30
0.0
 10
90.02551267280613
 20
-136.2604166326016
 30
0.0
 10
89.89218747752696
 20
-136.2011609902553
 30
0.0
 10
89.81053871452653
 20
-136.086783820145
 30
0.0
 10
89.81053871452653
 20
-135.9258978609838
 30
0.0
 10
89.81053871452653
 20
-135.6509792412609
 30
0.0
 10
90.02310110596645
 20
-135.5155869886906
 30
0.0
 10
90.31696775085827
 20
-135.5155869886906
 30
0.0
 10
90.62013615356025
 20
-135.5155869886906
 30
0.0
 10
90.82339678718999
 20
-135.659591979974
 30
0.0
 10
90.82339678718999
 20
-135.9258978609838
 30
0.0
 10
90.82339678718999
 20
-136.086783820145
 30
0.0
 10
90.74002547644695
 20
-136.2011609902553
 30
0.0
 10
90.60635577161925
 20
-136.2604166326016
 30
0.0
 10
90.70144040701214
 20
-136.3110595362348
 30
0.0
 10
90.87093910488643
 20
-136.4061441716276
 30
0.0
 10
90.87093910488643
 20
-136.6686604476037
 30
0.0
 10
90.87093910488643
 20
-137.0431423268503
 30
0.0
 10
90.5725938358638
 20
-137.1592420447033
 30
0.0
 10
90.31696775085827
 20
-137.1592420447033
 30
0.0
  0
SPLINE
  5
98
330
91
100
AcDbEntity
  8
_U+30EC_U+30A4_U+30E4_U+30FC 1
370
     0
100
AcDbSpline
210
0.0
220
0.0
230
1.0
 70
    11
 71
     3
 72
    17
 73
    13
 74
     0
 42
0.0000000001
 43
0.0000000001
 12
1.0
 22
0.0
 32
0.0
 13
1.0
 23
0.0
 33
0.0
 40
0.0
 40
0.0
 40
0.0
 40
0.0
 40
1.0
 40
1.0
 40
1.0
 40
2.0
 40
2.0
 40
2.0
 40
3.0
 40
3.0
 40
3.0
 40
4.0
 40
4.0
 40
4.0
 40
4.0
 10
90.31696775085827
 20
-136.3682481212899
 30
0.0
 10
90.16331649221613
 20
-136.3682481212899
 30
0.0
 10
90.00070798531233
 20
-136.4550645275182
 30
0.0
 10
90.00070798531233
 20
-136.6579806515994
 30
0.0
 10
90.00070798531233
 20
-136.8633083425203
 30
0.0
 10
90.13610023788264
 20
-136.9645941497866
 30
0.0
 10
90.31696775085827
 20
-136.9645941497866
 30
0.0
 10
90.51609426990571
 20
-136.9645941497866
 30
0.0
 10
90.63357202595272
 20
-136.8419487505117
 30
0.0
 10
90.63357202595272
 20
-136.6641818234729
 30
0.0
 10
90.63357202595272
 20
-136.4423176742227
 30
0.0
 10
90.4595947039476
 20
-136.3682481212899
 30
0.0
 10
90.31696775085827
 20
-136.3682481212899
 30
0.0
  0
SPLINE
  5
99
330
91
100
AcDbEntity
  8
_U+30EC_U+30A4_U+30E4_U+30FC 1
370
     0
100
AcDbSpline
210
0.0
220
0.0
230
1.0
 70
    11
 71
     3
 72
    17
 73
    13
 74
     0
 42
0.0000000001
 43
0.0000000001
 12
1.0
 22
0.0
 32
0.0
 13
1.0
 23
0.0
 33
0.0
 40
0.0
 40
0.0
 40
0.0
 40
0.0
 40
1.0
 40
1.0
 40
1.0
 40
2.0
 40
2.0
 40
2.0
 40
3.0
 40
3.0
 40
3.0
 40
4.0
 40
4.0
 40
4.0
 40
4.0
 10
90.31696775085827
 20
-135.708167826316
 30
0.0
 10
90.140923371562
 20
-135.708167826316
 30
0.0
 10
90.05031736029993
 20
-135.8032524617089
 30
0.0
 10
90.05031736029993
 20
-135.9386447142792
 30
0.0
 10
90.05031736029993
 20
-136.0612901135541
 30
0.0
 10
90.12714298962099
 20
-136.1798013982467
 30
0.0
 10
90.31696775085827
 20
-136.1798013982467
 30
0.0
 10
90.50713702164406
 20
-136.1798013982467
 30
0.0
 10
90.58396265096512
 20
-136.0612901135541
 30
0.0
 10
90.58396265096512
 20
-135.9386447142792
 30
0.0
 10
90.58396265096512
 20
-135.8032524617089
 30
0.0
 10
90.49128958241191
 20
-135.708167826316
 30
0.0
 10
90.31696775085827
 20
-135.708167826316
 30
0.0
  0
HATCH
  5
9A
330
91
100
AcDbEntity
  8
_U+30EC_U+30A4_U+30E4_U+30FC 1
 62
     7
420
 16777215
100
AcDbHatch
 10
0.0
 20
0.0
 30
0.0
210
0.0
220
0.0
230
1.0
  2
SOLID
 70
     1
 71
     0
 91
        3
 92
        1
 93
        1
 72
     4
 94
        3
 73
     0
 74
     1
 95
       29
 96
       25
 40
0.0
 40
0.0
 40
0.0
 40
0.0
 40
1.0
 40
1.0
 40
1.0
 40
2.0
 40
2.0
 40
2.0
 40
3.0
 40
3.0
 40
3.0
 40
4.0
 40
4.0
 40
4.0
 40
5.0
 40
5.0
 40
5.0
 40
6.0
 40
6.0
 40
6.0
 40
7.0
 40
7.0
 40
7.0
 40
8.0
 40
8.0
 40
8.0
 40
8.0
 10
90.31696775085827
 20
-137.1592420447033
 10
90.0320583542281
 20
-137.1592420447033
 10
89.76092933953893
 20
-137.0217827348418
 10
89.76092933953893
 20
-136.672794562186
 10
89.76092933953893
 20
-136.4168239676319
 10
89.91251354088993
 20
-136.321739332239
 10
90.02551267280613
 20
-136.2604166326016
 10
89.89218747752696
 20
-136.2011609902553
 10
89.81053871452653
 20
-136.086783820145
 10
89.81053871452653
 20
-135.9258978609838
 10
89.81053871452653
 20
-135.6509792412609
 10
90.02310110596645
 20
-135.5155869886906
 10
90.31696775085827
 20
-135.5155869886906
 10
90.62013615356025
 20
-135.5155869886906
 10
90.82339678718999
 20
-135.659591979974
 10
90.82339678718999
 20
-135.9258978609838
 10
90.82339678718999
 20
-136.086783820145
 10
90.74002547644695
 20
-136.2011609902553
 10
90.60635577161925
 20
-136.2604166326016
 10
90.70144040701214
 20
-136.3110595362348
 10
90.87093910488643
 20
-136.4061441716276
 10
90.87093910488643
 20
-136.6686604476037
 10
90.87093910488643
 20
-137.0431423268503
 10
90.5725938358638
 20
-137.1592420447033
 10
90.31696775085827
 20
-137.1592420447033
 97
        0
 97
        0
 92
        1
 93
        1
 72
     4
 94
        3
 73
     0
 74
     1
 95
       17
 96
       13
 40
0.0
 40
0.0
 40
0.0
 40
0.0
 40
1.0
 40
1.0
 40
1.0
 40
2.0
 40
2.0
 40
2.0
 40
3.0
 40
3.0
 40
3.0
 40
4.0
 40
4.0
 40
4.0
 40
4.0
 10
90.31696775085827
 20
-136.3682481212899
 10
90.16331649221613
 20
-136.3682481212899
 10
90.00070798531233
 20
-136.4550645275182
 10
90.00070798531233
 20
-136.6579806515994
 10
90.00070798531233
 20
-136.8633083425203
 10
90.13610023788264
 20
-136.9645941497866
 10
90.31696775085827
 20
-136.9645941497866
 10
90.51609426990571
 20
-136.9645941497866
 10
90.63357202595272
 20
-136.8419487505117
 10
90.63357202595272
 20
-136.6641818234729
 10
90.63357202595272
 20
-136.4423176742227
 10
90.4595947039476
 20
-136.3682481212899
 10
90.31696775085827
 20
-136.3682481212899
 97
        0
 97
        0
 92
        1
 93
        1
 72
     4
 94
        3
 73
     0
 74
     1
 95
       17
 96
       13
 40
0.0
 40
0.0
 40
0.0
 40
0.0
 40
1.0
 40
1.0
 40
1.0
 40
2.0
 40
2.0
 40
2.0
 40
3.0
 40
3.0
 40
3.0
 40
4.0
 40
4.0
 40
4.0
 40
4.0
 10
90.31696775085827
 20
-135.708167826316
 10
90.140923371562
 20
-135.708167826316
 10
90.05031736029993
 20
-135.8032524617089
 10
90.05031736029993
 20
-135.9386447142792
 10
90.05031736029993
 20
-136.0612901135541
 10
90.12714298962099
 20
-136.1798013982467
 10
90.31696775085827
 20
-136.1798013982467
 10
90.50713702164406
 20
-136.1798013982467
 10
90.58396265096512
 20
-136.0612901135541
 10
90.58396265096512
 20
-135.9386447142792
 10
90.58396265096512
 20
-135.8032524617089
 10
90.49128958241191
 20
-135.708167826316
 10
90.31696775085827
 20
-135.708167826316
 97
        0
 97
        0
 75
     2
 76
     1
 98
        0
  0
ENDBLK
  5
94
330
91
100
AcDbEntity
  8
0
100
AcDbBlockEnd
  0
BLOCK
  5
A9
330
A7
100
AcDbEntity
  8
0
100
AcDbBlockBegin
  2
block 4
 70
     0
 10
0.0
 20
0.0
 30
0.0
  3
block 4
  1

  0
SPLINE
  5
AB
330
A7
100
AcDbEntity
  8
_U+30EC_U+30A4_U+30E4_U+30FC 1
370
     0
100
AcDbSpline
210
0.0
220
0.0
230
1.0
 70
    11
 71
     3
 72
    32
 73
    28
 74
     0
 42
0.0000000001
 43
0.0000000001
 12
1.0
 22
0.0
 32
0.0
 13
1.0
 23
0.0
 33
0.0
 40
0.0
 40
0.0
 40
0.0
 40
0.0
 40
1.0
 40
1.0
 40
1.0
 40
2.0
 40
2.0
 40
2.0
 40
3.0
 40
3.0
 40
3.0
 40
4.0
 40
4.0
 40
4.0
 40
5.0
 40
5.0
 40
5.0
 40
6.0
 40
6.0
 40
6.0
 40
7.0
 40
7.0
 40
7.0
 40
8.0
 40
8.0
 40
8.0
 40
9.0
 40
9.0
 40
9.0
 40
9.0
 10
101.0811685945214
 20
-124.5801648994105
 30
0.0
 10
101.0811685945214
 20
-125.1320691961475
 30
0.0
 10
100.5271972404932
 20
-125.1410264444092
 30
0.0
 10
100.3132568108592
 20
-125.1410264444092
 30
0.0
 10
100.082779922896
 20
-125.1410264444092
 30
0.0
 10
99.43544648121753
 20
-125.1207003810462
 30
0.0
 10
99.43544648121753
 20
-124.5395127726846
 30
0.0
 10
99.43544648121753
 20
-124.3541666355781
 30
0.0
 10
99.50538191956811
 20
-124.0919948691506
 30
0.0
 10
99.83748912434619
 20
-124.0513427424247
 30
0.0
 10
99.83748912434619
 20
-124.0513427424247
 30
0.0
 10
99.83748912434619
 20
-124.2797525730967
 30
0.0
 10
99.83748912434619
 20
-124.2797525730967
 30
0.0
 10
99.78030053929103
 20
-124.2907768786495
 30
0.0
 10
99.6321614334253
 20
-124.3248833239535
 30
0.0
 10
99.6321614334253
 20
-124.5419243395242
 30
0.0
 10
99.6321614334253
 20
-124.8540499904879
 30
0.0
 10
99.96013452362108
 20
-124.896769174505
 30
0.0
 10
100.1651177049934
 20
-124.910549556446
 30
0.0
 10
100.0869140374783
 20
-124.8109862969223
 30
0.0
 10
100.027658395132
 20
-124.738639291732
 30
0.0
 10
100.027658395132
 20
-124.5443359063639
 30
0.0
 10
100.027658395132
 20
-124.352099578287
 30
0.0
 10
100.1358343933688
 20
-124.028605112222
 30
0.0
 10
100.5420111510798
 20
-124.028605112222
 30
0.0
 10
100.8613715025624
 20
-124.028605112222
 30
0.0
 10
101.0811685945214
 20
-124.2411675036619
 30
0.0
 10
101.0811685945214
 20
-124.5801648994105
 30
0.0
  0
SPLINE
  5
AC
330
A7
100
AcDbEntity
  8
_U+30EC_U+30A4_U+30E4_U+30FC 1
370
     0
100
AcDbSpline
210
0.0
220
0.0
230
1.0
 70
    11
 71
     3
 72
    17
 73
    13
 74
     0
 42
0.0000000001
 43
0.0000000001
 12
1.0
 22
0.0
 32
0.0
 13
1.0
 23
0.0
 33
0.0
 40
0.0
 40
0.0
 40
0.0
 40
0.0
 40
1.0
 40
1.0
 40
1.0
 40
2.0
 40
2.0
 40
2.0
 40
3.0
 40
3.0
 40
3.0
 40
4.0
 40
4.0
 40
4.0
 40
4.0
 10
100.2223062900486
 20
-124.5622504028872
 30
0.0
 10
100.2223062900486
 20
-124.8426811753866
 30
0.0
 10
100.4338351528429
 20
-124.8833333021125
 30
0.0
 10
100.5502793802444
 20
-124.8833333021125
 30
0.0
 10
100.7259792499921
 20
-124.8833333021125
 30
0.0
 10
100.8889322664444
 20
-124.7817029852976
 30
0.0
 10
100.8889322664444
 20
-124.5849880330899
 30
0.0
 10
100.8889322664444
 20
-124.4561414619415
 30
0.0
 10
100.8296766240981
 20
-124.2683837579954
 30
0.0
 10
100.5440782083709
 20
-124.2683837579954
 30
0.0
 10
100.3198024922812
 20
-124.2683837579954
 30
0.0
 10
100.2223062900486
 20
-124.4175563925067
 30
0.0
 10
100.2223062900486
 20
-124.5622504028872
 30
0.0
  0
HATCH
  5
AD
330
A7
100
AcDbEntity
  8
_U+30EC_U+30A4_U+30E4_U+30FC 1
 62
     7
420
 16777215
100
AcDbHatch
 10
0.0
 20
0.0
 30
0.0
210
0.0
220
0.0
230
1.0
  2
SOLID
 70
     1
 71
     0
 91
        2
 92
        1
 93
        1
 72
     4
 94
        3
 73
     0
 74
     1
 95
       32
 96
       28
 40
0.0
 40
0.0
 40
0.0
 40
0.0
 40
1.0
 40
1.0
 40
1.0
 40
2.0
 40
2.0
 40
2.0
 40
3.0
 40
3.0
 40
3.0
 40
4.0
 40
4.0
 40
4.0
 40
5.0
 40
5.0
 40
5.0
 40
6.0
 40
6.0
 40
6.0
 40
7.0
 40
7.0
 40
7.0
 40
8.0
 40
8.0
 40
8.0
 40
9.0
 40
9.0
 40
9.0
 40
9.0
 10
101.0811685945214
 20
-124.5801648994105
 10
101.0811685945214
 20
-125.1320691961475
 10
100.5271972404932
 20
-125.1410264444092
 10
100.3132568108592
 20
-125.1410264444092
 10
100.082779922896
 20
-125.1410264444092
 10
99.43544648121753
 20
-125.1207003810462
 10
99.43544648121753
 20
-124.5395127726846
 10
99.43544648121753
 20
-124.3541666355781
 10
99.50538191956811
 20
-124.0919948691506
 10
99.83748912434619
 20
-124.0513427424247
 10
99.83748912434619
 20
-124.0513427424247
 10
99.83748912434619
 20
-124.2797525730967
 10
99.83748912434619
 20
-124.2797525730967
 10
99.78030053929103
 20
-124.2907768786495
 10
99.6321614334253
 20
-124.3248833239535
 10
99.6321614334253
 20
-124.5419243395242
 10
99.6321614334253
 20
-124.8540499904879
 10
99.96013452362108
 20
-124.896769174505
 10
100.1651177049934
 20
-124.910549556446
 10
100.0869140374783
 20
-124.8109862969223
 10
100.027658395132
 20
-124.738639291732
 10
100.027658395132
 20
-124.5443359063639
 10
100.027658395132
 20
-124.352099578287
 10
100.1358343933688
 20
-124.028605112222
 10
100.5420111510798
 20
-124.028605112222
 10
100.8613715025624
 20
-124.028605112222
 10
101.0811685945214
 20
-124.2411675036619
 10
101.0811685945214
 20
-124.5801648994105
 97
        0
 97
        0
 92
        1
 93
        1
 72
     4
 94
        3
 73
     0
 74
     1
 95
       17
 96
       13
 40
0.0
 40
0.0
 40
0.0
 40
0.0
 40
1.0
 40
1.0
 40
1.0
 40
2.0
 40
2.0
 40
2.0
 40
3.0
 40
3.0
 40
3.0
 40
4.0
 40
4.0
 40
4.0
 40
4.0
 10
100.2223062900486
 20
-124.5622504028872
 10
100.2223062900486
 20
-124.8426811753866
 10
100.4338351528429
 20
-124.8833333021125
 10
100.5502793802444
 20
-124.8833333021125
 10
100.7259792499921
 20
-124.8833333021125
 10
100.8889322664444
 20
-124.7817029852976
 10
100.8889322664444
 20
-124.5849880330899
 10
100.8889322664444
 20
-124.4561414619415
 10
100.8296766240981
 20
-124.2683837579954
 10
100.5440782083709
 20
-124.2683837579954
 10
100.3198024922812
 20
-124.2683837579954
 10
100.2223062900486
 20
-124.4175563925067
 10
100.2223062900486
 20
-124.5622504028872
 97
        0
 97
        0
 75
     2
 76
     1
 98
        0
  0
POLYLINE
  5
AE
330
A7
100
AcDbEntity
  8
_U+30EC_U+30A4_U+30E4_U+30FC 1
370
     0
100
AcDb2dPolyline
 66
     1
 10
0.0
 20
0.0
 30
0.0
  0
VERTEX
  5
AF
330
AE
100
AcDbEntity
  8
_U+30EC_U+30A4_U+30E4_U+30FC 1
370
     0
100
AcDbVertex
100
AcDb2dVertex
 10
101.0305256908882
 20
-123.7974392051618
 30
0.0
  0
VERTEX
  5
B0
330
AE
100
AcDbEntity
  8
_U+30EC_U+30A4_U+30E4_U+30FC 1
370
     0
100
AcDbVertex
100
AcDb2dVertex
 10
100.7786892109164
 20
-123.7974392051618
 30
0.0
  0
VERTEX
  5
B1
330
AE
100
AcDbEntity
  8
_U+30EC_U+30A4_U+30E4_U+30FC 1
370
     0
100
AcDbVertex
100
AcDb2dVertex
 10
100.7786892109164
 20
-123.5283772477637
 30
0.0
  0
VERTEX
  5
B2
330
AE
100
AcDbEntity
  8
_U+30EC_U+30A4_U+30E4_U+30FC 1
370
     0
100
AcDbVertex
100
AcDb2dVertex
 10
101.0305256908882
 20
-123.5283772477637
 30
0.0
  0
VERTEX
  5
B3
330
AE
100
AcDbEntity
  8
_U+30EC_U+30A4_U+30E4_U+30FC 1
370
     0
100
AcDbVertex
100
AcDb2dVertex
 10
101.0305256908882
 20
-123.7974392051618
 30
0.0
  0
SEQEND
  5
B4
330
AE
100
AcDbEntity
  8
_U+30EC_U+30A4_U+30E4_U+30FC 1
370
     0
  0
HATCH
  5
B5
330
A7
100
AcDbEntity
  8
_U+30EC_U+30A4_U+30E4_U+30FC 1
 62
     7
420
 16777215
100
AcDbHatch
 10
0.0
 20
0.0
 30
0.0
210
0.0
220
0.0
230
1.0
  2
SOLID
 70
     1
 71
     0
 91
        1
 92
        1
 93
        4
 72
     1
 10
101.0305256908882
 20
-123.7974392051618
 11
100.7786892109164
 21
-123.7974392051618
 72
     1
 10
100.7786892109164
 20
-123.7974392051618
 11
100.7786892109164
 21
-123.5283772477637
 72
     1
 10
100.7786892109164
 20
-123.5283772477637
 11
101.0305256908882
 21
-123.5283772477637
 72
     1
 10
101.0305256908882
 20
-123.5283772477637
 11
101.0305256908882
 21
-123.7974392051618
 97
        0
 75
     2
 76
     1
 98
        0
  0
SPLINE
  5
B6
330
A7
100
AcDbEntity
  8
_U+30EC_U+30A4_U+30E4_U+30FC 1
370
     0
100
AcDbSpline
210
0.0
220
0.0
230
1.0
 70
    11
 71
     3
 72
    53
 73
    49
 74
     0
 42
0.0000000001
 43
0.0000000001
 12
1.0
 22
0.0
 32
0.0
 13
1.0
 23
0.0
 33
0.0
 40
0.0
 40
0.0
 40
0.0
 40
0.0
 40
1.0
 40
1.0
 40
1.0
 40
2.0
 40
2.0
 40
2.0
 40
3.0
 40
3.0
 40
3.0
 40
4.0
 40
4.0
 40
4.0
 40
5.0
 40
5.0
 40
5.0
 40
6.0
 40
6.0
 40
6.0
 40
7.0
 40
7.0
 40
7.0
 40
8.0
 40
8.0
 40
8.0
 40
9.0
 40
9.0
 40
9.0
 40
10.0
 40
10.0
 40
10.0
 40
11.0
 40
11.0
 40
11.0
 40
12.0
 40
12.0
 40
12.0
 40
13.0
 40
13.0
 40
13.0
 40
14.0
 40
14.0
 40
14.0
 40
15.0
 40
15.0
 40
15.0
 40
16.0
 40
16.0
 40
16.0
 40
16.0
 10
101.0811685945214
 20
-122.7614989927471
 30
0.0
 10
101.0811685945214
 20
-122.8452148130387
 30
0.0
 10
101.0642876266437
 20
-122.9533908112755
 30
0.0
 10
101.0008978697151
 20
-123.0622558286094
 30
0.0
 10
100.8909993237356
 20
-123.2476019657159
 30
0.0
 10
100.7597411857476
 20
-123.26999508637
 30
0.0
 10
100.6519096970593
 20
-123.290321149733
 30
0.0
 10
100.6519096970593
 20
-123.290321149733
 30
0.0
 10
100.6519096970593
 20
-123.0529540707993
 30
0.0
 10
100.6519096970593
 20
-123.0529540707993
 30
0.0
 10
100.8506917065582
 20
-122.99438744755
 30
0.0
 10
100.8803195277313
 20
-122.8586506854312
 30
0.0
 10
100.8803195277313
 20
-122.7590874259075
 30
0.0
 10
100.8803195277313
 20
-122.6099147913961
 30
0.0
 10
100.7807562682076
 20
-122.4469617749438
 30
0.0
 10
100.5482123229532
 20
-122.4469617749438
 30
0.0
 10
100.2922417283992
 20
-122.4469617749438
 30
0.0
 10
100.2223062900486
 20
-122.6391981030208
 30
0.0
 10
100.2223062900486
 20
-122.7680446741691
 30
0.0
 10
100.2223062900486
 20
-122.8021511194731
 30
0.0
 10
100.2223062900486
 20
-122.9533908112755
 30
0.0
 10
100.3514973707455
 20
-123.0484754466684
 30
0.0
 10
100.3514973707455
 20
-123.0484754466684
 30
0.0
 10
100.3325493455766
 20
-123.2362331506146
 30
0.0
 10
100.3325493455766
 20
-123.2362331506146
 30
0.0
 10
100.3325493455766
 20
-123.2362331506146
 30
0.0
 10
99.4860893848507
 20
-123.1073865794662
 30
0.0
 10
99.4860893848507
 20
-123.1073865794662
 30
0.0
 10
99.4860893848507
 20
-123.1073865794662
 30
0.0
 10
99.4860893848507
 20
-122.2753960197784
 30
0.0
 10
99.4860893848507
 20
-122.2753960197784
 30
0.0
 10
99.4860893848507
 20
-122.2753960197784
 30
0.0
 10
99.68073727976731
 20
-122.2753960197784
 30
0.0
 10
99.68073727976731
 20
-122.2753960197784
 30
0.0
 10
99.68073727976731
 20
-122.2753960197784
 30
0.0
 10
99.68073727976731
 20
-122.9330647479126
 30
0.0
 10
99.68073727976731
 20
-122.9330647479126
 30
0.0
 10
99.68073727976731
 20
-122.9330647479126
 30
0.0
 10
100.103795005356
 20
-123.0033446958117
 30
0.0
 10
100.103795005356
 20
-123.0033446958117
 30
0.0
 10
100.0700330696006
 20
-122.9378878815919
 30
0.0
 10
100.0297254524231
 20
-122.8496934371695
 30
0.0
 10
100.0297254524231
 20
-122.7229139233123
 30
0.0
 10
100.0297254524231
 20
-122.4517849086232
 30
0.0
 10
100.2161051181752
 20
-122.1985703904573
 30
0.0
 10
100.5292642977844
 20
-122.1985703904573
 30
0.0
 10
100.8465575919759
 20
-122.1985703904573
 30
0.0
 10
101.0811685945214
 20
-122.4380045266822
 30
0.0
 10
101.0811685945214
 20
-122.7614989927471
 30
0.0
  0
HATCH
  5
B7
330
A7
100
AcDbEntity
  8
_U+30EC_U+30A4_U+30E4_U+30FC 1
 62
     7
420
 16777215
100
AcDbHatch
 10
0.0
 20
0.0
 30
0.0
210
0.0
220
0.0
230
1.0
  2
SOLID
 70
     1
 71
     0
 91
        1
 92
        1
 93
        1
 72
     4
 94
        3
 73
     0
 74
     1
 95
       53
 96
       49
 40
0.0
 40
0.0
 40
0.0
 40
0.0
 40
1.0
 40
1.0
 40
1.0
 40
2.0
 40
2.0
 40
2.0
 40
3.0
 40
3.0
 40
3.0
 40
4.0
 40
4.0
 40
4.0
 40
5.0
 40
5.0
 40
5.0
 40
6.0
 40
6.0
 40
6.0
 40
7.0
 40
7.0
 40
7.0
 40
8.0
 40
8.0
 40
8.0
 40
9.0
 40
9.0
 40
9.0
 40
10.0
 40
10.0
 40
10.0
 40
11.0
 40
11.0
 40
11.0
 40
12.0
 40
12.0
 40
12.0
 40
13.0
 40
13.0
 40
13.0
 40
14.0
 40
14.0
 40
14.0
 40
15.0
 40
15.0
 40
15.0
 40
16.0
 40
16.0
 40
16.0
 40
16.0
 10
101.0811685945214
 20
-122.7614989927471
 10
101.0811685945214
 20
-122.8452148130387
 10
101.0642876266437
 20
-122.9533908112755
 10
101.0008978697151
 20
-123.0622558286094
 10
100.8909993237356
 20
-123.2476019657159
 10
100.7597411857476
 20
-123.26999508637
 10
100.6519096970593
 20
-123.290321149733
 10
100.6519096970593
 20
-123.290321149733
 10
100.6519096970593
 20
-123.0529540707993
 10
100.6519096970593
 20
-123.0529540707993
 10
100.8506917065582
 20
-122.99438744755
 10
100.8803195277313
 20
-122.8586506854312
 10
100.8803195277313
 20
-122.7590874259075
 10
100.8803195277313
 20
-122.6099147913961
 10
100.7807562682076
 20
-122.4469617749438
 10
100.5482123229532
 20
-122.4469617749438
 10
100.2922417283992
 20
-122.4469617749438
 10
100.2223062900486
 20
-122.6391981030208
 10
100.2223062900486
 20
-122.7680446741691
 10
100.2223062900486
 20
-122.8021511194731
 10
100.2223062900486
 20
-122.9533908112755
 10
100.3514973707455
 20
-123.0484754466684
 10
100.3514973707455
 20
-123.0484754466684
 10
100.3325493455766
 20
-123.2362331506146
 10
100.3325493455766
 20
-123.2362331506146
 10
100.3325493455766
 20
-123.2362331506146
 10
99.4860893848507
 20
-123.1073865794662
 10
99.4860893848507
 20
-123.1073865794662
 10
99.4860893848507
 20
-123.1073865794662
 10
99.4860893848507
 20
-122.2753960197784
 10
99.4860893848507
 20
-122.2753960197784
 10
99.4860893848507
 20
-122.2753960197784
 10
99.68073727976731
 20
-122.2753960197784
 10
99.68073727976731
 20
-122.2753960197784
 10
99.68073727976731
 20
-122.2753960197784
 10
99.68073727976731
 20
-122.9330647479126
 10
99.68073727976731
 20
-122.9330647479126
 10
99.68073727976731
 20
-122.9330647479126
 10
100.103795005356
 20
-123.0033446958117
 10
100.103795005356
 20
-123.0033446958117
 10
100.0700330696006
 20
-122.9378878815919
 10
100.0297254524231
 20
-122.8496934371695
 10
100.0297254524231
 20
-122.7229139233123
 10
100.0297254524231
 20
-122.4517849086232
 10
100.2161051181752
 20
-122.1985703904573
 10
100.5292642977844
 20
-122.1985703904573
 10
100.8465575919759
 20
-122.1985703904573
 10
101.0811685945214
 20
-122.4380045266822
 10
101.0811685945214
 20
-122.7614989927471
 97
        0
 97
        0
 75
     2
 76
     1
 98
        0
  0
ENDBLK
  5
AA
330
A7
100
AcDbEntity
  8
0
100
AcDbBlockEnd
  0
BLOCK
  5
C3
330
C1
100
AcDbEntity
  8
0
100
AcDbBlockBegin
  2
block 5
 70
     0
 10
0.0
 20
0.0
 30
0.0
  3
block 5
  1

  0
SPLINE
  5
C5
330
C1
100
AcDbEntity
  8
_U+30EC_U+30A4_U+30E4_U+30FC 1
370
     0
100
AcDbSpline
210
0.0
220
0.0
230
1.0
 70
    11
 71
     3
 72
    26
 73
    22
 74
     0
 42
0.0000000001
 43
0.0000000001
 12
1.0
 22
0.0
 32
0.0
 13
1.0
 23
0.0
 33
0.0
 40
0.0
 40
0.0
 40
0.0
 40
0.0
 40
1.0
 40
1.0
 40
1.0
 40
2.0
 40
2.0
 40
2.0
 40
3.0
 40
3.0
 40
3.0
 40
4.0
 40
4.0
 40
4.0
 40
5.0
 40
5.0
 40
5.0
 40
6.0
 40
6.0
 40
6.0
 40
7.0
 40
7.0
 40
7.0
 40
7.0
 10
78.74644230887242
 20
-128.7020493927377
 30
0.0
 10
78.74644230887242
 20
-128.7020493927377
 30
0.0
 10
78.74644230887242
 20
-127.5977240349409
 30
0.0
 10
78.74644230887242
 20
-127.5977240349409
 30
0.0
 10
78.74644230887242
 20
-127.5977240349409
 30
0.0
 10
78.41640216138549
 20
-127.5977240349409
 30
0.0
 10
78.41640216138549
 20
-127.5977240349409
 30
0.0
 10
78.41640216138549
 20
-127.5977240349409
 30
0.0
 10
78.41640216138549
 20
-127.4495849290751
 30
0.0
 10
78.41640216138549
 20
-127.4495849290751
 30
0.0
 10
78.74850936616357
 20
-127.4349432732628
 30
0.0
 10
78.79501815521445
 20
-127.2719902568105
 30
0.0
 10
78.82464597638759
 20
-127.1577853414745
 30
0.0
 10
78.82464597638759
 20
-127.1577853414745
 30
0.0
 10
78.97071802496218
 20
-127.1577853414745
 30
0.0
 10
78.97071802496218
 20
-127.1577853414745
 30
0.0
 10
78.97071802496218
 20
-127.1577853414745
 30
0.0
 10
78.97071802496218
 20
-128.7020493927377
 30
0.0
 10
78.97071802496218
 20
-128.7020493927377
 30
0.0
 10
78.97071802496218
 20
-128.7020493927377
 30
0.0
 10
78.74644230887242
 20
-128.7020493927377
 30
0.0
 10
78.74644230887242
 20
-128.7020493927377
 30
0.0
  0
HATCH
  5
C6
330
C1
100
AcDbEntity
  8
_U+30EC_U+30A4_U+30E4_U+30FC 1
 62
   179
420
  2234388
100
AcDbHatch
 10
0.0
 20
0.0
 30
0.0
210
0.0
220
0.0
230
1.0
  2
SOLID
 70
     1
 71
     0
 91
        1
 92
        1
 93
        1
 72
     4
 94
        3
 73
     0
 74
     1
 95
       26
 96
       22
 40
0.0
 40
0.0
 40
0.0
 40
0.0
 40
1.0
 40
1.0
 40
1.0
 40
2.0
 40
2.0
 40
2.0
 40
3.0
 40
3.0
 40
3.0
 40
4.0
 40
4.0
 40
4.0
 40
5.0
 40
5.0
 40
5.0
 40
6.0
 40
6.0
 40
6.0
 40
7.0
 40
7.0
 40
7.0
 40
7.0
 10
78.74644230887242
 20
-128.7020493927377
 10
78.74644230887242
 20
-128.7020493927377
 10
78.74644230887242
 20
-127.5977240349409
 10
78.74644230887242
 20
-127.5977240349409
 10
78.74644230887242
 20
-127.5977240349409
 10
78.41640216138549
 20
-127.5977240349409
 10
78.41640216138549
 20
-127.5977240349409
 10
78.41640216138549
 20
-127.5977240349409
 10
78.41640216138549
 20
-127.4495849290751
 10
78.41640216138549
 20
-127.4495849290751
 10
78.74850936616357
 20
-127.4349432732628
 10
78.79501815521445
 20
-127.2719902568105
 10
78.82464597638759
 20
-127.1577853414745
 10
78.82464597638759
 20
-127.1577853414745
 10
78.97071802496218
 20
-127.1577853414745
 10
78.97071802496218
 20
-127.1577853414745
 10
78.97071802496218
 20
-127.1577853414745
 10
78.97071802496218
 20
-128.7020493927377
 10
78.97071802496218
 20
-128.7020493927377
 10
78.97071802496218
 20
-128.7020493927377
 10
78.74644230887242
 20
-128.7020493927377
 10
78.74644230887242
 20
-128.7020493927377
 97
        0
 97
        0
 75
     2
 76
     1
 98
        0
  0
ENDBLK
  5
C4
330
C1
100
AcDbEntity
  8
0
100
AcDbBlockEnd
  0
BLOCK
  5
D6
330
D4
100
AcDbEntity
  8
0
100
AcDbBlockBegin
  2
block 6
 70
     0
 10
0.0
 20
0.0
 30
0.0
  3
block 6
  1

  0
SPLINE
  5
D8
330
D4
100
AcDbEntity
  8
_U+30EC_U+30A4_U+30E4_U+30FC 1
370
     0
100
AcDbSpline
210
0.0
220
0.0
230
1.0
 70
    11
 71
     3
 72
    26
 73
    22
 74
     0
 42
0.0000000001
 43
0.0000000001
 12
1.0
 22
0.0
 32
0.0
 13
1.0
 23
0.0
 33
0.0
 40
0.0
 40
0.0
 40
0.0
 40
0.0
 40
1.0
 40
1.0
 40
1.0
 40
2.0
 40
2.0
 40
2.0
 40
3.0
 40
3.0
 40
3.0
 40
4.0
 40
4.0
 40
4.0
 40
5.0
 40
5.0
 40
5.0
 40
6.0
 40
6.0
 40
6.0
 40
7.0
 40
7.0
 40
7.0
 40
7.0
 10
101.0305256908882
 20
-133.2101290899614
 30
0.0
 10
101.0305256908882
 20
-133.2101290899614
 30
0.0
 10
99.92637258786563
 20
-133.2101290899614
 30
0.0
 10
99.92637258786563
 20
-133.2101290899614
 30
0.0
 10
99.92637258786563
 20
-133.2101290899614
 30
0.0
 10
99.92637258786563
 20
-133.5625623581024
 30
0.0
 10
99.92637258786563
 20
-133.5625623581024
 30
0.0
 10
99.92637258786563
 20
-133.5625623581024
 30
0.0
 10
99.77823348199989
 20
-133.5625623581024
 30
0.0
 10
99.77823348199989
 20
-133.5625623581024
 30
0.0
 10
99.76341957141332
 20
-133.2077175231217
 30
0.0
 10
99.600466554961
 20
-133.1581081481341
 30
0.0
 10
99.4860893848507
 20
-133.1264132696698
 30
0.0
 10
99.4860893848507
 20
-133.1264132696698
 30
0.0
 10
99.4860893848507
 20
-132.970350444188
 30
0.0
 10
99.4860893848507
 20
-132.970350444188
 30
0.0
 10
99.4860893848507
 20
-132.970350444188
 30
0.0
 10
101.0305256908882
 20
-132.970350444188
 30
0.0
 10
101.0305256908882
 20
-132.970350444188
 30
0.0
 10
101.0305256908882
 20
-132.970350444188
 30
0.0
 10
101.0305256908882
 20
-133.2101290899614
 30
0.0
 10
101.0305256908882
 20
-133.2101290899614
 30
0.0
  0
HATCH
  5
D9
330
D4
100
AcDbEntity
  8
_U+30EC_U+30A4_U+30E4_U+30FC 1
 62
   179
420
  2234388
100
AcDbHatch
 10
0.0
 20
0.0
 30
0.0
210
0.0
220
0.0
230
1.0
  2
SOLID
 70
     1
 71
     0
 91
        1
 92
        1
 93
        1
 72
     4
 94
        3
 73
     0
 74
     1
 95
       26
 96
       22
 40
0.0
 40
0.0
 40
0.0
 40
0.0
 40
1.0
 40
1.0
 40
1.0
 40
2.0
 40
2.0
 40
2.0
 40
3.0
 40
3.0
 40
3.0
 40
4.0
 40
4.0
 40
4.0
 40
5.0
 40
5.0
 40
5.0
 40
6.0
 40
6.0
 40
6.0
 40
7.0
 40
7.0
 40
7.0
 40
7.0
 10
101.0305256908882
 20
-133.2101290899614
 10
101.0305256908882
 20
-133.2101290899614
 10
99.92637258786563
 20
-133.2101290899614
 10
99.92637258786563
 20
-133.2101290899614
 10
99.92637258786563
 20
-133.2101290899614
 10
99.92637258786563
 20
-133.5625623581024
 10
99.92637258786563
 20
-133.5625623581024
 10
99.92637258786563
 20
-133.5625623581024
 10
99.77823348199989
 20
-133.5625623581024
 10
99.77823348199989
 20
-133.5625623581024
 10
99.76341957141332
 20
-133.2077175231217
 10
99.600466554961
 20
-133.1581081481341
 10
99.4860893848507
 20
-133.1264132696698
 10
99.4860893848507
 20
-133.1264132696698
 10
99.4860893848507
 20
-132.970350444188
 10
99.4860893848507
 20
-132.970350444188
 10
99.4860893848507
 20
-132.970350444188
 10
101.0305256908882
 20
-132.970350444188
 10
101.0305256908882
 20
-132.970350444188
 10
101.0305256908882
 20
-132.970350444188
 10
101.0305256908882
 20
-133.2101290899614
 10
101.0305256908882
 20
-133.2101290899614
 97
        0
 97
        0
 75
     2
 76
     1
 98
        0
  0
ENDBLK
  5
D7
330
D4
100
AcDbEntity
  8
0
100
AcDbBlockEnd
  0
ENDSEC
  0
SECTION
  2
ENTITIES
  0
SPLINE
  5
41
330
1F
100
AcDbEntity
  8
_U+30EC_U+30A4_U+30E4_U+30FC 1
370
     0
100
AcDbSpline
210
0.0
220
0.0
230
1.0
 70
    11
 71
     3
 72
    44
 73
    40
 74
     0
 42
0.0000000001
 43
0.0000000001
 12
1.0
 22
0.0
 32
0.0
 13
1.0
 23
0.0
 33
0.0
 40
0.0
 40
0.0
 40
0.0
 40
0.0
 40
1.0
 40
1.0
 40
1.0
 40
2.0
 40
2.0
 40
2.0
 40
3.0
 40
3.0
 40
3.0
 40
4.0
 40
4.0
 40
4.0
 40
5.0
 40
5.0
 40
5.0
 40
6.0
 40
6.0
 40
6.0
 40
7.0
 40
7.0
 40
7.0
 40
8.0
 40
8.0
 40
8.0
 40
9.0
 40
9.0
 40
9.0
 40
10.0
 40
10.0
 40
10.0
 40
11.0
 40
11.0
 40
11.0
 40
12.0
 40
12.0
 40
12.0
 40
13.0
 40
13.0
 40
13.0
 40
13.0
 10
98.18348582846393
 20
-133.2049730222545
 30
0.0
 10
98.18348582846393
 20
-133.2049730222545
 30
0.0
 10
88.68328634861199
 20
-133.2049730222545
 30
0.0
 10
88.68328634861199
 20
-133.2049730222545
 30
0.0
 10
88.50485135316424
 20
-132.8955869112206
 30
0.0
 10
88.17479247269586
 20
-132.7054396890457
 30
0.0
 10
87.81788720402349
 20
-132.7054396890457
 30
0.0
 10
87.81788720402349
 20
-132.7054396890457
 30
0.0
 10
81.68354041607927
 20
-132.7054396890457
 30
0.0
 10
81.68354041607927
 20
-132.7054396890457
 30
0.0
 10
81.68354041607927
 20
-132.7054396890457
 30
0.0
 10
81.68354041607927
 20
-126.205226912893
 30
0.0
 10
81.68354041607927
 20
-126.205226912893
 30
0.0
 10
81.68354041607927
 20
-126.205226912893
 30
0.0
 10
88.68328634861199
 20
-126.205226912893
 30
0.0
 10
88.68328634861199
 20
-126.205226912893
 30
0.0
 10
88.68328634861199
 20
-126.205226912893
 30
0.0
 10
88.68328634861199
 20
-125.6050813574876
 30
0.0
 10
88.68328634861199
 20
-125.6050813574876
 30
0.0
 10
88.68328634861199
 20
-125.6050813574876
 30
0.0
 10
86.67344084433186
 20
-125.4042449686489
 30
0.0
 10
86.67344084433186
 20
-125.4042449686489
 30
0.0
 10
85.34777254481914
 20
-125.2716005242376
 30
0.0
 10
84.01589535657594
 20
-125.205101913143
 30
0.0
 10
82.68401816833274
 20
-125.205101913143
 30
0.0
 10
82.68401816833274
 20
-125.205101913143
 30
0.0
 10
80.68380553538462
 20
-125.205101913143
 30
0.0
 10
80.68380553538462
 20
-125.205101913143
 30
0.0
 10
80.68380553538462
 20
-125.205101913143
 30
0.0
 10
80.68380553538462
 20
-132.905253022329
 30
0.0
 10
80.68380553538462
 20
-132.905253022329
 30
0.0
 10
80.68380553538462
 20
-133.346895522219
 30
0.0
 10
81.04208459911084
 20
-133.7051766332401
 30
0.0
 10
81.4837270878436
 20
-133.7051766332401
 30
0.0
 10
81.4837270878436
 20
-133.7051766332401
 30
0.0
 10
98.68372470459066
 20
-133.7051766332401
 30
0.0
 10
98.68372470459066
 20
-133.7051766332401
 30
0.0
 10
98.68372470459066
 20
-133.4288810777537
 30
0.0
 10
98.4597813769706
 20
-133.2049730222545
 30
0.0
 10
98.18348582846393
 20
-133.2049730222545
 30
0.0
  0
HATCH
  5
42
330
1F
100
AcDbEntity
  8
_U+30EC_U+30A4_U+30E4_U+30FC 1
 62
   253
420
 11711154
100
AcDbHatch
 10
0.0
 20
0.0
 30
0.0
210
0.0
220
0.0
230
1.0
  2
SOLID
 70
     1
 71
     0
 91
        1
 92
        1
 93
        1
 72
     4
 94
        3
 73
     0
 74
     1
 95
       44
 96
       40
 40
0.0
 40
0.0
 40
0.0
 40
0.0
 40
1.0
 40
1.0
 40
1.0
 40
2.0
 40
2.0
 40
2.0
 40
3.0
 40
3.0
 40
3.0
 40
4.0
 40
4.0
 40
4.0
 40
5.0
 40
5.0
 40
5.0
 40
6.0
 40
6.0
 40
6.0
 40
7.0
 40
7.0
 40
7.0
 40
8.0
 40
8.0
 40
8.0
 40
9.0
 40
9.0
 40
9.0
 40
10.0
 40
10.0
 40
10.0
 40
11.0
 40
11.0
 40
11.0
 40
12.0
 40
12.0
 40
12.0
 40
13.0
 40
13.0
 40
13.0
 40
13.0
 10
98.18348582846393
 20
-133.2049730222545
 10
98.18348582846393
 20
-133.2049730222545
 10
88.68328634861199
 20
-133.2049730222545
 10
88.68328634861199
 20
-133.2049730222545
 10
88.50485135316424
 20
-132.8955869112206
 10
88.17479247269586
 20
-132.7054396890457
 10
87.81788720402349
 20
-132.7054396890457
 10
87.81788720402349
 20
-132.7054396890457
 10
81.68354041607927
 20
-132.7054396890457
 10
81.68354041607927
 20
-132.7054396890457
 10
81.68354041607927
 20
-132.7054396890457
 10
81.68354041607927
 20
-126.205226912893
 10
81.68354041607927
 20
-126.205226912893
 10
81.68354041607927
 20
-126.205226912893
 10
88.68328634861199
 20
-126.205226912893
 10
88.68328634861199
 20
-126.205226912893
 10
88.68328634861199
 20
-126.205226912893
 10
88.68328634861199
 20
-125.6050813574876
 10
88.68328634861199
 20
-125.6050813574876
 10
88.68328634861199
 20
-125.6050813574876
 10
86.67344084433186
 20
-125.4042449686489
 10
86.67344084433186
 20
-125.4042449686489
 10
85.34777254481914
 20
-125.2716005242376
 10
84.01589535657594
 20
-125.205101913143
 10
82.68401816833274
 20
-125.205101913143
 10
82.68401816833274
 20
-125.205101913143
 10
80.68380553538462
 20
-125.205101913143
 10
80.68380553538462
 20
-125.205101913143
 10
80.68380553538462
 20
-125.205101913143
 10
80.68380553538462
 20
-132.905253022329
 10
80.68380553538462
 20
-132.905253022329
 10
80.68380553538462
 20
-133.346895522219
 10
81.04208459911084
 20
-133.7051766332401
 10
81.4837270878436
 20
-133.7051766332401
 10
81.4837270878436
 20
-133.7051766332401
 10
98.68372470459066
 20
-133.7051766332401
 10
98.68372470459066
 20
-133.7051766332401
 10
98.68372470459066
 20
-133.4288810777537
 10
98.4597813769706
 20
-133.2049730222545
 10
98.18348582846393
 20
-133.2049730222545
 97
        0
 97
        0
 75
     2
 76
     1
 98
        0
  0
POLYLINE
  5
43
330
1F
100
AcDbEntity
  8
_U+30EC_U+30A4_U+30E4_U+30FC 1
 62
     7
420
 16777215
370
    25
100
AcDb2dPolyline
 66
     1
 10
0.0
 20
0.0
 30
0.0
  0
VERTEX
  5
44
330
43
100
AcDbEntity
  8
_U+30EC_U+30A4_U+30E4_U+30FC 1
 62
     7
420
 16777215
370
    25
100
AcDbVertex
100
AcDb2dVertex
 10
81.68354041607927
 20
-126.205226912893
 30
0.0
  0
VERTEX
  5
45
330
43
100
AcDbEntity
  8
_U+30EC_U+30A4_U+30E4_U+30FC 1
 62
     7
420
 16777215
370
    25
100
AcDbVertex
100
AcDb2dVertex
 10
88.68328634861199
 20
-126.205226912893
 30
0.0
  0
SEQEND
  5
46
330
43
100
AcDbEntity
  8
_U+30EC_U+30A4_U+30E4_U+30FC 1
 62
     7
420
 16777215
370
    25
  0
POLYLINE
  5
47
330
1F
100
AcDbEntity
  8
_U+30EC_U+30A4_U+30E4_U+30FC 1
 62
     7
420
 16777215
370
    25
100
AcDb2dPolyline
 66
     1
 10
0.0
 20
0.0
 30
0.0
  0
VERTEX
  5
48
330
47
100
AcDbEntity
  8
_U+30EC_U+30A4_U+30E4_U+30FC 1
 62
     7
420
 16777215
370
    25
100
AcDbVertex
100
AcDb2dVertex
 10
80.68380553538462
 20
-125.205101913143
 30
0.0
  0
VERTEX
  5
49
330
47
100
AcDbEntity
  8
_U+30EC_U+30A4_U+30E4_U+30FC 1
 62
     7
420
 16777215
370
    25
100
AcDbVertex
100
AcDb2dVertex
 10
82.68401816833274
 20
-125.205101913143
 30
0.0
  0
SEQEND
  5
4A
330
47
100
AcDbEntity
  8
_U+30EC_U+30A4_U+30E4_U+30FC 1
 62
     7
420
 16777215
370
    25
  0
POLYLINE
  5
4B
330
1F
100
AcDbEntity
  8
_U+30EC_U+30A4_U+30E4_U+30FC 1
 62
     7
420
 16777215
370
    25
100
AcDb2dPolyline
 66
     1
 10
0.0
 20
0.0
 30
0.0
  0
VERTEX
  5
4C
330
4B
100
AcDbEntity
  8
_U+30EC_U+30A4_U+30E4_U+30FC 1
 62
     7
420
 16777215
370
    25
100
AcDbVertex
100
AcDb2dVertex
 10
81.68354041607927
 20
-132.7054396890457
 30
0.0
  0
VERTEX
  5
4D
330
4B
100
AcDbEntity
  8
_U+30EC_U+30A4_U+30E4_U+30FC 1
 62
     7
420
 16777215
370
    25
100
AcDbVertex
100
AcDb2dVertex
 10
87.81788720402349
 20
-132.7054396890457
 30
0.0
  0
SEQEND
  5
4E
330
4B
100
AcDbEntity
  8
_U+30EC_U+30A4_U+30E4_U+30FC 1
 62
     7
420
 16777215
370
    25
  0
POLYLINE
  5
4F
330
1F
100
AcDbEntity
  8
_U+30EC_U+30A4_U+30E4_U+30FC 1
 62
     7
420
 16777215
370
    25
100
AcDb2dPolyline
 66
     1
 10
0.0
 20
0.0
 30
0.0
  0
VERTEX
  5
50
330
4F
100
AcDbEntity
  8
_U+30EC_U+30A4_U+30E4_U+30FC 1
 62
     7
420
 16777215
370
    25
100
AcDbVertex
100
AcDb2dVertex
 10
81.4837270878436
 20
-133.7051766332401
 30
0.0
  0
VERTEX
  5
51
330
4F
100
AcDbEntity
  8
_U+30EC_U+30A4_U+30E4_U+30FC 1
 62
     7
420
 16777215
370
    25
100
AcDbVertex
100
AcDb2dVertex
 10
98.68372470459066
 20
-133.7051766332401
 30
0.0
  0
SEQEND
  5
52
330
4F
100
AcDbEntity
  8
_U+30EC_U+30A4_U+30E4_U+30FC 1
 62
     7
420
 16777215
370
    25
  0
POLYLINE
  5
53
330
1F
100
AcDbEntity
  8
_U+30EC_U+30A4_U+30E4_U+30FC 1
 62
     7
420
 16777215
370
    25
100
AcDb2dPolyline
 66
     1
 10
0.0
 20
0.0
 30
0.0
  0
VERTEX
  5
54
330
53
100
AcDbEntity
  8
_U+30EC_U+30A4_U+30E4_U+30FC 1
 62
     7
420
 16777215
370
    25
100
AcDbVertex
100
AcDb2dVertex
 10
88.68328634861199
 20
-125.6050813574876
 30
0.0
  0
VERTEX
  5
55
330
53
100
AcDbEntity
  8
_U+30EC_U+30A4_U+30E4_U+30FC 1
 62
     7
420
 16777215
370
    25
100
AcDbVertex
100
AcDb2dVertex
 10
88.68328634861199
 20
-126.205226912893
 30
0.0
  0
SEQEND
  5
56
330
53
100
AcDbEntity
  8
_U+30EC_U+30A4_U+30E4_U+30FC 1
 62
     7
420
 16777215
370
    25
  0
POLYLINE
  5
57
330
1F
100
AcDbEntity
  8
_U+30EC_U+30A4_U+30E4_U+30FC 1
 62
     7
420
 16777215
370
    25
100
AcDb2dPolyline
 66
     1
 10
0.0
 20
0.0
 30
0.0
  0
VERTEX
  5
58
330
57
100
AcDbEntity
  8
_U+30EC_U+30A4_U+30E4_U+30FC 1
 62
     7
420
 16777215
370
    25
100
AcDbVertex
100
AcDb2dVertex
 10
80.68380553538462
 20
-125.205101913143
 30
0.0
  0
VERTEX
  5
59
330
57
100
AcDbEntity
  8
_U+30EC_U+30A4_U+30E4_U+30FC 1
 62
     7
420
 16777215
370
    25
100
AcDbVertex
100
AcDb2dVertex
 10
80.68380553538462
 20
-132.905253022329
 30
0.0
  0
SEQEND
  5
5A
330
57
100
AcDbEntity
  8
_U+30EC_U+30A4_U+30E4_U+30FC 1
 62
     7
420
 16777215
370
    25
  0
POLYLINE
  5
5B
330
1F
100
AcDbEntity
  8
_U+30EC_U+30A4_U+30E4_U+30FC 1
 62
     7
420
 16777215
370
    25
100
AcDb2dPolyline
 66
     1
 10
0.0
 20
0.0
 30
0.0
  0
VERTEX
  5
5C
330
5B
100
AcDbEntity
  8
_U+30EC_U+30A4_U+30E4_U+30FC 1
 62
     7
420
 16777215
370
    25
100
AcDbVertex
100
AcDb2dVertex
 10
81.68354041607927
 20
-126.205226912893
 30
0.0
  0
VERTEX
  5
5D
330
5B
100
AcDbEntity
  8
_U+30EC_U+30A4_U+30E4_U+30FC 1
 62
     7
420
 16777215
370
    25
100
AcDbVertex
100
AcDb2dVertex
 10
81.68354041607927
 20
-132.7054396890457
 30
0.0
  0
SEQEND
  5
5E
330
5B
100
AcDbEntity
  8
_U+30EC_U+30A4_U+30E4_U+30FC 1
 62
     7
420
 16777215
370
    25
  0
POLYLINE
  5
5F
330
1F
100
AcDbEntity
  8
_U+30EC_U+30A4_U+30E4_U+30FC 1
 62
     7
420
 16777215
370
    25
100
AcDb2dPolyline
 66
     1
 10
0.0
 20
0.0
 30
0.0
  0
VERTEX
  5
60
330
5F
100
AcDbEntity
  8
_U+30EC_U+30A4_U+30E4_U+30FC 1
 62
     7
420
 16777215
370
    25
100
AcDbVertex
100
AcDb2dVertex
 10
86.67344084433186
 20
-125.4042449686489
 30
0.0
  0
VERTEX
  5
61
330
5F
100
AcDbEntity
  8
_U+30EC_U+30A4_U+30E4_U+30FC 1
 62
     7
420
 16777215
370
    25
100
AcDbVertex
100
AcDb2dVertex
 10
88.68328634861199
 20
-125.6050813574876
 30
0.0
  0
SEQEND
  5
62
330
5F
100
AcDbEntity
  8
_U+30EC_U+30A4_U+30E4_U+30FC 1
 62
     7
420
 16777215
370
    25
  0
POLYLINE
  5
63
330
1F
100
AcDbEntity
  8
_U+30EC_U+30A4_U+30E4_U+30FC 1
 62
     7
420
 16777215
370
    25
100
AcDb2dPolyline
 66
     1
 10
0.0
 20
0.0
 30
0.0
  0
VERTEX
  5
64
330
63
100
AcDbEntity
  8
_U+30EC_U+30A4_U+30E4_U+30FC 1
 62
     7
420
 16777215
370
    25
100
AcDbVertex
100
AcDb2dVertex
 10
88.68328634861199
 20
-133.2049730222545
 30
0.0
  0
VERTEX
  5
65
330
63
100
AcDbEntity
  8
_U+30EC_U+30A4_U+30E4_U+30FC 1
 62
     7
420
 16777215
370
    25
100
AcDbVertex
100
AcDb2dVertex
 10
98.18348582846393
 20
-133.2049730222545
 30
0.0
  0
SEQEND
  5
66
330
63
100
AcDbEntity
  8
_U+30EC_U+30A4_U+30E4_U+30FC 1
 62
     7
420
 16777215
370
    25
  0
SPLINE
  5
67
330
1F
100
AcDbEntity
  8
_U+30EC_U+30A4_U+30E4_U+30FC 1
 62
     7
420
 16777215
370
    25
100
AcDbSpline
210
0.0
220
0.0
230
1.0
 70
     8
 71
     3
 72
     8
 73
     4
 74
     0
 42
0.0000000001
 43
0.0000000001
 12
1.0
 22
0.0
 32
0.0
 13
1.0
 23
0.0
 33
0.0
 40
0.0
 40
0.0
 40
0.0
 40
0.0
 40
1.0
 40
1.0
 40
1.0
 40
1.0
 10
80.68380553538462
 20
-132.905253022329
 30
0.0
 10
80.68380553538462
 20
-133.346895522219
 30
0.0
 10
81.04208459911084
 20
-133.7051766332401
 30
0.0
 10
81.4837270878436
 20
-133.7051766332401
 30
0.0
  0
SPLINE
  5
68
330
1F
100
AcDbEntity
  8
_U+30EC_U+30A4_U+30E4_U+30FC 1
 62
     7
420
 16777215
370
    25
100
AcDbSpline
210
0.0
220
0.0
230
1.0
 70
     8
 71
     3
 72
     8
 73
     4
 74
     0
 42
0.0000000001
 43
0.0000000001
 12
1.0
 22
0.0
 32
0.0
 13
1.0
 23
0.0
 33
0.0
 40
0.0
 40
0.0
 40
0.0
 40
0.0
 40
1.0
 40
1.0
 40
1.0
 40
1.0
 10
98.68372470459066
 20
-133.7051766332401
 30
0.0
 10
98.68372470459066
 20
-133.4288810777537
 30
0.0
 10
98.4597813769706
 20
-133.2049730222545
 30
0.0
 10
98.18348582846393
 20
-133.2049730222545
 30
0.0
  0
SPLINE
  5
69
330
1F
100
AcDbEntity
  8
_U+30EC_U+30A4_U+30E4_U+30FC 1
 62
     7
420
 16777215
370
    25
100
AcDbSpline
210
0.0
220
0.0
230
1.0
 70
     8
 71
     3
 72
     8
 73
     4
 74
     0
 42
0.0000000001
 43
0.0000000001
 12
1.0
 22
0.0
 32
0.0
 13
1.0
 23
0.0
 33
0.0
 40
0.0
 40
0.0
 40
0.0
 40
0.0
 40
1.0
 40
1.0
 40
1.0
 40
1.0
 10
88.68328634861199
 20
-133.2049730222545
 30
0.0
 10
88.50485135316424
 20
-132.8955869112206
 30
0.0
 10
88.17479247269586
 20
-132.7054396890457
 30
0.0
 10
87.81788720402349
 20
-132.7054396890457
 30
0.0
  0
SPLINE
  5
6A
330
1F
100
AcDbEntity
  8
_U+30EC_U+30A4_U+30E4_U+30FC 1
 62
     7
420
 16777215
370
    25
100
AcDbSpline
210
0.0
220
0.0
230
1.0
 70
     8
 71
     3
 72
     8
 73
     4
 74
     0
 42
0.0000000001
 43
0.0000000001
 12
1.0
 22
0.0
 32
0.0
 13
1.0
 23
0.0
 33
0.0
 40
0.0
 40
0.0
 40
0.0
 40
0.0
 40
1.0
 40
1.0
 40
1.0
 40
1.0
 10
86.67344084433186
 20
-125.4042449686489
 30
0.0
 10
85.34777254481914
 20
-125.2716005242376
 30
0.0
 10
84.01589535657594
 20
-125.205101913143
 30
0.0
 10
82.68401816833274
 20
-125.205101913143
 30
0.0
  0
SPLINE
  5
6B
330
1F
100
AcDbEntity
  8
_U+30EC_U+30A4_U+30E4_U+30FC 1
 62
     7
420
 16777215
370
     9
100
AcDbSpline
210
0.0
220
0.0
230
1.0
 70
    11
 71
     3
 72
    17
 73
    13
 74
     0
 42
0.0000000001
 43
0.0000000001
 12
1.0
 22
0.0
 32
0.0
 13
1.0
 23
0.0
 33
0.0
 40
0.0
 40
0.0
 40
0.0
 40
0.0
 40
1.0
 40
1.0
 40
1.0
 40
2.0
 40
2.0
 40
2.0
 40
3.0
 40
3.0
 40
3.0
 40
4.0
 40
4.0
 40
4.0
 40
4.0
 10
80.78371016125807
 20
-121.2049899696987
 30
0.0
 10
80.78371016125807
 20
-121.1498860808238
 30
0.0
 10
80.73890738462332
 20
-121.1050833030571
 30
0.0
 10
80.68380553538462
 20
-121.1050833030571
 30
0.0
 10
80.62866433188029
 20
-121.1050833030571
 30
0.0
 10
80.58389683302241
 20
-121.1498860808238
 30
0.0
 10
80.58389683302241
 20
-121.2049899696987
 30
0.0
 10
80.58389683302241
 20
-121.2604819141292
 30
0.0
 10
80.62866433188029
 20
-121.3052494141181
 30
0.0
 10
80.68380553538462
 20
-121.3052494141181
 30
0.0
 10
80.73890738462332
 20
-121.3052494141181
 30
0.0
 10
80.78371016125807
 20
-121.2604819141292
 30
0.0
 10
80.78371016125807
 20
-121.2049899696987
 30
0.0
  0
SPLINE
  5
6C
330
1F
100
AcDbEntity
  8
_U+30EC_U+30A4_U+30E4_U+30FC 1
 62
     7
420
 16777215
370
     9
100
AcDbSpline
210
0.0
220
0.0
230
1.0
 70
    11
 71
     3
 72
    17
 73
    13
 74
     0
 42
0.0000000001
 43
0.0000000001
 12
1.0
 22
0.0
 32
0.0
 13
1.0
 23
0.0
 33
0.0
 40
0.0
 40
0.0
 40
0.0
 40
0.0
 40
1.0
 40
1.0
 40
1.0
 40
2.0
 40
2.0
 40
2.0
 40
3.0
 40
3.0
 40
3.0
 40
4.0
 40
4.0
 40
4.0
 40
4.0
 10
88.78389856826738
 20
-121.2049899696987
 30
0.0
 10
88.78389856826738
 20
-121.1498860808238
 30
0.0
 10
88.73909579163261
 20
-121.1050833030571
 30
0.0
 10
88.68328634861199
 20
-121.1050833030571
 30
0.0
 10
88.62818246112892
 20
-121.1050833030571
 30
0.0
 10
88.58337968449415
 20
-121.1498860808238
 30
0.0
 10
88.58337968449415
 20
-121.2049899696987
 30
0.0
 10
88.58337968449415
 20
-121.2604819141292
 30
0.0
 10
88.62818246112892
 20
-121.3052494141181
 30
0.0
 10
88.68328634861199
 20
-121.3052494141181
 30
0.0
 10
88.73909579163261
 20
-121.3052494141181
 30
0.0
 10
88.78389856826738
 20
-121.2604819141292
 30
0.0
 10
88.78389856826738
 20
-121.2049899696987
 30
0.0
  0
SPLINE
  5
6D
330
1F
100
AcDbEntity
  8
_U+30EC_U+30A4_U+30E4_U+30FC 1
 62
     7
420
 16777215
370
     9
100
AcDbSpline
210
0.0
220
0.0
230
1.0
 70
    11
 71
     3
 72
    17
 73
    13
 74
     0
 42
0.0000000001
 43
0.0000000001
 12
1.0
 22
0.0
 32
0.0
 13
1.0
 23
0.0
 33
0.0
 40
0.0
 40
0.0
 40
0.0
 40
0.0
 40
1.0
 40
1.0
 40
1.0
 40
2.0
 40
2.0
 40
2.0
 40
3.0
 40
3.0
 40
3.0
 40
4.0
 40
4.0
 40
4.0
 40
4.0
 10
102.6614351586664
 20
-126.205226912893
 30
0.0
 10
102.6614351586664
 20
-126.1500877462402
 30
0.0
 10
102.6166323820316
 20
-126.1053202462514
 30
0.0
 10
102.5615284945485
 20
-126.1053202462514
 30
0.0
 10
102.5063893292886
 20
-126.1053202462514
 30
0.0
 10
102.4616218304307
 20
-126.1500877462402
 30
0.0
 10
102.4616218304307
 20
-126.205226912893
 30
0.0
 10
102.4616218304307
 20
-126.2603308017682
 30
0.0
 10
102.5063893292886
 20
-126.305133579535
 30
0.0
 10
102.5615284945485
 20
-126.305133579535
 30
0.0
 10
102.6166323820316
 20
-126.305133579535
 30
0.0
 10
102.6614351586664
 20
-126.2603308017682
 30
0.0
 10
102.6614351586664
 20
-126.205226912893
 30
0.0
  0
SPLINE
  5
6E
330
1F
100
AcDbEntity
  8
_U+30EC_U+30A4_U+30E4_U+30FC 1
 62
     7
420
 16777215
370
     9
100
AcDbSpline
210
0.0
220
0.0
230
1.0
 70
    11
 71
     3
 72
    17
 73
    13
 74
     0
 42
0.0000000001
 43
0.0000000001
 12
1.0
 22
0.0
 32
0.0
 13
1.0
 23
0.0
 33
0.0
 40
0.0
 40
0.0
 40
0.0
 40
0.0
 40
1.0
 40
1.0
 40
1.0
 40
2.0
 40
2.0
 40
2.0
 40
3.0
 40
3.0
 40
3.0
 40
4.0
 40
4.0
 40
4.0
 40
4.0
 10
102.6614351586664
 20
-132.7054396890457
 30
0.0
 10
102.6614351586664
 20
-132.6499477446155
 30
0.0
 10
102.6166323820316
 20
-132.6051802446263
 30
0.0
 10
102.5615284945485
 20
-132.6051802446263
 30
0.0
 10
102.5063893292886
 20
-132.6051802446263
 30
0.0
 10
102.4616218304307
 20
-132.6499477446155
 30
0.0
 10
102.4616218304307
 20
-132.7054396890457
 30
0.0
 10
102.4616218304307
 20
-132.7605435779213
 30
0.0
 10
102.5063893292886
 20
-132.8053463556874
 30
0.0
 10
102.5615284945485
 20
-132.8053463556874
 30
0.0
 10
102.6166323820316
 20
-132.8053463556874
 30
0.0
 10
102.6614351586664
 20
-132.7605435779213
 30
0.0
 10
102.6614351586664
 20
-132.7054396890457
 30
0.0
  0
SPLINE
  5
6F
330
1F
100
AcDbEntity
  8
_U+30EC_U+30A4_U+30E4_U+30FC 1
 62
     7
420
 16777215
370
     9
100
AcDbSpline
210
0.0
220
0.0
230
1.0
 70
    11
 71
     3
 72
    17
 73
    13
 74
     0
 42
0.0000000001
 43
0.0000000001
 12
1.0
 22
0.0
 32
0.0
 13
1.0
 23
0.0
 33
0.0
 40
0.0
 40
0.0
 40
0.0
 40
0.0
 40
1.0
 40
1.0
 40
1.0
 40
2.0
 40
2.0
 40
2.0
 40
3.0
 40
3.0
 40
3.0
 40
4.0
 40
4.0
 40
4.0
 40
4.0
 10
80.78371016125807
 20
-137.7052885766848
 30
0.0
 10
80.78371016125807
 20
-137.6498319100321
 30
0.0
 10
80.73890738462332
 20
-137.6050291322653
 30
0.0
 10
80.68380553538462
 20
-137.6050291322653
 30
0.0
 10
80.62866433188029
 20
-137.6050291322653
 30
0.0
 10
80.58389683302241
 20
-137.6498319100321
 30
0.0
 10
80.58389683302241
 20
-137.7052885766848
 30
0.0
 10
80.58389683302241
 20
-137.7604277433378
 30
0.0
 10
80.62866433188029
 20
-137.8051952433264
 30
0.0
 10
80.68380553538462
 20
-137.8051952433264
 30
0.0
 10
80.73890738462332
 20
-137.8051952433264
 30
0.0
 10
80.78371016125807
 20
-137.7604277433378
 30
0.0
 10
80.78371016125807
 20
-137.7052885766848
 30
0.0
  0
SPLINE
  5
70
330
1F
100
AcDbEntity
  8
_U+30EC_U+30A4_U+30E4_U+30FC 1
 62
     7
420
 16777215
370
     9
100
AcDbSpline
210
0.0
220
0.0
230
1.0
 70
    11
 71
     3
 72
    17
 73
    13
 74
     0
 42
0.0000000001
 43
0.0000000001
 12
1.0
 22
0.0
 32
0.0
 13
1.0
 23
0.0
 33
0.0
 40
0.0
 40
0.0
 40
0.0
 40
0.0
 40
1.0
 40
1.0
 40
1.0
 40
2.0
 40
2.0
 40
2.0
 40
3.0
 40
3.0
 40
3.0
 40
4.0
 40
4.0
 40
4.0
 40
4.0
 10
98.7836313687085
 20
-137.7052885766848
 30
0.0
 10
98.7836313687085
 20
-137.6498319100321
 30
0.0
 10
98.73882859207373
 20
-137.6050291322653
 30
0.0
 10
98.68372470459066
 20
-137.6050291322653
 30
0.0
 10
98.62858553933071
 20
-137.6050291322653
 30
0.0
 10
98.58381804047282
 20
-137.6498319100321
 30
0.0
 10
98.58381804047282
 20
-137.7052885766848
 30
0.0
 10
98.58381804047282
 20
-137.7604277433378
 30
0.0
 10
98.62858553933071
 20
-137.8051952433264
 30
0.0
 10
98.68372470459066
 20
-137.8051952433264
 30
0.0
 10
98.73882859207373
 20
-137.8051952433264
 30
0.0
 10
98.7836313687085
 20
-137.7604277433378
 30
0.0
 10
98.7836313687085
 20
-137.7052885766848
 30
0.0
  0
POLYLINE
  5
71
330
1F
100
AcDbEntity
  8
_U+30EC_U+30A4_U+30E4_U+30FC 1
 62
     7
420
 16777215
370
     9
100
AcDb2dPolyline
 66
     1
 10
0.0
 20
0.0
 30
0.0
  0
VERTEX
  5
72
330
71
100
AcDbEntity
  8
_U+30EC_U+30A4_U+30E4_U+30FC 1
 62
     7
420
 16777215
370
     9
100
AcDbVertex
100
AcDb2dVertex
 10
80.68380553538462
 20
-121.2049899696987
 30
0.0
  0
VERTEX
  5
73
330
71
100
AcDbEntity
  8
_U+30EC_U+30A4_U+30E4_U+30FC 1
 62
     7
420
 16777215
370
     9
100
AcDbVertex
100
AcDb2dVertex
 10
88.68328634861199
 20
-121.2049899696987
 30
0.0
  0
SEQEND
  5
74
330
71
100
AcDbEntity
  8
_U+30EC_U+30A4_U+30E4_U+30FC 1
 62
     7
420
 16777215
370
     9
  0
POLYLINE
  5
75
330
1F
100
AcDbEntity
  8
_U+30EC_U+30A4_U+30E4_U+30FC 1
 62
     7
420
 16777215
370
     9
100
AcDb2dPolyline
 66
     1
 10
0.0
 20
0.0
 30
0.0
  0
VERTEX
  5
76
330
75
100
AcDbEntity
  8
_U+30EC_U+30A4_U+30E4_U+30FC 1
 62
     7
420
 16777215
370
     9
100
AcDbVertex
100
AcDb2dVertex
 10
80.68380553538462
 20
-122.6650313582227
 30
0.0
  0
VERTEX
  5
77
330
75
100
AcDbEntity
  8
_U+30EC_U+30A4_U+30E4_U+30FC 1
 62
     7
420
 16777215
370
     9
100
AcDbVertex
100
AcDb2dVertex
 10
80.68380553538462
 20
-120.2052530255043
 30
0.0
  0
SEQEND
  5
78
330
75
100
AcDbEntity
  8
_U+30EC_U+30A4_U+30E4_U+30FC 1
 62
     7
420
 16777215
370
     9
  0
POLYLINE
  5
79
330
1F
100
AcDbEntity
  8
_U+30EC_U+30A4_U+30E4_U+30FC 1
 62
     7
420
 16777215
370
     9
100
AcDb2dPolyline
 66
     1
 10
0.0
 20
0.0
 30
0.0
  0
VERTEX
  5
7A
330
79
100
AcDbEntity
  8
_U+30EC_U+30A4_U+30E4_U+30FC 1
 62
     7
420
 16777215
370
     9
100
AcDbVertex
100
AcDb2dVertex
 10
88.68328634861199
 20
-123.0653635803448
 30
0.0
  0
VERTEX
  5
7B
330
79
100
AcDbEntity
  8
_U+30EC_U+30A4_U+30E4_U+30FC 1
 62
     7
420
 16777215
370
     9
100
AcDbVertex
100
AcDb2dVertex
 10
88.68328634861199
 20
-120.2052530255043
 30
0.0
  0
SEQEND
  5
7C
330
79
100
AcDbEntity
  8
_U+30EC_U+30A4_U+30E4_U+30FC 1
 62
     7
420
 16777215
370
     9
  0
INSERT
  5
7E
330
1F
100
AcDbEntity
  8
_U+30EC_U+30A4_U+30E4_U+30FC 1
100
AcDbBlockReference
  2
block 2
 10
0.0
 20
0.0
 30
0.0
  0
POLYLINE
  5
85
330
1F
100
AcDbEntity
  8
_U+30EC_U+30A4_U+30E4_U+30FC 1
 62
     7
420
 16777215
370
     9
100
AcDb2dPolyline
 66
     1
 10
0.0
 20
0.0
 30
0.0
  0
VERTEX
  5
86
330
85
100
AcDbEntity
  8
_U+30EC_U+30A4_U+30E4_U+30FC 1
 62
     7
420
 16777215
370
     9
100
AcDbVertex
100
AcDb2dVertex
 10
80.68380553538462
 20
-137.7052885766848
 30
0.0
  0
VERTEX
  5
87
330
85
100
AcDbEntity
  8
_U+30EC_U+30A4_U+30E4_U+30FC 1
 62
     7
420
 16777215
370
     9
100
AcDbVertex
100
AcDb2dVertex
 10
98.68372470459066
 20
-137.7052885766848
 30
0.0
  0
SEQEND
  5
88
330
85
100
AcDbEntity
  8
_U+30EC_U+30A4_U+30E4_U+30FC 1
 62
     7
420
 16777215
370
     9
  0
POLYLINE
  5
89
330
1F
100
AcDbEntity
  8
_U+30EC_U+30A4_U+30E4_U+30FC 1
 62
     7
420
 16777215
370
     9
100
AcDb2dPolyline
 66
     1
 10
0.0
 20
0.0
 30
0.0
  0
VERTEX
  5
8A
330
89
100
AcDbEntity
  8
_U+30EC_U+30A4_U+30E4_U+30FC 1
 62
     7
420
 16777215
370
     9
100
AcDbVertex
100
AcDb2dVertex
 10
80.68380553538462
 20
-135.4449707994722
 30
0.0
  0
VERTEX
  5
8B
330
89
100
AcDbEntity
  8
_U+30EC_U+30A4_U+30E4_U+30FC 1
 62
     7
420
 16777215
370
     9
100
AcDbVertex
100
AcDb2dVertex
 10
80.68380553538462
 20
-138.7050607986573
 30
0.0
  0
SEQEND
  5
8C
330
89
100
AcDbEntity
  8
_U+30EC_U+30A4_U+30E4_U+30FC 1
 62
     7
420
 16777215
370
     9
  0
POLYLINE
  5
8D
330
1F
100
AcDbEntity
  8
_U+30EC_U+30A4_U+30E4_U+30FC 1
 62
     7
420
 16777215
370
     9
100
AcDb2dPolyline
 66
     1
 10
0.0
 20
0.0
 30
0.0
  0
VERTEX
  5
8E
330
8D
100
AcDbEntity
  8
_U+30EC_U+30A4_U+30E4_U+30FC 1
 62
     7
420
 16777215
370
     9
100
AcDbVertex
100
AcDb2dVertex
 10
98.68372470459066
 20
-136.245247188161
 30
0.0
  0
VERTEX
  5
8F
330
8D
100
AcDbEntity
  8
_U+30EC_U+30A4_U+30E4_U+30FC 1
 62
     7
420
 16777215
370
     9
100
AcDbVertex
100
AcDb2dVertex
 10
98.68372470459066
 20
-138.7050607986573
 30
0.0
  0
SEQEND
  5
90
330
8D
100
AcDbEntity
  8
_U+30EC_U+30A4_U+30E4_U+30FC 1
 62
     7
420
 16777215
370
     9
  0
INSERT
  5
92
330
1F
100
AcDbEntity
  8
_U+30EC_U+30A4_U+30E4_U+30FC 1
100
AcDbBlockReference
  2
block 3
 10
0.0
 20
0.0
 30
0.0
  0
POLYLINE
  5
9B
330
1F
100
AcDbEntity
  8
_U+30EC_U+30A4_U+30E4_U+30FC 1
 62
     7
420
 16777215
370
     9
100
AcDb2dPolyline
 66
     1
 10
0.0
 20
0.0
 30
0.0
  0
VERTEX
  5
9C
330
9B
100
AcDbEntity
  8
_U+30EC_U+30A4_U+30E4_U+30FC 1
 62
     7
420
 16777215
370
     9
100
AcDbVertex
100
AcDb2dVertex
 10
102.5615284945485
 20
-132.7054396890457
 30
0.0
  0
VERTEX
  5
9D
330
9B
100
AcDbEntity
  8
_U+30EC_U+30A4_U+30E4_U+30FC 1
 62
     7
420
 16777215
370
     9
100
AcDbVertex
100
AcDb2dVertex
 10
102.5615284945485
 20
-121.2328946919139
 30
0.0
  0
SEQEND
  5
9E
330
9B
100
AcDbEntity
  8
_U+30EC_U+30A4_U+30E4_U+30FC 1
 62
     7
420
 16777215
370
     9
  0
POLYLINE
  5
9F
330
1F
100
AcDbEntity
  8
_U+30EC_U+30A4_U+30E4_U+30FC 1
 62
     7
420
 16777215
370
     9
100
AcDb2dPolyline
 66
     1
 10
0.0
 20
0.0
 30
0.0
  0
VERTEX
  5
A0
330
9F
100
AcDbEntity
  8
_U+30EC_U+30A4_U+30E4_U+30FC 1
 62
     7
420
 16777215
370
     9
100
AcDbVertex
100
AcDb2dVertex
 10
101.0773924213009
 20
-132.7092144112673
 30
0.0
  0
VERTEX
  5
A1
330
9F
100
AcDbEntity
  8
_U+30EC_U+30A4_U+30E4_U+30FC 1
 62
     7
420
 16777215
370
     9
100
AcDbVertex
100
AcDb2dVertex
 10
103.5613006912644
 20
-132.7054396890457
 30
0.0
  0
SEQEND
  5
A2
330
9F
100
AcDbEntity
  8
_U+30EC_U+30A4_U+30E4_U+30FC 1
 62
     7
420
 16777215
370
     9
  0
POLYLINE
  5
A3
330
1F
100
AcDbEntity
  8
_U+30EC_U+30A4_U+30E4_U+30FC 1
 62
     7
420
 16777215
370
     9
100
AcDb2dPolyline
 66
     1
 10
0.0
 20
0.0
 30
0.0
  0
VERTEX
  5
A4
330
A3
100
AcDbEntity
  8
_U+30EC_U+30A4_U+30E4_U+30FC 1
 62
     7
420
 16777215
370
     9
100
AcDbVertex
100
AcDb2dVertex
 10
101.1014871429084
 20
-126.205226912893
 30
0.0
  0
VERTEX
  5
A5
330
A3
100
AcDbEntity
  8
_U+30EC_U+30A4_U+30E4_U+30FC 1
 62
     7
420
 16777215
370
     9
100
AcDbVertex
100
AcDb2dVertex
 10
103.5613006912644
 20
-126.205226912893
 30
0.0
  0
SEQEND
  5
A6
330
A3
100
AcDbEntity
  8
_U+30EC_U+30A4_U+30E4_U+30FC 1
 62
     7
420
 16777215
370
     9
  0
INSERT
  5
A8
330
1F
100
AcDbEntity
  8
_U+30EC_U+30A4_U+30E4_U+30FC 1
100
AcDbBlockReference
  2
block 4
 10
0.0
 20
0.0
 30
0.0
  0
POLYLINE
  5
B8
330
1F
100
AcDbEntity
  8
_U+30EC_U+30A4_U+30E4_U+30FC 1
  6
AI-Linetype-1
 62
   251
420
  5855577
370
    25
100
AcDb2dPolyline
 66
     1
 10
0.0
 20
0.0
 30
0.0
  0
VERTEX
  5
B9
330
B8
100
AcDbEntity
  8
_U+30EC_U+30A4_U+30E4_U+30FC 1
  6
AI-Linetype-1
 62
   251
420
  5855577
370
    25
100
AcDbVertex
100
AcDb2dVertex
 10
89.37575383094567
 20
-126.4646244128282
 30
0.0
  0
VERTEX
  5
BA
330
B8
100
AcDbEntity
  8
_U+30EC_U+30A4_U+30E4_U+30FC 1
  6
AI-Linetype-1
 62
   251
420
  5855577
370
    25
100
AcDbVertex
100
AcDb2dVertex
 10
89.37575383094567
 20
-124.5539799688614
 30
0.0
  0
VERTEX
  5
BB
330
B8
100
AcDbEntity
  8
_U+30EC_U+30A4_U+30E4_U+30FC 1
  6
AI-Linetype-1
 62
   251
420
  5855577
370
    25
100
AcDbVertex
100
AcDb2dVertex
 10
79.88451490642068
 20
-124.5539799688614
 30
0.0
  0
VERTEX
  5
BC
330
B8
100
AcDbEntity
  8
_U+30EC_U+30A4_U+30E4_U+30FC 1
  6
AI-Linetype-1
 62
   251
420
  5855577
370
    25
100
AcDbVertex
100
AcDb2dVertex
 10
79.88451490642068
 20
-133.9442894109586
 30
0.0
  0
SEQEND
  5
BE
330
B8
100
AcDbEntity
  8
_U+30EC_U+30A4_U+30E4_U+30FC 1
  6
AI-Linetype-1
 62
   251
420
  5855577
370
    25
  0
SPLINE
  5
BF
330
1F
100
AcDbEntity
  8
_U+30EC_U+30A4_U+30E4_U+30FC 1
 62
   179
420
  2234388
370
     9
100
AcDbSpline
210
0.0
220
0.0
230
1.0
 70
    11
 71
     3
 72
    17
 73
    13
 74
     0
 42
0.0000000001
 43
0.0000000001
 12
1.0
 22
0.0
 32
0.0
 13
1.0
 23
0.0
 33
0.0
 40
0.0
 40
0.0
 40
0.0
 40
0.0
 40
1.0
 40
1.0
 40
1.0
 40
2.0
 40
2.0
 40
2.0
 40
3.0
 40
3.0
 40
3.0
 40
4.0
 40
4.0
 40
4.0
 40
4.0
 10
80.77199997980702
 20
-129.2909741343439
 30
0.0
 10
80.77199997980702
 20
-129.235870245469
 30
0.0
 10
80.7271972020403
 20
-129.1910674677023
 30
0.0
 10
80.67138571967926
 20
-129.1910674677023
 30
0.0
 10
80.6162818321962
 20
-129.1910674677023
 30
0.0
 10
80.57147905556143
 20
-129.235870245469
 30
0.0
 10
80.57147905556143
 20
-129.2909741343439
 30
0.0
 10
80.57147905556143
 20
-129.346113300997
 30
0.0
 10
80.6162818321962
 20
-129.3908808009855
 30
0.0
 10
80.67138571967926
 20
-129.3908808009855
 30
0.0
 10
80.7271972020403
 20
-129.3908808009855
 30
0.0
 10
80.77199997980702
 20
-129.346113300997
 30
0.0
 10
80.77199997980702
 20
-129.2909741343439
 30
0.0
  0
SPLINE
  5
C0
330
1F
100
AcDbEntity
  8
_U+30EC_U+30A4_U+30E4_U+30FC 1
 62
   179
420
  2234388
370
     9
100
AcDbSpline
210
0.0
220
0.0
230
1.0
 70
    11
 71
     3
 72
    17
 73
    13
 74
     0
 42
0.0000000001
 43
0.0000000001
 12
1.0
 22
0.0
 32
0.0
 13
1.0
 23
0.0
 33
0.0
 40
0.0
 40
0.0
 40
0.0
 40
0.0
 40
1.0
 40
1.0
 40
1.0
 40
2.0
 40
2.0
 40
2.0
 40
3.0
 40
3.0
 40
3.0
 40
4.0
 40
4.0
 40
4.0
 40
4.0
 10
81.77173485827369
 20
-129.2909741343439
 30
0.0
 10
81.77173485827369
 20
-129.235870245469
 30
0.0
 10
81.72696942401284
 20
-129.1910674677023
 30
0.0
 10
81.67115791639517
 20
-129.1910674677023
 30
0.0
 10
81.61601875113523
 20
-129.1910674677023
 30
0.0
 10
81.57125125227734
 20
-129.235870245469
 30
0.0
 10
81.57125125227734
 20
-129.2909741343439
 30
0.0
 10
81.57125125227734
 20
-129.346113300997
 30
0.0
 10
81.61601875113523
 20
-129.3908808009855
 30
0.0
 10
81.67115791639517
 20
-129.3908808009855
 30
0.0
 10
81.72696942401284
 20
-129.3908808009855
 30
0.0
 10
81.77173485827369
 20
-129.346113300997
 30
0.0
 10
81.77173485827369
 20
-129.2909741343439
 30
0.0
  0
INSERT
  5
C2
330
1F
100
AcDbEntity
  8
_U+30EC_U+30A4_U+30E4_U+30FC 1
100
AcDbBlockReference
  2
block 5
 10
0.0
 20
0.0
 30
0.0
  0
POLYLINE
  5
C7
330
1F
100
AcDbEntity
  8
_U+30EC_U+30A4_U+30E4_U+30FC 1
 62
   179
420
  2234388
370
     9
100
AcDb2dPolyline
 66
     1
 10
0.0
 20
0.0
 30
0.0
  0
VERTEX
  5
C8
330
C7
100
AcDbEntity
  8
_U+30EC_U+30A4_U+30E4_U+30FC 1
 62
   179
420
  2234388
370
     9
100
AcDbVertex
100
AcDb2dVertex
 10
82.53309983884965
 20
-129.2909741343439
 30
0.0
  0
VERTEX
  5
C9
330
C7
100
AcDbEntity
  8
_U+30EC_U+30A4_U+30E4_U+30FC 1
 62
   179
420
  2234388
370
     9
100
AcDbVertex
100
AcDb2dVertex
 10
77.94423717814351
 20
-129.2909741343439
 30
0.0
  0
SEQEND
  5
CA
330
C7
100
AcDbEntity
  8
_U+30EC_U+30A4_U+30E4_U+30FC 1
 62
   179
420
  2234388
370
     9
  0
SPLINE
  5
CB
330
1F
100
AcDbEntity
  8
_U+30EC_U+30A4_U+30E4_U+30FC 1
 62
   179
420
  2234388
370
     9
100
AcDbSpline
210
0.0
220
0.0
230
1.0
 70
    11
 71
     3
 72
    17
 73
    13
 74
     0
 42
0.0000000001
 43
0.0000000001
 12
1.0
 22
0.0
 32
0.0
 13
1.0
 23
0.0
 33
0.0
 40
0.0
 40
0.0
 40
0.0
 40
0.0
 40
1.0
 40
1.0
 40
1.0
 40
2.0
 40
2.0
 40
2.0
 40
3.0
 40
3.0
 40
3.0
 40
4.0
 40
4.0
 40
4.0
 40
4.0
 10
102.6566021032341
 20
-133.6869380221335
 30
0.0
 10
102.6566021032341
 20
-133.6311285777031
 30
0.0
 10
102.6118346043762
 20
-133.586325799937
 30
0.0
 10
102.5566954391163
 20
-133.586325799937
 30
0.0
 10
102.5015915516332
 20
-133.586325799937
 30
0.0
 10
102.4567887749984
 20
-133.6311285777031
 30
0.0
 10
102.4567887749984
 20
-133.6869380221335
 30
0.0
 10
102.4567887749984
 20
-133.7420419110091
 30
0.0
 10
102.5015915516332
 20
-133.7868446887758
 30
0.0
 10
102.5566954391163
 20
-133.7868446887758
 30
0.0
 10
102.6118346043762
 20
-133.7868446887758
 30
0.0
 10
102.6566021032341
 20
-133.7420419110091
 30
0.0
 10
102.6566021032341
 20
-133.6869380221335
 30
0.0
  0
POLYLINE
  5
CC
330
1F
100
AcDbEntity
  8
_U+30EC_U+30A4_U+30E4_U+30FC 1
 62
   179
420
  2234388
370
     9
100
AcDb2dPolyline
 66
     1
 10
0.0
 20
0.0
 30
0.0
  0
VERTEX
  5
CD
330
CC
100
AcDbEntity
  8
_U+30EC_U+30A4_U+30E4_U+30FC 1
 62
   179
420
  2234388
370
     9
100
AcDbVertex
100
AcDb2dVertex
 10
102.5566954391163
 20
-133.6865852443564
 30
0.0
  0
VERTEX
  5
CE
330
CC
100
AcDbEntity
  8
_U+30EC_U+30A4_U+30E4_U+30FC 1
 62
   179
420
  2234388
370
     9
100
AcDbVertex
100
AcDb2dVertex
 10
102.5566954391163
 20
-130.8612585783956
 30
0.0
  0
SEQEND
  5
CF
330
CC
100
AcDbEntity
  8
_U+30EC_U+30A4_U+30E4_U+30FC 1
 62
   179
420
  2234388
370
     9
  0
POLYLINE
  5
D0
330
1F
100
AcDbEntity
  8
_U+30EC_U+30A4_U+30E4_U+30FC 1
 62
   179
420
  2234388
370
     9
100
AcDb2dPolyline
 66
     1
 10
0.0
 20
0.0
 30
0.0
  0
VERTEX
  5
D1
330
D0
100
AcDbEntity
  8
_U+30EC_U+30A4_U+30E4_U+30FC 1
 62
   179
420
  2234388
370
     9
100
AcDbVertex
100
AcDb2dVertex
 10
101.0759813102258
 20
-133.6865852443564
 30
0.0
  0
VERTEX
  5
D2
330
D0
100
AcDbEntity
  8
_U+30EC_U+30A4_U+30E4_U+30FC 1
 62
   179
420
  2234388
370
     9
100
AcDbVertex
100
AcDb2dVertex
 10
103.5564676358322
 20
-133.6865852443564
 30
0.0
  0
SEQEND
  5
D3
330
D0
100
AcDbEntity
  8
_U+30EC_U+30A4_U+30E4_U+30FC 1
 62
   179
420
  2234388
370
     9
  0
INSERT
  5
D5
330
1F
100
AcDbEntity
  8
_U+30EC_U+30A4_U+30E4_U+30FC 1
100
AcDbBlockReference
  2
block 6
 10
0.0
 20
0.0
 30
0.0
  0
ENDSEC
  0
SECTION
  2
OBJECTS
  0
DICTIONARY
  5
C
330
0
100
AcDbDictionary
281
     1
  3
ACAD_GROUP
350
D
  3
ACAD_LAYOUT
350
1A
  3
ACAD_MATERIAL
350
3B
  3
ACAD_MLEADERSTYLE
350
DB
  3
ACAD_MLINESTYLE
350
17
  3
ACAD_PLOTSETTINGS
350
19
  3
ACAD_PLOTSTYLENAME
350
E
  3
ACAD_TABLESTYLE
350
DA
  3
ACAD_VISUALSTYLE
350
2A
  0
SUN
  5
3F
330
29
100
AcDbSun
 90
        1
290
     0
 63
     7
421
 16777215
 40
1.0
291
     1
 91
  2455826
 92
 54000000
292
     0
 70
     2
 71
   256
280
     1
  0
DICTIONARY
  5
D
102
{ACAD_REACTORS
330
C
102
}
330
C
100
AcDbDictionary
281
     1
  0
DICTIONARY
  5
1A
102
{ACAD_REACTORS
330
C
102
}
330
C
100
AcDbDictionary
281
     1
  3
Layout1
350
1E
  3
Layout2
350
26
  3
Model
350
22
  0
DICTIONARY
  5
3B
102
{ACAD_REACTORS
330
C
102
}
330
C
100
AcDbDictionary
281
     1
  3
ByBlock
350
3D
  3
ByLayer
350
3C
  3
Global
350
3E
  0
DICTIONARY
  5
DB
102
{ACAD_REACTORS
330
C
102
}
330
C
100
AcDbDictionary
281
     1
  0
DICTIONARY
  5
17
102
{ACAD_REACTORS
330
C
102
}
330
C
100
AcDbDictionary
281
     1
  3
Standard
350
18
  0
DICTIONARY
  5
19
102
{ACAD_REACTORS
330
C
102
}
330
C
100
AcDbDictionary
281
     1
  0
ACDBDICTIONARYWDFLT
  5
E
102
{ACAD_REACTORS
330
C
102
}
330
C
100
AcDbDictionary
281
     1
  3
Normal
350
F
100
AcDbDictionaryWithDefault
340
F
  0
DICTIONARY
  5
DA
102
{ACAD_REACTORS
330
C
102
}
330
C
100
AcDbDictionary
281
     1
  0
DICTIONARY
  5
2A
102
{ACAD_REACTORS
330
C
102
}
330
C
100
AcDbDictionary
281
     1
  3
2dWireframe
350
2F
  3
3D Hidden
350
31
  3
3dWireframe
350
30
  3
Basic
350
32
  3
Brighten
350
36
  3
ColorChange
350
3A
  3
Conceptual
350
34
  3
Dim
350
35
  3
Facepattern
350
39
  3
Flat
350
2B
  3
FlatWithEdges
350
2C
  3
Gouraud
350
2D
  3
GouraudWithEdges
350
2E
  3
Linepattern
350
38
  3
Realistic
350
33
  3
Thicken
350
37
  0
LAYOUT
  5
1E
102
{ACAD_REACTORS
330
1A
102
}
330
1A
100
AcDbPlotSettings
  1

  2
none_device
  4

  6

 40
0.0
 41
0.0
 42
0.0
 43
0.0
 44
0.0
 45
0.0
 46
0.0
 47
0.0
 48
0.0
 49
0.0
140
0.0
141
0.0
142
1.0
143
1.0
 70
   688
 72
     0
 73
     0
 74
     5
  7

 75
    16
 76
     0
 77
     2
 78
   300
147
1.0
148
0.0
149
0.0
100
AcDbLayout
  1
Layout1
 70
     1
 71
     1
 10
0.0
 20
0.0
 11
12.0
 21
9.0
 12
0.0
 22
0.0
 32
0.0
 14
1.000000000000000E+20
 24
1.000000000000000E+20
 34
1.000000000000000E+20
 15
-1.000000000000000E+20
 25
-1.000000000000000E+20
 35
-1.000000000000000E+20
146
0.0
 13
0.0
 23
0.0
 33
0.0
 16
1.0
 26
0.0
 36
0.0
 17
0.0
 27
1.0
 37
0.0
 76
     0
330
1B
  0
LAYOUT
  5
26
102
{ACAD_REACTORS
330
1A
102
}
330
1A
100
AcDbPlotSettings
  1

  2
none_device
  4

  6

 40
0.0
 41
0.0
 42
0.0
 43
0.0
 44
0.0
 45
0.0
 46
0.0
 47
0.0
 48
0.0
 49
0.0
140
0.0
141
0.0
142
1.0
143
1.0
 70
   688
 72
     0
 73
     0
 74
     5
  7

 75
    16
 76
     0
 77
     2
 78
   300
147
1.0
148
0.0
149
0.0
100
AcDbLayout
  1
Layout2
 70
     1
 71
     2
 10
0.0
 20
0.0
 11
0.0
 21
0.0
 12
0.0
 22
0.0
 32
0.0
 14
0.0
 24
0.0
 34
0.0
 15
0.0
 25
0.0
 35
0.0
146
0.0
 13
0.0
 23
0.0
 33
0.0
 16
1.0
 26
0.0
 36
0.0
 17
0.0
 27
1.0
 37
0.0
 76
     0
330
23
  0
LAYOUT
  5
22
102
{ACAD_REACTORS
330
1A
102
}
330
1A
100
AcDbPlotSettings
  1

  2
none_device
  4

  6

 40
0.0
 41
0.0
 42
0.0
 43
0.0
 44
0.0
 45
0.0
 46
0.0
 47
0.0
 48
0.0
 49
0.0
140
0.0
141
0.0
142
1.0
143
1.0
 70
  1712
 72
     0
 73
     0
 74
     0
  7

 75
     0
 76
     0
 77
     2
 78
   300
147
1.0
148
0.0
149
0.0
100
AcDbLayout
  1
Model
 70
     1
 71
     0
 10
0.0
 20
0.0
 11
12.0
 21
9.0
 12
0.0
 22
0.0
 32
0.0
 14
1.000000000000000E+20
 24
1.000000000000000E+20
 34
1.000000000000000E+20
 15
-1.000000000000000E+20
 25
-1.000000000000000E+20
 35
-1.000000000000000E+20
146
0.0
 13
0.0
 23
0.0
 33
0.0
 16
1.0
 26
0.0
 36
0.0
 17
0.0
 27
1.0
 37
0.0
 76
     0
330
1F
331
29
  0
MATERIAL
  5
3D
102
{ACAD_REACTORS
330
3B
102
}
330
3B
100
AcDbMaterial
  1
ByBlock
 72
     1
 94
      127
  0
MATERIAL
  5
3C
102
{ACAD_REACTORS
330
3B
102
}
330
3B
100
AcDbMaterial
  1
ByLayer
 72
     1
 94
      127
  0
MATERIAL
  5
3E
102
{ACAD_REACTORS
330
3B
102
}
330
3B
100
AcDbMaterial
  1
Global
 72
     1
 94
      127
  0
MLINESTYLE
  5
18
102
{ACAD_REACTORS
330
17
102
}
330
17
100
AcDbMlineStyle
  2
Standard
 70
     0
  3

 62
   256
 51
90.0
 52
90.0
 71
     2
 49
0.5
 62
   256
  6
BYLAYER
 49
-0.5
 62
   256
  6
BYLAYER
  0
ACDBPLACEHOLDER
  5
F
102
{ACAD_REACTORS
330
E
102
}
330
E
  0
VISUALSTYLE
  5
2F
102
{ACAD_REACTORS
330
2A
102
}
330
2A
100
AcDbVisualStyle
  2
2dWireframe
 70
     4
177
     2
291
     0
 71
     0
176
     1
 72
     2
176
     1
 73
     0
176
     1
 90
        0
176
     1
 40
-0.6
176
     1
 41
-30.0
176
     1
 62
     5
 63
     7
421
 16777215
176
     1
 74
     1
176
     1
 91
        4
176
     1
 64
     7
176
     1
 65
   257
176
     1
 75
     1
176
     1
175
     1
176
     1
 42
1.0
176
     1
 92
        0
176
     1
 66
   257
176
     1
 43
1.0
176
     1
 76
     1
176
     1
 77
     6
176
     1
 78
     2
176
     1
 67
     7
176
     1
 79
     5
176
     1
170
     0
176
     1
171
     0
176
     1
290
     0
176
     1
 93
        1
176
     1
 44
0.0
176
     1
173
     0
176
     1
  0
VISUALSTYLE
  5
31
102
{ACAD_REACTORS
330
2A
102
}
330
2A
100
AcDbVisualStyle
  2
3D Hidden
 70
     6
177
     2
291
     0
 71
     1
176
     1
 72
     2
176
     1
 73
     2
176
     1
 90
        0
176
     1
 40
-0.6
176
     1
 41
-30.0
176
     1
 62
     5
 63
     7
421
 16777215
176
     1
 74
     2
176
     1
 91
        2
176
     1
 64
     7
176
     1
 65
   257
176
     1
 75
     2
176
     1
175
     1
176
     1
 42
40.0
176
     1
 92
        0
176
     1
 66
   257
176
     1
 43
1.0
176
     1
 76
     1
176
     1
 77
     6
176
     1
 78
     2
176
     1
 67
     7
176
     1
 79
     3
176
     1
170
     0
176
     1
171
     0
176
     1
290
     0
176
     1
 93
        1
176
     1
 44
0.0
176
     1
173
     0
176
     1
  0
VISUALSTYLE
  5
30
102
{ACAD_REACTORS
330
2A
102
}
330
2A
100
AcDbVisualStyle
  2
3dWireframe
 70
     5
177
     2
291
     0
 71
     0
176
     1
 72
     2
176
     1
 73
     0
176
     1
 90
        0
176
     1
 40
-0.6
176
     1
 41
-30.0
176
     1
 62
     5
 63
     7
421
 16777215
176
     1
 74
     1
176
     1
 91
        4
176
     1
 64
     7
176
     1
 65
   257
176
     1
 75
     1
176
     1
175
     1
176
     1
 42
1.0
176
     1
 92
        0
176
     1
 66
   257
176
     1
 43
1.0
176
     1
 76
     1
176
     1
 77
     6
176
     1
 78
     2
176
     1
 67
     7
176
     1
 79
     5
176
     1
170
     0
176
     1
171
     0
176
     1
290
     0
176
     1
 93
        1
176
     1
 44
0.0
176
     1
173
     0
176
     1
  0
VISUALSTYLE
  5
32
102
{ACAD_REACTORS
330
2A
102
}
330
2A
100
AcDbVisualStyle
  2
Basic
 70
     7
177
     2
291
     1
 71
     1
176
     1
 72
     0
176
     1
 73
     1
176
     1
 90
        0
176
     1
 40
-0.6
176
     1
 41
-30.0
176
     1
 62
     5
 63
     7
421
 16777215
176
     1
 74
     0
176
     1
 91
        4
176
     1
 64
     7
176
     1
 65
   257
176
     1
 75
     1
176
     1
175
     1
176
     1
 42
1.0
176
     1
 92
        8
176
     1
 66
     7
176
     1
 43
1.0
176
     1
 76
     1
176
     1
 77
     6
176
     1
 78
     2
176
     1
 67
     7
176
     1
 79
     5
176
     1
170
     0
176
     1
171
     0
176
     1
290
     0
176
     1
 93
        1
176
     1
 44
0.0
176
     1
173
     0
176
     1
  0
VISUALSTYLE
  5
36
102
{ACAD_REACTORS
330
2A
102
}
330
2A
100
AcDbVisualStyle
  2
Brighten
 70
    12
177
     2
291
     1
 71
     2
176
     1
 72
     2
176
     1
 73
     0
176
     1
 90
        0
176
     1
 40
-0.6
176
     1
 41
-30.0
176
     1
 62
     5
 63
     7
421
 16777215
176
     1
 74
     1
176
     1
 91
        4
176
     1
 64
     7
176
     1
 65
   257
176
     1
 75
     1
176
     1
175
     1
176
     1
 42
1.0
176
     1
 92
        8
176
     1
 66
     7
176
     1
 43
1.0
176
     1
 76
     1
176
     1
 77
     6
176
     1
 78
     2
176
     1
 67
     7
176
     1
 79
     5
176
     1
170
     0
176
     1
171
     0
176
     1
290
     0
176
     1
 93
        1
176
     1
 44
50.0
176
     1
173
     0
176
     1
  0
VISUALSTYLE
  5
3A
102
{ACAD_REACTORS
330
2A
102
}
330
2A
100
AcDbVisualStyle
  2
ColorChange
 70
    16
177
     2
291
     1
 71
     2
176
     1
 72
     2
176
     1
 73
     3
176
     1
 90
        0
176
     1
 40
-0.6
176
     1
 41
-30.0
176
     1
 62
     5
 63
     8
421
  8421504
176
     1
 74
     1
176
     1
 91
        4
176
     1
 64
     7
176
     1
 65
   257
176
     1
 75
     1
176
     1
175
     1
176
     1
 42
1.0
176
     1
 92
        8
176
     1
 66
     8
424
  8421504
176
     1
 43
1.0
176
     1
 76
     1
176
     1
 77
     6
176
     1
 78
     2
176
     1
 67
     7
176
     1
 79
     5
176
     1
170
     0
176
     1
171
     0
176
     1
290
     0
176
     1
 93
        1
176
     1
 44
0.0
176
     1
173
     0
176
     1
  0
VISUALSTYLE
  5
34
102
{ACAD_REACTORS
330
2A
102
}
330
2A
100
AcDbVisualStyle
  2
Conceptual
 70
     9
177
     2
291
     0
 71
     3
176
     1
 72
     2
176
     1
 73
     0
176
     1
 90
        0
176
     1
 40
-0.6
176
     1
 41
-30.0
176
     1
 62
     5
 63
     7
421
 16777215
176
     1
 74
     2
176
     1
 91
        2
176
     1
 64
     7
176
     1
 65
   257
176
     1
 75
     1
176
     1
175
     1
176
     1
 42
40.0
176
     1
 92
        8
176
     1
 66
     7
176
     1
 43
1.0
176
     1
 76
     1
176
     1
 77
     6
176
     1
 78
     2
176
     1
 67
     7
176
     1
 79
     3
176
     1
170
     0
176
     1
171
     0
176
     1
290
     0
176
     1
 93
        1
176
     1
 44
0.0
176
     1
173
     0
176
     1
  0
VISUALSTYLE
  5
35
102
{ACAD_REACTORS
330
2A
102
}
330
2A
100
AcDbVisualStyle
  2
Dim
 70
    11
177
     2
291
     1
 71
     2
176
     1
 72
     2
176
     1
 73
     0
176
     1
 90
        0
176
     1
 40
-0.6
176
     1
 41
-30.0
176
     1
 62
     5
 63
     7
421
 16777215
176
     1
 74
     1
176
     1
 91
        4
176
     1
 64
     7
176
     1
 65
   257
176
     1
 75
     1
176
     1
175
     1
176
     1
 42
1.0
176
     1
 92
        8
176
     1
 66
     7
176
     1
 43
1.0
176
     1
 76
     1
176
     1
 77
     6
176
     1
 78
     2
176
     1
 67
     7
176
     1
 79
     5
176
     1
170
     0
176
     1
171
     0
176
     1
290
     0
176
     1
 93
        1
176
     1
 44
-50.0
176
     1
173
     0
176
     1
  0
VISUALSTYLE
  5
39
102
{ACAD_REACTORS
330
2A
102
}
330
2A
100
AcDbVisualStyle
  2
Facepattern
 70
    15
177
     2
291
     1
 71
     2
176
     1
 72
     2
176
     1
 73
     0
176
     1
 90
        0
176
     1
 40
-0.6
176
     1
 41
-30.0
176
     1
 62
     5
 63
     7
421
 16777215
176
     1
 74
     1
176
     1
 91
        4
176
     1
 64
     7
176
     1
 65
   257
176
     1
 75
     1
176
     1
175
     1
176
     1
 42
1.0
176
     1
 92
        8
176
     1
 66
     7
176
     1
 43
1.0
176
     1
 76
     1
176
     1
 77
     6
176
     1
 78
     2
176
     1
 67
     7
176
     1
 79
     5
176
     1
170
     0
176
     1
171
     0
176
     1
290
     0
176
     1
 93
        1
176
     1
 44
0.0
176
     1
173
     0
176
     1
  0
VISUALSTYLE
  5
2B
102
{ACAD_REACTORS
330
2A
102
}
330
2A
100
AcDbVisualStyle
  2
Flat
 70
     0
177
     2
291
     1
 71
     2
176
     1
 72
     1
176
     1
 73
     1
176
     1
 90
        2
176
     1
 40
-0.6
176
     1
 41
30.0
176
     1
 62
     5
 63
     7
421
 16777215
176
     1
 74
     0
176
     1
 91
        4
176
     1
 64
     7
176
     1
 65
   257
176
     1
 75
     1
176
     1
175
     1
176
     1
 42
1.0
176
     1
 92
        8
176
     1
 66
     7
176
     1
 43
1.0
176
     1
 76
     1
176
     1
 77
     6
176
     1
 78
     2
176
     1
 67
     7
176
     1
 79
     5
176
     1
170
     0
176
     1
171
     0
176
     1
290
     0
176
     1
 93
       13
176
     1
 44
0.0
176
     1
173
     0
176
     1
  0
VISUALSTYLE
  5
2C
102
{ACAD_REACTORS
330
2A
102
}
330
2A
100
AcDbVisualStyle
  2
FlatWithEdges
 70
     1
177
     2
291
     1
 71
     2
176
     1
 72
     1
176
     1
 73
     1
176
     1
 90
        2
176
     1
 40
-0.6
176
     1
 41
30.0
176
     1
 62
     5
 63
     7
421
 16777215
176
     1
 74
     1
176
     1
 91
        4
176
     1
 64
     7
176
     1
 65
   257
176
     1
 75
     1
176
     1
175
     1
176
     1
 42
1.0
176
     1
 92
        0
176
     1
 66
   257
176
     1
 43
1.0
176
     1
 76
     1
176
     1
 77
     6
176
     1
 78
     2
176
     1
 67
     7
176
     1
 79
     5
176
     1
170
     0
176
     1
171
     0
176
     1
290
     0
176
     1
 93
       13
176
     1
 44
0.0
176
     1
173
     0
176
     1
  0
VISUALSTYLE
  5
2D
102
{ACAD_REACTORS
330
2A
102
}
330
2A
100
AcDbVisualStyle
  2
Gouraud
 70
     2
177
     2
291
     1
 71
     2
176
     1
 72
     2
176
     1
 73
     1
176
     1
 90
        2
176
     1
 40
-0.6
176
     1
 41
30.0
176
     1
 62
     5
 63
     7
421
 16777215
176
     1
 74
     0
176
     1
 91
        4
176
     1
 64
     7
176
     1
 65
   257
176
     1
 75
     1
176
     1
175
     1
176
     1
 42
1.0
176
     1
 92
        0
176
     1
 66
     7
176
     1
 43
1.0
176
     1
 76
     1
176
     1
 77
     6
176
     1
 78
     2
176
     1
 67
     7
176
     1
 79
     5
176
     1
170
     0
176
     1
171
     0
176
     1
290
     0
176
     1
 93
       13
176
     1
 44
0.0
176
     1
173
     0
176
     1
  0
VISUALSTYLE
  5
2E
102
{ACAD_REACTORS
330
2A
102
}
330
2A
100
AcDbVisualStyle
  2
GouraudWithEdges
 70
     3
177
     2
291
     1
 71
     2
176
     1
 72
     2
176
     1
 73
     1
176
     1
 90
        2
176
     1
 40
-0.6
176
     1
 41
30.0
176
     1
 62
     5
 63
     7
421
 16777215
176
     1
 74
     1
176
     1
 91
        4
176
     1
 64
     7
176
     1
 65
   257
176
     1
 75
     1
176
     1
175
     1
176
     1
 42
1.0
176
     1
 92
        0
176
     1
 66
   257
176
     1
 43
1.0
176
     1
 76
     1
176
     1
 77
     6
176
     1
 78
     2
176
     1
 67
     7
176
     1
 79
     5
176
     1
170
     0
176
     1
171
     0
176
     1
290
     0
176
     1
 93
       13
176
     1
 44
0.0
176
     1
173
     0
176
     1
  0
VISUALSTYLE
  5
38
102
{ACAD_REACTORS
330
2A
102
}
330
2A
100
AcDbVisualStyle
  2
Linepattern
 70
    14
177
     2
291
     1
 71
     2
176
     1
 72
     2
176
     1
 73
     0
176
     1
 90
        0
176
     1
 40
-0.6
176
     1
 41
-30.0
176
     1
 62
     5
 63
     7
421
 16777215
176
     1
 74
     1
176
     1
 91
        4
176
     1
 64
     7
176
     1
 65
   257
176
     1
 75
     7
176
     1
175
     7
176
     1
 42
1.0
176
     1
 92
        8
176
     1
 66
     7
176
     1
 43
1.0
176
     1
 76
     1
176
     1
 77
     6
176
     1
 78
     2
176
     1
 67
     7
176
     1
 79
     5
176
     1
170
     0
176
     1
171
     0
176
     1
290
     0
176
     1
 93
        1
176
     1
 44
0.0
176
     1
173
     0
176
     1
  0
VISUALSTYLE
  5
33
102
{ACAD_REACTORS
330
2A
102
}
330
2A
100
AcDbVisualStyle
  2
Realistic
 70
     8
177
     2
291
     0
 71
     2
176
     1
 72
     2
176
     1
 73
     0
176
     1
 90
        0
176
     1
 40
-0.6
176
     1
 41
-30.0
176
     1
 62
     5
 63
     7
421
 16777215
176
     1
 74
     1
176
     1
 91
        0
176
     1
 64
     7
176
     1
 65
   257
176
     1
 75
     1
176
     1
175
     1
176
     1
 42
1.0
176
     1
 92
        8
176
     1
 66
     8
424
  7895160
176
     1
 43
1.0
176
     1
 76
     1
176
     1
 77
     6
176
     1
 78
     2
176
     1
 67
     7
176
     1
 79
     5
176
     1
170
     0
176
     1
171
     0
176
     1
290
     0
176
     1
 93
       13
176
     1
 44
0.0
176
     1
173
     0
176
     1
  0
VISUALSTYLE
  5
37
102
{ACAD_REACTORS
330
2A
102
}
330
2A
100
AcDbVisualStyle
  2
Thicken
 70
    13
177
     2
291
     1
 71
     2
176
     1
 72
     2
176
     1
 73
     0
176
     1
 90
        0
176
     1
 40
-0.6
176
     1
 41
-30.0
176
     1
 62
     5
 63
     7
421
 16777215
176
     1
 74
     1
176
     1
 91
        4
176
     1
 64
     7
176
     1
 65
   257
176
     1
 75
     1
176
     1
175
     1
176
     1
 42
1.0
176
     1
 92
       12
176
     1
 66
     7
176
     1
 43
1.0
176
     1
 76
     1
176
     1
 77
     6
176
     1
 78
     2
176
     1
 67
     7
176
     1
 79
     5
176
     1
170
     0
176
     1
171
     0
176
     1
290
     0
176
     1
 93
        1
176
     1
 44
0.0
176
     1
173
     0
176
     1
  0
ENDSEC
  0
EOF
