  0
SECTION
  2
HEADER
  9
$ACADVER
  1
AC1024
  9
$ACADMAINTVER
 70
     6
  9
$DWGCODEPAGE
  3
UNDEFINED
  9
$INSBASE
 10
0.0
 20
0.0
 30
0.0
  9
$EXTMIN
 10
1.000000000000000E+20
 20
1.000000000000000E+20
 30
1.000000000000000E+20
  9
$EXTMAX
 10
-1.000000000000000E+20
 20
-1.000000000000000E+20
 30
-1.000000000000000E+20
  9
$LIMMIN
 10
0.0
 20
0.0
  9
$LIMMAX
 10
12.0
 20
9.0
  9
$ORTHOMODE
 70
     0
  9
$REGENMODE
 70
     1
  9
$FILLMODE
 70
     1
  9
$QTEXTMODE
 70
     0
  9
$MIRRTEXT
 70
     1
  9
$LTSCALE
 40
1.0
  9
$ATTMODE
 70
     1
  9
$TEXTSIZE
 40
0.2
  9
$TRACEWID
 40
0.05
  9
$TEXTSTYLE
  7
Standard
  9
$CLAYER
  8
0
  9
$CELTYPE
  6
ByLayer
  9
$CECOLOR
 62
   256
  9
$CELTSCALE
 40
1.0
  9
$DISPSILH
 70
     0
  9
$DIMSCALE
 40
1.0
  9
$DIMASZ
 40
0.18
  9
$DIMEXO
 40
0.0625
  9
$DIMDLI
 40
0.38
  9
$DIMRND
 40
0.0
  9
$DIMDLE
 40
0.0
  9
$DIMEXE
 40
0.18
  9
$DIMTP
 40
0.0
  9
$DIMTM
 40
0.0
  9
$DIMTXT
 40
0.18
  9
$DIMCEN
 40
0.09
  9
$DIMTSZ
 40
0.0
  9
$DIMTOL
 70
     0
  9
$DIMLIM
 70
     0
  9
$DIMTIH
 70
     1
  9
$DIMTOH
 70
     1
  9
$DIMSE1
 70
     0
  9
$DIMSE2
 70
     0
  9
$DIMTAD
 70
     0
  9
$DIMZIN
 70
     0
  9
$DIMBLK
  1

  9
$DIMASO
 70
     1
  9
$DIMSHO
 70
     1
  9
$DIMPOST
  1

  9
$DIMAPOST
  1

  9
$DIMALT
 70
     0
  9
$DIMALTD
 70
     2
  9
$DIMALTF
 40
25.4
  9
$DIMLFAC
 40
1.0
  9
$DIMTOFL
 70
     0
  9
$DIMTVP
 40
0.0
  9
$DIMTIX
 70
     0
  9
$DIMSOXD
 70
     0
  9
$DIMSAH
 70
     0
  9
$DIMBLK1
  1

  9
$DIMBLK2
  1

  9
$DIMSTYLE
  2
Standard
  9
$DIMCLRD
 70
     0
  9
$DIMCLRE
 70
     0
  9
$DIMCLRT
 70
     0
  9
$DIMTFAC
 40
1.0
  9
$DIMGAP
 40
0.09
  9
$DIMJUST
 70
     0
  9
$DIMSD1
 70
     0
  9
$DIMSD2
 70
     0
  9
$DIMTOLJ
 70
     1
  9
$DIMTZIN
 70
     0
  9
$DIMALTZ
 70
     0
  9
$DIMALTTZ
 70
     0
  9
$DIMUPT
 70
     0
  9
$DIMDEC
 70
     4
  9
$DIMTDEC
 70
     4
  9
$DIMALTU
 70
     2
  9
$DIMALTTD
 70
     2
  9
$DIMTXSTY
  7
Standard
  9
$DIMAUNIT
 70
     0
  9
$DIMADEC
 70
     0
  9
$DIMALTRND
 40
0.0
  9
$DIMAZIN
 70
     0
  9
$DIMDSEP
 70
    46
  9
$DIMATFIT
 70
     3
  9
$DIMFRAC
 70
     0
  9
$DIMLDRBLK
  1

  9
$DIMLUNIT
 70
     2
  9
$DIMLWD
 70
    -2
  9
$DIMLWE
 70
    -2
  9
$DIMTMOVE
 70
     0
  9
$DIMFXL
 40
1.0
  9
$DIMFXLON
 70
     0
  9
$DIMJOGANG
 40
0.7853981633974483
  9
$DIMTFILL
 70
     0
  9
$DIMTFILLCLR
 70
     0
  9
$DIMARCSYM
 70
     0
  9
$DIMLTYPE
  6

  9
$DIMLTEX1
  6

  9
$DIMLTEX2
  6

  9
$DIMTXTDIRECTION
 70
     0
  9
$LUNITS
 70
     2
  9
$LUPREC
 70
     4
  9
$SKETCHINC
 40
0.1
  9
$FILLETRAD
 40
0.5
  9
$AUNITS
 70
     0
  9
$AUPREC
 70
     0
  9
$MENU
  1
.
  9
$ELEVATION
 40
0.0
  9
$PELEVATION
 40
0.0
  9
$THICKNESS
 40
0.0
  9
$LIMCHECK
 70
     0
  9
$CHAMFERA
 40
0.5
  9
$CHAMFERB
 40
0.5
  9
$CHAMFERC
 40
1.0
  9
$CHAMFERD
 40
0.0
  9
$SKPOLY
 70
     0
  9
$TDCREATE
 40
2458263.582071759
  9
$TDUCREATE
 40
2458263.207071759
  9
$TDUPDATE
 40
2458263.582071759
  9
$TDUUPDATE
 40
2458263.207071759
  9
$TDINDWG
 40
0.0000000116
  9
$TDUSRTIMER
 40
0.0000000116
  9
$USRTIMER
 70
     1
  9
$ANGBASE
 50
0.0
  9
$ANGDIR
 70
     0
  9
$PDMODE
 70
     0
  9
$PDSIZE
 40
0.0
  9
$PLINEWID
 40
0.0
  9
$SPLFRAME
 70
     0
  9
$SPLINETYPE
 70
     6
  9
$SPLINESEGS
 70
     8
  9
$HANDSEED
  5
DC
  9
$SURFTAB1
 70
     6
  9
$SURFTAB2
 70
     6
  9
$SURFTYPE
 70
     6
  9
$SURFU
 70
     6
  9
$SURFV
 70
     6
  9
$UCSBASE
  2

  9
$UCSNAME
  2

  9
$UCSORG
 10
0.0
 20
0.0
 30
0.0
  9
$UCSXDIR
 10
1.0
 20
0.0
 30
0.0
  9
$UCSYDIR
 10
0.0
 20
1.0
 30
0.0
  9
$UCSORTHOREF
  2

  9
$UCSORTHOVIEW
 70
     0
  9
$UCSORGTOP
 10
0.0
 20
0.0
 30
0.0
  9
$UCSORGBOTTOM
 10
0.0
 20
0.0
 30
0.0
  9
$UCSORGLEFT
 10
0.0
 20
0.0
 30
0.0
  9
$UCSORGRIGHT
 10
0.0
 20
0.0
 30
0.0
  9
$UCSORGFRONT
 10
0.0
 20
0.0
 30
0.0
  9
$UCSORGBACK
 10
0.0
 20
0.0
 30
0.0
  9
$PUCSBASE
  2

  9
$PUCSNAME
  2

  9
$PUCSORG
 10
0.0
 20
0.0
 30
0.0
  9
$PUCSXDIR
 10
1.0
 20
0.0
 30
0.0
  9
$PUCSYDIR
 10
0.0
 20
1.0
 30
0.0
  9
$PUCSORTHOREF
  2

  9
$PUCSORTHOVIEW
 70
     0
  9
$PUCSORGTOP
 10
0.0
 20
0.0
 30
0.0
  9
$PUCSORGBOTTOM
 10
0.0
 20
0.0
 30
0.0
  9
$PUCSORGLEFT
 10
0.0
 20
0.0
 30
0.0
  9
$PUCSORGRIGHT
 10
0.0
 20
0.0
 30
0.0
  9
$PUCSORGFRONT
 10
0.0
 20
0.0
 30
0.0
  9
$PUCSORGBACK
 10
0.0
 20
0.0
 30
0.0
  9
$USERI1
 70
     0
  9
$USERI2
 70
     0
  9
$USERI3
 70
     0
  9
$USERI4
 70
     0
  9
$USERI5
 70
     0
  9
$USERR1
 40
0.0
  9
$USERR2
 40
0.0
  9
$USERR3
 40
0.0
  9
$USERR4
 40
0.0
  9
$USERR5
 40
0.0
  9
$WORLDVIEW
 70
     1
  9
$SHADEDGE
 70
     3
  9
$SHADEDIF
 70
    70
  9
$TILEMODE
 70
     1
  9
$MAXACTVP
 70
    64
  9
$PINSBASE
 10
0.0
 20
0.0
 30
0.0
  9
$PLIMCHECK
 70
     0
  9
$PEXTMIN
 10
1.000000000000000E+20
 20
1.000000000000000E+20
 30
1.000000000000000E+20
  9
$PEXTMAX
 10
-1.000000000000000E+20
 20
-1.000000000000000E+20
 30
-1.000000000000000E+20
  9
$PLIMMIN
 10
0.0
 20
0.0
  9
$PLIMMAX
 10
12.0
 20
9.0
  9
$UNITMODE
 70
     0
  9
$VISRETAIN
 70
     1
  9
$PLINEGEN
 70
     0
  9
$PSLTSCALE
 70
     1
  9
$TREEDEPTH
 70
  3020
  9
$CMLSTYLE
  2
Standard
  9
$CMLJUST
 70
     0
  9
$CMLSCALE
 40
1.0
  9
$PROXYGRAPHICS
 70
     1
  9
$MEASUREMENT
 70
     0
  9
$CELWEIGHT
370
    -1
  9
$ENDCAPS
280
     0
  9
$JOINSTYLE
280
     0
  9
$LWDISPLAY
290
     1
  9
$INSUNITS
 70
     1
  9
$HYPERLINKBASE
  1

  9
$STYLESHEET
  1

  9
$XEDIT
290
     1
  9
$CEPSNTYPE
380
     0
  9
$PSTYLEMODE
290
     1
  9
$FINGERPRINTGUID
  2
{25D13A4E-B2A3-CF95-E768-8320833EB42E}
  9
$VERSIONGUID
  2
{FAEB1C32-E019-11D5-929B-00C0DF256EC4}
  9
$EXTNAMES
290
     1
  9
$PSVPSCALE
 40
0.0
  9
$OLESTARTUP
290
     0
  9
$SORTENTS
280
   127
  9
$INDEXCTL
280
     0
  9
$HIDETEXT
280
     1
  9
$XCLIPFRAME
280
     2
  9
$HALOGAP
280
     0
  9
$OBSCOLOR
 70
   257
  9
$OBSLTYPE
280
     0
  9
$INTERSECTIONDISPLAY
280
     0
  9
$INTERSECTIONCOLOR
 70
   257
  9
$DIMASSOC
280
     2
  9
$PROJECTNAME
  1

  9
$CAMERADISPLAY
290
     0
  9
$LENSLENGTH
 40
50.0
  9
$CAMERAHEIGHT
 40
0.0
  9
$STEPSPERSEC
 40
2.0
  9
$STEPSIZE
 40
6.0
  9
$3DDWFPREC
 40
2.0
  9
$PSOLWIDTH
 40
0.25
  9
$PSOLHEIGHT
 40
4.0
  9
$LOFTANG1
 40
1.570796326794897
  9
$LOFTANG2
 40
1.570796326794897
  9
$LOFTMAG1
 40
0.0
  9
$LOFTMAG2
 40
0.0
  9
$LOFTPARAM
 70
     7
  9
$LOFTNORMALS
280
     1
  9
$LATITUDE
 40
37.795
  9
$LONGITUDE
 40
-122.394
  9
$NORTHDIRECTION
 40
0.0
  9
$TIMEZONE
 70
 -8000
  9
$LIGHTGLYPHDISPLAY
280
     1
  9
$TILEMODELIGHTSYNCH
280
     1
  9
$CMATERIAL
347
3C
  9
$SOLIDHIST
280
     1
  9
$SHOWHIST
280
     1
  9
$DWFFRAME
280
     2
  9
$DGNFRAME
280
     2
  9
$REALWORLDSCALE
290
     1
  9
$INTERFERECOLOR
 62
   256
  9
$CSHADOW
280
     0
  9
$SHADOWPLANELOCATION
 40
0.0
  0
ENDSEC
  0
SECTION
  2
CLASSES
  0
CLASS
  1
ACDBDICTIONARYWDFLT
  2
AcDbDictionaryWithDefault
  3
ObjectDBX Classes
 90
        0
 91
        4
280
     0
281
     0
  0
CLASS
  1
VISUALSTYLE
  2
AcDbVisualStyle
  3
ObjectDBX Classes
 90
     4095
 91
        4
280
     0
281
     0
  0
CLASS
  1
MATERIAL
  2
AcDbMaterial
  3
ObjectDBX Classes
 90
     1153
 91
        4
280
     0
281
     0
  0
CLASS
  1
SUN
  2
AcDbSun
  3
SCENEOE
 90
     1024
 91
        4
280
     0
281
     0
  0
ENDSEC
  0
SECTION
  2
TABLES
  0
TABLE
  2
VPORT
  5
8
330
0
100
AcDbSymbolTable
 70
     1
  0
VPORT
  5
29
330
8
100
AcDbSymbolTableRecord
100
AcDbViewportTableRecord
  2
*Active
 70
     0
 10
0.0
 20
0.0
 11
1.0
 21
1.0
 12
0.0
 22
0.0
 13
0.0
 23
0.0
 14
0.5
 24
0.5
 15
0.5
 25
0.5
 16
0.0
 26
0.0
 36
1.0
 17
105.0007777515277
 27
-148.5000416295416
 37
0.0
 40
297.0000832590831
 41
0.7070757462376333
 42
50.0
 43
0.0
 44
0.0
 50
0.0
 51
0.0
 71
     0
 72
   100
 73
     1
 74
     3
 75
     0
 76
     0
 77
     0
 78
     0
281
     0
 65
     1
110
0.0
120
0.0
130
0.0
111
1.0
121
0.0
131
0.0
112
0.0
122
1.0
132
0.0
 79
     0
146
0.0
 60
     3
 61
     5
292
     1
282
     1
141
0.0
142
0.0
 63
   250
361
3F
  0
ENDTAB
  0
TABLE
  2
LTYPE
  5
5
330
0
100
AcDbSymbolTable
 70
     2
  0
LTYPE
  5
14
330
5
100
AcDbSymbolTableRecord
100
AcDbLinetypeTableRecord
  2
ByBlock
 70
     0
  3

 72
    65
 73
     0
 40
0.0
  0
LTYPE
  5
15
330
5
100
AcDbSymbolTableRecord
100
AcDbLinetypeTableRecord
  2
ByLayer
 70
     0
  3

 72
    65
 73
     0
 40
0.0
  0
LTYPE
  5
16
330
5
100
AcDbSymbolTableRecord
100
AcDbLinetypeTableRecord
  2
Continuous
 70
     0
  3
Solid line
 72
    65
 73
     0
 40
0.0
  0
LTYPE
  5
BD
330
5
100
AcDbSymbolTableRecord
100
AcDbLinetypeTableRecord
  2
AI-Linetype-1
 70
     0
  3
Adobe Illustrator Linetype No. 1
 72
    65
 73
     2
 40
1.411111110758333
 49
0.7055555553791667
 74
     0
 49
-0.7055555553791667
 74
     0
  0
ENDTAB
  0
TABLE
  2
LAYER
  5
2
330
0
100
AcDbSymbolTable
 70
     2
  0
LAYER
  5
10
330
2
100
AcDbSymbolTableRecord
100
AcDbLayerTableRecord
  2
0
 70
     0
 62
     7
  6
Continuous
370
    -3
390
F
347
3E
  0
LAYER
  5
40
330
2
100
AcDbSymbolTableRecord
100
AcDbLayerTableRecord
  2
_U+30EC_U+30A4_U+30E4_U+30FC 1
 70
     0
 62
     7
  6
Continuous
370
    -3
390
F
347
3E
  0
ENDTAB
  0
TABLE
  2
STYLE
  5
3
330
0
100
AcDbSymbolTable
 70
     1
  0
STYLE
  5
11
330
3
100
AcDbSymbolTableRecord
100
AcDbTextStyleTableRecord
  2
Standard
 70
     0
 40
0.0
 41
1.0
 50
0.0
 71
     0
 42
0.2
  3
txt
  4

  0
ENDTAB
  0
TABLE
  2
VIEW
  5
6
330
0
100
AcDbSymbolTable
 70
     0
  0
ENDTAB
  0
TABLE
  2
UCS
  5
7
330
0
100
AcDbSymbolTable
 70
     0
  0
ENDTAB
  0
TABLE
  2
APPID
  5
9
330
0
100
AcDbSymbolTable
 70
     1
  0
APPID
  5
12
330
9
100
AcDbSymbolTableRecord
100
AcDbRegAppTableRecord
  2
ACAD
 70
     0
  0
ENDTAB
  0
TABLE
  2
DIMSTYLE
  5
A
330
0
100
AcDbSymbolTable
 70
     1
100
AcDbDimStyleTable
  0
DIMSTYLE
105
27
330
A
100
AcDbSymbolTableRecord
100
AcDbDimStyleTableRecord
  2
Standard
 70
     0
178
     0
340
11
  0
ENDTAB
  0
TABLE
  2
BLOCK_RECORD
  5
1
330
0
100
AcDbSymbolTable
 70
     6
  0
BLOCK_RECORD
  5
1F
330
1
100
AcDbSymbolTableRecord
100
AcDbBlockTableRecord
  2
*Model_Space
340
22
 70
     0
280
     1
281
     0
  0
BLOCK_RECORD
  5
1B
330
1
100
AcDbSymbolTableRecord
100
AcDbBlockTableRecord
  2
*Paper_Space
340
1E
 70
     0
280
     1
281
     0
  0
BLOCK_RECORD
  5
23
330
1
100
AcDbSymbolTableRecord
100
AcDbBlockTableRecord
  2
*Paper_Space0
340
26
 70
     0
280
     1
281
     0
  0
BLOCK_RECORD
  5
7D
330
1
100
AcDbSymbolTableRecord
100
AcDbBlockTableRecord
  2
block 2
340
0
102
{BLKREFS
331
7E
102
}
 70
     0
280
     1
281
     0
  0
BLOCK_RECORD
  5
91
330
1
100
AcDbSymbolTableRecord
100
AcDbBlockTableRecord
  2
block 3
340
0
102
{BLKREFS
331
92
102
}
 70
     0
280
     1
281
     0
  0
BLOCK_RECORD
  5
A7
330
1
100
AcDbSymbolTableRecord
100
AcDbBlockTableRecord
  2
block 4
340
0
102
{BLKREFS
331
A8
102
}
 70
     0
280
     1
281
     0
  0
BLOCK_RECORD
  5
C1
330
1
100
AcDbSymbolTableRecord
100
AcDbBlockTableRecord
  2
block 5
340
0
102
{BLKREFS
331
C2
102
}
 70
     0
280
     1
281
     0
  0
BLOCK_RECORD
  5
D4
330
1
100
AcDbSymbolTableRecord
100
AcDbBlockTableRecord
  2
block 6
340
0
102
{BLKREFS
331
D5
102
}
 70
     0
280
     1
281
     0
  0
ENDTAB
  0
ENDSEC
  0
SECTION
  2
BLOCKS
  0
BLOCK
  5
20
330
1F
100
AcDbEntity
  8
0
100
AcDbBlockBegin
  2
*Model_Space
 70
     0
 10
0.0
 20
0.0
 30
0.0
  3
*Model_Space
  1

  0
ENDBLK
  5
21
330
1F
100
AcDbEntity
  8
0
100
AcDbBlockEnd
  0
BLOCK
  5
1C
330
1B
100
AcDbEntity
 67
     1
  8
0
100
AcDbBlockBegin
  2
*Paper_Space
 70
     0
 10
0.0
 20
0.0
 30
0.0
  3
*Paper_Space
  1

  0
ENDBLK
  5
1D
330
1B
100
AcDbEntity
 67
     1
  8
0
100
AcDbBlockEnd
  0
BLOCK
  5
24
330
23
100
AcDbEntity
  8
0
100
AcDbBlockBegin
  2
*Paper_Space0
 70
     0
 10
0.0
 20
0.0
 30
0.0
  3
*Paper_Space0
  1

  0
ENDBLK
  5
25
330
23
100
AcDbEntity
  8
0
100
AcDbBlockEnd
  0
BLOCK
  5
7F
330
7D
100
AcDbEntity
  8
0
100
AcDbBlockBegin
  2
block 2
 70
     0
 10
0.0
 20
0.0
 30
0.0
  3
block 2
  1

  0
SPLINE
  5
81
330
7D
100
AcDbEntity
  8
_U+30EC_U+30A4_U+30E4_U+30FC 1
370
     0
100
AcDbSpline
210
0.0
220
0.0
230
1.0
 70
    11
 71
     3
 72
    29
 73
    25
 74
     0
 42
0.0000000001
 43
0.0000000001
 12
1.0
 22
0.0
 32
0.0
 13
1.0
 23
0.0
 33
0.0
 40
0.0
 40
0.0
 40
0.0
 40
0.0
 40
1.0
 40
1.0
 40
1.0
 40
2.0
 40
2.0
 40
2.0
 40
3.0
 40
3.0
 40
3.0
 40
4.0
 40
4.0
 40
4.0
 40
5.0
 40
5.0
 40
5.0
 40
6.0
 40
6.0
 40
6.0
 40
7.0
 40
7.0
 40
7.0
 40
8.0
 40
8.0
 40
8.0
 40
8.0
 10
98.94865448915174
 20
-141.0330796630924
 30
0.0
 10
98.66374509252157
 20
-141.0330796630924
 30
0.0
 10
98.39244382305814
 20
-140.895620353231
 30
0.0
 10
98.39244382305814
 20
-140.5466321805752
 30
0.0
 10
98.39244382305814
 20
-140.2906615860211
 30
0.0
 10
98.54385576963487
 20
-140.1955769506282
 30
0.0
 10
98.65702715632533
 20
-140.1342542509908
 30
0.0
 10
98.5235297062719
 20
-140.0749986086444
 30
0.0
 10
98.44222545282
 20
-139.9606214385342
 30
0.0
 10
98.44222545282
 20
-139.799735479373
 30
0.0
 10
98.44222545282
 20
-139.5248168596501
 30
0.0
 10
98.65478784425991
 20
-139.3894246070797
 30
0.0
 10
98.94865448915174
 20
-139.3894246070797
 30
0.0
 10
99.2514783823052
 20
-139.3894246070797
 30
0.0
 10
99.45508352548346
 20
-139.5334295983632
 30
0.0
 10
99.45508352548346
 20
-139.799735479373
 30
0.0
 10
99.45508352548346
 20
-139.9606214385342
 30
0.0
 10
99.37136770519189
 20
-140.0749986086444
 30
0.0
 10
99.23804250991272
 20
-140.1342542509908
 30
0.0
 10
99.33295489053135
 20
-140.1848971546239
 30
0.0
 10
99.50245358840564
 20
-140.2799817900168
 30
0.0
 10
99.50245358840564
 20
-140.5424980659928
 30
0.0
 10
99.50245358840564
 20
-140.9169799452395
 30
0.0
 10
99.20410831938301
 20
-141.0330796630924
 30
0.0
 10
98.94865448915174
 20
-141.0330796630924
 30
0.0
  0
SPLINE
  5
82
330
7D
100
AcDbEntity
  8
_U+30EC_U+30A4_U+30E4_U+30FC 1
370
     0
100
AcDbSpline
210
0.0
220
0.0
230
1.0
 70
    11
 71
     3
 72
    17
 73
    13
 74
     0
 42
0.0000000001
 43
0.0000000001
 12
1.0
 22
0.0
 32
0.0
 13
1.0
 23
0.0
 33
0.0
 40
0.0
 40
0.0
 40
0.0
 40
0.0
 40
1.0
 40
1.0
 40
1.0
 40
2.0
 40
2.0
 40
2.0
 40
3.0
 40
3.0
 40
3.0
 40
4.0
 40
4.0
 40
4.0
 40
4.0
 10
98.94865448915174
 20
-140.2420857396791
 30
0.0
 10
98.79483097573532
 20
-140.2420857396791
 30
0.0
 10
98.63205021405727
 20
-140.3289021459074
 30
0.0
 10
98.63205021405727
 20
-140.5318182699886
 30
0.0
 10
98.63205021405727
 20
-140.7371459609095
 30
0.0
 10
98.76778697617611
 20
-140.8384317681758
 30
0.0
 10
98.94865448915174
 20
-140.8384317681758
 30
0.0
 10
99.1476087534249
 20
-140.8384317681758
 30
0.0
 10
99.26508650947193
 20
-140.7157863689009
 30
0.0
 10
99.26508650947193
 20
-140.538019441862
 30
0.0
 10
99.26508650947193
 20
-140.3161552926119
 30
0.0
 10
99.09110918746681
 20
-140.2420857396791
 30
0.0
 10
98.94865448915174
 20
-140.2420857396791
 30
0.0
  0
SPLINE
  5
83
330
7D
100
AcDbEntity
  8
_U+30EC_U+30A4_U+30E4_U+30FC 1
370
     0
100
AcDbSpline
210
0.0
220
0.0
230
1.0
 70
    11
 71
     3
 72
    17
 73
    13
 74
     0
 42
0.0000000001
 43
0.0000000001
 12
1.0
 22
0.0
 32
0.0
 13
1.0
 23
0.0
 33
0.0
 40
0.0
 40
0.0
 40
0.0
 40
0.0
 40
1.0
 40
1.0
 40
1.0
 40
2.0
 40
2.0
 40
2.0
 40
3.0
 40
3.0
 40
3.0
 40
4.0
 40
4.0
 40
4.0
 40
4.0
 10
98.94865448915174
 20
-139.5820054447052
 30
0.0
 10
98.77226560030694
 20
-139.5820054447052
 30
0.0
 10
98.68183184381913
 20
-139.6770900800981
 30
0.0
 10
98.68183184381913
 20
-139.8124823326684
 30
0.0
 10
98.68183184381913
 20
-139.9351277319433
 30
0.0
 10
98.7586574731402
 20
-140.0536390166359
 30
0.0
 10
98.94865448915174
 20
-140.0536390166359
 30
0.0
 10
99.138479250389
 20
-140.0536390166359
 30
0.0
 10
99.21530487971006
 20
-139.9351277319433
 30
0.0
 10
99.21530487971006
 20
-139.8124823326684
 30
0.0
 10
99.21530487971006
 20
-139.6770900800981
 30
0.0
 10
99.12263181115685
 20
-139.5820054447052
 30
0.0
 10
98.94865448915174
 20
-139.5820054447052
 30
0.0
  0
HATCH
  5
84
330
7D
100
AcDbEntity
  8
_U+30EC_U+30A4_U+30E4_U+30FC 1
 62
   179
420
  2234388
100
AcDbHatch
 10
0.0
 20
0.0
 30
0.0
210
0.0
220
0.0
230
1.0
  2
SOLID
 70
     1
 71
     0
 91
        3
 92
        1
 93
        1
 72
     4
 94
        3
 73
     0
 74
     1
 95
       29
 96
       25
 40
0.0
 40
0.0
 40
0.0
 40
0.0
 40
1.0
 40
1.0
 40
1.0
 40
2.0
 40
2.0
 40
2.0
 40
3.0
 40
3.0
 40
3.0
 40
4.0
 40
4.0
 40
4.0
 40
5.0
 40
5.0
 40
5.0
 40
6.0
 40
6.0
 40
6.0
 40
7.0
 40
7.0
 40
7.0
 40
8.0
 40
8.0
 40
8.0
 40
8.0
 10
98.94865448915174
 20
-141.0330796630924
 10
98.66374509252157
 20
-141.0330796630924
 10
98.39244382305814
 20
-140.895620353231
 10
98.39244382305814
 20
-140.5466321805752
 10
98.39244382305814
 20
-140.2906615860211
 10
98.54385576963487
 20
-140.1955769506282
 10
98.65702715632533
 20
-140.1342542509908
 10
98.5235297062719
 20
-140.0749986086444
 10
98.44222545282
 20
-139.9606214385342
 10
98.44222545282
 20
-139.799735479373
 10
98.44222545282
 20
-139.5248168596501
 10
98.65478784425991
 20
-139.3894246070797
 10
98.94865448915174
 20
-139.3894246070797
 10
99.2514783823052
 20
-139.3894246070797
 10
99.45508352548346
 20
-139.5334295983632
 10
99.45508352548346
 20
-139.799735479373
 10
99.45508352548346
 20
-139.9606214385342
 10
99.37136770519189
 20
-140.0749986086444
 10
99.23804250991272
 20
-140.1342542509908
 10
99.33295489053135
 20
-140.1848971546239
 10
99.50245358840564
 20
-140.2799817900168
 10
99.50245358840564
 20
-140.5424980659928
 10
99.50245358840564
 20
-140.9169799452395
 10
99.20410831938301
 20
-141.0330796630924
 10
98.94865448915174
 20
-141.0330796630924
 97
        0
 97
        0
 92
        1
 93
        1
 72
     4
 94
        3
 73
     0
 74
     1
 95
       17
 96
       13
 40
0.0
 40
0.0
 40
0.0
 40
0.0
 40
1.0
 40
1.0
 40
1.0
 40
2.0
 40
2.0
 40
2.0
 40
3.0
 40
3.0
 40
3.0
 40
4.0
 40
4.0
 40
4.0
 40
4.0
 10
98.94865448915174
 20
-140.2420857396791
 10
98.79483097573532
 20
-140.2420857396791
 10
98.63205021405727
 20
-140.3289021459074
 10
98.63205021405727
 20
-140.5318182699886
 10
98.63205021405727
 20
-140.7371459609095
 10
98.76778697617611
 20
-140.8384317681758
 10
98.94865448915174
 20
-140.8384317681758
 10
99.1476087534249
 20
-140.8384317681758
 10
99.26508650947193
 20
-140.7157863689009
 10
99.26508650947193
 20
-140.538019441862
 10
99.26508650947193
 20
-140.3161552926119
 10
99.09110918746681
 20
-140.2420857396791
 10
98.94865448915174
 20
-140.2420857396791
 97
        0
 97
        0
 92
        1
 93
        1
 72
     4
 94
        3
 73
     0
 74
     1
 95
       17
 96
       13
 40
0.0
 40
0.0
 40
0.0
 40
0.0
 40
1.0
 40
1.0
 40
1.0
 40
2.0
 40
2.0
 40
2.0
 40
3.0
 40
3.0
 40
3.0
 40
4.0
 40
4.0
 40
4.0
 40
4.0
 10
98.94865448915174
 20
-139.5820054447052
 10
98.77226560030694
 20
-139.5820054447052
 10
98.68183184381913
 20
-139.6770900800981
 10
98.68183184381913
 20
-139.8124823326684
 10
98.68183184381913
 20
-139.9351277319433
 10
98.7586574731402
 20
-140.0536390166359
 10
98.94865448915174
 20
-140.0536390166359
 10
99.138479250389
 20
-140.0536390166359
 10
99.21530487971006
 20
-139.9351277319433
 10
99.21530487971006
 20
-139.8124823326684
 10
99.21530487971006
 20
-139.6770900800981
 10
99.12263181115685
 20
-139.5820054447052
 10
98.94865448915174
 20
-139.5820054447052
 97
        0
 97
        0
 75
     2
 76
     1
 98
        0
  0
ENDBLK
  5
80
330
7D
100
AcDbEntity
  8
0
100
AcDbBlockEnd
  0
BLOCK
  5
93
330
91
100
AcDbEntity
  8
0
100
AcDbBlockBegin
  2
block 3
 70
     0
 10
0.0
 20
0.0
 30
0.0
  3
block 3
  1

  0
SPLINE
  5
95
330
91
100
AcDbEntity
  8
_U+30EC_U+30A4_U+30E4_U+30FC 1
370
     0
100
AcDbSpline
210
0.0
220
0.0
230
1.0
 70
    11
 71
     3
 72
    26
 73
    22
 74
     0
 42
0.0000000001
 43
0.0000000001
 12
1.0
 22
0.0
 32
0.0
 13
1.0
 23
0.0
 33
0.0
 40
0.0
 40
0.0
 40
0.0
 40
0.0
 40
1.0
 40
1.0
 40
1.0
 40
2.0
 40
2.0
 40
2.0
 40
3.0
 40
3.0
 40
3.0
 40
4.0
 40
4.0
 40
4.0
 40
5.0
 40
5.0
 40
5.0
 40
6.0
 40
6.0
 40
6.0
 40
7.0
 40
7.0
 40
7.0
 40
7.0
 10
103.2295301391232
 20
-157.4825493312891
 30
0.0
 10
103.2295301391232
 20
-157.4825493312891
 30
0.0
 10
103.2295301391232
 20
-156.3783962282665
 30
0.0
 10
103.2295301391232
 20
-156.3783962282665
 30
0.0
 10
103.2295301391232
 20
-156.3783962282665
 30
0.0
 10
102.8767523614336
 20
-156.3783962282665
 30
0.0
 10
102.8767523614336
 20
-156.3783962282665
 30
0.0
 10
102.8767523614336
 20
-156.3783962282665
 30
0.0
 10
102.8767523614336
 20
-156.2302571224008
 30
0.0
 10
102.8767523614336
 20
-156.2302571224008
 30
0.0
 10
103.2317694511886
 20
-156.2154432118142
 30
0.0
 10
103.2815510809505
 20
-156.0524901953619
 30
0.0
 10
103.3132459594147
 20
-155.9381130252516
 30
0.0
 10
103.3132459594147
 20
-155.9381130252516
 30
0.0
 10
103.4691365301223
 20
-155.9381130252516
 30
0.0
 10
103.4691365301223
 20
-155.9381130252516
 30
0.0
 10
103.4691365301223
 20
-155.9381130252516
 30
0.0
 10
103.4691365301223
 20
-157.4825493312891
 30
0.0
 10
103.4691365301223
 20
-157.4825493312891
 30
0.0
 10
103.4691365301223
 20
-157.4825493312891
 30
0.0
 10
103.2295301391232
 20
-157.4825493312891
 30
0.0
 10
103.2295301391232
 20
-157.4825493312891
 30
0.0
  0
HATCH
  5
96
330
91
100
AcDbEntity
  8
_U+30EC_U+30A4_U+30E4_U+30FC 1
 62
   179
420
  2234388
100
AcDbHatch
 10
0.0
 20
0.0
 30
0.0
210
0.0
220
0.0
230
1.0
  2
SOLID
 70
     1
 71
     0
 91
        1
 92
        1
 93
        1
 72
     4
 94
        3
 73
     0
 74
     1
 95
       26
 96
       22
 40
0.0
 40
0.0
 40
0.0
 40
0.0
 40
1.0
 40
1.0
 40
1.0
 40
2.0
 40
2.0
 40
2.0
 40
3.0
 40
3.0
 40
3.0
 40
4.0
 40
4.0
 40
4.0
 40
5.0
 40
5.0
 40
5.0
 40
6.0
 40
6.0
 40
6.0
 40
7.0
 40
7.0
 40
7.0
 40
7.0
 10
103.2295301391232
 20
-157.4825493312891
 10
103.2295301391232
 20
-157.4825493312891
 10
103.2295301391232
 20
-156.3783962282665
 10
103.2295301391232
 20
-156.3783962282665
 10
103.2295301391232
 20
-156.3783962282665
 10
102.8767523614336
 20
-156.3783962282665
 10
102.8767523614336
 20
-156.3783962282665
 10
102.8767523614336
 20
-156.3783962282665
 10
102.8767523614336
 20
-156.2302571224008
 10
102.8767523614336
 20
-156.2302571224008
 10
103.2317694511886
 20
-156.2154432118142
 10
103.2815510809505
 20
-156.0524901953619
 10
103.3132459594147
 20
-155.9381130252516
 10
103.3132459594147
 20
-155.9381130252516
 10
103.4691365301223
 20
-155.9381130252516
 10
103.4691365301223
 20
-155.9381130252516
 10
103.4691365301223
 20
-155.9381130252516
 10
103.4691365301223
 20
-157.4825493312891
 10
103.4691365301223
 20
-157.4825493312891
 10
103.4691365301223
 20
-157.4825493312891
 10
103.2295301391232
 20
-157.4825493312891
 10
103.2295301391232
 20
-157.4825493312891
 97
        0
 97
        0
 75
     2
 76
     1
 98
        0
  0
SPLINE
  5
97
330
91
100
AcDbEntity
  8
_U+30EC_U+30A4_U+30E4_U+30FC 1
370
     0
100
AcDbSpline
210
0.0
220
0.0
230
1.0
 70
    11
 71
     3
 72
    29
 73
    25
 74
     0
 42
0.0000000001
 43
0.0000000001
 12
1.0
 22
0.0
 32
0.0
 13
1.0
 23
0.0
 33
0.0
 40
0.0
 40
0.0
 40
0.0
 40
0.0
 40
1.0
 40
1.0
 40
1.0
 40
2.0
 40
2.0
 40
2.0
 40
3.0
 40
3.0
 40
3.0
 40
4.0
 40
4.0
 40
4.0
 40
5.0
 40
5.0
 40
5.0
 40
6.0
 40
6.0
 40
6.0
 40
7.0
 40
7.0
 40
7.0
 40
8.0
 40
8.0
 40
8.0
 40
8.0
 10
104.5393554426152
 20
-157.5331922349223
 30
0.0
 10
104.254446045985
 20
-157.5331922349223
 30
0.0
 10
103.9831447765216
 20
-157.3957329250608
 30
0.0
 10
103.9831447765216
 20
-157.046744752405
 30
0.0
 10
103.9831447765216
 20
-156.7907741578509
 30
0.0
 10
104.1345567230983
 20
-156.695689522458
 30
0.0
 10
104.2477281097888
 20
-156.6343668228206
 30
0.0
 10
104.1142306597353
 20
-156.5751111804743
 30
0.0
 10
104.0329264062834
 20
-156.460734010364
 30
0.0
 10
104.0329264062834
 20
-156.2998480512028
 30
0.0
 10
104.0329264062834
 20
-156.0249294314799
 30
0.0
 10
104.2454887977234
 20
-155.8895371789096
 30
0.0
 10
104.5393554426152
 20
-155.8895371789096
 30
0.0
 10
104.8421793357686
 20
-155.8895371789096
 30
0.0
 10
105.0457844789469
 20
-156.033542170193
 30
0.0
 10
105.0457844789469
 20
-156.2998480512028
 30
0.0
 10
105.0457844789469
 20
-156.460734010364
 30
0.0
 10
104.9620686586553
 20
-156.5751111804743
 30
0.0
 10
104.8287434633762
 20
-156.6343668228206
 30
0.0
 10
104.9236558439948
 20
-156.6850097264538
 30
0.0
 10
105.0931545418691
 20
-156.7800943618466
 30
0.0
 10
105.0931545418691
 20
-157.0426106378227
 30
0.0
 10
105.0931545418691
 20
-157.4170925170693
 30
0.0
 10
104.7948092728464
 20
-157.5331922349223
 30
0.0
 10
104.5393554426152
 20
-157.5331922349223
 30
0.0
  0
SPLINE
  5
98
330
91
100
AcDbEntity
  8
_U+30EC_U+30A4_U+30E4_U+30FC 1
370
     0
100
AcDbSpline
210
0.0
220
0.0
230
1.0
 70
    11
 71
     3
 72
    17
 73
    13
 74
     0
 42
0.0000000001
 43
0.0000000001
 12
1.0
 22
0.0
 32
0.0
 13
1.0
 23
0.0
 33
0.0
 40
0.0
 40
0.0
 40
0.0
 40
0.0
 40
1.0
 40
1.0
 40
1.0
 40
2.0
 40
2.0
 40
2.0
 40
3.0
 40
3.0
 40
3.0
 40
4.0
 40
4.0
 40
4.0
 40
4.0
 10
104.5393554426152
 20
-156.7421983115089
 30
0.0
 10
104.3855319291988
 20
-156.7421983115089
 30
0.0
 10
104.2227511675207
 20
-156.8290147177372
 30
0.0
 10
104.2227511675207
 20
-157.0319308418184
 30
0.0
 10
104.2227511675207
 20
-157.2372585327393
 30
0.0
 10
104.3584879296396
 20
-157.3385443400057
 30
0.0
 10
104.5393554426152
 20
-157.3385443400057
 30
0.0
 10
104.7383097068883
 20
-157.3385443400057
 30
0.0
 10
104.8557874629354
 20
-157.2158989407308
 30
0.0
 10
104.8557874629354
 20
-157.0381320136919
 30
0.0
 10
104.8557874629354
 20
-156.8162678644418
 30
0.0
 10
104.6818101409303
 20
-156.7421983115089
 30
0.0
 10
104.5393554426152
 20
-156.7421983115089
 30
0.0
  0
SPLINE
  5
99
330
91
100
AcDbEntity
  8
_U+30EC_U+30A4_U+30E4_U+30FC 1
370
     0
100
AcDbSpline
210
0.0
220
0.0
230
1.0
 70
    11
 71
     3
 72
    17
 73
    13
 74
     0
 42
0.0000000001
 43
0.0000000001
 12
1.0
 22
0.0
 32
0.0
 13
1.0
 23
0.0
 33
0.0
 40
0.0
 40
0.0
 40
0.0
 40
0.0
 40
1.0
 40
1.0
 40
1.0
 40
2.0
 40
2.0
 40
2.0
 40
3.0
 40
3.0
 40
3.0
 40
4.0
 40
4.0
 40
4.0
 40
4.0
 10
104.5393554426152
 20
-156.082118016535
 30
0.0
 10
104.3629665537704
 20
-156.082118016535
 30
0.0
 10
104.2725327972826
 20
-156.1772026519279
 30
0.0
 10
104.2725327972826
 20
-156.3125949044982
 30
0.0
 10
104.2725327972826
 20
-156.4352403037731
 30
0.0
 10
104.3493584266036
 20
-156.5537515884657
 30
0.0
 10
104.5393554426152
 20
-156.5537515884657
 30
0.0
 10
104.7291802038524
 20
-156.5537515884657
 30
0.0
 10
104.8060058331735
 20
-156.4352403037731
 30
0.0
 10
104.8060058331735
 20
-156.3125949044982
 30
0.0
 10
104.8060058331735
 20
-156.1772026519279
 30
0.0
 10
104.7133327646203
 20
-156.082118016535
 30
0.0
 10
104.5393554426152
 20
-156.082118016535
 30
0.0
  0
HATCH
  5
9A
330
91
100
AcDbEntity
  8
_U+30EC_U+30A4_U+30E4_U+30FC 1
 62
   179
420
  2234388
100
AcDbHatch
 10
0.0
 20
0.0
 30
0.0
210
0.0
220
0.0
230
1.0
  2
SOLID
 70
     1
 71
     0
 91
        3
 92
        1
 93
        1
 72
     4
 94
        3
 73
     0
 74
     1
 95
       29
 96
       25
 40
0.0
 40
0.0
 40
0.0
 40
0.0
 40
1.0
 40
1.0
 40
1.0
 40
2.0
 40
2.0
 40
2.0
 40
3.0
 40
3.0
 40
3.0
 40
4.0
 40
4.0
 40
4.0
 40
5.0
 40
5.0
 40
5.0
 40
6.0
 40
6.0
 40
6.0
 40
7.0
 40
7.0
 40
7.0
 40
8.0
 40
8.0
 40
8.0
 40
8.0
 10
104.5393554426152
 20
-157.5331922349223
 10
104.254446045985
 20
-157.5331922349223
 10
103.9831447765216
 20
-157.3957329250608
 10
103.9831447765216
 20
-157.046744752405
 10
103.9831447765216
 20
-156.7907741578509
 10
104.1345567230983
 20
-156.695689522458
 10
104.2477281097888
 20
-156.6343668228206
 10
104.1142306597353
 20
-156.5751111804743
 10
104.0329264062834
 20
-156.460734010364
 10
104.0329264062834
 20
-156.2998480512028
 10
104.0329264062834
 20
-156.0249294314799
 10
104.2454887977234
 20
-155.8895371789096
 10
104.5393554426152
 20
-155.8895371789096
 10
104.8421793357686
 20
-155.8895371789096
 10
105.0457844789469
 20
-156.033542170193
 10
105.0457844789469
 20
-156.2998480512028
 10
105.0457844789469
 20
-156.460734010364
 10
104.9620686586553
 20
-156.5751111804743
 10
104.8287434633762
 20
-156.6343668228206
 10
104.9236558439948
 20
-156.6850097264538
 10
105.0931545418691
 20
-156.7800943618466
 10
105.0931545418691
 20
-157.0426106378227
 10
105.0931545418691
 20
-157.4170925170693
 10
104.7948092728464
 20
-157.5331922349223
 10
104.5393554426152
 20
-157.5331922349223
 97
        0
 97
        0
 92
        1
 93
        1
 72
     4
 94
        3
 73
     0
 74
     1
 95
       17
 96
       13
 40
0.0
 40
0.0
 40
0.0
 40
0.0
 40
1.0
 40
1.0
 40
1.0
 40
2.0
 40
2.0
 40
2.0
 40
3.0
 40
3.0
 40
3.0
 40
4.0
 40
4.0
 40
4.0
 40
4.0
 10
104.5393554426152
 20
-156.7421983115089
 10
104.3855319291988
 20
-156.7421983115089
 10
104.2227511675207
 20
-156.8290147177372
 10
104.2227511675207
 20
-157.0319308418184
 10
104.2227511675207
 20
-157.2372585327393
 10
104.3584879296396
 20
-157.3385443400057
 10
104.5393554426152
 20
-157.3385443400057
 10
104.7383097068883
 20
-157.3385443400057
 10
104.8557874629354
 20
-157.2158989407308
 10
104.8557874629354
 20
-157.0381320136919
 10
104.8557874629354
 20
-156.8162678644418
 10
104.6818101409303
 20
-156.7421983115089
 10
104.5393554426152
 20
-156.7421983115089
 97
        0
 97
        0
 92
        1
 93
        1
 72
     4
 94
        3
 73
     0
 74
     1
 95
       17
 96
       13
 40
0.0
 40
0.0
 40
0.0
 40
0.0
 40
1.0
 40
1.0
 40
1.0
 40
2.0
 40
2.0
 40
2.0
 40
3.0
 40
3.0
 40
3.0
 40
4.0
 40
4.0
 40
4.0
 40
4.0
 10
104.5393554426152
 20
-156.082118016535
 10
104.3629665537704
 20
-156.082118016535
 10
104.2725327972826
 20
-156.1772026519279
 10
104.2725327972826
 20
-156.3125949044982
 10
104.2725327972826
 20
-156.4352403037731
 10
104.3493584266036
 20
-156.5537515884657
 10
104.5393554426152
 20
-156.5537515884657
 10
104.7291802038524
 20
-156.5537515884657
 10
104.8060058331735
 20
-156.4352403037731
 10
104.8060058331735
 20
-156.3125949044982
 10
104.8060058331735
 20
-156.1772026519279
 10
104.7133327646203
 20
-156.082118016535
 10
104.5393554426152
 20
-156.082118016535
 97
        0
 97
        0
 75
     2
 76
     1
 98
        0
  0
ENDBLK
  5
94
330
91
100
AcDbEntity
  8
0
100
AcDbBlockEnd
  0
BLOCK
  5
A9
330
A7
100
AcDbEntity
  8
0
100
AcDbBlockBegin
  2
block 4
 70
     0
 10
0.0
 20
0.0
 30
0.0
  3
block 4
  1

  0
SPLINE
  5
AB
330
A7
100
AcDbEntity
  8
_U+30EC_U+30A4_U+30E4_U+30FC 1
370
     0
100
AcDbSpline
210
0.0
220
0.0
230
1.0
 70
    11
 71
     3
 72
    32
 73
    28
 74
     0
 42
0.0000000001
 43
0.0000000001
 12
1.0
 22
0.0
 32
0.0
 13
1.0
 23
0.0
 33
0.0
 40
0.0
 40
0.0
 40
0.0
 40
0.0
 40
1.0
 40
1.0
 40
1.0
 40
2.0
 40
2.0
 40
2.0
 40
3.0
 40
3.0
 40
3.0
 40
4.0
 40
4.0
 40
4.0
 40
5.0
 40
5.0
 40
5.0
 40
6.0
 40
6.0
 40
6.0
 40
7.0
 40
7.0
 40
7.0
 40
8.0
 40
8.0
 40
8.0
 40
9.0
 40
9.0
 40
9.0
 40
9.0
 10
115.3032117767298
 20
-144.9542873444038
 30
0.0
 10
115.3032117767298
 20
-145.5060193863665
 30
0.0
 10
114.7492404227016
 20
-145.5149766346282
 30
0.0
 10
114.5352999930676
 20
-145.5149766346282
 30
0.0
 10
114.3048231051044
 20
-145.5149766346282
 30
0.0
 10
113.6574896634259
 20
-145.4946505712652
 30
0.0
 10
113.6574896634259
 20
-144.9136352176778
 30
0.0
 10
113.6574896634259
 20
-144.7281168257971
 30
0.0
 10
113.7274251017765
 20
-144.4659450593696
 30
0.0
 10
114.0595323065546
 20
-144.4252929326437
 30
0.0
 10
114.0595323065546
 20
-144.4252929326437
 30
0.0
 10
114.0595323065546
 20
-144.6535305085415
 30
0.0
 10
114.0595323065546
 20
-144.6535305085415
 30
0.0
 10
114.0023437214994
 20
-144.6648993236428
 30
0.0
 10
113.8542046156337
 20
-144.6988335141725
 30
0.0
 10
113.8542046156337
 20
-144.9158745297433
 30
0.0
 10
113.8542046156337
 20
-145.2278279259326
 30
0.0
 10
114.1821777058295
 20
-145.270719364724
 30
0.0
 10
114.3871608872018
 20
-145.2843274918907
 30
0.0
 10
114.3089572196867
 20
-145.1849364871413
 30
0.0
 10
114.2497015773404
 20
-145.112589481951
 30
0.0
 10
114.2497015773404
 20
-144.9181138418087
 30
0.0
 10
114.2497015773404
 20
-144.7258775137317
 30
0.0
 10
114.3578775755772
 20
-144.402555302441
 30
0.0
 10
114.7640543332882
 20
-144.402555302441
 30
0.0
 10
115.0834146847708
 20
-144.402555302441
 30
0.0
 10
115.3032117767298
 20
-144.615117693881
 30
0.0
 10
115.3032117767298
 20
-144.9542873444038
 30
0.0
  0
SPLINE
  5
AC
330
A7
100
AcDbEntity
  8
_U+30EC_U+30A4_U+30E4_U+30FC 1
370
     0
100
AcDbSpline
210
0.0
220
0.0
230
1.0
 70
    11
 71
     3
 72
    17
 73
    13
 74
     0
 42
0.0000000001
 43
0.0000000001
 12
1.0
 22
0.0
 32
0.0
 13
1.0
 23
0.0
 33
0.0
 40
0.0
 40
0.0
 40
0.0
 40
0.0
 40
1.0
 40
1.0
 40
1.0
 40
2.0
 40
2.0
 40
2.0
 40
3.0
 40
3.0
 40
3.0
 40
4.0
 40
4.0
 40
4.0
 40
4.0
 10
114.444349472257
 20
-144.9362005931062
 30
0.0
 10
114.444349472257
 20
-145.2166313656056
 30
0.0
 10
114.6558783350513
 20
-145.2572834923315
 30
0.0
 10
114.7723225624528
 20
-145.2572834923315
 30
0.0
 10
114.9480224322005
 20
-145.2572834923315
 30
0.0
 10
115.1109754486528
 20
-145.1554809207424
 30
0.0
 10
115.1109754486528
 20
-144.9587659685346
 30
0.0
 10
115.1109754486528
 20
-144.8299193973863
 30
0.0
 10
115.0517198063065
 20
-144.6423339482144
 30
0.0
 10
114.7661213905793
 20
-144.6423339482144
 30
0.0
 10
114.5418456744896
 20
-144.6423339482144
 30
0.0
 10
114.444349472257
 20
-144.7915065827257
 30
0.0
 10
114.444349472257
 20
-144.9362005931062
 30
0.0
  0
HATCH
  5
AD
330
A7
100
AcDbEntity
  8
_U+30EC_U+30A4_U+30E4_U+30FC 1
 62
   179
420
  2234388
100
AcDbHatch
 10
0.0
 20
0.0
 30
0.0
210
0.0
220
0.0
230
1.0
  2
SOLID
 70
     1
 71
     0
 91
        2
 92
        1
 93
        1
 72
     4
 94
        3
 73
     0
 74
     1
 95
       32
 96
       28
 40
0.0
 40
0.0
 40
0.0
 40
0.0
 40
1.0
 40
1.0
 40
1.0
 40
2.0
 40
2.0
 40
2.0
 40
3.0
 40
3.0
 40
3.0
 40
4.0
 40
4.0
 40
4.0
 40
5.0
 40
5.0
 40
5.0
 40
6.0
 40
6.0
 40
6.0
 40
7.0
 40
7.0
 40
7.0
 40
8.0
 40
8.0
 40
8.0
 40
9.0
 40
9.0
 40
9.0
 40
9.0
 10
115.3032117767298
 20
-144.9542873444038
 10
115.3032117767298
 20
-145.5060193863665
 10
114.7492404227016
 20
-145.5149766346282
 10
114.5352999930676
 20
-145.5149766346282
 10
114.3048231051044
 20
-145.5149766346282
 10
113.6574896634259
 20
-145.4946505712652
 10
113.6574896634259
 20
-144.9136352176778
 10
113.6574896634259
 20
-144.7281168257971
 10
113.7274251017765
 20
-144.4659450593696
 10
114.0595323065546
 20
-144.4252929326437
 10
114.0595323065546
 20
-144.4252929326437
 10
114.0595323065546
 20
-144.6535305085415
 10
114.0595323065546
 20
-144.6535305085415
 10
114.0023437214994
 20
-144.6648993236428
 10
113.8542046156337
 20
-144.6988335141725
 10
113.8542046156337
 20
-144.9158745297433
 10
113.8542046156337
 20
-145.2278279259326
 10
114.1821777058295
 20
-145.270719364724
 10
114.3871608872018
 20
-145.2843274918907
 10
114.3089572196867
 20
-145.1849364871413
 10
114.2497015773404
 20
-145.112589481951
 10
114.2497015773404
 20
-144.9181138418087
 10
114.2497015773404
 20
-144.7258775137317
 10
114.3578775755772
 20
-144.402555302441
 10
114.7640543332882
 20
-144.402555302441
 10
115.0834146847708
 20
-144.402555302441
 10
115.3032117767298
 20
-144.615117693881
 10
115.3032117767298
 20
-144.9542873444038
 97
        0
 97
        0
 92
        1
 93
        1
 72
     4
 94
        3
 73
     0
 74
     1
 95
       17
 96
       13
 40
0.0
 40
0.0
 40
0.0
 40
0.0
 40
1.0
 40
1.0
 40
1.0
 40
2.0
 40
2.0
 40
2.0
 40
3.0
 40
3.0
 40
3.0
 40
4.0
 40
4.0
 40
4.0
 40
4.0
 10
114.444349472257
 20
-144.9362005931062
 10
114.444349472257
 20
-145.2166313656056
 10
114.6558783350513
 20
-145.2572834923315
 10
114.7723225624528
 20
-145.2572834923315
 10
114.9480224322005
 20
-145.2572834923315
 10
115.1109754486528
 20
-145.1554809207424
 10
115.1109754486528
 20
-144.9587659685346
 10
115.1109754486528
 20
-144.8299193973863
 10
115.0517198063065
 20
-144.6423339482144
 10
114.7661213905793
 20
-144.6423339482144
 10
114.5418456744896
 20
-144.6423339482144
 10
114.444349472257
 20
-144.7915065827257
 10
114.444349472257
 20
-144.9362005931062
 97
        0
 97
        0
 75
     2
 76
     1
 98
        0
  0
POLYLINE
  5
AE
330
A7
100
AcDbEntity
  8
_U+30EC_U+30A4_U+30E4_U+30FC 1
370
     0
100
AcDb2dPolyline
 66
     1
 10
0.0
 20
0.0
 30
0.0
  0
VERTEX
  5
AF
330
AE
100
AcDbEntity
  8
_U+30EC_U+30A4_U+30E4_U+30FC 1
370
     0
100
AcDbVertex
100
AcDb2dVertex
 10
115.2525688730966
 20
-144.1712171406065
 30
0.0
  0
VERTEX
  5
B0
330
AE
100
AcDbEntity
  8
_U+30EC_U+30A4_U+30E4_U+30FC 1
370
     0
100
AcDbVertex
100
AcDb2dVertex
 10
115.0007323931248
 20
-144.1712171406065
 30
0.0
  0
VERTEX
  5
B1
330
AE
100
AcDbEntity
  8
_U+30EC_U+30A4_U+30E4_U+30FC 1
370
     0
100
AcDbVertex
100
AcDb2dVertex
 10
115.0007323931248
 20
-143.9021551832085
 30
0.0
  0
VERTEX
  5
B2
330
AE
100
AcDbEntity
  8
_U+30EC_U+30A4_U+30E4_U+30FC 1
370
     0
100
AcDbVertex
100
AcDb2dVertex
 10
115.2525688730966
 20
-143.9021551832085
 30
0.0
  0
VERTEX
  5
B3
330
AE
100
AcDbEntity
  8
_U+30EC_U+30A4_U+30E4_U+30FC 1
370
     0
100
AcDbVertex
100
AcDb2dVertex
 10
115.2525688730966
 20
-144.1712171406065
 30
0.0
  0
SEQEND
  5
B4
330
AE
100
AcDbEntity
  8
_U+30EC_U+30A4_U+30E4_U+30FC 1
370
     0
  0
HATCH
  5
B5
330
A7
100
AcDbEntity
  8
_U+30EC_U+30A4_U+30E4_U+30FC 1
 62
   179
420
  2234388
100
AcDbHatch
 10
0.0
 20
0.0
 30
0.0
210
0.0
220
0.0
230
1.0
  2
SOLID
 70
     1
 71
     0
 91
        1
 92
        1
 93
        4
 72
     1
 10
115.2525688730966
 20
-144.1712171406065
 11
115.0007323931248
 21
-144.1712171406065
 72
     1
 10
115.0007323931248
 20
-144.1712171406065
 11
115.0007323931248
 21
-143.9021551832085
 72
     1
 10
115.0007323931248
 20
-143.9021551832085
 11
115.2525688730966
 21
-143.9021551832085
 72
     1
 10
115.2525688730966
 20
-143.9021551832085
 11
115.2525688730966
 21
-144.1712171406065
 97
        0
 75
     2
 76
     1
 98
        0
  0
SPLINE
  5
B6
330
A7
100
AcDbEntity
  8
_U+30EC_U+30A4_U+30E4_U+30FC 1
370
     0
100
AcDbSpline
210
0.0
220
0.0
230
1.0
 70
    11
 71
     3
 72
    53
 73
    49
 74
     0
 42
0.0000000001
 43
0.0000000001
 12
1.0
 22
0.0
 32
0.0
 13
1.0
 23
0.0
 33
0.0
 40
0.0
 40
0.0
 40
0.0
 40
0.0
 40
1.0
 40
1.0
 40
1.0
 40
2.0
 40
2.0
 40
2.0
 40
3.0
 40
3.0
 40
3.0
 40
4.0
 40
4.0
 40
4.0
 40
5.0
 40
5.0
 40
5.0
 40
6.0
 40
6.0
 40
6.0
 40
7.0
 40
7.0
 40
7.0
 40
8.0
 40
8.0
 40
8.0
 40
9.0
 40
9.0
 40
9.0
 40
10.0
 40
10.0
 40
10.0
 40
11.0
 40
11.0
 40
11.0
 40
12.0
 40
12.0
 40
12.0
 40
13.0
 40
13.0
 40
13.0
 40
14.0
 40
14.0
 40
14.0
 40
15.0
 40
15.0
 40
15.0
 40
16.0
 40
16.0
 40
16.0
 40
16.0
 10
115.3032117767298
 20
-143.1354491829661
 30
0.0
 10
115.3032117767298
 20
-143.2191650032577
 30
0.0
 10
115.286330808852
 20
-143.3276855110431
 30
0.0
 10
115.2229410519234
 20
-143.4362060188284
 30
0.0
 10
115.113042505944
 20
-143.6215521559349
 30
0.0
 10
114.981784367956
 20
-143.6442897861375
 30
0.0
 10
114.8739528792676
 20
-143.6646158495005
 30
0.0
 10
114.8739528792676
 20
-143.6646158495005
 30
0.0
 10
114.8739528792676
 20
-143.4272487705668
 30
0.0
 10
114.8739528792676
 20
-143.4272487705668
 30
0.0
 10
115.0727348887665
 20
-143.368337637769
 30
0.0
 10
115.1023627099397
 20
-143.2327731304244
 30
0.0
 10
115.1023627099397
 20
-143.1332098709007
 30
0.0
 10
115.1023627099397
 20
-142.9840372363894
 30
0.0
 10
115.002799450416
 20
-142.8212564747114
 30
0.0
 10
114.7702555051616
 20
-142.8212564747114
 30
0.0
 10
114.5142849106075
 20
-142.8212564747114
 30
0.0
 10
114.444349472257
 20
-143.0134928027883
 30
0.0
 10
114.444349472257
 20
-143.1423393739366
 30
0.0
 10
114.444349472257
 20
-143.1762735644664
 30
0.0
 10
114.444349472257
 20
-143.3276855110431
 30
0.0
 10
114.5735405529538
 20
-143.4225978916617
 30
0.0
 10
114.5735405529538
 20
-143.4225978916617
 30
0.0
 10
114.554592527785
 20
-143.6103555956078
 30
0.0
 10
114.554592527785
 20
-143.6103555956078
 30
0.0
 10
114.554592527785
 20
-143.6103555956078
 30
0.0
 10
113.7081325670591
 20
-143.4813367696852
 30
0.0
 10
113.7081325670591
 20
-143.4813367696852
 30
0.0
 10
113.7081325670591
 20
-143.4813367696852
 30
0.0
 10
113.7081325670591
 20
-142.6493462099974
 30
0.0
 10
113.7081325670591
 20
-142.6493462099974
 30
0.0
 10
113.7081325670591
 20
-142.6493462099974
 30
0.0
 10
113.9027804619757
 20
-142.6493462099974
 30
0.0
 10
113.9027804619757
 20
-142.6493462099974
 30
0.0
 10
113.9027804619757
 20
-142.6493462099974
 30
0.0
 10
113.9027804619757
 20
-143.3073594476801
 30
0.0
 10
113.9027804619757
 20
-143.3073594476801
 30
0.0
 10
113.9027804619757
 20
-143.3073594476801
 30
0.0
 10
114.3258381875644
 20
-143.377467140805
 30
0.0
 10
114.3258381875644
 20
-143.377467140805
 30
0.0
 10
114.2920762518089
 20
-143.3118380718109
 30
0.0
 10
114.2517686346315
 20
-143.2236436273885
 30
0.0
 10
114.2517686346315
 20
-143.0970363683056
 30
0.0
 10
114.2517686346315
 20
-142.8257350988422
 30
0.0
 10
114.4381483003835
 20
-142.5725205806763
 30
0.0
 10
114.7513074799927
 20
-142.5725205806763
 30
0.0
 10
115.0686007741842
 20
-142.5725205806763
 30
0.0
 10
115.3032117767298
 20
-142.8122992264497
 30
0.0
 10
115.3032117767298
 20
-143.1354491829661
 30
0.0
  0
HATCH
  5
B7
330
A7
100
AcDbEntity
  8
_U+30EC_U+30A4_U+30E4_U+30FC 1
 62
   179
420
  2234388
100
AcDbHatch
 10
0.0
 20
0.0
 30
0.0
210
0.0
220
0.0
230
1.0
  2
SOLID
 70
     1
 71
     0
 91
        1
 92
        1
 93
        1
 72
     4
 94
        3
 73
     0
 74
     1
 95
       53
 96
       49
 40
0.0
 40
0.0
 40
0.0
 40
0.0
 40
1.0
 40
1.0
 40
1.0
 40
2.0
 40
2.0
 40
2.0
 40
3.0
 40
3.0
 40
3.0
 40
4.0
 40
4.0
 40
4.0
 40
5.0
 40
5.0
 40
5.0
 40
6.0
 40
6.0
 40
6.0
 40
7.0
 40
7.0
 40
7.0
 40
8.0
 40
8.0
 40
8.0
 40
9.0
 40
9.0
 40
9.0
 40
10.0
 40
10.0
 40
10.0
 40
11.0
 40
11.0
 40
11.0
 40
12.0
 40
12.0
 40
12.0
 40
13.0
 40
13.0
 40
13.0
 40
14.0
 40
14.0
 40
14.0
 40
15.0
 40
15.0
 40
15.0
 40
16.0
 40
16.0
 40
16.0
 40
16.0
 10
115.3032117767298
 20
-143.1354491829661
 10
115.3032117767298
 20
-143.2191650032577
 10
115.286330808852
 20
-143.3276855110431
 10
115.2229410519234
 20
-143.4362060188284
 10
115.113042505944
 20
-143.6215521559349
 10
114.981784367956
 20
-143.6442897861375
 10
114.8739528792676
 20
-143.6646158495005
 10
114.8739528792676
 20
-143.6646158495005
 10
114.8739528792676
 20
-143.4272487705668
 10
114.8739528792676
 20
-143.4272487705668
 10
115.0727348887665
 20
-143.368337637769
 10
115.1023627099397
 20
-143.2327731304244
 10
115.1023627099397
 20
-143.1332098709007
 10
115.1023627099397
 20
-142.9840372363894
 10
115.002799450416
 20
-142.8212564747114
 10
114.7702555051616
 20
-142.8212564747114
 10
114.5142849106075
 20
-142.8212564747114
 10
114.444349472257
 20
-143.0134928027883
 10
114.444349472257
 20
-143.1423393739366
 10
114.444349472257
 20
-143.1762735644664
 10
114.444349472257
 20
-143.3276855110431
 10
114.5735405529538
 20
-143.4225978916617
 10
114.5735405529538
 20
-143.4225978916617
 10
114.554592527785
 20
-143.6103555956078
 10
114.554592527785
 20
-143.6103555956078
 10
114.554592527785
 20
-143.6103555956078
 10
113.7081325670591
 20
-143.4813367696852
 10
113.7081325670591
 20
-143.4813367696852
 10
113.7081325670591
 20
-143.4813367696852
 10
113.7081325670591
 20
-142.6493462099974
 10
113.7081325670591
 20
-142.6493462099974
 10
113.7081325670591
 20
-142.6493462099974
 10
113.9027804619757
 20
-142.6493462099974
 10
113.9027804619757
 20
-142.6493462099974
 10
113.9027804619757
 20
-142.6493462099974
 10
113.9027804619757
 20
-143.3073594476801
 10
113.9027804619757
 20
-143.3073594476801
 10
113.9027804619757
 20
-143.3073594476801
 10
114.3258381875644
 20
-143.377467140805
 10
114.3258381875644
 20
-143.377467140805
 10
114.2920762518089
 20
-143.3118380718109
 10
114.2517686346315
 20
-143.2236436273885
 10
114.2517686346315
 20
-143.0970363683056
 10
114.2517686346315
 20
-142.8257350988422
 10
114.4381483003835
 20
-142.5725205806763
 10
114.7513074799927
 20
-142.5725205806763
 10
115.0686007741842
 20
-142.5725205806763
 10
115.3032117767298
 20
-142.8122992264497
 10
115.3032117767298
 20
-143.1354491829661
 97
        0
 97
        0
 75
     2
 76
     1
 98
        0
  0
ENDBLK
  5
AA
330
A7
100
AcDbEntity
  8
0
100
AcDbBlockEnd
  0
BLOCK
  5
C3
330
C1
100
AcDbEntity
  8
0
100
AcDbBlockBegin
  2
block 5
 70
     0
 10
0.0
 20
0.0
 30
0.0
  3
block 5
  1

  0
SPLINE
  5
C5
330
C1
100
AcDbEntity
  8
_U+30EC_U+30A4_U+30E4_U+30FC 1
370
     0
100
AcDbSpline
210
0.0
220
0.0
230
1.0
 70
    11
 71
     3
 72
    26
 73
    22
 74
     0
 42
0.0000000001
 43
0.0000000001
 12
1.0
 22
0.0
 32
0.0
 13
1.0
 23
0.0
 33
0.0
 40
0.0
 40
0.0
 40
0.0
 40
0.0
 40
1.0
 40
1.0
 40
1.0
 40
2.0
 40
2.0
 40
2.0
 40
3.0
 40
3.0
 40
3.0
 40
4.0
 40
4.0
 40
4.0
 40
5.0
 40
5.0
 40
5.0
 40
6.0
 40
6.0
 40
6.0
 40
7.0
 40
7.0
 40
7.0
 40
7.0
 10
92.96831323630654
 20
-149.0758273281824
 30
0.0
 10
92.96831323630654
 20
-149.0758273281824
 30
0.0
 10
92.96831323630654
 20
-147.9718464799341
 30
0.0
 10
92.96831323630654
 20
-147.9718464799341
 30
0.0
 10
92.96831323630654
 20
-147.9718464799341
 30
0.0
 10
92.6382730888196
 20
-147.9718464799341
 30
0.0
 10
92.6382730888196
 20
-147.9718464799341
 30
0.0
 10
92.6382730888196
 20
-147.9718464799341
 30
0.0
 10
92.6382730888196
 20
-147.8237073740684
 30
0.0
 10
92.6382730888196
 20
-147.8237073740684
 30
0.0
 10
92.97038029359769
 20
-147.8088934634818
 30
0.0
 10
93.01688908264856
 20
-147.6459404470295
 30
0.0
 10
93.04651690382171
 20
-147.5315632769192
 30
0.0
 10
93.04651690382171
 20
-147.5315632769192
 30
0.0
 10
93.1925889523963
 20
-147.5315632769192
 30
0.0
 10
93.1925889523963
 20
-147.5315632769192
 30
0.0
 10
93.1925889523963
 20
-147.5315632769192
 30
0.0
 10
93.1925889523963
 20
-149.0758273281824
 30
0.0
 10
93.1925889523963
 20
-149.0758273281824
 30
0.0
 10
93.1925889523963
 20
-149.0758273281824
 30
0.0
 10
92.96831323630654
 20
-149.0758273281824
 30
0.0
 10
92.96831323630654
 20
-149.0758273281824
 30
0.0
  0
HATCH
  5
C6
330
C1
100
AcDbEntity
  8
_U+30EC_U+30A4_U+30E4_U+30FC 1
 62
   179
420
  2234388
100
AcDbHatch
 10
0.0
 20
0.0
 30
0.0
210
0.0
220
0.0
230
1.0
  2
SOLID
 70
     1
 71
     0
 91
        1
 92
        1
 93
        1
 72
     4
 94
        3
 73
     0
 74
     1
 95
       26
 96
       22
 40
0.0
 40
0.0
 40
0.0
 40
0.0
 40
1.0
 40
1.0
 40
1.0
 40
2.0
 40
2.0
 40
2.0
 40
3.0
 40
3.0
 40
3.0
 40
4.0
 40
4.0
 40
4.0
 40
5.0
 40
5.0
 40
5.0
 40
6.0
 40
6.0
 40
6.0
 40
7.0
 40
7.0
 40
7.0
 40
7.0
 10
92.96831323630654
 20
-149.0758273281824
 10
92.96831323630654
 20
-149.0758273281824
 10
92.96831323630654
 20
-147.9718464799341
 10
92.96831323630654
 20
-147.9718464799341
 10
92.96831323630654
 20
-147.9718464799341
 10
92.6382730888196
 20
-147.9718464799341
 10
92.6382730888196
 20
-147.9718464799341
 10
92.6382730888196
 20
-147.9718464799341
 10
92.6382730888196
 20
-147.8237073740684
 10
92.6382730888196
 20
-147.8237073740684
 10
92.97038029359769
 20
-147.8088934634818
 10
93.01688908264856
 20
-147.6459404470295
 10
93.04651690382171
 20
-147.5315632769192
 10
93.04651690382171
 20
-147.5315632769192
 10
93.1925889523963
 20
-147.5315632769192
 10
93.1925889523963
 20
-147.5315632769192
 10
93.1925889523963
 20
-147.5315632769192
 10
93.1925889523963
 20
-149.0758273281824
 10
93.1925889523963
 20
-149.0758273281824
 10
93.1925889523963
 20
-149.0758273281824
 10
92.96831323630654
 20
-149.0758273281824
 10
92.96831323630654
 20
-149.0758273281824
 97
        0
 97
        0
 75
     2
 76
     1
 98
        0
  0
ENDBLK
  5
C4
330
C1
100
AcDbEntity
  8
0
100
AcDbBlockEnd
  0
BLOCK
  5
D6
330
D4
100
AcDbEntity
  8
0
100
AcDbBlockBegin
  2
block 6
 70
     0
 10
0.0
 20
0.0
 30
0.0
  3
block 6
  1

  0
SPLINE
  5
D8
330
D4
100
AcDbEntity
  8
_U+30EC_U+30A4_U+30E4_U+30FC 1
370
     0
100
AcDbSpline
210
0.0
220
0.0
230
1.0
 70
    11
 71
     3
 72
    26
 73
    22
 74
     0
 42
0.0000000001
 43
0.0000000001
 12
1.0
 22
0.0
 32
0.0
 13
1.0
 23
0.0
 33
0.0
 40
0.0
 40
0.0
 40
0.0
 40
0.0
 40
1.0
 40
1.0
 40
1.0
 40
2.0
 40
2.0
 40
2.0
 40
3.0
 40
3.0
 40
3.0
 40
4.0
 40
4.0
 40
4.0
 40
5.0
 40
5.0
 40
5.0
 40
6.0
 40
6.0
 40
6.0
 40
7.0
 40
7.0
 40
7.0
 40
7.0
 10
115.2525688730966
 20
-153.5837347706318
 30
0.0
 10
115.2525688730966
 20
-153.5837347706318
 30
0.0
 10
114.148415770074
 20
-153.5837347706318
 30
0.0
 10
114.148415770074
 20
-153.5837347706318
 30
0.0
 10
114.148415770074
 20
-153.5837347706318
 30
0.0
 10
114.148415770074
 20
-153.9365125483214
 30
0.0
 10
114.148415770074
 20
-153.9365125483214
 30
0.0
 10
114.148415770074
 20
-153.9365125483214
 30
0.0
 10
114.0002766642083
 20
-153.9365125483214
 30
0.0
 10
114.0002766642083
 20
-153.9365125483214
 30
0.0
 10
113.9854627536217
 20
-153.5813232037922
 30
0.0
 10
113.8225097371694
 20
-153.531369319256
 30
0.0
 10
113.7081325670591
 20
-153.5000189503403
 30
0.0
 10
113.7081325670591
 20
-153.5000189503403
 30
0.0
 10
113.7081325670591
 20
-153.3439561248585
 30
0.0
 10
113.7081325670591
 20
-153.3439561248585
 30
0.0
 10
113.7081325670591
 20
-153.3439561248585
 30
0.0
 10
115.2525688730966
 20
-153.3439561248585
 30
0.0
 10
115.2525688730966
 20
-153.3439561248585
 30
0.0
 10
115.2525688730966
 20
-153.3439561248585
 30
0.0
 10
115.2525688730966
 20
-153.5837347706318
 30
0.0
 10
115.2525688730966
 20
-153.5837347706318
 30
0.0
  0
HATCH
  5
D9
330
D4
100
AcDbEntity
  8
_U+30EC_U+30A4_U+30E4_U+30FC 1
 62
   179
420
  2234388
100
AcDbHatch
 10
0.0
 20
0.0
 30
0.0
210
0.0
220
0.0
230
1.0
  2
SOLID
 70
     1
 71
     0
 91
        1
 92
        1
 93
        1
 72
     4
 94
        3
 73
     0
 74
     1
 95
       26
 96
       22
 40
0.0
 40
0.0
 40
0.0
 40
0.0
 40
1.0
 40
1.0
 40
1.0
 40
2.0
 40
2.0
 40
2.0
 40
3.0
 40
3.0
 40
3.0
 40
4.0
 40
4.0
 40
4.0
 40
5.0
 40
5.0
 40
5.0
 40
6.0
 40
6.0
 40
6.0
 40
7.0
 40
7.0
 40
7.0
 40
7.0
 10
115.2525688730966
 20
-153.5837347706318
 10
115.2525688730966
 20
-153.5837347706318
 10
114.148415770074
 20
-153.5837347706318
 10
114.148415770074
 20
-153.5837347706318
 10
114.148415770074
 20
-153.5837347706318
 10
114.148415770074
 20
-153.9365125483214
 10
114.148415770074
 20
-153.9365125483214
 10
114.148415770074
 20
-153.9365125483214
 10
114.0002766642083
 20
-153.9365125483214
 10
114.0002766642083
 20
-153.9365125483214
 10
113.9854627536217
 20
-153.5813232037922
 10
113.8225097371694
 20
-153.531369319256
 10
113.7081325670591
 20
-153.5000189503403
 10
113.7081325670591
 20
-153.5000189503403
 10
113.7081325670591
 20
-153.3439561248585
 10
113.7081325670591
 20
-153.3439561248585
 10
113.7081325670591
 20
-153.3439561248585
 10
115.2525688730966
 20
-153.3439561248585
 10
115.2525688730966
 20
-153.3439561248585
 10
115.2525688730966
 20
-153.3439561248585
 10
115.2525688730966
 20
-153.5837347706318
 10
115.2525688730966
 20
-153.5837347706318
 97
        0
 97
        0
 75
     2
 76
     1
 98
        0
  0
ENDBLK
  5
D7
330
D4
100
AcDbEntity
  8
0
100
AcDbBlockEnd
  0
ENDSEC
  0
SECTION
  2
ENTITIES
  0
SPLINE
  5
41
330
1F
100
AcDbEntity
  8
_U+30EC_U+30A4_U+30E4_U+30FC 1
370
     0
100
AcDbSpline
210
0.0
220
0.0
230
1.0
 70
    11
 71
     3
 72
    44
 73
    40
 74
     0
 42
0.0000000001
 43
0.0000000001
 12
1.0
 22
0.0
 32
0.0
 13
1.0
 23
0.0
 33
0.0
 40
0.0
 40
0.0
 40
0.0
 40
0.0
 40
1.0
 40
1.0
 40
1.0
 40
2.0
 40
2.0
 40
2.0
 40
3.0
 40
3.0
 40
3.0
 40
4.0
 40
4.0
 40
4.0
 40
5.0
 40
5.0
 40
5.0
 40
6.0
 40
6.0
 40
6.0
 40
7.0
 40
7.0
 40
7.0
 40
8.0
 40
8.0
 40
8.0
 40
9.0
 40
9.0
 40
9.0
 40
10.0
 40
10.0
 40
10.0
 40
11.0
 40
11.0
 40
11.0
 40
12.0
 40
12.0
 40
12.0
 40
13.0
 40
13.0
 40
13.0
 40
13.0
 10
112.40564962332
 20
-153.5786747866379
 30
0.0
 10
112.40564962332
 20
-153.5786747866379
 30
0.0
 10
102.9053358880378
 20
-153.5786747866379
 30
0.0
 10
102.9053358880378
 20
-153.5786747866379
 30
0.0
 10
102.7268368782083
 20
-153.2692944461391
 30
0.0
 10
102.3969905173424
 20
-153.0791467072001
 30
0.0
 10
102.0399709658366
 20
-153.0791467072001
 30
0.0
 10
102.0399709658366
 20
-153.0791467072001
 30
0.0
 10
95.90587079511533
 20
-153.0791467072001
 30
0.0
 10
95.90587079511533
 20
-153.0791467072001
 30
0.0
 10
95.90587079511533
 20
-153.0791467072001
 30
0.0
 10
95.90587079511533
 20
-146.5788651841673
 30
0.0
 10
95.90587079511533
 20
-146.5788651841673
 30
0.0
 10
95.90587079511533
 20
-146.5788651841673
 30
0.0
 10
102.9053358880378
 20
-146.5788651841673
 30
0.0
 10
102.9053358880378
 20
-146.5788651841673
 30
0.0
 10
102.9053358880378
 20
-146.5788651841673
 30
0.0
 10
102.9053358880378
 20
-145.9787833802534
 30
0.0
 10
102.9053358880378
 20
-145.9787833802534
 30
0.0
 10
102.9053358880378
 20
-145.9787833802534
 30
0.0
 10
100.8955640752535
 20
-145.7777082290724
 30
0.0
 10
100.8955640752535
 20
-145.7777082290724
 30
0.0
 10
99.56982673698906
 20
-145.6454165624388
 30
0.0
 10
98.23809277939556
 20
-145.5783879234036
 30
0.0
 10
96.90600354633014
 20
-145.5783879234036
 30
0.0
 10
96.90600354633014
 20
-145.5783879234036
 30
0.0
 10
94.90610408529584
 20
-145.5783879234036
 30
0.0
 10
94.90610408529584
 20
-145.5783879234036
 30
0.0
 10
94.90610408529584
 20
-145.5783879234036
 30
0.0
 10
94.90610408529584
 20
-153.2788222883405
 30
0.0
 10
94.90610408529584
 20
-153.2788222883405
 30
0.0
 10
94.90610408529584
 20
-153.7204942954729
 30
0.0
 10
95.26416793137092
 20
-154.078924182943
 30
0.0
 10
95.70585070442641
 20
-154.078924182943
 30
0.0
 10
95.70585070442641
 20
-154.078924182943
 30
0.0
 10
112.9058882537017
 20
-154.078924182943
 30
0.0
 10
112.9058882537017
 20
-154.078924182943
 30
0.0
 10
112.9058882537017
 20
-153.8026921205663
 30
0.0
 10
112.6818709197733
 20
-153.5786747866379
 30
0.0
 10
112.40564962332
 20
-153.5786747866379
 30
0.0
  0
HATCH
  5
42
330
1F
100
AcDbEntity
  8
_U+30EC_U+30A4_U+30E4_U+30FC 1
 62
     9
420
 13224394
100
AcDbHatch
 10
0.0
 20
0.0
 30
0.0
210
0.0
220
0.0
230
1.0
  2
SOLID
 70
     1
 71
     0
 91
        1
 92
        1
 93
        2
 72
     4
 94
        3
 73
     0
 74
     0
 95
       44
 96
       40
 40
0.0
 40
0.0
 40
0.0
 40
0.0
 40
0.3527777776895833
 40
0.3527777776895833
 40
0.3527777776895833
 40
0.7055555553791667
 40
0.7055555553791667
 40
0.7055555553791667
 40
1.05833333306875
 40
1.05833333306875
 40
1.05833333306875
 40
1.411111110758333
 40
1.411111110758333
 40
1.411111110758333
 40
1.763888888447917
 40
1.763888888447917
 40
1.763888888447917
 40
2.1166666661375
 40
2.1166666661375
 40
2.1166666661375
 40
2.469444443827083
 40
2.469444443827083
 40
2.469444443827083
 40
2.822222221516667
 40
2.822222221516667
 40
2.822222221516667
 40
3.17499999920625
 40
3.17499999920625
 40
3.17499999920625
 40
3.527777776895833
 40
3.527777776895833
 40
3.527777776895833
 40
3.880555554585417
 40
3.880555554585417
 40
3.880555554585417
 40
4.233333332275
 40
4.233333332275
 40
4.233333332275
 40
4.586111109964584
 40
4.586111109964584
 40
4.586111109964584
 40
4.586111109964584
 10
112.40564962332
 20
-153.5786747866379
 10
112.40564962332
 20
-153.5786747866379
 10
102.9053358880378
 20
-153.5786747866379
 10
102.9053358880378
 20
-153.5786747866379
 10
102.7268368782083
 20
-153.2692944461391
 10
102.3969905173424
 20
-153.0791467072001
 10
102.0399709658366
 20
-153.0791467072001
 10
102.0399709658366
 20
-153.0791467072001
 10
95.90587079511533
 20
-153.0791467072001
 10
95.90587079511533
 20
-153.0791467072001
 10
95.90587079511533
 20
-153.0791467072001
 10
95.90587079511533
 20
-146.5788651841673
 10
95.90587079511533
 20
-146.5788651841673
 10
95.90587079511533
 20
-146.5788651841673
 10
102.9053358880378
 20
-146.5788651841673
 10
102.9053358880378
 20
-146.5788651841673
 10
102.9053358880378
 20
-146.5788651841673
 10
102.9053358880378
 20
-145.9787833802534
 10
102.9053358880378
 20
-145.9787833802534
 10
102.9053358880378
 20
-145.9787833802534
 10
100.8955640752535
 20
-145.7777082290724
 10
100.8955640752535
 20
-145.7777082290724
 10
99.56982673698906
 20
-145.6454165624388
 10
98.23809277939556
 20
-145.5783879234036
 10
96.90600354633014
 20
-145.5783879234036
 10
96.90600354633014
 20
-145.5783879234036
 10
94.90610408529584
 20
-145.5783879234036
 10
94.90610408529584
 20
-145.5783879234036
 10
94.90610408529584
 20
-145.5783879234036
 10
94.90610408529584
 20
-153.2788222883405
 10
94.90610408529584
 20
-153.2788222883405
 10
94.90610408529584
 20
-153.7204942954729
 10
95.26416793137092
 20
-154.078924182943
 10
95.70585070442641
 20
-154.078924182943
 10
95.70585070442641
 20
-154.078924182943
 10
112.9058882537017
 20
-154.078924182943
 10
112.9058882537017
 20
-154.078924182943
 10
112.9058882537017
 20
-153.8026921205663
 10
112.6818709197733
 20
-153.5786747866379
 10
112.40564962332
 20
-153.5786747866379
 97
        0
 72
     1
 10
112.40564962332
 20
-153.5786747866379
 11
112.40564962332
 21
-153.5786747866379
 97
        0
 75
     2
 76
     1
 98
        0
  0
POLYLINE
  5
43
330
1F
100
AcDbEntity
  8
_U+30EC_U+30A4_U+30E4_U+30FC 1
 62
   179
420
  2234388
370
    25
100
AcDb2dPolyline
 66
     1
 10
0.0
 20
0.0
 30
0.0
  0
VERTEX
  5
44
330
43
100
AcDbEntity
  8
_U+30EC_U+30A4_U+30E4_U+30FC 1
 62
   179
420
  2234388
370
    25
100
AcDbVertex
100
AcDb2dVertex
 10
95.90574160403463
 20
-146.5789297797073
 30
0.0
  0
VERTEX
  5
45
330
43
100
AcDbEntity
  8
_U+30EC_U+30A4_U+30E4_U+30FC 1
 62
   179
420
  2234388
370
    25
100
AcDbVertex
100
AcDb2dVertex
 10
102.9055512065056
 20
-146.5789297797073
 30
0.0
  0
SEQEND
  5
46
330
43
100
AcDbEntity
  8
_U+30EC_U+30A4_U+30E4_U+30FC 1
 62
   179
420
  2234388
370
    25
  0
POLYLINE
  5
47
330
1F
100
AcDbEntity
  8
_U+30EC_U+30A4_U+30E4_U+30FC 1
 62
   179
420
  2234388
370
    25
100
AcDb2dPolyline
 66
     1
 10
0.0
 20
0.0
 30
0.0
  0
VERTEX
  5
48
330
47
100
AcDbEntity
  8
_U+30EC_U+30A4_U+30E4_U+30FC 1
 62
   179
420
  2234388
370
    25
100
AcDbVertex
100
AcDb2dVertex
 10
94.90593183052157
 20
-145.5784525189439
 30
0.0
  0
VERTEX
  5
49
330
47
100
AcDbEntity
  8
_U+30EC_U+30A4_U+30E4_U+30FC 1
 62
   179
420
  2234388
370
    25
100
AcDbVertex
100
AcDb2dVertex
 10
96.90617580110441
 20
-145.5784525189439
 30
0.0
  0
SEQEND
  5
4A
330
47
100
AcDbEntity
  8
_U+30EC_U+30A4_U+30E4_U+30FC 1
 62
   179
420
  2234388
370
    25
  0
POLYLINE
  5
4B
330
1F
100
AcDbEntity
  8
_U+30EC_U+30A4_U+30E4_U+30FC 1
 62
   179
420
  2234388
370
    25
100
AcDb2dPolyline
 66
     1
 10
0.0
 20
0.0
 30
0.0
  0
VERTEX
  5
4C
330
4B
100
AcDbEntity
  8
_U+30EC_U+30A4_U+30E4_U+30FC 1
 62
   179
420
  2234388
370
    25
100
AcDbVertex
100
AcDb2dVertex
 10
95.90574160403463
 20
-153.0791359412767
 30
0.0
  0
VERTEX
  5
4D
330
4B
100
AcDbEntity
  8
_U+30EC_U+30A4_U+30E4_U+30FC 1
 62
   179
420
  2234388
370
    25
100
AcDbVertex
100
AcDb2dVertex
 10
102.0401862843044
 20
-153.0791359412767
 30
0.0
  0
SEQEND
  5
4E
330
4B
100
AcDbEntity
  8
_U+30EC_U+30A4_U+30E4_U+30FC 1
 62
   179
420
  2234388
370
    25
  0
POLYLINE
  5
4F
330
1F
100
AcDbEntity
  8
_U+30EC_U+30A4_U+30E4_U+30FC 1
 62
   179
420
  2234388
370
    25
100
AcDb2dPolyline
 66
     1
 10
0.0
 20
0.0
 30
0.0
  0
VERTEX
  5
50
330
4F
100
AcDbEntity
  8
_U+30EC_U+30A4_U+30E4_U+30FC 1
 62
   179
420
  2234388
370
    25
100
AcDbVertex
100
AcDb2dVertex
 10
95.70592606589014
 20
-154.0788380555558
 30
0.0
  0
VERTEX
  5
51
330
4F
100
AcDbEntity
  8
_U+30EC_U+30A4_U+30E4_U+30FC 1
 62
   179
420
  2234388
370
    25
100
AcDbVertex
100
AcDb2dVertex
 10
112.9059528492421
 20
-154.0788380555558
 30
0.0
  0
SEQEND
  5
52
330
4F
100
AcDbEntity
  8
_U+30EC_U+30A4_U+30E4_U+30FC 1
 62
   179
420
  2234388
370
    25
  0
POLYLINE
  5
53
330
1F
100
AcDbEntity
  8
_U+30EC_U+30A4_U+30E4_U+30FC 1
 62
   179
420
  2234388
370
    25
100
AcDb2dPolyline
 66
     1
 10
0.0
 20
0.0
 30
0.0
  0
VERTEX
  5
54
330
53
100
AcDbEntity
  8
_U+30EC_U+30A4_U+30E4_U+30FC 1
 62
   179
420
  2234388
370
    25
100
AcDbVertex
100
AcDb2dVertex
 10
102.9054866109653
 20
-145.9787833802534
 30
0.0
  0
VERTEX
  5
55
330
53
100
AcDbEntity
  8
_U+30EC_U+30A4_U+30E4_U+30FC 1
 62
   179
420
  2234388
370
    25
100
AcDbVertex
100
AcDb2dVertex
 10
102.9054866109653
 20
-146.5788651841673
 30
0.0
  0
SEQEND
  5
56
330
53
100
AcDbEntity
  8
_U+30EC_U+30A4_U+30E4_U+30FC 1
 62
   179
420
  2234388
370
    25
  0
POLYLINE
  5
57
330
1F
100
AcDbEntity
  8
_U+30EC_U+30A4_U+30E4_U+30FC 1
 62
   179
420
  2234388
370
    25
100
AcDb2dPolyline
 66
     1
 10
0.0
 20
0.0
 30
0.0
  0
VERTEX
  5
58
330
57
100
AcDbEntity
  8
_U+30EC_U+30A4_U+30E4_U+30FC 1
 62
   179
420
  2234388
370
    25
100
AcDbVertex
100
AcDb2dVertex
 10
94.90593183052157
 20
-145.5784525189439
 30
0.0
  0
VERTEX
  5
59
330
57
100
AcDbEntity
  8
_U+30EC_U+30A4_U+30E4_U+30FC 1
 62
   179
420
  2234388
370
    25
100
AcDbVertex
100
AcDb2dVertex
 10
94.90593183052157
 20
-153.2788868838808
 30
0.0
  0
SEQEND
  5
5A
330
57
100
AcDbEntity
  8
_U+30EC_U+30A4_U+30E4_U+30FC 1
 62
   179
420
  2234388
370
    25
  0
POLYLINE
  5
5B
330
1F
100
AcDbEntity
  8
_U+30EC_U+30A4_U+30E4_U+30FC 1
 62
   179
420
  2234388
370
    25
100
AcDb2dPolyline
 66
     1
 10
0.0
 20
0.0
 30
0.0
  0
VERTEX
  5
5C
330
5B
100
AcDbEntity
  8
_U+30EC_U+30A4_U+30E4_U+30FC 1
 62
   179
420
  2234388
370
    25
100
AcDbVertex
100
AcDb2dVertex
 10
95.90574160403463
 20
-146.5789297797073
 30
0.0
  0
VERTEX
  5
5D
330
5B
100
AcDbEntity
  8
_U+30EC_U+30A4_U+30E4_U+30FC 1
 62
   179
420
  2234388
370
    25
100
AcDbVertex
100
AcDb2dVertex
 10
95.90574160403463
 20
-153.0792220686638
 30
0.0
  0
SEQEND
  5
5E
330
5B
100
AcDbEntity
  8
_U+30EC_U+30A4_U+30E4_U+30FC 1
 62
   179
420
  2234388
370
    25
  0
POLYLINE
  5
5F
330
1F
100
AcDbEntity
  8
_U+30EC_U+30A4_U+30E4_U+30FC 1
 62
   179
420
  2234388
370
    25
100
AcDb2dPolyline
 66
     1
 10
0.0
 20
0.0
 30
0.0
  0
VERTEX
  5
60
330
5F
100
AcDbEntity
  8
_U+30EC_U+30A4_U+30E4_U+30FC 1
 62
   179
420
  2234388
370
    25
100
AcDbVertex
100
AcDb2dVertex
 10
100.8955748411769
 20
-145.7775898039148
 30
0.0
  0
VERTEX
  5
61
330
5F
100
AcDbEntity
  8
_U+30EC_U+30A4_U+30E4_U+30FC 1
 62
   179
420
  2234388
370
    25
100
AcDbVertex
100
AcDb2dVertex
 10
102.9053466539612
 20
-145.9786757210194
 30
0.0
  0
SEQEND
  5
62
330
5F
100
AcDbEntity
  8
_U+30EC_U+30A4_U+30E4_U+30FC 1
 62
   179
420
  2234388
370
    25
  0
POLYLINE
  5
63
330
1F
100
AcDbEntity
  8
_U+30EC_U+30A4_U+30E4_U+30FC 1
 62
   179
420
  2234388
370
    25
100
AcDb2dPolyline
 66
     1
 10
0.0
 20
0.0
 30
0.0
  0
VERTEX
  5
64
330
63
100
AcDbEntity
  8
_U+30EC_U+30A4_U+30E4_U+30FC 1
 62
   179
420
  2234388
370
    25
100
AcDbVertex
100
AcDb2dVertex
 10
102.9054866109653
 20
-153.5786747866379
 30
0.0
  0
VERTEX
  5
65
330
63
100
AcDbEntity
  8
_U+30EC_U+30A4_U+30E4_U+30FC 1
 62
   179
420
  2234388
370
    25
100
AcDbVertex
100
AcDb2dVertex
 10
112.4057895803241
 20
-153.5786747866379
 30
0.0
  0
SEQEND
  5
66
330
63
100
AcDbEntity
  8
_U+30EC_U+30A4_U+30E4_U+30FC 1
 62
   179
420
  2234388
370
    25
  0
SPLINE
  5
67
330
1F
100
AcDbEntity
  8
_U+30EC_U+30A4_U+30E4_U+30FC 1
 62
   179
420
  2234388
370
    25
100
AcDbSpline
210
0.0
220
0.0
230
1.0
 70
     8
 71
     3
 72
     8
 73
     4
 74
     0
 42
0.0000000001
 43
0.0000000001
 12
1.0
 22
0.0
 32
0.0
 13
1.0
 23
0.0
 33
0.0
 40
0.0
 40
0.0
 40
0.0
 40
0.0
 40
1.0
 40
1.0
 40
1.0
 40
1.0
 10
94.90593183052157
 20
-153.2789514794212
 30
0.0
 10
94.90593183052157
 20
-153.720634252477
 30
0.0
 10
95.26435095206824
 20
-154.0790533740237
 30
0.0
 10
95.70602295920067
 20
-154.0790533740237
 30
0.0
  0
SPLINE
  5
68
330
1F
100
AcDbEntity
  8
_U+30EC_U+30A4_U+30E4_U+30FC 1
 62
   179
420
  2234388
370
    25
100
AcDbSpline
210
0.0
220
0.0
230
1.0
 70
     8
 71
     3
 72
     8
 73
     4
 74
     0
 42
0.0000000001
 43
0.0000000001
 12
1.0
 22
0.0
 32
0.0
 13
1.0
 23
0.0
 33
0.0
 40
0.0
 40
0.0
 40
0.0
 40
0.0
 40
1.0
 40
1.0
 40
1.0
 40
1.0
 10
112.9058882537017
 20
-154.0788380555558
 30
0.0
 10
112.9058882537017
 20
-153.8026167591025
 30
0.0
 10
112.6818709197733
 20
-153.5785994251742
 30
0.0
 10
112.4056388573966
 20
-153.5785994251742
 30
0.0
  0
SPLINE
  5
69
330
1F
100
AcDbEntity
  8
_U+30EC_U+30A4_U+30E4_U+30FC 1
 62
   179
420
  2234388
370
    25
100
AcDbSpline
210
0.0
220
0.0
230
1.0
 70
     8
 71
     3
 72
     8
 73
     4
 74
     0
 42
0.0000000001
 43
0.0000000001
 12
1.0
 22
0.0
 32
0.0
 13
1.0
 23
0.0
 33
0.0
 40
0.0
 40
0.0
 40
0.0
 40
0.0
 40
1.0
 40
1.0
 40
1.0
 40
1.0
 10
102.9054866109653
 20
-153.5786747866379
 30
0.0
 10
102.7269768352124
 20
-153.2692944461391
 30
0.0
 10
102.3971304743465
 20
-153.0791467072001
 30
0.0
 10
102.0401216887641
 20
-153.0791467072001
 30
0.0
  0
SPLINE
  5
6A
330
1F
100
AcDbEntity
  8
_U+30EC_U+30A4_U+30E4_U+30FC 1
 62
   179
420
  2234388
370
    25
100
AcDbSpline
210
0.0
220
0.0
230
1.0
 70
     8
 71
     3
 72
     8
 73
     4
 74
     0
 42
0.0000000001
 43
0.0000000001
 12
1.0
 22
0.0
 32
0.0
 13
1.0
 23
0.0
 33
0.0
 40
0.0
 40
0.0
 40
0.0
 40
0.0
 40
1.0
 40
1.0
 40
1.0
 40
1.0
 10
100.8955748411769
 20
-145.7775898039148
 30
0.0
 10
99.56982673698906
 20
-145.6452981372812
 30
0.0
 10
98.23809277939556
 20
-145.5786247737182
 30
0.0
 10
96.90600354633014
 20
-145.5786247737182
 30
0.0
  0
SPLINE
  5
6B
330
1F
100
AcDbEntity
  8
_U+30EC_U+30A4_U+30E4_U+30FC 1
 62
   179
420
  2234388
370
     9
100
AcDbSpline
210
0.0
220
0.0
230
1.0
 70
    11
 71
     3
 72
    17
 73
    13
 74
     0
 42
0.0000000001
 43
0.0000000001
 12
1.0
 22
0.0
 32
0.0
 13
1.0
 23
0.0
 33
0.0
 40
0.0
 40
0.0
 40
0.0
 40
0.0
 40
1.0
 40
1.0
 40
1.0
 40
2.0
 40
2.0
 40
2.0
 40
3.0
 40
3.0
 40
3.0
 40
4.0
 40
4.0
 40
4.0
 40
4.0
 10
95.00588266328738
 20
-141.5786858946455
 30
0.0
 10
95.00588266328738
 20
-141.523661260192
 30
0.0
 10
94.96107489013235
 20
-141.478853487037
 30
0.0
 10
94.90603948975549
 20
-141.478853487037
 30
0.0
 10
94.85100408937862
 20
-141.478853487037
 30
0.0
 10
94.80620708214698
 20
-141.523661260192
 30
0.0
 10
94.80620708214698
 20
-141.5786858946455
 30
0.0
 10
94.80620708214698
 20
-141.6337212950224
 30
0.0
 10
94.85100408937862
 20
-141.6785290681774
 30
0.0
 10
94.90603948975549
 20
-141.6785290681774
 30
0.0
 10
94.96107489013235
 20
-141.6785290681774
 30
0.0
 10
95.00588266328738
 20
-141.6337212950224
 30
0.0
 10
95.00588266328738
 20
-141.5786858946455
 30
0.0
  0
SPLINE
  5
6C
330
1F
100
AcDbEntity
  8
_U+30EC_U+30A4_U+30E4_U+30FC 1
 62
   179
420
  2234388
370
     9
100
AcDbSpline
210
0.0
220
0.0
230
1.0
 70
    11
 71
     3
 72
    17
 73
    13
 74
     0
 42
0.0000000001
 43
0.0000000001
 12
1.0
 22
0.0
 32
0.0
 13
1.0
 23
0.0
 33
0.0
 40
0.0
 40
0.0
 40
0.0
 40
0.0
 40
1.0
 40
1.0
 40
1.0
 40
2.0
 40
2.0
 40
2.0
 40
3.0
 40
3.0
 40
3.0
 40
4.0
 40
4.0
 40
4.0
 40
4.0
 10
103.0060618672878
 20
-141.5786858946455
 30
0.0
 10
103.0060618672878
 20
-141.523661260192
 30
0.0
 10
102.9612540941327
 20
-141.478853487037
 30
0.0
 10
102.9055189087354
 20
-141.478853487037
 30
0.0
 10
102.8504835083586
 20
-141.478853487037
 30
0.0
 10
102.8056757352035
 20
-141.523661260192
 30
0.0
 10
102.8056757352035
 20
-141.5786858946455
 30
0.0
 10
102.8056757352035
 20
-141.6337212950224
 30
0.0
 10
102.8504835083586
 20
-141.6785290681774
 30
0.0
 10
102.9055189087354
 20
-141.6785290681774
 30
0.0
 10
102.9612540941327
 20
-141.6785290681774
 30
0.0
 10
103.0060618672878
 20
-141.6337212950224
 30
0.0
 10
103.0060618672878
 20
-141.5786858946455
 30
0.0
  0
SPLINE
  5
6D
330
1F
100
AcDbEntity
  8
_U+30EC_U+30A4_U+30E4_U+30FC 1
 62
   179
420
  2234388
370
     9
100
AcDbSpline
210
0.0
220
0.0
230
1.0
 70
    11
 71
     3
 72
    17
 73
    13
 74
     0
 42
0.0000000001
 43
0.0000000001
 12
1.0
 22
0.0
 32
0.0
 13
1.0
 23
0.0
 33
0.0
 40
0.0
 40
0.0
 40
0.0
 40
0.0
 40
1.0
 40
1.0
 40
1.0
 40
2.0
 40
2.0
 40
2.0
 40
3.0
 40
3.0
 40
3.0
 40
4.0
 40
4.0
 40
4.0
 40
4.0
 10
116.883563203201
 20
-146.5789297797073
 30
0.0
 10
116.883563203201
 20
-146.5239051452538
 30
0.0
 10
116.838755430046
 20
-146.4790973720988
 30
0.0
 10
116.7837200296691
 20
-146.4790973720988
 30
0.0
 10
116.7286846292922
 20
-146.4790973720988
 30
0.0
 10
116.6838876220606
 20
-146.5239051452538
 30
0.0
 10
116.6838876220606
 20
-146.5789297797073
 30
0.0
 10
116.6838876220606
 20
-146.6339651800841
 30
0.0
 10
116.7286846292922
 20
-146.6787729532395
 30
0.0
 10
116.7837200296691
 20
-146.6787729532395
 30
0.0
 10
116.838755430046
 20
-146.6787729532395
 30
0.0
 10
116.883563203201
 20
-146.6339651800841
 30
0.0
 10
116.883563203201
 20
-146.5789297797073
 30
0.0
  0
SPLINE
  5
6E
330
1F
100
AcDbEntity
  8
_U+30EC_U+30A4_U+30E4_U+30FC 1
 62
   179
420
  2234388
370
     9
100
AcDbSpline
210
0.0
220
0.0
230
1.0
 70
    11
 71
     3
 72
    17
 73
    13
 74
     0
 42
0.0000000001
 43
0.0000000001
 12
1.0
 22
0.0
 32
0.0
 13
1.0
 23
0.0
 33
0.0
 40
0.0
 40
0.0
 40
0.0
 40
0.0
 40
1.0
 40
1.0
 40
1.0
 40
2.0
 40
2.0
 40
2.0
 40
3.0
 40
3.0
 40
3.0
 40
4.0
 40
4.0
 40
4.0
 40
4.0
 10
116.883563203201
 20
-153.0791359412767
 30
0.0
 10
116.883563203201
 20
-153.0234007558794
 30
0.0
 10
116.838755430046
 20
-152.9786037486477
 30
0.0
 10
116.7837200296691
 20
-152.9786037486477
 30
0.0
 10
116.7286846292922
 20
-152.9786037486477
 30
0.0
 10
116.6838876220606
 20
-153.0234007558794
 30
0.0
 10
116.6838876220606
 20
-153.0791359412767
 30
0.0
 10
116.6838876220606
 20
-153.1341713416535
 30
0.0
 10
116.7286846292922
 20
-153.1789791148086
 30
0.0
 10
116.7837200296691
 20
-153.1789791148086
 30
0.0
 10
116.838755430046
 20
-153.1789791148086
 30
0.0
 10
116.883563203201
 20
-153.1341713416535
 30
0.0
 10
116.883563203201
 20
-153.0791359412767
 30
0.0
  0
SPLINE
  5
6F
330
1F
100
AcDbEntity
  8
_U+30EC_U+30A4_U+30E4_U+30FC 1
 62
   179
420
  2234388
370
     9
100
AcDbSpline
210
0.0
220
0.0
230
1.0
 70
    11
 71
     3
 72
    17
 73
    13
 74
     0
 42
0.0000000001
 43
0.0000000001
 12
1.0
 22
0.0
 32
0.0
 13
1.0
 23
0.0
 33
0.0
 40
0.0
 40
0.0
 40
0.0
 40
0.0
 40
1.0
 40
1.0
 40
1.0
 40
2.0
 40
2.0
 40
2.0
 40
3.0
 40
3.0
 40
3.0
 40
4.0
 40
4.0
 40
4.0
 40
4.0
 10
95.00588266328738
 20
-158.0786046798543
 30
0.0
 10
95.00588266328738
 20
-158.0235800454008
 30
0.0
 10
94.96107489013235
 20
-157.9787722722458
 30
0.0
 10
94.90603948975549
 20
-157.9787722722458
 30
0.0
 10
94.85100408937862
 20
-157.9787722722458
 30
0.0
 10
94.80620708214698
 20
-158.0235800454008
 30
0.0
 10
94.80620708214698
 20
-158.0786046798543
 30
0.0
 10
94.80620708214698
 20
-158.1336400802311
 30
0.0
 10
94.85100408937862
 20
-158.1784478533862
 30
0.0
 10
94.90603948975549
 20
-158.1784478533862
 30
0.0
 10
94.96107489013235
 20
-158.1784478533862
 30
0.0
 10
95.00588266328738
 20
-158.1336400802311
 30
0.0
 10
95.00588266328738
 20
-158.0786046798543
 30
0.0
  0
SPLINE
  5
70
330
1F
100
AcDbEntity
  8
_U+30EC_U+30A4_U+30E4_U+30FC 1
 62
   179
420
  2234388
370
     9
100
AcDbSpline
210
0.0
220
0.0
230
1.0
 70
    11
 71
     3
 72
    17
 73
    13
 74
     0
 42
0.0000000001
 43
0.0000000001
 12
1.0
 22
0.0
 32
0.0
 13
1.0
 23
0.0
 33
0.0
 40
0.0
 40
0.0
 40
0.0
 40
0.0
 40
1.0
 40
1.0
 40
1.0
 40
2.0
 40
2.0
 40
2.0
 40
3.0
 40
3.0
 40
3.0
 40
4.0
 40
4.0
 40
4.0
 40
4.0
 10
113.0057960227739
 20
-158.0786046798543
 30
0.0
 10
113.0057960227739
 20
-158.0235800454008
 30
0.0
 10
112.9609882496189
 20
-157.9787722722458
 30
0.0
 10
112.9059528492421
 20
-157.9787722722458
 30
0.0
 10
112.8509174488652
 20
-157.9787722722458
 30
0.0
 10
112.8061204416335
 20
-158.0235800454008
 30
0.0
 10
112.8061204416335
 20
-158.0786046798543
 30
0.0
 10
112.8061204416335
 20
-158.1336400802311
 30
0.0
 10
112.8509174488652
 20
-158.1784478533862
 30
0.0
 10
112.9059528492421
 20
-158.1784478533862
 30
0.0
 10
112.9609882496189
 20
-158.1784478533862
 30
0.0
 10
113.0057960227739
 20
-158.1336400802311
 30
0.0
 10
113.0057960227739
 20
-158.0786046798543
 30
0.0
  0
POLYLINE
  5
71
330
1F
100
AcDbEntity
  8
_U+30EC_U+30A4_U+30E4_U+30FC 1
 62
   179
420
  2234388
370
     9
100
AcDb2dPolyline
 66
     1
 10
0.0
 20
0.0
 30
0.0
  0
VERTEX
  5
72
330
71
100
AcDbEntity
  8
_U+30EC_U+30A4_U+30E4_U+30FC 1
 62
   179
420
  2234388
370
     9
100
AcDbVertex
100
AcDb2dVertex
 10
94.90593183052157
 20
-141.5786858946455
 30
0.0
  0
VERTEX
  5
73
330
71
100
AcDbEntity
  8
_U+30EC_U+30A4_U+30E4_U+30FC 1
 62
   179
420
  2234388
370
     9
100
AcDbVertex
100
AcDb2dVertex
 10
102.9055189087354
 20
-141.5786858946455
 30
0.0
  0
SEQEND
  5
74
330
71
100
AcDbEntity
  8
_U+30EC_U+30A4_U+30E4_U+30FC 1
 62
   179
420
  2234388
370
     9
  0
POLYLINE
  5
75
330
1F
100
AcDbEntity
  8
_U+30EC_U+30A4_U+30E4_U+30FC 1
 62
   179
420
  2234388
370
     9
100
AcDb2dPolyline
 66
     1
 10
0.0
 20
0.0
 30
0.0
  0
VERTEX
  5
76
330
75
100
AcDbEntity
  8
_U+30EC_U+30A4_U+30E4_U+30FC 1
 62
   179
420
  2234388
370
     9
100
AcDbVertex
100
AcDb2dVertex
 10
94.90593183052157
 20
-143.0387281272178
 30
0.0
  0
VERTEX
  5
77
330
75
100
AcDbEntity
  8
_U+30EC_U+30A4_U+30E4_U+30FC 1
 62
   179
420
  2234388
370
     9
100
AcDbVertex
100
AcDb2dVertex
 10
94.90593183052157
 20
-140.5788115255921
 30
0.0
  0
SEQEND
  5
78
330
75
100
AcDbEntity
  8
_U+30EC_U+30A4_U+30E4_U+30FC 1
 62
   179
420
  2234388
370
     9
  0
POLYLINE
  5
79
330
1F
100
AcDbEntity
  8
_U+30EC_U+30A4_U+30E4_U+30FC 1
 62
   179
420
  2234388
370
     9
100
AcDb2dPolyline
 66
     1
 10
0.0
 20
0.0
 30
0.0
  0
VERTEX
  5
7A
330
79
100
AcDbEntity
  8
_U+30EC_U+30A4_U+30E4_U+30FC 1
 62
   179
420
  2234388
370
     9
100
AcDbVertex
100
AcDb2dVertex
 10
102.9054866109653
 20
-143.4390589885272
 30
0.0
  0
VERTEX
  5
7B
330
79
100
AcDbEntity
  8
_U+30EC_U+30A4_U+30E4_U+30FC 1
 62
   179
420
  2234388
370
     9
100
AcDbVertex
100
AcDb2dVertex
 10
102.9054866109653
 20
-140.5790914396002
 30
0.0
  0
SEQEND
  5
7C
330
79
100
AcDbEntity
  8
_U+30EC_U+30A4_U+30E4_U+30FC 1
 62
   179
420
  2234388
370
     9
  0
INSERT
  5
7E
330
1F
100
AcDbEntity
  8
_U+30EC_U+30A4_U+30E4_U+30FC 1
100
AcDbBlockReference
  2
block 2
 10
0.0
 20
0.0
 30
0.0
  0
POLYLINE
  5
85
330
1F
100
AcDbEntity
  8
_U+30EC_U+30A4_U+30E4_U+30FC 1
 62
   179
420
  2234388
370
     9
100
AcDb2dPolyline
 66
     1
 10
0.0
 20
0.0
 30
0.0
  0
VERTEX
  5
86
330
85
100
AcDbEntity
  8
_U+30EC_U+30A4_U+30E4_U+30FC 1
 62
   179
420
  2234388
370
     9
100
AcDbVertex
100
AcDb2dVertex
 10
94.90593183052157
 20
-158.0786046798543
 30
0.0
  0
VERTEX
  5
87
330
85
100
AcDbEntity
  8
_U+30EC_U+30A4_U+30E4_U+30FC 1
 62
   179
420
  2234388
370
     9
100
AcDbVertex
100
AcDb2dVertex
 10
112.905705233004
 20
-158.0786046798543
 30
0.0
  0
SEQEND
  5
88
330
85
100
AcDbEntity
  8
_U+30EC_U+30A4_U+30E4_U+30FC 1
 62
   179
420
  2234388
370
     9
  0
POLYLINE
  5
89
330
1F
100
AcDbEntity
  8
_U+30EC_U+30A4_U+30E4_U+30FC 1
 62
   179
420
  2234388
370
     9
100
AcDb2dPolyline
 66
     1
 10
0.0
 20
0.0
 30
0.0
  0
VERTEX
  5
8A
330
89
100
AcDbEntity
  8
_U+30EC_U+30A4_U+30E4_U+30FC 1
 62
   179
420
  2234388
370
     9
100
AcDbVertex
100
AcDb2dVertex
 10
94.90593183052157
 20
-155.8186758711473
 30
0.0
  0
VERTEX
  5
8B
330
89
100
AcDbEntity
  8
_U+30EC_U+30A4_U+30E4_U+30FC 1
 62
   179
420
  2234388
370
     9
100
AcDbVertex
100
AcDb2dVertex
 10
94.90593183052157
 20
-159.078349857827
 30
0.0
  0
SEQEND
  5
8C
330
89
100
AcDbEntity
  8
_U+30EC_U+30A4_U+30E4_U+30FC 1
 62
   179
420
  2234388
370
     9
  0
POLYLINE
  5
8D
330
1F
100
AcDbEntity
  8
_U+30EC_U+30A4_U+30E4_U+30FC 1
 62
   179
420
  2234388
370
     9
100
AcDb2dPolyline
 66
     1
 10
0.0
 20
0.0
 30
0.0
  0
VERTEX
  5
8E
330
8D
100
AcDbEntity
  8
_U+30EC_U+30A4_U+30E4_U+30FC 1
 62
   179
420
  2234388
370
     9
100
AcDbVertex
100
AcDb2dVertex
 10
112.9058882537017
 20
-156.6186270428223
 30
0.0
  0
VERTEX
  5
8F
330
8D
100
AcDbEntity
  8
_U+30EC_U+30A4_U+30E4_U+30FC 1
 62
   179
420
  2234388
370
     9
100
AcDbVertex
100
AcDb2dVertex
 10
112.9058882537017
 20
-159.0785544103714
 30
0.0
  0
SEQEND
  5
90
330
8D
100
AcDbEntity
  8
_U+30EC_U+30A4_U+30E4_U+30FC 1
 62
   179
420
  2234388
370
     9
  0
INSERT
  5
92
330
1F
100
AcDbEntity
  8
_U+30EC_U+30A4_U+30E4_U+30FC 1
100
AcDbBlockReference
  2
block 3
 10
0.0
 20
0.0
 30
0.0
  0
POLYLINE
  5
9B
330
1F
100
AcDbEntity
  8
_U+30EC_U+30A4_U+30E4_U+30FC 1
 62
   179
420
  2234388
370
     9
100
AcDb2dPolyline
 66
     1
 10
0.0
 20
0.0
 30
0.0
  0
VERTEX
  5
9C
330
9B
100
AcDbEntity
  8
_U+30EC_U+30A4_U+30E4_U+30FC 1
 62
   179
420
  2234388
370
     9
100
AcDbVertex
100
AcDb2dVertex
 10
116.7836662000521
 20
-153.0791359412767
 30
0.0
  0
VERTEX
  5
9D
330
9B
100
AcDbEntity
  8
_U+30EC_U+30A4_U+30E4_U+30FC 1
 62
   179
420
  2234388
370
     9
100
AcDbVertex
100
AcDb2dVertex
 10
116.7836662000521
 20
-141.6064512110719
 30
0.0
  0
SEQEND
  5
9E
330
9B
100
AcDbEntity
  8
_U+30EC_U+30A4_U+30E4_U+30FC 1
 62
   179
420
  2234388
370
     9
  0
POLYLINE
  5
9F
330
1F
100
AcDbEntity
  8
_U+30EC_U+30A4_U+30E4_U+30FC 1
 62
   179
420
  2234388
370
     9
100
AcDb2dPolyline
 66
     1
 10
0.0
 20
0.0
 30
0.0
  0
VERTEX
  5
A0
330
9F
100
AcDbEntity
  8
_U+30EC_U+30A4_U+30E4_U+30FC 1
 62
   179
420
  2234388
370
     9
100
AcDbVertex
100
AcDb2dVertex
 10
115.2995298309299
 20
-153.0825595049151
 30
0.0
  0
VERTEX
  5
A1
330
9F
100
AcDbEntity
  8
_U+30EC_U+30A4_U+30E4_U+30FC 1
 62
   179
420
  2234388
370
     9
100
AcDbVertex
100
AcDb2dVertex
 10
117.7834329098716
 20
-153.0790390479661
 30
0.0
  0
SEQEND
  5
A2
330
9F
100
AcDbEntity
  8
_U+30EC_U+30A4_U+30E4_U+30FC 1
 62
   179
420
  2234388
370
     9
  0
POLYLINE
  5
A3
330
1F
100
AcDbEntity
  8
_U+30EC_U+30A4_U+30E4_U+30FC 1
 62
   179
420
  2234388
370
     9
100
AcDb2dPolyline
 66
     1
 10
0.0
 20
0.0
 30
0.0
  0
VERTEX
  5
A4
330
A3
100
AcDbEntity
  8
_U+30EC_U+30A4_U+30E4_U+30FC 1
 62
   179
420
  2234388
370
     9
100
AcDbVertex
100
AcDb2dVertex
 10
115.3236885630202
 20
-146.5789297797073
 30
0.0
  0
VERTEX
  5
A5
330
A3
100
AcDbEntity
  8
_U+30EC_U+30A4_U+30E4_U+30FC 1
 62
   179
420
  2234388
370
     9
100
AcDbVertex
100
AcDb2dVertex
 10
117.7836051646459
 20
-146.5789297797073
 30
0.0
  0
SEQEND
  5
A6
330
A3
100
AcDbEntity
  8
_U+30EC_U+30A4_U+30E4_U+30FC 1
 62
   179
420
  2234388
370
     9
  0
INSERT
  5
A8
330
1F
100
AcDbEntity
  8
_U+30EC_U+30A4_U+30E4_U+30FC 1
100
AcDbBlockReference
  2
block 4
 10
0.0
 20
0.0
 30
0.0
  0
POLYLINE
  5
B8
330
1F
100
AcDbEntity
  8
_U+30EC_U+30A4_U+30E4_U+30FC 1
  6
AI-Linetype-1
 62
     8
420
  8223869
370
    25
100
AcDb2dPolyline
 66
     1
 10
0.0
 20
0.0
 30
0.0
  0
VERTEX
  5
B9
330
B8
100
AcDbEntity
  8
_U+30EC_U+30A4_U+30E4_U+30FC 1
  6
AI-Linetype-1
 62
     8
420
  8223869
370
    25
100
AcDbVertex
100
AcDb2dVertex
 10
103.5979615694239
 20
-146.8380117261214
 30
0.0
  0
VERTEX
  5
BA
330
B8
100
AcDbEntity
  8
_U+30EC_U+30A4_U+30E4_U+30FC 1
  6
AI-Linetype-1
 62
     8
420
  8223869
370
    25
100
AcDbVertex
100
AcDb2dVertex
 10
103.5979615694239
 20
-144.9273725359256
 30
0.0
  0
VERTEX
  5
BB
330
B8
100
AcDbEntity
  8
_U+30EC_U+30A4_U+30E4_U+30FC 1
  6
AI-Linetype-1
 62
     8
420
  8223869
370
    25
100
AcDbVertex
100
AcDb2dVertex
 10
94.10682040087109
 20
-144.9273725359256
 30
0.0
  0
VERTEX
  5
BC
330
B8
100
AcDbEntity
  8
_U+30EC_U+30A4_U+30E4_U+30FC 1
  6
AI-Linetype-1
 62
     8
420
  8223869
370
    25
100
AcDbVertex
100
AcDb2dVertex
 10
94.10682040087109
 20
-154.3179599800023
 30
0.0
  0
SEQEND
  5
BE
330
B8
100
AcDbEntity
  8
_U+30EC_U+30A4_U+30E4_U+30FC 1
  6
AI-Linetype-1
 62
     8
420
  8223869
370
    25
  0
SPLINE
  5
BF
330
1F
100
AcDbEntity
  8
_U+30EC_U+30A4_U+30E4_U+30FC 1
 62
   179
420
  2234388
370
     9
100
AcDbSpline
210
0.0
220
0.0
230
1.0
 70
    11
 71
     3
 72
    17
 73
    13
 74
     0
 42
0.0000000001
 43
0.0000000001
 12
1.0
 22
0.0
 32
0.0
 13
1.0
 23
0.0
 33
0.0
 40
0.0
 40
0.0
 40
0.0
 40
0.0
 40
1.0
 40
1.0
 40
1.0
 40
2.0
 40
2.0
 40
2.0
 40
3.0
 40
3.0
 40
3.0
 40
4.0
 40
4.0
 40
4.0
 40
4.0
 10
94.99412627494397
 20
-149.664357296297
 30
0.0
 10
94.99412627494397
 20
-149.6093326618436
 30
0.0
 10
94.94931850178894
 20
-149.5645248886885
 30
0.0
 10
94.89358331639163
 20
-149.5645248886885
 30
0.0
 10
94.83854791601476
 20
-149.5645248886885
 30
0.0
 10
94.79374014286005
 20
-149.6093326618436
 30
0.0
 10
94.79374014286005
 20
-149.664357296297
 30
0.0
 10
94.79374014286005
 20
-149.7193926966739
 30
0.0
 10
94.83854791601476
 20
-149.7642004698289
 30
0.0
 10
94.89358331639163
 20
-149.7642004698289
 30
0.0
 10
94.94931850178894
 20
-149.7642004698289
 30
0.0
 10
94.99412627494397
 20
-149.7193926966739
 30
0.0
 10
94.99412627494397
 20
-149.664357296297
 30
0.0
  0
SPLINE
  5
C0
330
1F
100
AcDbEntity
  8
_U+30EC_U+30A4_U+30E4_U+30FC 1
 62
   179
420
  2234388
370
     9
100
AcDbSpline
210
0.0
220
0.0
230
1.0
 70
    11
 71
     3
 72
    17
 73
    13
 74
     0
 42
0.0000000001
 43
0.0000000001
 12
1.0
 22
0.0
 32
0.0
 13
1.0
 23
0.0
 33
0.0
 40
0.0
 40
0.0
 40
0.0
 40
0.0
 40
1.0
 40
1.0
 40
1.0
 40
2.0
 40
2.0
 40
2.0
 40
3.0
 40
3.0
 40
3.0
 40
4.0
 40
4.0
 40
4.0
 40
4.0
 10
95.99393604845703
 20
-149.664357296297
 30
0.0
 10
95.99393604845703
 20
-149.6093326618436
 30
0.0
 10
95.949128275302
 20
-149.5645248886885
 30
0.0
 10
95.89339308990469
 20
-149.5645248886885
 30
0.0
 10
95.83835768952783
 20
-149.5645248886885
 30
0.0
 10
95.7935499163728
 20
-149.6093326618436
 30
0.0
 10
95.7935499163728
 20
-149.664357296297
 30
0.0
 10
95.7935499163728
 20
-149.7193926966739
 30
0.0
 10
95.83835768952783
 20
-149.7642004698289
 30
0.0
 10
95.89339308990469
 20
-149.7642004698289
 30
0.0
 10
95.949128275302
 20
-149.7642004698289
 30
0.0
 10
95.99393604845703
 20
-149.7193926966739
 30
0.0
 10
95.99393604845703
 20
-149.664357296297
 30
0.0
  0
INSERT
  5
C2
330
1F
100
AcDbEntity
  8
_U+30EC_U+30A4_U+30E4_U+30FC 1
100
AcDbBlockReference
  2
block 5
 10
0.0
 20
0.0
 30
0.0
  0
POLYLINE
  5
C7
330
1F
100
AcDbEntity
  8
_U+30EC_U+30A4_U+30E4_U+30FC 1
 62
   179
420
  2234388
370
     9
100
AcDb2dPolyline
 66
     1
 10
0.0
 20
0.0
 30
0.0
  0
VERTEX
  5
C8
330
C7
100
AcDbEntity
  8
_U+30EC_U+30A4_U+30E4_U+30FC 1
 62
   179
420
  2234388
370
     9
100
AcDbVertex
100
AcDb2dVertex
 10
96.75530215069725
 20
-149.664357296297
 30
0.0
  0
VERTEX
  5
C9
330
C7
100
AcDbEntity
  8
_U+30EC_U+30A4_U+30E4_U+30FC 1
 62
   179
420
  2234388
370
     9
100
AcDbVertex
100
AcDb2dVertex
 10
92.16636498584242
 20
-149.664357296297
 30
0.0
  0
SEQEND
  5
CA
330
C7
100
AcDbEntity
  8
_U+30EC_U+30A4_U+30E4_U+30FC 1
 62
   179
420
  2234388
370
     9
  0
SPLINE
  5
CB
330
1F
100
AcDbEntity
  8
_U+30EC_U+30A4_U+30E4_U+30FC 1
 62
   179
420
  2234388
370
     9
100
AcDbSpline
210
0.0
220
0.0
230
1.0
 70
    11
 71
     3
 72
    17
 73
    13
 74
     0
 42
0.0000000001
 43
0.0000000001
 12
1.0
 22
0.0
 32
0.0
 13
1.0
 23
0.0
 33
0.0
 40
0.0
 40
0.0
 40
0.0
 40
0.0
 40
1.0
 40
1.0
 40
1.0
 40
2.0
 40
2.0
 40
2.0
 40
3.0
 40
3.0
 40
3.0
 40
4.0
 40
4.0
 40
4.0
 40
4.0
 10
116.8787723672918
 20
-154.0602883695524
 30
0.0
 10
116.8787723672918
 20
-154.0045531841551
 30
0.0
 10
116.8339645941368
 20
-153.9597561769235
 30
0.0
 10
116.7789291937599
 20
-153.9597561769235
 30
0.0
 10
116.7238937933831
 20
-153.9597561769235
 30
0.0
 10
116.6790967861514
 20
-154.0045531841551
 30
0.0
 10
116.6790967861514
 20
-154.0602883695524
 30
0.0
 10
116.6790967861514
 20
-154.1153237699293
 30
0.0
 10
116.7238937933831
 20
-154.1601315430843
 30
0.0
 10
116.7789291937599
 20
-154.1601315430843
 30
0.0
 10
116.8339645941368
 20
-154.1601315430843
 30
0.0
 10
116.8787723672918
 20
-154.1153237699293
 30
0.0
 10
116.8787723672918
 20
-154.0602883695524
 30
0.0
  0
POLYLINE
  5
CC
330
1F
100
AcDbEntity
  8
_U+30EC_U+30A4_U+30E4_U+30FC 1
 62
   179
420
  2234388
370
     9
100
AcDb2dPolyline
 66
     1
 10
0.0
 20
0.0
 30
0.0
  0
VERTEX
  5
CD
330
CC
100
AcDbEntity
  8
_U+30EC_U+30A4_U+30E4_U+30FC 1
 62
   179
420
  2234388
370
     9
100
AcDbVertex
100
AcDb2dVertex
 10
116.7788968959897
 20
-154.0602883695524
 30
0.0
  0
VERTEX
  5
CE
330
CC
100
AcDbEntity
  8
_U+30EC_U+30A4_U+30E4_U+30FC 1
 62
   179
420
  2234388
370
     9
100
AcDbVertex
100
AcDb2dVertex
 10
116.7788968959897
 20
-151.2345456910868
 30
0.0
  0
SEQEND
  5
CF
330
CC
100
AcDbEntity
  8
_U+30EC_U+30A4_U+30E4_U+30FC 1
 62
   179
420
  2234388
370
     9
  0
POLYLINE
  5
D0
330
1F
100
AcDbEntity
  8
_U+30EC_U+30A4_U+30E4_U+30FC 1
 62
   179
420
  2234388
370
     9
100
AcDb2dPolyline
 66
     1
 10
0.0
 20
0.0
 30
0.0
  0
VERTEX
  5
D1
330
D0
100
AcDbEntity
  8
_U+30EC_U+30A4_U+30E4_U+30FC 1
 62
   179
420
  2234388
370
     9
100
AcDbVertex
100
AcDb2dVertex
 10
115.2981517927358
 20
-154.0602883695524
 30
0.0
  0
VERTEX
  5
D2
330
D0
100
AcDbEntity
  8
_U+30EC_U+30A4_U+30E4_U+30FC 1
 62
   179
420
  2234388
370
     9
100
AcDbVertex
100
AcDb2dVertex
 10
117.7785236488052
 20
-154.0602883695524
 30
0.0
  0
SEQEND
  5
D3
330
D0
100
AcDbEntity
  8
_U+30EC_U+30A4_U+30E4_U+30FC 1
 62
   179
420
  2234388
370
     9
  0
INSERT
  5
D5
330
1F
100
AcDbEntity
  8
_U+30EC_U+30A4_U+30E4_U+30FC 1
100
AcDbBlockReference
  2
block 6
 10
0.0
 20
0.0
 30
0.0
  0
ENDSEC
  0
SECTION
  2
OBJECTS
  0
DICTIONARY
  5
C
330
0
100
AcDbDictionary
281
     1
  3
ACAD_GROUP
350
D
  3
ACAD_LAYOUT
350
1A
  3
ACAD_MATERIAL
350
3B
  3
ACAD_MLEADERSTYLE
350
DB
  3
ACAD_MLINESTYLE
350
17
  3
ACAD_PLOTSETTINGS
350
19
  3
ACAD_PLOTSTYLENAME
350
E
  3
ACAD_TABLESTYLE
350
DA
  3
ACAD_VISUALSTYLE
350
2A
  0
SUN
  5
3F
330
29
100
AcDbSun
 90
        1
290
     0
 63
     7
421
 16777215
 40
1.0
291
     1
 91
  2455826
 92
 54000000
292
     0
 70
     2
 71
   256
280
     1
  0
DICTIONARY
  5
D
102
{ACAD_REACTORS
330
C
102
}
330
C
100
AcDbDictionary
281
     1
  0
DICTIONARY
  5
1A
102
{ACAD_REACTORS
330
C
102
}
330
C
100
AcDbDictionary
281
     1
  3
Layout1
350
1E
  3
Layout2
350
26
  3
Model
350
22
  0
DICTIONARY
  5
3B
102
{ACAD_REACTORS
330
C
102
}
330
C
100
AcDbDictionary
281
     1
  3
ByBlock
350
3D
  3
ByLayer
350
3C
  3
Global
350
3E
  0
DICTIONARY
  5
DB
102
{ACAD_REACTORS
330
C
102
}
330
C
100
AcDbDictionary
281
     1
  0
DICTIONARY
  5
17
102
{ACAD_REACTORS
330
C
102
}
330
C
100
AcDbDictionary
281
     1
  3
Standard
350
18
  0
DICTIONARY
  5
19
102
{ACAD_REACTORS
330
C
102
}
330
C
100
AcDbDictionary
281
     1
  0
ACDBDICTIONARYWDFLT
  5
E
102
{ACAD_REACTORS
330
C
102
}
330
C
100
AcDbDictionary
281
     1
  3
Normal
350
F
100
AcDbDictionaryWithDefault
340
F
  0
DICTIONARY
  5
DA
102
{ACAD_REACTORS
330
C
102
}
330
C
100
AcDbDictionary
281
     1
  0
DICTIONARY
  5
2A
102
{ACAD_REACTORS
330
C
102
}
330
C
100
AcDbDictionary
281
     1
  3
2dWireframe
350
2F
  3
3D Hidden
350
31
  3
3dWireframe
350
30
  3
Basic
350
32
  3
Brighten
350
36
  3
ColorChange
350
3A
  3
Conceptual
350
34
  3
Dim
350
35
  3
Facepattern
350
39
  3
Flat
350
2B
  3
FlatWithEdges
350
2C
  3
Gouraud
350
2D
  3
GouraudWithEdges
350
2E
  3
Linepattern
350
38
  3
Realistic
350
33
  3
Thicken
350
37
  0
LAYOUT
  5
1E
102
{ACAD_REACTORS
330
1A
102
}
330
1A
100
AcDbPlotSettings
  1

  2
none_device
  4

  6

 40
0.0
 41
0.0
 42
0.0
 43
0.0
 44
0.0
 45
0.0
 46
0.0
 47
0.0
 48
0.0
 49
0.0
140
0.0
141
0.0
142
1.0
143
1.0
 70
   688
 72
     0
 73
     0
 74
     5
  7

 75
    16
 76
     0
 77
     2
 78
   300
147
1.0
148
0.0
149
0.0
100
AcDbLayout
  1
Layout1
 70
     1
 71
     1
 10
0.0
 20
0.0
 11
12.0
 21
9.0
 12
0.0
 22
0.0
 32
0.0
 14
1.000000000000000E+20
 24
1.000000000000000E+20
 34
1.000000000000000E+20
 15
-1.000000000000000E+20
 25
-1.000000000000000E+20
 35
-1.000000000000000E+20
146
0.0
 13
0.0
 23
0.0
 33
0.0
 16
1.0
 26
0.0
 36
0.0
 17
0.0
 27
1.0
 37
0.0
 76
     0
330
1B
  0
LAYOUT
  5
26
102
{ACAD_REACTORS
330
1A
102
}
330
1A
100
AcDbPlotSettings
  1

  2
none_device
  4

  6

 40
0.0
 41
0.0
 42
0.0
 43
0.0
 44
0.0
 45
0.0
 46
0.0
 47
0.0
 48
0.0
 49
0.0
140
0.0
141
0.0
142
1.0
143
1.0
 70
   688
 72
     0
 73
     0
 74
     5
  7

 75
    16
 76
     0
 77
     2
 78
   300
147
1.0
148
0.0
149
0.0
100
AcDbLayout
  1
Layout2
 70
     1
 71
     2
 10
0.0
 20
0.0
 11
0.0
 21
0.0
 12
0.0
 22
0.0
 32
0.0
 14
0.0
 24
0.0
 34
0.0
 15
0.0
 25
0.0
 35
0.0
146
0.0
 13
0.0
 23
0.0
 33
0.0
 16
1.0
 26
0.0
 36
0.0
 17
0.0
 27
1.0
 37
0.0
 76
     0
330
23
  0
LAYOUT
  5
22
102
{ACAD_REACTORS
330
1A
102
}
330
1A
100
AcDbPlotSettings
  1

  2
none_device
  4

  6

 40
0.0
 41
0.0
 42
0.0
 43
0.0
 44
0.0
 45
0.0
 46
0.0
 47
0.0
 48
0.0
 49
0.0
140
0.0
141
0.0
142
1.0
143
1.0
 70
  1712
 72
     0
 73
     0
 74
     0
  7

 75
     0
 76
     0
 77
     2
 78
   300
147
1.0
148
0.0
149
0.0
100
AcDbLayout
  1
Model
 70
     1
 71
     0
 10
0.0
 20
0.0
 11
12.0
 21
9.0
 12
0.0
 22
0.0
 32
0.0
 14
1.000000000000000E+20
 24
1.000000000000000E+20
 34
1.000000000000000E+20
 15
-1.000000000000000E+20
 25
-1.000000000000000E+20
 35
-1.000000000000000E+20
146
0.0
 13
0.0
 23
0.0
 33
0.0
 16
1.0
 26
0.0
 36
0.0
 17
0.0
 27
1.0
 37
0.0
 76
     0
330
1F
331
29
  0
MATERIAL
  5
3D
102
{ACAD_REACTORS
330
3B
102
}
330
3B
100
AcDbMaterial
  1
ByBlock
 72
     1
 94
      127
  0
MATERIAL
  5
3C
102
{ACAD_REACTORS
330
3B
102
}
330
3B
100
AcDbMaterial
  1
ByLayer
 72
     1
 94
      127
  0
MATERIAL
  5
3E
102
{ACAD_REACTORS
330
3B
102
}
330
3B
100
AcDbMaterial
  1
Global
 72
     1
 94
      127
  0
MLINESTYLE
  5
18
102
{ACAD_REACTORS
330
17
102
}
330
17
100
AcDbMlineStyle
  2
Standard
 70
     0
  3

 62
   256
 51
90.0
 52
90.0
 71
     2
 49
0.5
 62
   256
  6
BYLAYER
 49
-0.5
 62
   256
  6
BYLAYER
  0
ACDBPLACEHOLDER
  5
F
102
{ACAD_REACTORS
330
E
102
}
330
E
  0
VISUALSTYLE
  5
2F
102
{ACAD_REACTORS
330
2A
102
}
330
2A
100
AcDbVisualStyle
  2
2dWireframe
 70
     4
177
     2
291
     0
 71
     0
176
     1
 72
     2
176
     1
 73
     0
176
     1
 90
        0
176
     1
 40
-0.6
176
     1
 41
-30.0
176
     1
 62
     5
 63
     7
421
 16777215
176
     1
 74
     1
176
     1
 91
        4
176
     1
 64
     7
176
     1
 65
   257
176
     1
 75
     1
176
     1
175
     1
176
     1
 42
1.0
176
     1
 92
        0
176
     1
 66
   257
176
     1
 43
1.0
176
     1
 76
     1
176
     1
 77
     6
176
     1
 78
     2
176
     1
 67
     7
176
     1
 79
     5
176
     1
170
     0
176
     1
171
     0
176
     1
290
     0
176
     1
 93
        1
176
     1
 44
0.0
176
     1
173
     0
176
     1
  0
VISUALSTYLE
  5
31
102
{ACAD_REACTORS
330
2A
102
}
330
2A
100
AcDbVisualStyle
  2
3D Hidden
 70
     6
177
     2
291
     0
 71
     1
176
     1
 72
     2
176
     1
 73
     2
176
     1
 90
        0
176
     1
 40
-0.6
176
     1
 41
-30.0
176
     1
 62
     5
 63
     7
421
 16777215
176
     1
 74
     2
176
     1
 91
        2
176
     1
 64
     7
176
     1
 65
   257
176
     1
 75
     2
176
     1
175
     1
176
     1
 42
40.0
176
     1
 92
        0
176
     1
 66
   257
176
     1
 43
1.0
176
     1
 76
     1
176
     1
 77
     6
176
     1
 78
     2
176
     1
 67
     7
176
     1
 79
     3
176
     1
170
     0
176
     1
171
     0
176
     1
290
     0
176
     1
 93
        1
176
     1
 44
0.0
176
     1
173
     0
176
     1
  0
VISUALSTYLE
  5
30
102
{ACAD_REACTORS
330
2A
102
}
330
2A
100
AcDbVisualStyle
  2
3dWireframe
 70
     5
177
     2
291
     0
 71
     0
176
     1
 72
     2
176
     1
 73
     0
176
     1
 90
        0
176
     1
 40
-0.6
176
     1
 41
-30.0
176
     1
 62
     5
 63
     7
421
 16777215
176
     1
 74
     1
176
     1
 91
        4
176
     1
 64
     7
176
     1
 65
   257
176
     1
 75
     1
176
     1
175
     1
176
     1
 42
1.0
176
     1
 92
        0
176
     1
 66
   257
176
     1
 43
1.0
176
     1
 76
     1
176
     1
 77
     6
176
     1
 78
     2
176
     1
 67
     7
176
     1
 79
     5
176
     1
170
     0
176
     1
171
     0
176
     1
290
     0
176
     1
 93
        1
176
     1
 44
0.0
176
     1
173
     0
176
     1
  0
VISUALSTYLE
  5
32
102
{ACAD_REACTORS
330
2A
102
}
330
2A
100
AcDbVisualStyle
  2
Basic
 70
     7
177
     2
291
     1
 71
     1
176
     1
 72
     0
176
     1
 73
     1
176
     1
 90
        0
176
     1
 40
-0.6
176
     1
 41
-30.0
176
     1
 62
     5
 63
     7
421
 16777215
176
     1
 74
     0
176
     1
 91
        4
176
     1
 64
     7
176
     1
 65
   257
176
     1
 75
     1
176
     1
175
     1
176
     1
 42
1.0
176
     1
 92
        8
176
     1
 66
     7
176
     1
 43
1.0
176
     1
 76
     1
176
     1
 77
     6
176
     1
 78
     2
176
     1
 67
     7
176
     1
 79
     5
176
     1
170
     0
176
     1
171
     0
176
     1
290
     0
176
     1
 93
        1
176
     1
 44
0.0
176
     1
173
     0
176
     1
  0
VISUALSTYLE
  5
36
102
{ACAD_REACTORS
330
2A
102
}
330
2A
100
AcDbVisualStyle
  2
Brighten
 70
    12
177
     2
291
     1
 71
     2
176
     1
 72
     2
176
     1
 73
     0
176
     1
 90
        0
176
     1
 40
-0.6
176
     1
 41
-30.0
176
     1
 62
     5
 63
     7
421
 16777215
176
     1
 74
     1
176
     1
 91
        4
176
     1
 64
     7
176
     1
 65
   257
176
     1
 75
     1
176
     1
175
     1
176
     1
 42
1.0
176
     1
 92
        8
176
     1
 66
     7
176
     1
 43
1.0
176
     1
 76
     1
176
     1
 77
     6
176
     1
 78
     2
176
     1
 67
     7
176
     1
 79
     5
176
     1
170
     0
176
     1
171
     0
176
     1
290
     0
176
     1
 93
        1
176
     1
 44
50.0
176
     1
173
     0
176
     1
  0
VISUALSTYLE
  5
3A
102
{ACAD_REACTORS
330
2A
102
}
330
2A
100
AcDbVisualStyle
  2
ColorChange
 70
    16
177
     2
291
     1
 71
     2
176
     1
 72
     2
176
     1
 73
     3
176
     1
 90
        0
176
     1
 40
-0.6
176
     1
 41
-30.0
176
     1
 62
     5
 63
     8
421
  8421504
176
     1
 74
     1
176
     1
 91
        4
176
     1
 64
     7
176
     1
 65
   257
176
     1
 75
     1
176
     1
175
     1
176
     1
 42
1.0
176
     1
 92
        8
176
     1
 66
     8
424
  8421504
176
     1
 43
1.0
176
     1
 76
     1
176
     1
 77
     6
176
     1
 78
     2
176
     1
 67
     7
176
     1
 79
     5
176
     1
170
     0
176
     1
171
     0
176
     1
290
     0
176
     1
 93
        1
176
     1
 44
0.0
176
     1
173
     0
176
     1
  0
VISUALSTYLE
  5
34
102
{ACAD_REACTORS
330
2A
102
}
330
2A
100
AcDbVisualStyle
  2
Conceptual
 70
     9
177
     2
291
     0
 71
     3
176
     1
 72
     2
176
     1
 73
     0
176
     1
 90
        0
176
     1
 40
-0.6
176
     1
 41
-30.0
176
     1
 62
     5
 63
     7
421
 16777215
176
     1
 74
     2
176
     1
 91
        2
176
     1
 64
     7
176
     1
 65
   257
176
     1
 75
     1
176
     1
175
     1
176
     1
 42
40.0
176
     1
 92
        8
176
     1
 66
     7
176
     1
 43
1.0
176
     1
 76
     1
176
     1
 77
     6
176
     1
 78
     2
176
     1
 67
     7
176
     1
 79
     3
176
     1
170
     0
176
     1
171
     0
176
     1
290
     0
176
     1
 93
        1
176
     1
 44
0.0
176
     1
173
     0
176
     1
  0
VISUALSTYLE
  5
35
102
{ACAD_REACTORS
330
2A
102
}
330
2A
100
AcDbVisualStyle
  2
Dim
 70
    11
177
     2
291
     1
 71
     2
176
     1
 72
     2
176
     1
 73
     0
176
     1
 90
        0
176
     1
 40
-0.6
176
     1
 41
-30.0
176
     1
 62
     5
 63
     7
421
 16777215
176
     1
 74
     1
176
     1
 91
        4
176
     1
 64
     7
176
     1
 65
   257
176
     1
 75
     1
176
     1
175
     1
176
     1
 42
1.0
176
     1
 92
        8
176
     1
 66
     7
176
     1
 43
1.0
176
     1
 76
     1
176
     1
 77
     6
176
     1
 78
     2
176
     1
 67
     7
176
     1
 79
     5
176
     1
170
     0
176
     1
171
     0
176
     1
290
     0
176
     1
 93
        1
176
     1
 44
-50.0
176
     1
173
     0
176
     1
  0
VISUALSTYLE
  5
39
102
{ACAD_REACTORS
330
2A
102
}
330
2A
100
AcDbVisualStyle
  2
Facepattern
 70
    15
177
     2
291
     1
 71
     2
176
     1
 72
     2
176
     1
 73
     0
176
     1
 90
        0
176
     1
 40
-0.6
176
     1
 41
-30.0
176
     1
 62
     5
 63
     7
421
 16777215
176
     1
 74
     1
176
     1
 91
        4
176
     1
 64
     7
176
     1
 65
   257
176
     1
 75
     1
176
     1
175
     1
176
     1
 42
1.0
176
     1
 92
        8
176
     1
 66
     7
176
     1
 43
1.0
176
     1
 76
     1
176
     1
 77
     6
176
     1
 78
     2
176
     1
 67
     7
176
     1
 79
     5
176
     1
170
     0
176
     1
171
     0
176
     1
290
     0
176
     1
 93
        1
176
     1
 44
0.0
176
     1
173
     0
176
     1
  0
VISUALSTYLE
  5
2B
102
{ACAD_REACTORS
330
2A
102
}
330
2A
100
AcDbVisualStyle
  2
Flat
 70
     0
177
     2
291
     1
 71
     2
176
     1
 72
     1
176
     1
 73
     1
176
     1
 90
        2
176
     1
 40
-0.6
176
     1
 41
30.0
176
     1
 62
     5
 63
     7
421
 16777215
176
     1
 74
     0
176
     1
 91
        4
176
     1
 64
     7
176
     1
 65
   257
176
     1
 75
     1
176
     1
175
     1
176
     1
 42
1.0
176
     1
 92
        8
176
     1
 66
     7
176
     1
 43
1.0
176
     1
 76
     1
176
     1
 77
     6
176
     1
 78
     2
176
     1
 67
     7
176
     1
 79
     5
176
     1
170
     0
176
     1
171
     0
176
     1
290
     0
176
     1
 93
       13
176
     1
 44
0.0
176
     1
173
     0
176
     1
  0
VISUALSTYLE
  5
2C
102
{ACAD_REACTORS
330
2A
102
}
330
2A
100
AcDbVisualStyle
  2
FlatWithEdges
 70
     1
177
     2
291
     1
 71
     2
176
     1
 72
     1
176
     1
 73
     1
176
     1
 90
        2
176
     1
 40
-0.6
176
     1
 41
30.0
176
     1
 62
     5
 63
     7
421
 16777215
176
     1
 74
     1
176
     1
 91
        4
176
     1
 64
     7
176
     1
 65
   257
176
     1
 75
     1
176
     1
175
     1
176
     1
 42
1.0
176
     1
 92
        0
176
     1
 66
   257
176
     1
 43
1.0
176
     1
 76
     1
176
     1
 77
     6
176
     1
 78
     2
176
     1
 67
     7
176
     1
 79
     5
176
     1
170
     0
176
     1
171
     0
176
     1
290
     0
176
     1
 93
       13
176
     1
 44
0.0
176
     1
173
     0
176
     1
  0
VISUALSTYLE
  5
2D
102
{ACAD_REACTORS
330
2A
102
}
330
2A
100
AcDbVisualStyle
  2
Gouraud
 70
     2
177
     2
291
     1
 71
     2
176
     1
 72
     2
176
     1
 73
     1
176
     1
 90
        2
176
     1
 40
-0.6
176
     1
 41
30.0
176
     1
 62
     5
 63
     7
421
 16777215
176
     1
 74
     0
176
     1
 91
        4
176
     1
 64
     7
176
     1
 65
   257
176
     1
 75
     1
176
     1
175
     1
176
     1
 42
1.0
176
     1
 92
        0
176
     1
 66
     7
176
     1
 43
1.0
176
     1
 76
     1
176
     1
 77
     6
176
     1
 78
     2
176
     1
 67
     7
176
     1
 79
     5
176
     1
170
     0
176
     1
171
     0
176
     1
290
     0
176
     1
 93
       13
176
     1
 44
0.0
176
     1
173
     0
176
     1
  0
VISUALSTYLE
  5
2E
102
{ACAD_REACTORS
330
2A
102
}
330
2A
100
AcDbVisualStyle
  2
GouraudWithEdges
 70
     3
177
     2
291
     1
 71
     2
176
     1
 72
     2
176
     1
 73
     1
176
     1
 90
        2
176
     1
 40
-0.6
176
     1
 41
30.0
176
     1
 62
     5
 63
     7
421
 16777215
176
     1
 74
     1
176
     1
 91
        4
176
     1
 64
     7
176
     1
 65
   257
176
     1
 75
     1
176
     1
175
     1
176
     1
 42
1.0
176
     1
 92
        0
176
     1
 66
   257
176
     1
 43
1.0
176
     1
 76
     1
176
     1
 77
     6
176
     1
 78
     2
176
     1
 67
     7
176
     1
 79
     5
176
     1
170
     0
176
     1
171
     0
176
     1
290
     0
176
     1
 93
       13
176
     1
 44
0.0
176
     1
173
     0
176
     1
  0
VISUALSTYLE
  5
38
102
{ACAD_REACTORS
330
2A
102
}
330
2A
100
AcDbVisualStyle
  2
Linepattern
 70
    14
177
     2
291
     1
 71
     2
176
     1
 72
     2
176
     1
 73
     0
176
     1
 90
        0
176
     1
 40
-0.6
176
     1
 41
-30.0
176
     1
 62
     5
 63
     7
421
 16777215
176
     1
 74
     1
176
     1
 91
        4
176
     1
 64
     7
176
     1
 65
   257
176
     1
 75
     7
176
     1
175
     7
176
     1
 42
1.0
176
     1
 92
        8
176
     1
 66
     7
176
     1
 43
1.0
176
     1
 76
     1
176
     1
 77
     6
176
     1
 78
     2
176
     1
 67
     7
176
     1
 79
     5
176
     1
170
     0
176
     1
171
     0
176
     1
290
     0
176
     1
 93
        1
176
     1
 44
0.0
176
     1
173
     0
176
     1
  0
VISUALSTYLE
  5
33
102
{ACAD_REACTORS
330
2A
102
}
330
2A
100
AcDbVisualStyle
  2
Realistic
 70
     8
177
     2
291
     0
 71
     2
176
     1
 72
     2
176
     1
 73
     0
176
     1
 90
        0
176
     1
 40
-0.6
176
     1
 41
-30.0
176
     1
 62
     5
 63
     7
421
 16777215
176
     1
 74
     1
176
     1
 91
        0
176
     1
 64
     7
176
     1
 65
   257
176
     1
 75
     1
176
     1
175
     1
176
     1
 42
1.0
176
     1
 92
        8
176
     1
 66
     8
424
  7895160
176
     1
 43
1.0
176
     1
 76
     1
176
     1
 77
     6
176
     1
 78
     2
176
     1
 67
     7
176
     1
 79
     5
176
     1
170
     0
176
     1
171
     0
176
     1
290
     0
176
     1
 93
       13
176
     1
 44
0.0
176
     1
173
     0
176
     1
  0
VISUALSTYLE
  5
37
102
{ACAD_REACTORS
330
2A
102
}
330
2A
100
AcDbVisualStyle
  2
Thicken
 70
    13
177
     2
291
     1
 71
     2
176
     1
 72
     2
176
     1
 73
     0
176
     1
 90
        0
176
     1
 40
-0.6
176
     1
 41
-30.0
176
     1
 62
     5
 63
     7
421
 16777215
176
     1
 74
     1
176
     1
 91
        4
176
     1
 64
     7
176
     1
 65
   257
176
     1
 75
     1
176
     1
175
     1
176
     1
 42
1.0
176
     1
 92
       12
176
     1
 66
     7
176
     1
 43
1.0
176
     1
 76
     1
176
     1
 77
     6
176
     1
 78
     2
176
     1
 67
     7
176
     1
 79
     5
176
     1
170
     0
176
     1
171
     0
176
     1
290
     0
176
     1
 93
        1
176
     1
 44
0.0
176
     1
173
     0
176
     1
  0
ENDSEC
  0
EOF
