  0
SECTION
  2
HEADER
  9
$ACADVER
  1
AC1024
  9
$ACADMAINTVER
 70
     6
  9
$DWGCODEPAGE
  3
UNDEFINED
  9
$INSBASE
 10
0.0
 20
0.0
 30
0.0
  9
$EXTMIN
 10
1.000000000000000E+20
 20
1.000000000000000E+20
 30
1.000000000000000E+20
  9
$EXTMAX
 10
-1.000000000000000E+20
 20
-1.000000000000000E+20
 30
-1.000000000000000E+20
  9
$LIMMIN
 10
0.0
 20
0.0
  9
$LIMMAX
 10
12.0
 20
9.0
  9
$ORTHOMODE
 70
     0
  9
$REGENMODE
 70
     1
  9
$FILLMODE
 70
     1
  9
$QTEXTMODE
 70
     0
  9
$MIRRTEXT
 70
     1
  9
$LTSCALE
 40
1.0
  9
$ATTMODE
 70
     1
  9
$TEXTSIZE
 40
0.2
  9
$TRACEWID
 40
0.05
  9
$TEXTSTYLE
  7
Standard
  9
$CLAYER
  8
0
  9
$CELTYPE
  6
ByLayer
  9
$CECOLOR
 62
   256
  9
$CELTSCALE
 40
1.0
  9
$DISPSILH
 70
     0
  9
$DIMSCALE
 40
1.0
  9
$DIMASZ
 40
0.18
  9
$DIMEXO
 40
0.0625
  9
$DIMDLI
 40
0.38
  9
$DIMRND
 40
0.0
  9
$DIMDLE
 40
0.0
  9
$DIMEXE
 40
0.18
  9
$DIMTP
 40
0.0
  9
$DIMTM
 40
0.0
  9
$DIMTXT
 40
0.18
  9
$DIMCEN
 40
0.09
  9
$DIMTSZ
 40
0.0
  9
$DIMTOL
 70
     0
  9
$DIMLIM
 70
     0
  9
$DIMTIH
 70
     1
  9
$DIMTOH
 70
     1
  9
$DIMSE1
 70
     0
  9
$DIMSE2
 70
     0
  9
$DIMTAD
 70
     0
  9
$DIMZIN
 70
     0
  9
$DIMBLK
  1

  9
$DIMASO
 70
     1
  9
$DIMSHO
 70
     1
  9
$DIMPOST
  1

  9
$DIMAPOST
  1

  9
$DIMALT
 70
     0
  9
$DIMALTD
 70
     2
  9
$DIMALTF
 40
25.4
  9
$DIMLFAC
 40
1.0
  9
$DIMTOFL
 70
     0
  9
$DIMTVP
 40
0.0
  9
$DIMTIX
 70
     0
  9
$DIMSOXD
 70
     0
  9
$DIMSAH
 70
     0
  9
$DIMBLK1
  1

  9
$DIMBLK2
  1

  9
$DIMSTYLE
  2
Standard
  9
$DIMCLRD
 70
     0
  9
$DIMCLRE
 70
     0
  9
$DIMCLRT
 70
     0
  9
$DIMTFAC
 40
1.0
  9
$DIMGAP
 40
0.09
  9
$DIMJUST
 70
     0
  9
$DIMSD1
 70
     0
  9
$DIMSD2
 70
     0
  9
$DIMTOLJ
 70
     1
  9
$DIMTZIN
 70
     0
  9
$DIMALTZ
 70
     0
  9
$DIMALTTZ
 70
     0
  9
$DIMUPT
 70
     0
  9
$DIMDEC
 70
     4
  9
$DIMTDEC
 70
     4
  9
$DIMALTU
 70
     2
  9
$DIMALTTD
 70
     2
  9
$DIMTXSTY
  7
Standard
  9
$DIMAUNIT
 70
     0
  9
$DIMADEC
 70
     0
  9
$DIMALTRND
 40
0.0
  9
$DIMAZIN
 70
     0
  9
$DIMDSEP
 70
    46
  9
$DIMATFIT
 70
     3
  9
$DIMFRAC
 70
     0
  9
$DIMLDRBLK
  1

  9
$DIMLUNIT
 70
     2
  9
$DIMLWD
 70
    -2
  9
$DIMLWE
 70
    -2
  9
$DIMTMOVE
 70
     0
  9
$DIMFXL
 40
1.0
  9
$DIMFXLON
 70
     0
  9
$DIMJOGANG
 40
0.7853981633974483
  9
$DIMTFILL
 70
     0
  9
$DIMTFILLCLR
 70
     0
  9
$DIMARCSYM
 70
     0
  9
$DIMLTYPE
  6

  9
$DIMLTEX1
  6

  9
$DIMLTEX2
  6

  9
$DIMTXTDIRECTION
 70
     0
  9
$LUNITS
 70
     2
  9
$LUPREC
 70
     4
  9
$SKETCHINC
 40
0.1
  9
$FILLETRAD
 40
0.5
  9
$AUNITS
 70
     0
  9
$AUPREC
 70
     0
  9
$MENU
  1
.
  9
$ELEVATION
 40
0.0
  9
$PELEVATION
 40
0.0
  9
$THICKNESS
 40
0.0
  9
$LIMCHECK
 70
     0
  9
$CHAMFERA
 40
0.5
  9
$CHAMFERB
 40
0.5
  9
$CHAMFERC
 40
1.0
  9
$CHAMFERD
 40
0.0
  9
$SKPOLY
 70
     0
  9
$TDCREATE
 40
2457917.617685185
  9
$TDUCREATE
 40
2457917.242685185
  9
$TDUPDATE
 40
2457917.617685185
  9
$TDUUPDATE
 40
2457917.242685185
  9
$TDINDWG
 40
0.0000000116
  9
$TDUSRTIMER
 40
0.0000000116
  9
$USRTIMER
 70
     1
  9
$ANGBASE
 50
0.0
  9
$ANGDIR
 70
     0
  9
$PDMODE
 70
     0
  9
$PDSIZE
 40
0.0
  9
$PLINEWID
 40
0.0
  9
$SPLFRAME
 70
     0
  9
$SPLINETYPE
 70
     6
  9
$SPLINESEGS
 70
     8
  9
$HANDSEED
  5
DF
  9
$SURFTAB1
 70
     6
  9
$SURFTAB2
 70
     6
  9
$SURFTYPE
 70
     6
  9
$SURFU
 70
     6
  9
$SURFV
 70
     6
  9
$UCSBASE
  2

  9
$UCSNAME
  2

  9
$UCSORG
 10
0.0
 20
0.0
 30
0.0
  9
$UCSXDIR
 10
1.0
 20
0.0
 30
0.0
  9
$UCSYDIR
 10
0.0
 20
1.0
 30
0.0
  9
$UCSORTHOREF
  2

  9
$UCSORTHOVIEW
 70
     0
  9
$UCSORGTOP
 10
0.0
 20
0.0
 30
0.0
  9
$UCSORGBOTTOM
 10
0.0
 20
0.0
 30
0.0
  9
$UCSORGLEFT
 10
0.0
 20
0.0
 30
0.0
  9
$UCSORGRIGHT
 10
0.0
 20
0.0
 30
0.0
  9
$UCSORGFRONT
 10
0.0
 20
0.0
 30
0.0
  9
$UCSORGBACK
 10
0.0
 20
0.0
 30
0.0
  9
$PUCSBASE
  2

  9
$PUCSNAME
  2

  9
$PUCSORG
 10
0.0
 20
0.0
 30
0.0
  9
$PUCSXDIR
 10
1.0
 20
0.0
 30
0.0
  9
$PUCSYDIR
 10
0.0
 20
1.0
 30
0.0
  9
$PUCSORTHOREF
  2

  9
$PUCSORTHOVIEW
 70
     0
  9
$PUCSORGTOP
 10
0.0
 20
0.0
 30
0.0
  9
$PUCSORGBOTTOM
 10
0.0
 20
0.0
 30
0.0
  9
$PUCSORGLEFT
 10
0.0
 20
0.0
 30
0.0
  9
$PUCSORGRIGHT
 10
0.0
 20
0.0
 30
0.0
  9
$PUCSORGFRONT
 10
0.0
 20
0.0
 30
0.0
  9
$PUCSORGBACK
 10
0.0
 20
0.0
 30
0.0
  9
$USERI1
 70
     0
  9
$USERI2
 70
     0
  9
$USERI3
 70
     0
  9
$USERI4
 70
     0
  9
$USERI5
 70
     0
  9
$USERR1
 40
0.0
  9
$USERR2
 40
0.0
  9
$USERR3
 40
0.0
  9
$USERR4
 40
0.0
  9
$USERR5
 40
0.0
  9
$WORLDVIEW
 70
     1
  9
$SHADEDGE
 70
     3
  9
$SHADEDIF
 70
    70
  9
$TILEMODE
 70
     1
  9
$MAXACTVP
 70
    64
  9
$PINSBASE
 10
0.0
 20
0.0
 30
0.0
  9
$PLIMCHECK
 70
     0
  9
$PEXTMIN
 10
1.000000000000000E+20
 20
1.000000000000000E+20
 30
1.000000000000000E+20
  9
$PEXTMAX
 10
-1.000000000000000E+20
 20
-1.000000000000000E+20
 30
-1.000000000000000E+20
  9
$PLIMMIN
 10
0.0
 20
0.0
  9
$PLIMMAX
 10
12.0
 20
9.0
  9
$UNITMODE
 70
     0
  9
$VISRETAIN
 70
     1
  9
$PLINEGEN
 70
     0
  9
$PSLTSCALE
 70
     1
  9
$TREEDEPTH
 70
  3020
  9
$CMLSTYLE
  2
Standard
  9
$CMLJUST
 70
     0
  9
$CMLSCALE
 40
1.0
  9
$PROXYGRAPHICS
 70
     1
  9
$MEASUREMENT
 70
     0
  9
$CELWEIGHT
370
    -1
  9
$ENDCAPS
280
     0
  9
$JOINSTYLE
280
     0
  9
$LWDISPLAY
290
     1
  9
$INSUNITS
 70
     1
  9
$HYPERLINKBASE
  1

  9
$STYLESHEET
  1

  9
$XEDIT
290
     1
  9
$CEPSNTYPE
380
     0
  9
$PSTYLEMODE
290
     1
  9
$FINGERPRINTGUID
  2
{20F57317-8A10-5574-D93C-8A8361B02E91}
  9
$VERSIONGUID
  2
{FAEB1C32-E019-11D5-929B-00C0DF256EC4}
  9
$EXTNAMES
290
     1
  9
$PSVPSCALE
 40
0.0
  9
$OLESTARTUP
290
     0
  9
$SORTENTS
280
   127
  9
$INDEXCTL
280
     0
  9
$HIDETEXT
280
     1
  9
$XCLIPFRAME
280
     2
  9
$HALOGAP
280
     0
  9
$OBSCOLOR
 70
   257
  9
$OBSLTYPE
280
     0
  9
$INTERSECTIONDISPLAY
280
     0
  9
$INTERSECTIONCOLOR
 70
   257
  9
$DIMASSOC
280
     2
  9
$PROJECTNAME
  1

  9
$CAMERADISPLAY
290
     0
  9
$LENSLENGTH
 40
50.0
  9
$CAMERAHEIGHT
 40
0.0
  9
$STEPSPERSEC
 40
2.0
  9
$STEPSIZE
 40
6.0
  9
$3DDWFPREC
 40
2.0
  9
$PSOLWIDTH
 40
0.25
  9
$PSOLHEIGHT
 40
4.0
  9
$LOFTANG1
 40
1.570796326794897
  9
$LOFTANG2
 40
1.570796326794897
  9
$LOFTMAG1
 40
0.0
  9
$LOFTMAG2
 40
0.0
  9
$LOFTPARAM
 70
     7
  9
$LOFTNORMALS
280
     1
  9
$LATITUDE
 40
37.795
  9
$LONGITUDE
 40
-122.394
  9
$NORTHDIRECTION
 40
0.0
  9
$TIMEZONE
 70
 -8000
  9
$LIGHTGLYPHDISPLAY
280
     1
  9
$TILEMODELIGHTSYNCH
280
     1
  9
$CMATERIAL
347
3C
  9
$SOLIDHIST
280
     1
  9
$SHOWHIST
280
     1
  9
$DWFFRAME
280
     2
  9
$DGNFRAME
280
     2
  9
$REALWORLDSCALE
290
     1
  9
$INTERFERECOLOR
 62
   256
  9
$CSHADOW
280
     0
  9
$SHADOWPLANELOCATION
 40
0.0
  0
ENDSEC
  0
SECTION
  2
CLASSES
  0
CLASS
  1
ACDBDICTIONARYWDFLT
  2
AcDbDictionaryWithDefault
  3
ObjectDBX Classes
 90
        0
 91
        4
280
     0
281
     0
  0
CLASS
  1
VISUALSTYLE
  2
AcDbVisualStyle
  3
ObjectDBX Classes
 90
     4095
 91
        4
280
     0
281
     0
  0
CLASS
  1
MATERIAL
  2
AcDbMaterial
  3
ObjectDBX Classes
 90
     1153
 91
        4
280
     0
281
     0
  0
CLASS
  1
SUN
  2
AcDbSun
  3
SCENEOE
 90
     1024
 91
        4
280
     0
281
     0
  0
ENDSEC
  0
SECTION
  2
TABLES
  0
TABLE
  2
VPORT
  5
8
330
0
100
AcDbSymbolTable
 70
     1
  0
VPORT
  5
29
330
8
100
AcDbSymbolTableRecord
100
AcDbViewportTableRecord
  2
*Active
 70
     0
 10
0.0
 20
0.0
 11
1.0
 21
1.0
 12
0.0
 22
0.0
 13
0.0
 23
0.0
 14
0.5
 24
0.5
 15
0.5
 25
0.5
 16
0.0
 26
0.0
 36
1.0
 17
91.00082462281999
 27
-128.4993055234307
 37
0.0
 40
256.9986110468615
 41
0.7081814508812795
 42
50.0
 43
0.0
 44
0.0
 50
0.0
 51
0.0
 71
     0
 72
   100
 73
     1
 74
     3
 75
     0
 76
     0
 77
     0
 78
     0
281
     0
 65
     1
110
0.0
120
0.0
130
0.0
111
1.0
121
0.0
131
0.0
112
0.0
122
1.0
132
0.0
 79
     0
146
0.0
 60
     3
 61
     5
292
     1
282
     1
141
0.0
142
0.0
 63
   250
361
3F
  0
ENDTAB
  0
TABLE
  2
LTYPE
  5
5
330
0
100
AcDbSymbolTable
 70
     2
  0
LTYPE
  5
14
330
5
100
AcDbSymbolTableRecord
100
AcDbLinetypeTableRecord
  2
ByBlock
 70
     0
  3

 72
    65
 73
     0
 40
0.0
  0
LTYPE
  5
15
330
5
100
AcDbSymbolTableRecord
100
AcDbLinetypeTableRecord
  2
ByLayer
 70
     0
  3

 72
    65
 73
     0
 40
0.0
  0
LTYPE
  5
16
330
5
100
AcDbSymbolTableRecord
100
AcDbLinetypeTableRecord
  2
Continuous
 70
     0
  3
Solid line
 72
    65
 73
     0
 40
0.0
  0
LTYPE
  5
C0
330
5
100
AcDbSymbolTableRecord
100
AcDbLinetypeTableRecord
  2
AI-Linetype-1
 70
     0
  3
Adobe Illustrator Linetype No. 1
 72
    65
 73
     2
 40
1.411111110758333
 49
0.7055555553791667
 74
     0
 49
-0.7055555553791667
 74
     0
  0
ENDTAB
  0
TABLE
  2
LAYER
  5
2
330
0
100
AcDbSymbolTable
 70
     2
  0
LAYER
  5
10
330
2
100
AcDbSymbolTableRecord
100
AcDbLayerTableRecord
  2
0
 70
     0
 62
     7
  6
Continuous
370
    -3
390
F
347
3E
  0
LAYER
  5
40
330
2
100
AcDbSymbolTableRecord
100
AcDbLayerTableRecord
  2
_U+30EC_U+30A4_U+30E4_U+30FC 1
 70
     0
 62
     7
  6
Continuous
370
    -3
390
F
347
3E
  0
ENDTAB
  0
TABLE
  2
STYLE
  5
3
330
0
100
AcDbSymbolTable
 70
     1
  0
STYLE
  5
11
330
3
100
AcDbSymbolTableRecord
100
AcDbTextStyleTableRecord
  2
Standard
 70
     0
 40
0.0
 41
1.0
 50
0.0
 71
     0
 42
0.2
  3
txt
  4

  0
ENDTAB
  0
TABLE
  2
VIEW
  5
6
330
0
100
AcDbSymbolTable
 70
     0
  0
ENDTAB
  0
TABLE
  2
UCS
  5
7
330
0
100
AcDbSymbolTable
 70
     0
  0
ENDTAB
  0
TABLE
  2
APPID
  5
9
330
0
100
AcDbSymbolTable
 70
     1
  0
APPID
  5
12
330
9
100
AcDbSymbolTableRecord
100
AcDbRegAppTableRecord
  2
ACAD
 70
     0
  0
ENDTAB
  0
TABLE
  2
DIMSTYLE
  5
A
330
0
100
AcDbSymbolTable
 70
     1
100
AcDbDimStyleTable
  0
DIMSTYLE
105
27
330
A
100
AcDbSymbolTableRecord
100
AcDbDimStyleTableRecord
  2
Standard
 70
     0
178
     0
340
11
  0
ENDTAB
  0
TABLE
  2
BLOCK_RECORD
  5
1
330
0
100
AcDbSymbolTable
 70
     6
  0
BLOCK_RECORD
  5
1F
330
1
100
AcDbSymbolTableRecord
100
AcDbBlockTableRecord
  2
*Model_Space
340
22
 70
     0
280
     1
281
     0
  0
BLOCK_RECORD
  5
1B
330
1
100
AcDbSymbolTableRecord
100
AcDbBlockTableRecord
  2
*Paper_Space
340
1E
 70
     0
280
     1
281
     0
  0
BLOCK_RECORD
  5
23
330
1
100
AcDbSymbolTableRecord
100
AcDbBlockTableRecord
  2
*Paper_Space0
340
26
 70
     0
280
     1
281
     0
  0
BLOCK_RECORD
  5
7D
330
1
100
AcDbSymbolTableRecord
100
AcDbBlockTableRecord
  2
block 2
340
0
102
{BLKREFS
331
7E
102
}
 70
     0
280
     1
281
     0
  0
BLOCK_RECORD
  5
91
330
1
100
AcDbSymbolTableRecord
100
AcDbBlockTableRecord
  2
block 3
340
0
102
{BLKREFS
331
92
102
}
 70
     0
280
     1
281
     0
  0
BLOCK_RECORD
  5
AB
330
1
100
AcDbSymbolTableRecord
100
AcDbBlockTableRecord
  2
block 4
340
0
102
{BLKREFS
331
AC
102
}
 70
     0
280
     1
281
     0
  0
BLOCK_RECORD
  5
CB
330
1
100
AcDbSymbolTableRecord
100
AcDbBlockTableRecord
  2
block 5
340
0
102
{BLKREFS
331
CC
102
}
 70
     0
280
     1
281
     0
  0
BLOCK_RECORD
  5
D3
330
1
100
AcDbSymbolTableRecord
100
AcDbBlockTableRecord
  2
block 6
340
0
102
{BLKREFS
331
D4
102
}
 70
     0
280
     1
281
     0
  0
ENDTAB
  0
ENDSEC
  0
SECTION
  2
BLOCKS
  0
BLOCK
  5
20
330
1F
100
AcDbEntity
  8
0
100
AcDbBlockBegin
  2
*Model_Space
 70
     0
 10
0.0
 20
0.0
 30
0.0
  3
*Model_Space
  1

  0
ENDBLK
  5
21
330
1F
100
AcDbEntity
  8
0
100
AcDbBlockEnd
  0
BLOCK
  5
1C
330
1B
100
AcDbEntity
 67
     1
  8
0
100
AcDbBlockBegin
  2
*Paper_Space
 70
     0
 10
0.0
 20
0.0
 30
0.0
  3
*Paper_Space
  1

  0
ENDBLK
  5
1D
330
1B
100
AcDbEntity
 67
     1
  8
0
100
AcDbBlockEnd
  0
BLOCK
  5
24
330
23
100
AcDbEntity
  8
0
100
AcDbBlockBegin
  2
*Paper_Space0
 70
     0
 10
0.0
 20
0.0
 30
0.0
  3
*Paper_Space0
  1

  0
ENDBLK
  5
25
330
23
100
AcDbEntity
  8
0
100
AcDbBlockEnd
  0
BLOCK
  5
7F
330
7D
100
AcDbEntity
  8
0
100
AcDbBlockBegin
  2
block 2
 70
     0
 10
0.0
 20
0.0
 30
0.0
  3
block 2
  1

  0
SPLINE
  5
81
330
7D
100
AcDbEntity
  8
_U+30EC_U+30A4_U+30E4_U+30FC 1
370
     0
100
AcDbSpline
210
0.0
220
0.0
230
1.0
 70
    11
 71
     3
 72
    29
 73
    25
 74
     0
 42
0.0000000001
 43
0.0000000001
 12
1.0
 22
0.0
 32
0.0
 13
1.0
 23
0.0
 33
0.0
 40
0.0
 40
0.0
 40
0.0
 40
0.0
 40
1.0
 40
1.0
 40
1.0
 40
2.0
 40
2.0
 40
2.0
 40
3.0
 40
3.0
 40
3.0
 40
4.0
 40
4.0
 40
4.0
 40
5.0
 40
5.0
 40
5.0
 40
6.0
 40
6.0
 40
6.0
 40
7.0
 40
7.0
 40
7.0
 40
8.0
 40
8.0
 40
8.0
 40
8.0
 10
84.85924748312547
 20
-122.1367309264971
 30
0.0
 10
84.5743380864953
 20
-122.1367309264971
 30
0.0
 10
84.30303681703188
 20
-121.9990993618613
 30
0.0
 10
84.30303681703188
 20
-121.6501111892055
 30
0.0
 10
84.30303681703188
 20
-121.3941405946515
 30
0.0
 10
84.45444876360861
 20
-121.2988837044843
 30
0.0
 10
84.56762015029908
 20
-121.2375610048469
 30
0.0
 10
84.43412270024564
 20
-121.1783053625006
 30
0.0
 10
84.35281844679375
 20
-121.0641004471645
 30
0.0
 10
84.35281844679375
 20
-120.9033867427776
 30
0.0
 10
84.35281844679375
 20
-120.6282958682804
 30
0.0
 10
84.56538083823366
 20
-120.4929036157101
 30
0.0
 10
84.85924748312547
 20
-120.4929036157101
 30
0.0
 10
85.16207137627893
 20
-120.4929036157101
 30
0.0
 10
85.3656765194572
 20
-120.6367363522193
 30
0.0
 10
85.3656765194572
 20
-120.9033867427776
 30
0.0
 10
85.3656765194572
 20
-121.0641004471645
 30
0.0
 10
85.28196069916562
 20
-121.1783053625006
 30
0.0
 10
85.14863550388645
 20
-121.2375610048469
 30
0.0
 10
85.24354788450509
 20
-121.2883761632543
 30
0.0
 10
85.41304658237938
 20
-121.3836330534215
 30
0.0
 10
85.41304658237938
 20
-121.6459770746232
 30
0.0
 10
85.41304658237938
 20
-122.0202866990956
 30
0.0
 10
85.11470131335675
 20
-122.1367309264971
 30
0.0
 10
84.85924748312547
 20
-122.1367309264971
 30
0.0
  0
SPLINE
  5
82
330
7D
100
AcDbEntity
  8
_U+30EC_U+30A4_U+30E4_U+30FC 1
370
     0
100
AcDbSpline
210
0.0
220
0.0
230
1.0
 70
    11
 71
     3
 72
    17
 73
    13
 74
     0
 42
0.0000000001
 43
0.0000000001
 12
1.0
 22
0.0
 32
0.0
 13
1.0
 23
0.0
 33
0.0
 40
0.0
 40
0.0
 40
0.0
 40
0.0
 40
1.0
 40
1.0
 40
1.0
 40
2.0
 40
2.0
 40
2.0
 40
3.0
 40
3.0
 40
3.0
 40
4.0
 40
4.0
 40
4.0
 40
4.0
 10
84.85924748312547
 20
-121.3455647483094
 30
0.0
 10
84.70542396970906
 20
-121.3455647483094
 30
0.0
 10
84.54264320803101
 20
-121.4322088997635
 30
0.0
 10
84.54264320803101
 20
-121.635297278619
 30
0.0
 10
84.54264320803101
 20
-121.8404527147656
 30
0.0
 10
84.67837997014985
 20
-121.9420830315805
 30
0.0
 10
84.85924748312547
 20
-121.9420830315805
 30
0.0
 10
85.05820174739864
 20
-121.9420830315805
 30
0.0
 10
85.17567950344566
 20
-121.8194376323056
 30
0.0
 10
85.17567950344566
 20
-121.6416707052667
 30
0.0
 10
85.17567950344566
 20
-121.4194620464681
 30
0.0
 10
85.00170218144055
 20
-121.3455647483094
 30
0.0
 10
84.85924748312547
 20
-121.3455647483094
 30
0.0
  0
SPLINE
  5
83
330
7D
100
AcDbEntity
  8
_U+30EC_U+30A4_U+30E4_U+30FC 1
370
     0
100
AcDbSpline
210
0.0
220
0.0
230
1.0
 70
    11
 71
     3
 72
    17
 73
    13
 74
     0
 42
0.0000000001
 43
0.0000000001
 12
1.0
 22
0.0
 32
0.0
 13
1.0
 23
0.0
 33
0.0
 40
0.0
 40
0.0
 40
0.0
 40
0.0
 40
1.0
 40
1.0
 40
1.0
 40
2.0
 40
2.0
 40
2.0
 40
3.0
 40
3.0
 40
3.0
 40
4.0
 40
4.0
 40
4.0
 40
4.0
 10
84.85924748312547
 20
-120.6854844533356
 30
0.0
 10
84.68285859428067
 20
-120.6854844533356
 30
0.0
 10
84.59242483779288
 20
-120.7805690887285
 30
0.0
 10
84.59242483779288
 20
-120.9159613412988
 30
0.0
 10
84.59242483779288
 20
-121.038778995348
 30
0.0
 10
84.66925046711394
 20
-121.1572902800405
 30
0.0
 10
84.85924748312547
 20
-121.1572902800405
 30
0.0
 10
85.04907224436273
 20
-121.1572902800405
 30
0.0
 10
85.12589787368381
 20
-121.038778995348
 30
0.0
 10
85.12589787368381
 20
-120.9159613412988
 30
0.0
 10
85.12589787368381
 20
-120.7805690887285
 30
0.0
 10
85.03322480513059
 20
-120.6854844533356
 30
0.0
 10
84.85924748312547
 20
-120.6854844533356
 30
0.0
  0
HATCH
  5
84
330
7D
100
AcDbEntity
  8
_U+30EC_U+30A4_U+30E4_U+30FC 1
 62
     7
420
 16777215
100
AcDbHatch
 10
0.0
 20
0.0
 30
0.0
210
0.0
220
0.0
230
1.0
  2
SOLID
 70
     1
 71
     0
 91
        3
 92
        1
 93
        1
 72
     4
 94
        3
 73
     0
 74
     1
 95
       29
 96
       25
 40
0.0
 40
0.0
 40
0.0
 40
0.0
 40
1.0
 40
1.0
 40
1.0
 40
2.0
 40
2.0
 40
2.0
 40
3.0
 40
3.0
 40
3.0
 40
4.0
 40
4.0
 40
4.0
 40
5.0
 40
5.0
 40
5.0
 40
6.0
 40
6.0
 40
6.0
 40
7.0
 40
7.0
 40
7.0
 40
8.0
 40
8.0
 40
8.0
 40
8.0
 10
84.85924748312547
 20
-122.1367309264971
 10
84.5743380864953
 20
-122.1367309264971
 10
84.30303681703188
 20
-121.9990993618613
 10
84.30303681703188
 20
-121.6501111892055
 10
84.30303681703188
 20
-121.3941405946515
 10
84.45444876360861
 20
-121.2988837044843
 10
84.56762015029908
 20
-121.2375610048469
 10
84.43412270024564
 20
-121.1783053625006
 10
84.35281844679375
 20
-121.0641004471645
 10
84.35281844679375
 20
-120.9033867427776
 10
84.35281844679375
 20
-120.6282958682804
 10
84.56538083823366
 20
-120.4929036157101
 10
84.85924748312547
 20
-120.4929036157101
 10
85.16207137627893
 20
-120.4929036157101
 10
85.3656765194572
 20
-120.6367363522193
 10
85.3656765194572
 20
-120.9033867427776
 10
85.3656765194572
 20
-121.0641004471645
 10
85.28196069916562
 20
-121.1783053625006
 10
85.14863550388645
 20
-121.2375610048469
 10
85.24354788450509
 20
-121.2883761632543
 10
85.41304658237938
 20
-121.3836330534215
 10
85.41304658237938
 20
-121.6459770746232
 10
85.41304658237938
 20
-122.0202866990956
 10
85.11470131335675
 20
-122.1367309264971
 10
84.85924748312547
 20
-122.1367309264971
 97
        0
 97
        0
 92
        1
 93
        1
 72
     4
 94
        3
 73
     0
 74
     1
 95
       17
 96
       13
 40
0.0
 40
0.0
 40
0.0
 40
0.0
 40
1.0
 40
1.0
 40
1.0
 40
2.0
 40
2.0
 40
2.0
 40
3.0
 40
3.0
 40
3.0
 40
4.0
 40
4.0
 40
4.0
 40
4.0
 10
84.85924748312547
 20
-121.3455647483094
 10
84.70542396970906
 20
-121.3455647483094
 10
84.54264320803101
 20
-121.4322088997635
 10
84.54264320803101
 20
-121.635297278619
 10
84.54264320803101
 20
-121.8404527147656
 10
84.67837997014985
 20
-121.9420830315805
 10
84.85924748312547
 20
-121.9420830315805
 10
85.05820174739864
 20
-121.9420830315805
 10
85.17567950344566
 20
-121.8194376323056
 10
85.17567950344566
 20
-121.6416707052667
 10
85.17567950344566
 20
-121.4194620464681
 10
85.00170218144055
 20
-121.3455647483094
 10
84.85924748312547
 20
-121.3455647483094
 97
        0
 97
        0
 92
        1
 93
        1
 72
     4
 94
        3
 73
     0
 74
     1
 95
       17
 96
       13
 40
0.0
 40
0.0
 40
0.0
 40
0.0
 40
1.0
 40
1.0
 40
1.0
 40
2.0
 40
2.0
 40
2.0
 40
3.0
 40
3.0
 40
3.0
 40
4.0
 40
4.0
 40
4.0
 40
4.0
 10
84.85924748312547
 20
-120.6854844533356
 10
84.68285859428067
 20
-120.6854844533356
 10
84.59242483779288
 20
-120.7805690887285
 10
84.59242483779288
 20
-120.9159613412988
 10
84.59242483779288
 20
-121.038778995348
 10
84.66925046711394
 20
-121.1572902800405
 10
84.85924748312547
 20
-121.1572902800405
 10
85.04907224436273
 20
-121.1572902800405
 10
85.12589787368381
 20
-121.038778995348
 10
85.12589787368381
 20
-120.9159613412988
 10
85.12589787368381
 20
-120.7805690887285
 10
85.03322480513059
 20
-120.6854844533356
 10
84.85924748312547
 20
-120.6854844533356
 97
        0
 97
        0
 75
     2
 76
     1
 98
        0
  0
ENDBLK
  5
80
330
7D
100
AcDbEntity
  8
0
100
AcDbBlockEnd
  0
BLOCK
  5
93
330
91
100
AcDbEntity
  8
0
100
AcDbBlockBegin
  2
block 3
 70
     0
 10
0.0
 20
0.0
 30
0.0
  3
block 3
  1

  0
SPLINE
  5
95
330
91
100
AcDbEntity
  8
_U+30EC_U+30A4_U+30E4_U+30FC 1
370
     0
100
AcDbSpline
210
0.0
220
0.0
230
1.0
 70
    11
 71
     3
 72
    26
 73
    22
 74
     0
 42
0.0000000001
 43
0.0000000001
 12
1.0
 22
0.0
 32
0.0
 13
1.0
 23
0.0
 33
0.0
 40
0.0
 40
0.0
 40
0.0
 40
0.0
 40
1.0
 40
1.0
 40
1.0
 40
2.0
 40
2.0
 40
2.0
 40
3.0
 40
3.0
 40
3.0
 40
4.0
 40
4.0
 40
4.0
 40
5.0
 40
5.0
 40
5.0
 40
6.0
 40
6.0
 40
6.0
 40
7.0
 40
7.0
 40
7.0
 40
7.0
 10
89.14046764264545
 20
-135.5858669365896
 30
0.0
 10
89.14046764264545
 20
-135.5858669365896
 30
0.0
 10
89.14046764264545
 20
-134.4817138335671
 30
0.0
 10
89.14046764264545
 20
-134.4817138335671
 30
0.0
 10
89.14046764264545
 20
-134.4817138335671
 30
0.0
 10
88.78803437450438
 20
-134.4817138335671
 30
0.0
 10
88.78803437450438
 20
-134.4817138335671
 30
0.0
 10
88.78803437450438
 20
-134.4817138335671
 30
0.0
 10
88.78803437450438
 20
-134.3335747277013
 30
0.0
 10
88.78803437450438
 20
-134.3335747277013
 30
0.0
 10
89.14287920948512
 20
-134.3187608171148
 30
0.0
 10
89.19248858447271
 20
-134.1558078006624
 30
0.0
 10
89.22418346293702
 20
-134.0414306305522
 30
0.0
 10
89.22418346293702
 20
-134.0414306305522
 30
0.0
 10
89.38024628841883
 20
-134.0414306305522
 30
0.0
 10
89.38024628841883
 20
-134.0414306305522
 30
0.0
 10
89.38024628841883
 20
-134.0414306305522
 30
0.0
 10
89.38024628841883
 20
-135.5858669365896
 30
0.0
 10
89.38024628841883
 20
-135.5858669365896
 30
0.0
 10
89.38024628841883
 20
-135.5858669365896
 30
0.0
 10
89.14046764264545
 20
-135.5858669365896
 30
0.0
 10
89.14046764264545
 20
-135.5858669365896
 30
0.0
  0
HATCH
  5
96
330
91
100
AcDbEntity
  8
_U+30EC_U+30A4_U+30E4_U+30FC 1
 62
     7
420
 16777215
100
AcDbHatch
 10
0.0
 20
0.0
 30
0.0
210
0.0
220
0.0
230
1.0
  2
SOLID
 70
     1
 71
     0
 91
        1
 92
        1
 93
        1
 72
     4
 94
        3
 73
     0
 74
     1
 95
       26
 96
       22
 40
0.0
 40
0.0
 40
0.0
 40
0.0
 40
1.0
 40
1.0
 40
1.0
 40
2.0
 40
2.0
 40
2.0
 40
3.0
 40
3.0
 40
3.0
 40
4.0
 40
4.0
 40
4.0
 40
5.0
 40
5.0
 40
5.0
 40
6.0
 40
6.0
 40
6.0
 40
7.0
 40
7.0
 40
7.0
 40
7.0
 10
89.14046764264545
 20
-135.5858669365896
 10
89.14046764264545
 20
-135.5858669365896
 10
89.14046764264545
 20
-134.4817138335671
 10
89.14046764264545
 20
-134.4817138335671
 10
89.14046764264545
 20
-134.4817138335671
 10
88.78803437450438
 20
-134.4817138335671
 10
88.78803437450438
 20
-134.4817138335671
 10
88.78803437450438
 20
-134.4817138335671
 10
88.78803437450438
 20
-134.3335747277013
 10
88.78803437450438
 20
-134.3335747277013
 10
89.14287920948512
 20
-134.3187608171148
 10
89.19248858447271
 20
-134.1558078006624
 10
89.22418346293702
 20
-134.0414306305522
 10
89.22418346293702
 20
-134.0414306305522
 10
89.38024628841883
 20
-134.0414306305522
 10
89.38024628841883
 20
-134.0414306305522
 10
89.38024628841883
 20
-134.0414306305522
 10
89.38024628841883
 20
-135.5858669365896
 10
89.38024628841883
 20
-135.5858669365896
 10
89.38024628841883
 20
-135.5858669365896
 10
89.14046764264545
 20
-135.5858669365896
 10
89.14046764264545
 20
-135.5858669365896
 97
        0
 97
        0
 75
     2
 76
     1
 98
        0
  0
SPLINE
  5
97
330
91
100
AcDbEntity
  8
_U+30EC_U+30A4_U+30E4_U+30FC 1
370
     0
100
AcDbSpline
210
0.0
220
0.0
230
1.0
 70
    11
 71
     3
 72
    29
 73
    25
 74
     0
 42
0.0000000001
 43
0.0000000001
 12
1.0
 22
0.0
 32
0.0
 13
1.0
 23
0.0
 33
0.0
 40
0.0
 40
0.0
 40
0.0
 40
0.0
 40
1.0
 40
1.0
 40
1.0
 40
2.0
 40
2.0
 40
2.0
 40
3.0
 40
3.0
 40
3.0
 40
4.0
 40
4.0
 40
4.0
 40
5.0
 40
5.0
 40
5.0
 40
6.0
 40
6.0
 40
6.0
 40
7.0
 40
7.0
 40
7.0
 40
8.0
 40
8.0
 40
8.0
 40
8.0
 10
90.45029294613744
 20
-135.6365098402228
 30
0.0
 10
90.16538354950727
 20
-135.6365098402228
 30
0.0
 10
89.8942545348181
 20
-135.4990505303614
 30
0.0
 10
89.8942545348181
 20
-135.1500623577055
 30
0.0
 10
89.8942545348181
 20
-134.8940917631515
 30
0.0
 10
90.0458387361691
 20
-134.7990071277586
 30
0.0
 10
90.1588378680853
 20
-134.7376844281211
 30
0.0
 10
90.02551267280613
 20
-134.6784287857749
 30
0.0
 10
89.9438639098057
 20
-134.5640516156645
 30
0.0
 10
89.9438639098057
 20
-134.4031656565034
 30
0.0
 10
89.9438639098057
 20
-134.1282470367804
 30
0.0
 10
90.15642630124562
 20
-133.9928547842101
 30
0.0
 10
90.45029294613744
 20
-133.9928547842101
 30
0.0
 10
90.75346134883942
 20
-133.9928547842101
 30
0.0
 10
90.95672198246916
 20
-134.1368597754936
 30
0.0
 10
90.95672198246916
 20
-134.4031656565034
 30
0.0
 10
90.95672198246916
 20
-134.5640516156645
 30
0.0
 10
90.87335067172612
 20
-134.6784287857749
 30
0.0
 10
90.73968096689842
 20
-134.7376844281211
 30
0.0
 10
90.83476560229131
 20
-134.7883273317543
 30
0.0
 10
91.0042643001656
 20
-134.8834119671472
 30
0.0
 10
91.0042643001656
 20
-135.1459282431233
 30
0.0
 10
91.0042643001656
 20
-135.5204101223699
 30
0.0
 10
90.70591903114297
 20
-135.6365098402228
 30
0.0
 10
90.45029294613744
 20
-135.6365098402228
 30
0.0
  0
SPLINE
  5
98
330
91
100
AcDbEntity
  8
_U+30EC_U+30A4_U+30E4_U+30FC 1
370
     0
100
AcDbSpline
210
0.0
220
0.0
230
1.0
 70
    11
 71
     3
 72
    17
 73
    13
 74
     0
 42
0.0000000001
 43
0.0000000001
 12
1.0
 22
0.0
 32
0.0
 13
1.0
 23
0.0
 33
0.0
 40
0.0
 40
0.0
 40
0.0
 40
0.0
 40
1.0
 40
1.0
 40
1.0
 40
2.0
 40
2.0
 40
2.0
 40
3.0
 40
3.0
 40
3.0
 40
4.0
 40
4.0
 40
4.0
 40
4.0
 10
90.45029294613744
 20
-134.8455159168095
 30
0.0
 10
90.29664168749528
 20
-134.8455159168095
 30
0.0
 10
90.1340331805915
 20
-134.9323323230378
 30
0.0
 10
90.1340331805915
 20
-135.135248447119
 30
0.0
 10
90.1340331805915
 20
-135.3405761380399
 30
0.0
 10
90.26942543316181
 20
-135.4418619453062
 30
0.0
 10
90.45029294613744
 20
-135.4418619453062
 30
0.0
 10
90.64941946518488
 20
-135.4418619453062
 30
0.0
 10
90.76689722123189
 20
-135.3192165460313
 30
0.0
 10
90.76689722123189
 20
-135.1414496189924
 30
0.0
 10
90.76689722123189
 20
-134.9195854697423
 30
0.0
 10
90.59291989922677
 20
-134.8455159168095
 30
0.0
 10
90.45029294613744
 20
-134.8455159168095
 30
0.0
  0
SPLINE
  5
99
330
91
100
AcDbEntity
  8
_U+30EC_U+30A4_U+30E4_U+30FC 1
370
     0
100
AcDbSpline
210
0.0
220
0.0
230
1.0
 70
    11
 71
     3
 72
    17
 73
    13
 74
     0
 42
0.0000000001
 43
0.0000000001
 12
1.0
 22
0.0
 32
0.0
 13
1.0
 23
0.0
 33
0.0
 40
0.0
 40
0.0
 40
0.0
 40
0.0
 40
1.0
 40
1.0
 40
1.0
 40
2.0
 40
2.0
 40
2.0
 40
3.0
 40
3.0
 40
3.0
 40
4.0
 40
4.0
 40
4.0
 40
4.0
 10
90.45029294613744
 20
-134.1854356218356
 30
0.0
 10
90.27424856684117
 20
-134.1854356218356
 30
0.0
 10
90.1836425555791
 20
-134.2805202572285
 30
0.0
 10
90.1836425555791
 20
-134.4159125097988
 30
0.0
 10
90.1836425555791
 20
-134.5385579090737
 30
0.0
 10
90.26046818490016
 20
-134.6570691937663
 30
0.0
 10
90.45029294613744
 20
-134.6570691937663
 30
0.0
 10
90.64046221692323
 20
-134.6570691937663
 30
0.0
 10
90.71728784624429
 20
-134.5385579090737
 30
0.0
 10
90.71728784624429
 20
-134.4159125097988
 30
0.0
 10
90.71728784624429
 20
-134.2805202572285
 30
0.0
 10
90.62461477769108
 20
-134.1854356218356
 30
0.0
 10
90.45029294613744
 20
-134.1854356218356
 30
0.0
  0
HATCH
  5
9A
330
91
100
AcDbEntity
  8
_U+30EC_U+30A4_U+30E4_U+30FC 1
 62
     7
420
 16777215
100
AcDbHatch
 10
0.0
 20
0.0
 30
0.0
210
0.0
220
0.0
230
1.0
  2
SOLID
 70
     1
 71
     0
 91
        3
 92
        1
 93
        1
 72
     4
 94
        3
 73
     0
 74
     1
 95
       29
 96
       25
 40
0.0
 40
0.0
 40
0.0
 40
0.0
 40
1.0
 40
1.0
 40
1.0
 40
2.0
 40
2.0
 40
2.0
 40
3.0
 40
3.0
 40
3.0
 40
4.0
 40
4.0
 40
4.0
 40
5.0
 40
5.0
 40
5.0
 40
6.0
 40
6.0
 40
6.0
 40
7.0
 40
7.0
 40
7.0
 40
8.0
 40
8.0
 40
8.0
 40
8.0
 10
90.45029294613744
 20
-135.6365098402228
 10
90.16538354950727
 20
-135.6365098402228
 10
89.8942545348181
 20
-135.4990505303614
 10
89.8942545348181
 20
-135.1500623577055
 10
89.8942545348181
 20
-134.8940917631515
 10
90.0458387361691
 20
-134.7990071277586
 10
90.1588378680853
 20
-134.7376844281211
 10
90.02551267280613
 20
-134.6784287857749
 10
89.9438639098057
 20
-134.5640516156645
 10
89.9438639098057
 20
-134.4031656565034
 10
89.9438639098057
 20
-134.1282470367804
 10
90.15642630124562
 20
-133.9928547842101
 10
90.45029294613744
 20
-133.9928547842101
 10
90.75346134883942
 20
-133.9928547842101
 10
90.95672198246916
 20
-134.1368597754936
 10
90.95672198246916
 20
-134.4031656565034
 10
90.95672198246916
 20
-134.5640516156645
 10
90.87335067172612
 20
-134.6784287857749
 10
90.73968096689842
 20
-134.7376844281211
 10
90.83476560229131
 20
-134.7883273317543
 10
91.0042643001656
 20
-134.8834119671472
 10
91.0042643001656
 20
-135.1459282431233
 10
91.0042643001656
 20
-135.5204101223699
 10
90.70591903114297
 20
-135.6365098402228
 10
90.45029294613744
 20
-135.6365098402228
 97
        0
 97
        0
 92
        1
 93
        1
 72
     4
 94
        3
 73
     0
 74
     1
 95
       17
 96
       13
 40
0.0
 40
0.0
 40
0.0
 40
0.0
 40
1.0
 40
1.0
 40
1.0
 40
2.0
 40
2.0
 40
2.0
 40
3.0
 40
3.0
 40
3.0
 40
4.0
 40
4.0
 40
4.0
 40
4.0
 10
90.45029294613744
 20
-134.8455159168095
 10
90.29664168749528
 20
-134.8455159168095
 10
90.1340331805915
 20
-134.9323323230378
 10
90.1340331805915
 20
-135.135248447119
 10
90.1340331805915
 20
-135.3405761380399
 10
90.26942543316181
 20
-135.4418619453062
 10
90.45029294613744
 20
-135.4418619453062
 10
90.64941946518488
 20
-135.4418619453062
 10
90.76689722123189
 20
-135.3192165460313
 10
90.76689722123189
 20
-135.1414496189924
 10
90.76689722123189
 20
-134.9195854697423
 10
90.59291989922677
 20
-134.8455159168095
 10
90.45029294613744
 20
-134.8455159168095
 97
        0
 97
        0
 92
        1
 93
        1
 72
     4
 94
        3
 73
     0
 74
     1
 95
       17
 96
       13
 40
0.0
 40
0.0
 40
0.0
 40
0.0
 40
1.0
 40
1.0
 40
1.0
 40
2.0
 40
2.0
 40
2.0
 40
3.0
 40
3.0
 40
3.0
 40
4.0
 40
4.0
 40
4.0
 40
4.0
 10
90.45029294613744
 20
-134.1854356218356
 10
90.27424856684117
 20
-134.1854356218356
 10
90.1836425555791
 20
-134.2805202572285
 10
90.1836425555791
 20
-134.4159125097988
 10
90.1836425555791
 20
-134.5385579090737
 10
90.26046818490016
 20
-134.6570691937663
 10
90.45029294613744
 20
-134.6570691937663
 10
90.64046221692323
 20
-134.6570691937663
 10
90.71728784624429
 20
-134.5385579090737
 10
90.71728784624429
 20
-134.4159125097988
 10
90.71728784624429
 20
-134.2805202572285
 10
90.62461477769108
 20
-134.1854356218356
 10
90.45029294613744
 20
-134.1854356218356
 97
        0
 97
        0
 75
     2
 76
     1
 98
        0
  0
ENDBLK
  5
94
330
91
100
AcDbEntity
  8
0
100
AcDbBlockEnd
  0
BLOCK
  5
AD
330
AB
100
AcDbEntity
  8
0
100
AcDbBlockBegin
  2
block 4
 70
     0
 10
0.0
 20
0.0
 30
0.0
  3
block 4
  1

  0
SPLINE
  5
AF
330
AB
100
AcDbEntity
  8
_U+30EC_U+30A4_U+30E4_U+30FC 1
370
     0
100
AcDbSpline
210
0.0
220
0.0
230
1.0
 70
    11
 71
     3
 72
    62
 73
    58
 74
     0
 42
0.0000000001
 43
0.0000000001
 12
1.0
 22
0.0
 32
0.0
 13
1.0
 23
0.0
 33
0.0
 40
0.0
 40
0.0
 40
0.0
 40
0.0
 40
1.0
 40
1.0
 40
1.0
 40
2.0
 40
2.0
 40
2.0
 40
3.0
 40
3.0
 40
3.0
 40
4.0
 40
4.0
 40
4.0
 40
5.0
 40
5.0
 40
5.0
 40
6.0
 40
6.0
 40
6.0
 40
7.0
 40
7.0
 40
7.0
 40
8.0
 40
8.0
 40
8.0
 40
9.0
 40
9.0
 40
9.0
 40
10.0
 40
10.0
 40
10.0
 40
11.0
 40
11.0
 40
11.0
 40
12.0
 40
12.0
 40
12.0
 40
13.0
 40
13.0
 40
13.0
 40
14.0
 40
14.0
 40
14.0
 40
15.0
 40
15.0
 40
15.0
 40
16.0
 40
16.0
 40
16.0
 40
17.0
 40
17.0
 40
17.0
 40
18.0
 40
18.0
 40
18.0
 40
19.0
 40
19.0
 40
19.0
 40
19.0
 10
101.1786647967539
 20
-126.1711099944989
 30
0.0
 10
101.1786647967539
 20
-126.2727403113138
 30
0.0
 10
101.1576497142939
 20
-126.5056287661167
 30
0.0
 10
100.9716145580904
 20
-126.6389539613958
 30
0.0
 10
100.8593044452713
 20
-126.7181911575566
 30
0.0
 10
100.7600856952961
 20
-126.7226697816874
 30
0.0
 10
100.6753363463589
 20
-126.7271484058182
 30
0.0
 10
100.6753363463589
 20
-126.7271484058182
 30
0.0
 10
100.6753363463589
 20
-126.4921928937242
 30
0.0
 10
100.6753363463589
 20
-126.4921928937242
 30
0.0
 10
100.7494058992918
 20
-126.4897813268845
 30
0.0
 10
100.9840169018373
 20
-126.4784125117832
 30
0.0
 10
100.9840169018373
 20
-126.1755886186297
 30
0.0
 10
100.9840169018373
 20
-126.0284830414096
 30
0.0
 10
100.9144259730353
 20
-125.8658745345058
 30
0.0
 10
100.6860161423632
 20
-125.8658745345058
 30
0.0
 10
100.5695719149618
 20
-125.8658745345058
 30
0.0
 10
100.5209960686198
 20
-125.9065266612317
 30
0.0
 10
100.4893011901555
 20
-125.9402885969872
 30
0.0
 10
100.4152316372226
 20
-126.0195257931479
 30
0.0
 10
100.4024847839272
 20
-126.1438937401654
 30
0.0
 10
100.4024847839272
 20
-126.2028048729632
 30
0.0
 10
100.4024847839272
 20
-126.2231309363262
 30
0.0
 10
100.4045518412183
 20
-126.2613714962124
 30
0.0
 10
100.4086859558006
 20
-126.2909993173856
 30
0.0
 10
100.4086859558006
 20
-126.2909993173856
 30
0.0
 10
100.214038060884
 20
-126.2909993173856
 30
0.0
 10
100.214038060884
 20
-126.2909993173856
 30
0.0
 10
100.220583742306
 20
-126.2503471906596
 30
0.0
 10
100.2226507995971
 20
-126.2048719302543
 30
0.0
 10
100.2226507995971
 20
-126.1983262488324
 30
0.0
 10
100.2226507995971
 20
-126.1280463009333
 30
0.0
 10
100.2012912075886
 20
-125.9154839094934
 30
0.0
 10
99.9646131477519
 20
-125.9154839094934
 30
0.0
 10
99.78684622071302
 20
-125.9154839094934
 30
0.0
 10
99.73172469294902
 20
-126.055699295743
 30
0.0
 10
99.73172469294902
 20
-126.17317705179
 30
0.0
 10
99.73172469294902
 20
-126.4560193911291
 30
0.0
 10
99.9646131477519
 20
-126.4649766393907
 30
0.0
 10
100.0362711338451
 20
-126.4694552635215
 30
0.0
 10
100.0362711338451
 20
-126.4694552635215
 30
0.0
 10
100.0362711338451
 20
-126.6864962790923
 30
0.0
 10
100.0362711338451
 20
-126.6864962790923
 30
0.0
 10
99.91155867727906
 20
-126.6775390308306
 30
0.0
 10
99.53500974074126
 20
-126.648255719206
 30
0.0
 10
99.53500974074126
 20
-126.1597411793976
 30
0.0
 10
99.53500974074126
 20
-125.9199625336242
 30
0.0
 10
99.66213376414697
 20
-125.6622693913275
 30
0.0
 10
99.95806746632994
 20
-125.6622693913275
 30
0.0
 10
100.144447132082
 20
-125.6622693913275
 30
0.0
 10
100.2267849141794
 20
-125.7642442176909
 30
0.0
 10
100.2881076138169
 20
-125.8703531586366
 30
0.0
 10
100.3156683776989
 20
-125.8048963444168
 30
0.0
 10
100.3959391025052
 20
-125.6102484495002
 30
0.0
 10
100.6732692890678
 20
-125.6102484495002
 30
0.0
 10
101.0115776657193
 20
-125.6102484495002
 30
0.0
 10
101.1786647967539
 20
-125.8748317827674
 30
0.0
 10
101.1786647967539
 20
-126.1711099944989
 30
0.0
  0
HATCH
  5
B0
330
AB
100
AcDbEntity
  8
_U+30EC_U+30A4_U+30E4_U+30FC 1
 62
     7
420
 16777215
100
AcDbHatch
 10
0.0
 20
0.0
 30
0.0
210
0.0
220
0.0
230
1.0
  2
SOLID
 70
     1
 71
     0
 91
        1
 92
        1
 93
        1
 72
     4
 94
        3
 73
     0
 74
     1
 95
       62
 96
       58
 40
0.0
 40
0.0
 40
0.0
 40
0.0
 40
1.0
 40
1.0
 40
1.0
 40
2.0
 40
2.0
 40
2.0
 40
3.0
 40
3.0
 40
3.0
 40
4.0
 40
4.0
 40
4.0
 40
5.0
 40
5.0
 40
5.0
 40
6.0
 40
6.0
 40
6.0
 40
7.0
 40
7.0
 40
7.0
 40
8.0
 40
8.0
 40
8.0
 40
9.0
 40
9.0
 40
9.0
 40
10.0
 40
10.0
 40
10.0
 40
11.0
 40
11.0
 40
11.0
 40
12.0
 40
12.0
 40
12.0
 40
13.0
 40
13.0
 40
13.0
 40
14.0
 40
14.0
 40
14.0
 40
15.0
 40
15.0
 40
15.0
 40
16.0
 40
16.0
 40
16.0
 40
17.0
 40
17.0
 40
17.0
 40
18.0
 40
18.0
 40
18.0
 40
19.0
 40
19.0
 40
19.0
 40
19.0
 10
101.1786647967539
 20
-126.1711099944989
 10
101.1786647967539
 20
-126.2727403113138
 10
101.1576497142939
 20
-126.5056287661167
 10
100.9716145580904
 20
-126.6389539613958
 10
100.8593044452713
 20
-126.7181911575566
 10
100.7600856952961
 20
-126.7226697816874
 10
100.6753363463589
 20
-126.7271484058182
 10
100.6753363463589
 20
-126.7271484058182
 10
100.6753363463589
 20
-126.4921928937242
 10
100.6753363463589
 20
-126.4921928937242
 10
100.7494058992918
 20
-126.4897813268845
 10
100.9840169018373
 20
-126.4784125117832
 10
100.9840169018373
 20
-126.1755886186297
 10
100.9840169018373
 20
-126.0284830414096
 10
100.9144259730353
 20
-125.8658745345058
 10
100.6860161423632
 20
-125.8658745345058
 10
100.5695719149618
 20
-125.8658745345058
 10
100.5209960686198
 20
-125.9065266612317
 10
100.4893011901555
 20
-125.9402885969872
 10
100.4152316372226
 20
-126.0195257931479
 10
100.4024847839272
 20
-126.1438937401654
 10
100.4024847839272
 20
-126.2028048729632
 10
100.4024847839272
 20
-126.2231309363262
 10
100.4045518412183
 20
-126.2613714962124
 10
100.4086859558006
 20
-126.2909993173856
 10
100.4086859558006
 20
-126.2909993173856
 10
100.214038060884
 20
-126.2909993173856
 10
100.214038060884
 20
-126.2909993173856
 10
100.220583742306
 20
-126.2503471906596
 10
100.2226507995971
 20
-126.2048719302543
 10
100.2226507995971
 20
-126.1983262488324
 10
100.2226507995971
 20
-126.1280463009333
 10
100.2012912075886
 20
-125.9154839094934
 10
99.9646131477519
 20
-125.9154839094934
 10
99.78684622071302
 20
-125.9154839094934
 10
99.73172469294902
 20
-126.055699295743
 10
99.73172469294902
 20
-126.17317705179
 10
99.73172469294902
 20
-126.4560193911291
 10
99.9646131477519
 20
-126.4649766393907
 10
100.0362711338451
 20
-126.4694552635215
 10
100.0362711338451
 20
-126.4694552635215
 10
100.0362711338451
 20
-126.6864962790923
 10
100.0362711338451
 20
-126.6864962790923
 10
99.91155867727906
 20
-126.6775390308306
 10
99.53500974074126
 20
-126.648255719206
 10
99.53500974074126
 20
-126.1597411793976
 10
99.53500974074126
 20
-125.9199625336242
 10
99.66213376414697
 20
-125.6622693913275
 10
99.95806746632994
 20
-125.6622693913275
 10
100.144447132082
 20
-125.6622693913275
 10
100.2267849141794
 20
-125.7642442176909
 10
100.2881076138169
 20
-125.8703531586366
 10
100.3156683776989
 20
-125.8048963444168
 10
100.3959391025052
 20
-125.6102484495002
 10
100.6732692890678
 20
-125.6102484495002
 10
101.0115776657193
 20
-125.6102484495002
 10
101.1786647967539
 20
-125.8748317827674
 10
101.1786647967539
 20
-126.1711099944989
 97
        0
 97
        0
 75
     2
 76
     1
 98
        0
  0
POLYLINE
  5
B1
330
AB
100
AcDbEntity
  8
_U+30EC_U+30A4_U+30E4_U+30FC 1
370
     0
100
AcDb2dPolyline
 66
     1
 10
0.0
 20
0.0
 30
0.0
  0
VERTEX
  5
B2
330
B1
100
AcDbEntity
  8
_U+30EC_U+30A4_U+30E4_U+30FC 1
370
     0
100
AcDbVertex
100
AcDb2dVertex
 10
101.1280218931208
 20
-125.3746039183091
 30
0.0
  0
VERTEX
  5
B3
330
B1
100
AcDbEntity
  8
_U+30EC_U+30A4_U+30E4_U+30FC 1
370
     0
100
AcDbVertex
100
AcDb2dVertex
 10
100.876185413149
 20
-125.3746039183091
 30
0.0
  0
VERTEX
  5
B4
330
B1
100
AcDbEntity
  8
_U+30EC_U+30A4_U+30E4_U+30FC 1
370
     0
100
AcDbVertex
100
AcDb2dVertex
 10
100.876185413149
 20
-125.1055419609111
 30
0.0
  0
VERTEX
  5
B5
330
B1
100
AcDbEntity
  8
_U+30EC_U+30A4_U+30E4_U+30FC 1
370
     0
100
AcDbVertex
100
AcDb2dVertex
 10
101.1280218931208
 20
-125.1055419609111
 30
0.0
  0
VERTEX
  5
B6
330
B1
100
AcDbEntity
  8
_U+30EC_U+30A4_U+30E4_U+30FC 1
370
     0
100
AcDbVertex
100
AcDb2dVertex
 10
101.1280218931208
 20
-125.3746039183091
 30
0.0
  0
SEQEND
  5
B7
330
B1
100
AcDbEntity
  8
_U+30EC_U+30A4_U+30E4_U+30FC 1
370
     0
  0
HATCH
  5
B8
330
AB
100
AcDbEntity
  8
_U+30EC_U+30A4_U+30E4_U+30FC 1
 62
     7
420
 16777215
100
AcDbHatch
 10
0.0
 20
0.0
 30
0.0
210
0.0
220
0.0
230
1.0
  2
SOLID
 70
     1
 71
     0
 91
        1
 92
        1
 93
        4
 72
     1
 10
101.1280218931208
 20
-125.3746039183091
 11
100.876185413149
 21
-125.3746039183091
 72
     1
 10
100.876185413149
 20
-125.3746039183091
 11
100.876185413149
 21
-125.1055419609111
 72
     1
 10
100.876185413149
 20
-125.1055419609111
 11
101.1280218931208
 21
-125.1055419609111
 72
     1
 10
101.1280218931208
 20
-125.1055419609111
 11
101.1280218931208
 21
-125.3746039183091
 97
        0
 75
     2
 76
     1
 98
        0
  0
SPLINE
  5
B9
330
AB
100
AcDbEntity
  8
_U+30EC_U+30A4_U+30E4_U+30FC 1
370
     0
100
AcDbSpline
210
0.0
220
0.0
230
1.0
 70
    11
 71
     3
 72
    53
 73
    49
 74
     0
 42
0.0000000001
 43
0.0000000001
 12
1.0
 22
0.0
 32
0.0
 13
1.0
 23
0.0
 33
0.0
 40
0.0
 40
0.0
 40
0.0
 40
0.0
 40
1.0
 40
1.0
 40
1.0
 40
2.0
 40
2.0
 40
2.0
 40
3.0
 40
3.0
 40
3.0
 40
4.0
 40
4.0
 40
4.0
 40
5.0
 40
5.0
 40
5.0
 40
6.0
 40
6.0
 40
6.0
 40
7.0
 40
7.0
 40
7.0
 40
8.0
 40
8.0
 40
8.0
 40
9.0
 40
9.0
 40
9.0
 40
10.0
 40
10.0
 40
10.0
 40
11.0
 40
11.0
 40
11.0
 40
12.0
 40
12.0
 40
12.0
 40
13.0
 40
13.0
 40
13.0
 40
14.0
 40
14.0
 40
14.0
 40
15.0
 40
15.0
 40
15.0
 40
16.0
 40
16.0
 40
16.0
 40
16.0
 10
101.1786647967539
 20
-124.3386637058945
 30
0.0
 10
101.1786647967539
 20
-124.4223795261861
 30
0.0
 10
101.1617838288762
 20
-124.5305555244229
 30
0.0
 10
101.0983940719476
 20
-124.6394205417568
 30
0.0
 10
100.9884955259682
 20
-124.8247666788633
 30
0.0
 10
100.8572373879801
 20
-124.8471597995174
 30
0.0
 10
100.7494058992918
 20
-124.8674858628804
 30
0.0
 10
100.7494058992918
 20
-124.8674858628804
 30
0.0
 10
100.7494058992918
 20
-124.6301187839466
 30
0.0
 10
100.7494058992918
 20
-124.6301187839466
 30
0.0
 10
100.9481879087907
 20
-124.5715521606974
 30
0.0
 10
100.9778157299639
 20
-124.4358153985786
 30
0.0
 10
100.9778157299639
 20
-124.3362521390548
 30
0.0
 10
100.9778157299639
 20
-124.1870795045435
 30
0.0
 10
100.8782524704402
 20
-124.0241264880912
 30
0.0
 10
100.6457085251858
 20
-124.0241264880912
 30
0.0
 10
100.3897379306317
 20
-124.0241264880912
 30
0.0
 10
100.3198024922812
 20
-124.2163628161681
 30
0.0
 10
100.3198024922812
 20
-124.3452093873165
 30
0.0
 10
100.3198024922812
 20
-124.3793158326204
 30
0.0
 10
100.3198024922812
 20
-124.5305555244229
 30
0.0
 10
100.448993572978
 20
-124.6256401598158
 30
0.0
 10
100.448993572978
 20
-124.6256401598158
 30
0.0
 10
100.4300455478092
 20
-124.8133978637619
 30
0.0
 10
100.4300455478092
 20
-124.8133978637619
 30
0.0
 10
100.4300455478092
 20
-124.8133978637619
 30
0.0
 10
99.58358558708328
 20
-124.6845512926136
 30
0.0
 10
99.58358558708328
 20
-124.6845512926136
 30
0.0
 10
99.58358558708328
 20
-124.6845512926136
 30
0.0
 10
99.58358558708328
 20
-123.8525607329258
 30
0.0
 10
99.58358558708328
 20
-123.8525607329258
 30
0.0
 10
99.58358558708328
 20
-123.8525607329258
 30
0.0
 10
99.77823348199989
 20
-123.8525607329258
 30
0.0
 10
99.77823348199989
 20
-123.8525607329258
 30
0.0
 10
99.77823348199989
 20
-123.8525607329258
 30
0.0
 10
99.77823348199989
 20
-124.51022946106
 30
0.0
 10
99.77823348199989
 20
-124.51022946106
 30
0.0
 10
99.77823348199989
 20
-124.51022946106
 30
0.0
 10
100.2012912075886
 20
-124.580509408959
 30
0.0
 10
100.2012912075886
 20
-124.580509408959
 30
0.0
 10
100.1675292718331
 20
-124.5150525947393
 30
0.0
 10
100.1272216546557
 20
-124.4268581503169
 30
0.0
 10
100.1272216546557
 20
-124.3000786364597
 30
0.0
 10
100.1272216546557
 20
-124.0289496217706
 30
0.0
 10
100.3136013204077
 20
-123.7757351036047
 30
0.0
 10
100.6267605000169
 20
-123.7757351036047
 30
0.0
 10
100.9440537942084
 20
-123.7757351036047
 30
0.0
 10
101.1786647967539
 20
-124.0151692398295
 30
0.0
 10
101.1786647967539
 20
-124.3386637058945
 30
0.0
  0
HATCH
  5
BA
330
AB
100
AcDbEntity
  8
_U+30EC_U+30A4_U+30E4_U+30FC 1
 62
     7
420
 16777215
100
AcDbHatch
 10
0.0
 20
0.0
 30
0.0
210
0.0
220
0.0
230
1.0
  2
SOLID
 70
     1
 71
     0
 91
        1
 92
        1
 93
        1
 72
     4
 94
        3
 73
     0
 74
     1
 95
       53
 96
       49
 40
0.0
 40
0.0
 40
0.0
 40
0.0
 40
1.0
 40
1.0
 40
1.0
 40
2.0
 40
2.0
 40
2.0
 40
3.0
 40
3.0
 40
3.0
 40
4.0
 40
4.0
 40
4.0
 40
5.0
 40
5.0
 40
5.0
 40
6.0
 40
6.0
 40
6.0
 40
7.0
 40
7.0
 40
7.0
 40
8.0
 40
8.0
 40
8.0
 40
9.0
 40
9.0
 40
9.0
 40
10.0
 40
10.0
 40
10.0
 40
11.0
 40
11.0
 40
11.0
 40
12.0
 40
12.0
 40
12.0
 40
13.0
 40
13.0
 40
13.0
 40
14.0
 40
14.0
 40
14.0
 40
15.0
 40
15.0
 40
15.0
 40
16.0
 40
16.0
 40
16.0
 40
16.0
 10
101.1786647967539
 20
-124.3386637058945
 10
101.1786647967539
 20
-124.4223795261861
 10
101.1617838288762
 20
-124.5305555244229
 10
101.0983940719476
 20
-124.6394205417568
 10
100.9884955259682
 20
-124.8247666788633
 10
100.8572373879801
 20
-124.8471597995174
 10
100.7494058992918
 20
-124.8674858628804
 10
100.7494058992918
 20
-124.8674858628804
 10
100.7494058992918
 20
-124.6301187839466
 10
100.7494058992918
 20
-124.6301187839466
 10
100.9481879087907
 20
-124.5715521606974
 10
100.9778157299639
 20
-124.4358153985786
 10
100.9778157299639
 20
-124.3362521390548
 10
100.9778157299639
 20
-124.1870795045435
 10
100.8782524704402
 20
-124.0241264880912
 10
100.6457085251858
 20
-124.0241264880912
 10
100.3897379306317
 20
-124.0241264880912
 10
100.3198024922812
 20
-124.2163628161681
 10
100.3198024922812
 20
-124.3452093873165
 10
100.3198024922812
 20
-124.3793158326204
 10
100.3198024922812
 20
-124.5305555244229
 10
100.448993572978
 20
-124.6256401598158
 10
100.448993572978
 20
-124.6256401598158
 10
100.4300455478092
 20
-124.8133978637619
 10
100.4300455478092
 20
-124.8133978637619
 10
100.4300455478092
 20
-124.8133978637619
 10
99.58358558708328
 20
-124.6845512926136
 10
99.58358558708328
 20
-124.6845512926136
 10
99.58358558708328
 20
-124.6845512926136
 10
99.58358558708328
 20
-123.8525607329258
 10
99.58358558708328
 20
-123.8525607329258
 10
99.58358558708328
 20
-123.8525607329258
 10
99.77823348199989
 20
-123.8525607329258
 10
99.77823348199989
 20
-123.8525607329258
 10
99.77823348199989
 20
-123.8525607329258
 10
99.77823348199989
 20
-124.51022946106
 10
99.77823348199989
 20
-124.51022946106
 10
99.77823348199989
 20
-124.51022946106
 10
100.2012912075886
 20
-124.580509408959
 10
100.2012912075886
 20
-124.580509408959
 10
100.1675292718331
 20
-124.5150525947393
 10
100.1272216546557
 20
-124.4268581503169
 10
100.1272216546557
 20
-124.3000786364597
 10
100.1272216546557
 20
-124.0289496217706
 10
100.3136013204077
 20
-123.7757351036047
 10
100.6267605000169
 20
-123.7757351036047
 10
100.9440537942084
 20
-123.7757351036047
 10
101.1786647967539
 20
-124.0151692398295
 10
101.1786647967539
 20
-124.3386637058945
 97
        0
 97
        0
 75
     2
 76
     1
 98
        0
  0
ENDBLK
  5
AE
330
AB
100
AcDbEntity
  8
0
100
AcDbBlockEnd
  0
BLOCK
  5
CD
330
CB
100
AcDbEntity
  8
0
100
AcDbBlockBegin
  2
block 5
 70
     0
 10
0.0
 20
0.0
 30
0.0
  3
block 5
  1

  0
SPLINE
  5
CF
330
CB
100
AcDbEntity
  8
_U+30EC_U+30A4_U+30E4_U+30FC 1
370
     0
100
AcDbSpline
210
0.0
220
0.0
230
1.0
 70
    11
 71
     3
 72
    26
 73
    22
 74
     0
 42
0.0000000001
 43
0.0000000001
 12
1.0
 22
0.0
 32
0.0
 13
1.0
 23
0.0
 33
0.0
 40
0.0
 40
0.0
 40
0.0
 40
0.0
 40
1.0
 40
1.0
 40
1.0
 40
2.0
 40
2.0
 40
2.0
 40
3.0
 40
3.0
 40
3.0
 40
4.0
 40
4.0
 40
4.0
 40
5.0
 40
5.0
 40
5.0
 40
6.0
 40
6.0
 40
6.0
 40
7.0
 40
7.0
 40
7.0
 40
7.0
 10
101.1280218931208
 20
-131.7056558915528
 30
0.0
 10
101.1280218931208
 20
-131.7056558915528
 30
0.0
 10
100.0238687900982
 20
-131.7056558915528
 30
0.0
 10
100.0238687900982
 20
-131.7056558915528
 30
0.0
 10
100.0238687900982
 20
-131.7056558915528
 30
0.0
 10
100.0238687900982
 20
-132.0580891596938
 30
0.0
 10
100.0238687900982
 20
-132.0580891596938
 30
0.0
 10
100.0238687900982
 20
-132.0580891596938
 30
0.0
 10
99.87572968423247
 20
-132.0580891596938
 30
0.0
 10
99.87572968423247
 20
-132.0580891596938
 30
0.0
 10
99.86091577364589
 20
-131.7032443247131
 30
0.0
 10
99.69796275719357
 20
-131.6536349497255
 30
0.0
 10
99.58358558708328
 20
-131.6219400712612
 30
0.0
 10
99.58358558708328
 20
-131.6219400712612
 30
0.0
 10
99.58358558708328
 20
-131.4658772457794
 30
0.0
 10
99.58358558708328
 20
-131.4658772457794
 30
0.0
 10
99.58358558708328
 20
-131.4658772457794
 30
0.0
 10
101.1280218931208
 20
-131.4658772457794
 30
0.0
 10
101.1280218931208
 20
-131.4658772457794
 30
0.0
 10
101.1280218931208
 20
-131.4658772457794
 30
0.0
 10
101.1280218931208
 20
-131.7056558915528
 30
0.0
 10
101.1280218931208
 20
-131.7056558915528
 30
0.0
  0
HATCH
  5
D0
330
CB
100
AcDbEntity
  8
_U+30EC_U+30A4_U+30E4_U+30FC 1
 62
   179
420
  2234388
100
AcDbHatch
 10
0.0
 20
0.0
 30
0.0
210
0.0
220
0.0
230
1.0
  2
SOLID
 70
     1
 71
     0
 91
        1
 92
        1
 93
        1
 72
     4
 94
        3
 73
     0
 74
     1
 95
       26
 96
       22
 40
0.0
 40
0.0
 40
0.0
 40
0.0
 40
1.0
 40
1.0
 40
1.0
 40
2.0
 40
2.0
 40
2.0
 40
3.0
 40
3.0
 40
3.0
 40
4.0
 40
4.0
 40
4.0
 40
5.0
 40
5.0
 40
5.0
 40
6.0
 40
6.0
 40
6.0
 40
7.0
 40
7.0
 40
7.0
 40
7.0
 10
101.1280218931208
 20
-131.7056558915528
 10
101.1280218931208
 20
-131.7056558915528
 10
100.0238687900982
 20
-131.7056558915528
 10
100.0238687900982
 20
-131.7056558915528
 10
100.0238687900982
 20
-131.7056558915528
 10
100.0238687900982
 20
-132.0580891596938
 10
100.0238687900982
 20
-132.0580891596938
 10
100.0238687900982
 20
-132.0580891596938
 10
99.87572968423247
 20
-132.0580891596938
 10
99.87572968423247
 20
-132.0580891596938
 10
99.86091577364589
 20
-131.7032443247131
 10
99.69796275719357
 20
-131.6536349497255
 10
99.58358558708328
 20
-131.6219400712612
 10
99.58358558708328
 20
-131.6219400712612
 10
99.58358558708328
 20
-131.4658772457794
 10
99.58358558708328
 20
-131.4658772457794
 10
99.58358558708328
 20
-131.4658772457794
 10
101.1280218931208
 20
-131.4658772457794
 10
101.1280218931208
 20
-131.4658772457794
 10
101.1280218931208
 20
-131.4658772457794
 10
101.1280218931208
 20
-131.7056558915528
 10
101.1280218931208
 20
-131.7056558915528
 97
        0
 97
        0
 75
     2
 76
     1
 98
        0
  0
ENDBLK
  5
CE
330
CB
100
AcDbEntity
  8
0
100
AcDbBlockEnd
  0
BLOCK
  5
D5
330
D3
100
AcDbEntity
  8
0
100
AcDbBlockBegin
  2
block 6
 70
     0
 10
0.0
 20
0.0
 30
0.0
  3
block 6
  1

  0
SPLINE
  5
D7
330
D3
100
AcDbEntity
  8
_U+30EC_U+30A4_U+30E4_U+30FC 1
370
     0
100
AcDbSpline
210
0.0
220
0.0
230
1.0
 70
    11
 71
     3
 72
    26
 73
    22
 74
     0
 42
0.0000000001
 43
0.0000000001
 12
1.0
 22
0.0
 32
0.0
 13
1.0
 23
0.0
 33
0.0
 40
0.0
 40
0.0
 40
0.0
 40
0.0
 40
1.0
 40
1.0
 40
1.0
 40
2.0
 40
2.0
 40
2.0
 40
3.0
 40
3.0
 40
3.0
 40
4.0
 40
4.0
 40
4.0
 40
5.0
 40
5.0
 40
5.0
 40
6.0
 40
6.0
 40
6.0
 40
7.0
 40
7.0
 40
7.0
 40
7.0
 10
78.89285886699554
 20
-128.7489026913371
 30
0.0
 10
78.89285886699554
 20
-128.7489026913371
 30
0.0
 10
78.89285886699554
 20
-127.6445773335403
 30
0.0
 10
78.89285886699554
 20
-127.6445773335403
 30
0.0
 10
78.89285886699554
 20
-127.6445773335403
 30
0.0
 10
78.5628187195086
 20
-127.6445773335403
 30
0.0
 10
78.5628187195086
 20
-127.6445773335403
 30
0.0
 10
78.5628187195086
 20
-127.6445773335403
 30
0.0
 10
78.5628187195086
 20
-127.4964382276745
 30
0.0
 10
78.5628187195086
 20
-127.4964382276745
 30
0.0
 10
78.8949259242867
 20
-127.4817965718622
 30
0.0
 10
78.94143471333756
 20
-127.3188435554099
 30
0.0
 10
78.97106253451071
 20
-127.2046386400739
 30
0.0
 10
78.97106253451071
 20
-127.2046386400739
 30
0.0
 10
79.1171345830853
 20
-127.2046386400739
 30
0.0
 10
79.1171345830853
 20
-127.2046386400739
 30
0.0
 10
79.1171345830853
 20
-127.2046386400739
 30
0.0
 10
79.1171345830853
 20
-128.7489026913371
 30
0.0
 10
79.1171345830853
 20
-128.7489026913371
 30
0.0
 10
79.1171345830853
 20
-128.7489026913371
 30
0.0
 10
78.89285886699554
 20
-128.7489026913371
 30
0.0
 10
78.89285886699554
 20
-128.7489026913371
 30
0.0
  0
HATCH
  5
D8
330
D3
100
AcDbEntity
  8
_U+30EC_U+30A4_U+30E4_U+30FC 1
 62
   179
420
  2234388
100
AcDbHatch
 10
0.0
 20
0.0
 30
0.0
210
0.0
220
0.0
230
1.0
  2
SOLID
 70
     1
 71
     0
 91
        1
 92
        1
 93
        1
 72
     4
 94
        3
 73
     0
 74
     1
 95
       26
 96
       22
 40
0.0
 40
0.0
 40
0.0
 40
0.0
 40
1.0
 40
1.0
 40
1.0
 40
2.0
 40
2.0
 40
2.0
 40
3.0
 40
3.0
 40
3.0
 40
4.0
 40
4.0
 40
4.0
 40
5.0
 40
5.0
 40
5.0
 40
6.0
 40
6.0
 40
6.0
 40
7.0
 40
7.0
 40
7.0
 40
7.0
 10
78.89285886699554
 20
-128.7489026913371
 10
78.89285886699554
 20
-128.7489026913371
 10
78.89285886699554
 20
-127.6445773335403
 10
78.89285886699554
 20
-127.6445773335403
 10
78.89285886699554
 20
-127.6445773335403
 10
78.5628187195086
 20
-127.6445773335403
 10
78.5628187195086
 20
-127.6445773335403
 10
78.5628187195086
 20
-127.6445773335403
 10
78.5628187195086
 20
-127.4964382276745
 10
78.5628187195086
 20
-127.4964382276745
 10
78.8949259242867
 20
-127.4817965718622
 10
78.94143471333756
 20
-127.3188435554099
 10
78.97106253451071
 20
-127.2046386400739
 10
78.97106253451071
 20
-127.2046386400739
 10
79.1171345830853
 20
-127.2046386400739
 10
79.1171345830853
 20
-127.2046386400739
 10
79.1171345830853
 20
-127.2046386400739
 10
79.1171345830853
 20
-128.7489026913371
 10
79.1171345830853
 20
-128.7489026913371
 10
79.1171345830853
 20
-128.7489026913371
 10
78.89285886699554
 20
-128.7489026913371
 10
78.89285886699554
 20
-128.7489026913371
 97
        0
 97
        0
 75
     2
 76
     1
 98
        0
  0
ENDBLK
  5
D6
330
D3
100
AcDbEntity
  8
0
100
AcDbBlockEnd
  0
ENDSEC
  0
SECTION
  2
ENTITIES
  0
SPLINE
  5
41
330
1F
100
AcDbEntity
  8
_U+30EC_U+30A4_U+30E4_U+30FC 1
370
     0
100
AcDbSpline
210
0.0
220
0.0
230
1.0
 70
    11
 71
     3
 72
    44
 73
    40
 74
     0
 42
0.0000000001
 43
0.0000000001
 12
1.0
 22
0.0
 32
0.0
 13
1.0
 23
0.0
 33
0.0
 40
0.0
 40
0.0
 40
0.0
 40
0.0
 40
1.0
 40
1.0
 40
1.0
 40
2.0
 40
2.0
 40
2.0
 40
3.0
 40
3.0
 40
3.0
 40
4.0
 40
4.0
 40
4.0
 40
5.0
 40
5.0
 40
5.0
 40
6.0
 40
6.0
 40
6.0
 40
7.0
 40
7.0
 40
7.0
 40
8.0
 40
8.0
 40
8.0
 40
9.0
 40
9.0
 40
9.0
 40
10.0
 40
10.0
 40
10.0
 40
11.0
 40
11.0
 40
11.0
 40
12.0
 40
12.0
 40
12.0
 40
13.0
 40
13.0
 40
13.0
 40
13.0
 10
98.31683582506189
 20
-131.6818902448576
 30
0.0
 10
98.31683582506189
 20
-131.6818902448576
 30
0.0
 10
88.81681273409433
 20
-131.6818902448576
 30
0.0
 10
88.81681273409433
 20
-131.6818902448576
 30
0.0
 10
88.63834246086971
 20
-131.3725041338237
 30
0.0
 10
88.3083188581782
 20
-131.1823569116488
 30
0.0
 10
87.95070803396828
 20
-131.1823569116488
 30
0.0
 10
87.95070803396828
 20
-131.1823569116488
 30
0.0
 10
81.81636124602406
 20
-131.1823569116488
 30
0.0
 10
81.81636124602406
 20
-131.1823569116488
 30
0.0
 10
81.81636124602406
 20
-131.1823569116488
 30
0.0
 10
81.81636124602406
 20
-127.6821310791907
 30
0.0
 10
81.81636124602406
 20
-127.6821310791907
 30
0.0
 10
81.81636124602406
 20
-127.6821310791907
 30
0.0
 10
88.81681273409433
 20
-127.6821310791907
 30
0.0
 10
88.81681273409433
 20
-127.6821310791907
 30
0.0
 10
88.81681273409433
 20
-127.6821310791907
 30
0.0
 10
88.81681273409433
 20
-127.081985523785
 30
0.0
 10
88.81681273409433
 20
-127.081985523785
 30
0.0
 10
88.81681273409433
 20
-127.081985523785
 30
0.0
 10
86.80693195203733
 20
-126.8807963571685
 30
0.0
 10
86.80693195203733
 20
-126.8807963571685
 30
0.0
 10
85.48055809698705
 20
-126.7485046905349
 30
0.0
 10
84.1493864642814
 20
-126.6823588572181
 30
0.0
 10
82.81680372050064
 20
-126.6823588572181
 30
0.0
 10
82.81680372050064
 20
-126.6823588572181
 30
0.0
 10
80.81658904930815
 20
-126.6823588572181
 30
0.0
 10
80.81658904930815
 20
-126.6823588572181
 30
0.0
 10
80.81658904930815
 20
-126.6823588572181
 30
0.0
 10
80.81658904930815
 20
-131.382170244932
 30
0.0
 10
80.81658904930815
 20
-131.382170244932
 30
0.0
 10
80.81658904930815
 20
-131.823812744822
 30
0.0
 10
81.17490542905563
 20
-132.1821291336213
 30
0.0
 10
81.61654997959596
 20
-132.1821291336213
 30
0.0
 10
81.61654997959596
 20
-132.1821291336213
 30
0.0
 10
98.81636914565107
 20
-132.1821291336213
 30
0.0
 10
98.81636914565107
 20
-132.1821291336213
 30
0.0
 10
98.81636914565107
 20
-131.9058335781349
 30
0.0
 10
98.592425818031
 20
-131.6818902448576
 30
0.0
 10
98.31683582506189
 20
-131.6818902448576
 30
0.0
  0
HATCH
  5
42
330
1F
100
AcDbEntity
  8
_U+30EC_U+30A4_U+30E4_U+30FC 1
 62
   253
420
 11711154
100
AcDbHatch
 10
0.0
 20
0.0
 30
0.0
210
0.0
220
0.0
230
1.0
  2
SOLID
 70
     1
 71
     0
 91
        1
 92
        1
 93
        1
 72
     4
 94
        3
 73
     0
 74
     1
 95
       44
 96
       40
 40
0.0
 40
0.0
 40
0.0
 40
0.0
 40
1.0
 40
1.0
 40
1.0
 40
2.0
 40
2.0
 40
2.0
 40
3.0
 40
3.0
 40
3.0
 40
4.0
 40
4.0
 40
4.0
 40
5.0
 40
5.0
 40
5.0
 40
6.0
 40
6.0
 40
6.0
 40
7.0
 40
7.0
 40
7.0
 40
8.0
 40
8.0
 40
8.0
 40
9.0
 40
9.0
 40
9.0
 40
10.0
 40
10.0
 40
10.0
 40
11.0
 40
11.0
 40
11.0
 40
12.0
 40
12.0
 40
12.0
 40
13.0
 40
13.0
 40
13.0
 40
13.0
 10
98.31683582506189
 20
-131.6818902448576
 10
98.31683582506189
 20
-131.6818902448576
 10
88.81681273409433
 20
-131.6818902448576
 10
88.81681273409433
 20
-131.6818902448576
 10
88.63834246086971
 20
-131.3725041338237
 10
88.3083188581782
 20
-131.1823569116488
 10
87.95070803396828
 20
-131.1823569116488
 10
87.95070803396828
 20
-131.1823569116488
 10
81.81636124602406
 20
-131.1823569116488
 10
81.81636124602406
 20
-131.1823569116488
 10
81.81636124602406
 20
-131.1823569116488
 10
81.81636124602406
 20
-127.6821310791907
 10
81.81636124602406
 20
-127.6821310791907
 10
81.81636124602406
 20
-127.6821310791907
 10
88.81681273409433
 20
-127.6821310791907
 10
88.81681273409433
 20
-127.6821310791907
 10
88.81681273409433
 20
-127.6821310791907
 10
88.81681273409433
 20
-127.081985523785
 10
88.81681273409433
 20
-127.081985523785
 10
88.81681273409433
 20
-127.081985523785
 10
86.80693195203733
 20
-126.8807963571685
 10
86.80693195203733
 20
-126.8807963571685
 10
85.48055809698705
 20
-126.7485046905349
 10
84.1493864642814
 20
-126.6823588572181
 10
82.81680372050064
 20
-126.6823588572181
 10
82.81680372050064
 20
-126.6823588572181
 10
80.81658904930815
 20
-126.6823588572181
 10
80.81658904930815
 20
-126.6823588572181
 10
80.81658904930815
 20
-126.6823588572181
 10
80.81658904930815
 20
-131.382170244932
 10
80.81658904930815
 20
-131.382170244932
 10
80.81658904930815
 20
-131.823812744822
 10
81.17490542905563
 20
-132.1821291336213
 10
81.61654997959596
 20
-132.1821291336213
 10
81.61654997959596
 20
-132.1821291336213
 10
98.81636914565107
 20
-132.1821291336213
 10
98.81636914565107
 20
-132.1821291336213
 10
98.81636914565107
 20
-131.9058335781349
 10
98.592425818031
 20
-131.6818902448576
 10
98.31683582506189
 20
-131.6818902448576
 97
        0
 97
        0
 75
     2
 76
     1
 98
        0
  0
POLYLINE
  5
43
330
1F
100
AcDbEntity
  8
_U+30EC_U+30A4_U+30E4_U+30FC 1
 62
     7
420
 16777215
370
    25
100
AcDb2dPolyline
 66
     1
 10
0.0
 20
0.0
 30
0.0
  0
VERTEX
  5
44
330
43
100
AcDbEntity
  8
_U+30EC_U+30A4_U+30E4_U+30FC 1
 62
     7
420
 16777215
370
    25
100
AcDbVertex
100
AcDb2dVertex
 10
81.81636124602406
 20
-127.6821310791907
 30
0.0
  0
VERTEX
  5
45
330
43
100
AcDbEntity
  8
_U+30EC_U+30A4_U+30E4_U+30FC 1
 62
     7
420
 16777215
370
    25
100
AcDbVertex
100
AcDb2dVertex
 10
88.81681273409433
 20
-127.6821310791907
 30
0.0
  0
SEQEND
  5
46
330
43
100
AcDbEntity
  8
_U+30EC_U+30A4_U+30E4_U+30FC 1
 62
     7
420
 16777215
370
    25
  0
POLYLINE
  5
47
330
1F
100
AcDbEntity
  8
_U+30EC_U+30A4_U+30E4_U+30FC 1
 62
     7
420
 16777215
370
    25
100
AcDb2dPolyline
 66
     1
 10
0.0
 20
0.0
 30
0.0
  0
VERTEX
  5
48
330
47
100
AcDbEntity
  8
_U+30EC_U+30A4_U+30E4_U+30FC 1
 62
     7
420
 16777215
370
    25
100
AcDbVertex
100
AcDb2dVertex
 10
80.81658904930815
 20
-126.6823588572181
 30
0.0
  0
VERTEX
  5
49
330
47
100
AcDbEntity
  8
_U+30EC_U+30A4_U+30E4_U+30FC 1
 62
     7
420
 16777215
370
    25
100
AcDbVertex
100
AcDb2dVertex
 10
82.81680372050064
 20
-126.6823588572181
 30
0.0
  0
SEQEND
  5
4A
330
47
100
AcDbEntity
  8
_U+30EC_U+30A4_U+30E4_U+30FC 1
 62
     7
420
 16777215
370
    25
  0
POLYLINE
  5
4B
330
1F
100
AcDbEntity
  8
_U+30EC_U+30A4_U+30E4_U+30FC 1
 62
     7
420
 16777215
370
    25
100
AcDb2dPolyline
 66
     1
 10
0.0
 20
0.0
 30
0.0
  0
VERTEX
  5
4C
330
4B
100
AcDbEntity
  8
_U+30EC_U+30A4_U+30E4_U+30FC 1
 62
     7
420
 16777215
370
    25
100
AcDbVertex
100
AcDb2dVertex
 10
81.81636124602406
 20
-131.1823569116488
 30
0.0
  0
VERTEX
  5
4D
330
4B
100
AcDbEntity
  8
_U+30EC_U+30A4_U+30E4_U+30FC 1
 62
     7
420
 16777215
370
    25
100
AcDbVertex
100
AcDb2dVertex
 10
87.95070803396828
 20
-131.1823569116488
 30
0.0
  0
SEQEND
  5
4E
330
4B
100
AcDbEntity
  8
_U+30EC_U+30A4_U+30E4_U+30FC 1
 62
     7
420
 16777215
370
    25
  0
POLYLINE
  5
4F
330
1F
100
AcDbEntity
  8
_U+30EC_U+30A4_U+30E4_U+30FC 1
 62
     7
420
 16777215
370
    25
100
AcDb2dPolyline
 66
     1
 10
0.0
 20
0.0
 30
0.0
  0
VERTEX
  5
50
330
4F
100
AcDbEntity
  8
_U+30EC_U+30A4_U+30E4_U+30FC 1
 62
     7
420
 16777215
370
    25
100
AcDbVertex
100
AcDb2dVertex
 10
81.61654997959596
 20
-132.1821291336213
 30
0.0
  0
VERTEX
  5
51
330
4F
100
AcDbEntity
  8
_U+30EC_U+30A4_U+30E4_U+30FC 1
 62
     7
420
 16777215
370
    25
100
AcDbVertex
100
AcDb2dVertex
 10
98.81636914565107
 20
-132.1821291336213
 30
0.0
  0
SEQEND
  5
52
330
4F
100
AcDbEntity
  8
_U+30EC_U+30A4_U+30E4_U+30FC 1
 62
     7
420
 16777215
370
    25
  0
POLYLINE
  5
53
330
1F
100
AcDbEntity
  8
_U+30EC_U+30A4_U+30E4_U+30FC 1
 62
     7
420
 16777215
370
    25
100
AcDb2dPolyline
 66
     1
 10
0.0
 20
0.0
 30
0.0
  0
VERTEX
  5
54
330
53
100
AcDbEntity
  8
_U+30EC_U+30A4_U+30E4_U+30FC 1
 62
     7
420
 16777215
370
    25
100
AcDbVertex
100
AcDb2dVertex
 10
88.81681273409433
 20
-127.081985523785
 30
0.0
  0
VERTEX
  5
55
330
53
100
AcDbEntity
  8
_U+30EC_U+30A4_U+30E4_U+30FC 1
 62
     7
420
 16777215
370
    25
100
AcDbVertex
100
AcDb2dVertex
 10
88.81681273409433
 20
-127.6821310791907
 30
0.0
  0
SEQEND
  5
56
330
53
100
AcDbEntity
  8
_U+30EC_U+30A4_U+30E4_U+30FC 1
 62
     7
420
 16777215
370
    25
  0
POLYLINE
  5
57
330
1F
100
AcDbEntity
  8
_U+30EC_U+30A4_U+30E4_U+30FC 1
 62
     7
420
 16777215
370
    25
100
AcDb2dPolyline
 66
     1
 10
0.0
 20
0.0
 30
0.0
  0
VERTEX
  5
58
330
57
100
AcDbEntity
  8
_U+30EC_U+30A4_U+30E4_U+30FC 1
 62
     7
420
 16777215
370
    25
100
AcDbVertex
100
AcDb2dVertex
 10
80.81658904930815
 20
-126.6823588572181
 30
0.0
  0
VERTEX
  5
59
330
57
100
AcDbEntity
  8
_U+30EC_U+30A4_U+30E4_U+30FC 1
 62
     7
420
 16777215
370
    25
100
AcDbVertex
100
AcDb2dVertex
 10
80.81658904930815
 20
-131.382170244932
 30
0.0
  0
SEQEND
  5
5A
330
57
100
AcDbEntity
  8
_U+30EC_U+30A4_U+30E4_U+30FC 1
 62
     7
420
 16777215
370
    25
  0
POLYLINE
  5
5B
330
1F
100
AcDbEntity
  8
_U+30EC_U+30A4_U+30E4_U+30FC 1
 62
     7
420
 16777215
370
    25
100
AcDb2dPolyline
 66
     1
 10
0.0
 20
0.0
 30
0.0
  0
VERTEX
  5
5C
330
5B
100
AcDbEntity
  8
_U+30EC_U+30A4_U+30E4_U+30FC 1
 62
     7
420
 16777215
370
    25
100
AcDbVertex
100
AcDb2dVertex
 10
81.81636124602406
 20
-127.6821310791907
 30
0.0
  0
VERTEX
  5
5D
330
5B
100
AcDbEntity
  8
_U+30EC_U+30A4_U+30E4_U+30FC 1
 62
     7
420
 16777215
370
    25
100
AcDbVertex
100
AcDb2dVertex
 10
81.81636124602406
 20
-131.1823569116488
 30
0.0
  0
SEQEND
  5
5E
330
5B
100
AcDbEntity
  8
_U+30EC_U+30A4_U+30E4_U+30FC 1
 62
     7
420
 16777215
370
    25
  0
POLYLINE
  5
5F
330
1F
100
AcDbEntity
  8
_U+30EC_U+30A4_U+30E4_U+30FC 1
 62
     7
420
 16777215
370
    25
100
AcDb2dPolyline
 66
     1
 10
0.0
 20
0.0
 30
0.0
  0
VERTEX
  5
60
330
5F
100
AcDbEntity
  8
_U+30EC_U+30A4_U+30E4_U+30FC 1
 62
     7
420
 16777215
370
    25
100
AcDbVertex
100
AcDb2dVertex
 10
86.80693195203733
 20
-126.8807963571685
 30
0.0
  0
VERTEX
  5
61
330
5F
100
AcDbEntity
  8
_U+30EC_U+30A4_U+30E4_U+30FC 1
 62
     7
420
 16777215
370
    25
100
AcDbVertex
100
AcDb2dVertex
 10
88.81681273409433
 20
-127.081985523785
 30
0.0
  0
SEQEND
  5
62
330
5F
100
AcDbEntity
  8
_U+30EC_U+30A4_U+30E4_U+30FC 1
 62
     7
420
 16777215
370
    25
  0
POLYLINE
  5
63
330
1F
100
AcDbEntity
  8
_U+30EC_U+30A4_U+30E4_U+30FC 1
 62
     7
420
 16777215
370
    25
100
AcDb2dPolyline
 66
     1
 10
0.0
 20
0.0
 30
0.0
  0
VERTEX
  5
64
330
63
100
AcDbEntity
  8
_U+30EC_U+30A4_U+30E4_U+30FC 1
 62
     7
420
 16777215
370
    25
100
AcDbVertex
100
AcDb2dVertex
 10
88.81681273409433
 20
-131.6818902448576
 30
0.0
  0
VERTEX
  5
65
330
63
100
AcDbEntity
  8
_U+30EC_U+30A4_U+30E4_U+30FC 1
 62
     7
420
 16777215
370
    25
100
AcDbVertex
100
AcDb2dVertex
 10
98.31683582506189
 20
-131.6818902448576
 30
0.0
  0
SEQEND
  5
66
330
63
100
AcDbEntity
  8
_U+30EC_U+30A4_U+30E4_U+30FC 1
 62
     7
420
 16777215
370
    25
  0
SPLINE
  5
67
330
1F
100
AcDbEntity
  8
_U+30EC_U+30A4_U+30E4_U+30FC 1
 62
     7
420
 16777215
370
    25
100
AcDbSpline
210
0.0
220
0.0
230
1.0
 70
     8
 71
     3
 72
     8
 73
     4
 74
     0
 42
0.0000000001
 43
0.0000000001
 12
1.0
 22
0.0
 32
0.0
 13
1.0
 23
0.0
 33
0.0
 40
0.0
 40
0.0
 40
0.0
 40
0.0
 40
1.0
 40
1.0
 40
1.0
 40
1.0
 10
80.81658904930815
 20
-131.382170244932
 30
0.0
 10
80.81658904930815
 20
-131.823812744822
 30
0.0
 10
81.17490542905563
 20
-132.1821291336213
 30
0.0
 10
81.61654997959596
 20
-132.1821291336213
 30
0.0
  0
SPLINE
  5
68
330
1F
100
AcDbEntity
  8
_U+30EC_U+30A4_U+30E4_U+30FC 1
 62
     7
420
 16777215
370
    25
100
AcDbSpline
210
0.0
220
0.0
230
1.0
 70
     8
 71
     3
 72
     8
 73
     4
 74
     0
 42
0.0000000001
 43
0.0000000001
 12
1.0
 22
0.0
 32
0.0
 13
1.0
 23
0.0
 33
0.0
 40
0.0
 40
0.0
 40
0.0
 40
0.0
 40
1.0
 40
1.0
 40
1.0
 40
1.0
 10
98.81636914565107
 20
-132.1821291336213
 30
0.0
 10
98.81636914565107
 20
-131.9058335781349
 30
0.0
 10
98.592425818031
 20
-131.6818902448576
 30
0.0
 10
98.31683582506189
 20
-131.6818902448576
 30
0.0
  0
SPLINE
  5
69
330
1F
100
AcDbEntity
  8
_U+30EC_U+30A4_U+30E4_U+30FC 1
 62
     7
420
 16777215
370
    25
100
AcDbSpline
210
0.0
220
0.0
230
1.0
 70
     8
 71
     3
 72
     8
 73
     4
 74
     0
 42
0.0000000001
 43
0.0000000001
 12
1.0
 22
0.0
 32
0.0
 13
1.0
 23
0.0
 33
0.0
 40
0.0
 40
0.0
 40
0.0
 40
0.0
 40
1.0
 40
1.0
 40
1.0
 40
1.0
 10
88.81681273409433
 20
-131.6818902448576
 30
0.0
 10
88.63834246086971
 20
-131.3725041338237
 30
0.0
 10
88.3083188581782
 20
-131.1823569116488
 30
0.0
 10
87.95070803396828
 20
-131.1823569116488
 30
0.0
  0
SPLINE
  5
6A
330
1F
100
AcDbEntity
  8
_U+30EC_U+30A4_U+30E4_U+30FC 1
 62
     7
420
 16777215
370
    25
100
AcDbSpline
210
0.0
220
0.0
230
1.0
 70
     8
 71
     3
 72
     8
 73
     4
 74
     0
 42
0.0000000001
 43
0.0000000001
 12
1.0
 22
0.0
 32
0.0
 13
1.0
 23
0.0
 33
0.0
 40
0.0
 40
0.0
 40
0.0
 40
0.0
 40
1.0
 40
1.0
 40
1.0
 40
1.0
 10
86.80693195203733
 20
-126.8807963571685
 30
0.0
 10
85.48055809698705
 20
-126.7485046905349
 30
0.0
 10
84.1493864642814
 20
-126.6823588572181
 30
0.0
 10
82.81680372050064
 20
-126.6823588572181
 30
0.0
  0
SPLINE
  5
6B
330
1F
100
AcDbEntity
  8
_U+30EC_U+30A4_U+30E4_U+30FC 1
 62
     7
420
 16777215
370
     9
100
AcDbSpline
210
0.0
220
0.0
230
1.0
 70
    11
 71
     3
 72
    17
 73
    13
 74
     0
 42
0.0000000001
 43
0.0000000001
 12
1.0
 22
0.0
 32
0.0
 13
1.0
 23
0.0
 33
0.0
 40
0.0
 40
0.0
 40
0.0
 40
0.0
 40
1.0
 40
1.0
 40
1.0
 40
2.0
 40
2.0
 40
2.0
 40
3.0
 40
3.0
 40
3.0
 40
4.0
 40
4.0
 40
4.0
 40
4.0
 10
80.91649571342599
 20
-122.6819294137739
 30
0.0
 10
80.91649571342599
 20
-122.6267902471211
 30
0.0
 10
80.87172821456811
 20
-122.5820227471323
 30
0.0
 10
80.81658904930815
 20
-122.5820227471323
 30
0.0
 10
80.76148516182508
 20
-122.5820227471323
 30
0.0
 10
80.71668238519032
 20
-122.6267902471211
 30
0.0
 10
80.71668238519032
 20
-122.6819294137739
 30
0.0
 10
80.71668238519032
 20
-122.7370333026491
 30
0.0
 10
80.76148516182508
 20
-122.7818360804155
 30
0.0
 10
80.81658904930815
 20
-122.7818360804155
 30
0.0
 10
80.87172821456811
 20
-122.7818360804155
 30
0.0
 10
80.91649571342599
 20
-122.7370333026491
 30
0.0
 10
80.91649571342599
 20
-122.6819294137739
 30
0.0
  0
SPLINE
  5
6C
330
1F
100
AcDbEntity
  8
_U+30EC_U+30A4_U+30E4_U+30FC 1
 62
     7
420
 16777215
370
     9
100
AcDbSpline
210
0.0
220
0.0
230
1.0
 70
    11
 71
     3
 72
    17
 73
    13
 74
     0
 42
0.0000000001
 43
0.0000000001
 12
1.0
 22
0.0
 32
0.0
 13
1.0
 23
0.0
 33
0.0
 40
0.0
 40
0.0
 40
0.0
 40
0.0
 40
1.0
 40
1.0
 40
1.0
 40
2.0
 40
2.0
 40
2.0
 40
3.0
 40
3.0
 40
3.0
 40
4.0
 40
4.0
 40
4.0
 40
4.0
 10
88.91671939821217
 20
-122.6819294137739
 30
0.0
 10
88.91671939821217
 20
-122.6267902471211
 30
0.0
 10
88.8719166215774
 20
-122.5820227471323
 30
0.0
 10
88.81681273409433
 20
-122.5820227471323
 30
0.0
 10
88.76167356883438
 20
-122.5820227471323
 30
0.0
 10
88.71690831115403
 20
-122.6267902471211
 30
0.0
 10
88.71690831115403
 20
-122.6819294137739
 30
0.0
 10
88.71690831115403
 20
-122.7370333026491
 30
0.0
 10
88.76167356883438
 20
-122.7818360804155
 30
0.0
 10
88.81681273409433
 20
-122.7818360804155
 30
0.0
 10
88.8719166215774
 20
-122.7818360804155
 30
0.0
 10
88.91671939821217
 20
-122.7370333026491
 30
0.0
 10
88.91671939821217
 20
-122.6819294137739
 30
0.0
  0
SPLINE
  5
6D
330
1F
100
AcDbEntity
  8
_U+30EC_U+30A4_U+30E4_U+30FC 1
 62
     7
420
 16777215
370
     9
100
AcDbSpline
210
0.0
220
0.0
230
1.0
 70
    11
 71
     3
 72
    17
 73
    13
 74
     0
 42
0.0000000001
 43
0.0000000001
 12
1.0
 22
0.0
 32
0.0
 13
1.0
 23
0.0
 33
0.0
 40
0.0
 40
0.0
 40
0.0
 40
0.0
 40
1.0
 40
1.0
 40
1.0
 40
2.0
 40
2.0
 40
2.0
 40
3.0
 40
3.0
 40
3.0
 40
4.0
 40
4.0
 40
4.0
 40
4.0
 10
102.7940795997268
 20
-127.6821310791907
 30
0.0
 10
102.7940795997268
 20
-127.6269919125376
 30
0.0
 10
102.749276823092
 20
-127.5822244125491
 30
0.0
 10
102.6941729356089
 20
-127.5822244125491
 30
0.0
 10
102.639033770349
 20
-127.5822244125491
 30
0.0
 10
102.5942662714911
 20
-127.6269919125376
 30
0.0
 10
102.5942662714911
 20
-127.6821310791907
 30
0.0
 10
102.5942662714911
 20
-127.7372349680656
 30
0.0
 10
102.639033770349
 20
-127.7820377458323
 30
0.0
 10
102.6941729356089
 20
-127.7820377458323
 30
0.0
 10
102.749276823092
 20
-127.7820377458323
 30
0.0
 10
102.7940795997268
 20
-127.7372349680656
 30
0.0
 10
102.7940795997268
 20
-127.6821310791907
 30
0.0
  0
SPLINE
  5
6E
330
1F
100
AcDbEntity
  8
_U+30EC_U+30A4_U+30E4_U+30FC 1
 62
     7
420
 16777215
370
     9
100
AcDbSpline
210
0.0
220
0.0
230
1.0
 70
    11
 71
     3
 72
    17
 73
    13
 74
     0
 42
0.0000000001
 43
0.0000000001
 12
1.0
 22
0.0
 32
0.0
 13
1.0
 23
0.0
 33
0.0
 40
0.0
 40
0.0
 40
0.0
 40
0.0
 40
1.0
 40
1.0
 40
1.0
 40
2.0
 40
2.0
 40
2.0
 40
3.0
 40
3.0
 40
3.0
 40
4.0
 40
4.0
 40
4.0
 40
4.0
 10
102.7940795997268
 20
-131.1823569116488
 30
0.0
 10
102.7940795997268
 20
-131.1265474672183
 30
0.0
 10
102.749276823092
 20
-131.0817446894516
 30
0.0
 10
102.6941729356089
 20
-131.0817446894516
 30
0.0
 10
102.639033770349
 20
-131.0817446894516
 30
0.0
 10
102.5942662714911
 20
-131.1265474672183
 30
0.0
 10
102.5942662714911
 20
-131.1823569116488
 30
0.0
 10
102.5942662714911
 20
-131.2374608005236
 30
0.0
 10
102.639033770349
 20
-131.2822635782904
 30
0.0
 10
102.6941729356089
 20
-131.2822635782904
 30
0.0
 10
102.749276823092
 20
-131.2822635782904
 30
0.0
 10
102.7940795997268
 20
-131.2374608005236
 30
0.0
 10
102.7940795997268
 20
-131.1823569116488
 30
0.0
  0
SPLINE
  5
6F
330
1F
100
AcDbEntity
  8
_U+30EC_U+30A4_U+30E4_U+30FC 1
 62
     7
420
 16777215
370
     9
100
AcDbSpline
210
0.0
220
0.0
230
1.0
 70
    11
 71
     3
 72
    17
 73
    13
 74
     0
 42
0.0000000001
 43
0.0000000001
 12
1.0
 22
0.0
 32
0.0
 13
1.0
 23
0.0
 33
0.0
 40
0.0
 40
0.0
 40
0.0
 40
0.0
 40
1.0
 40
1.0
 40
1.0
 40
2.0
 40
2.0
 40
2.0
 40
3.0
 40
3.0
 40
3.0
 40
4.0
 40
4.0
 40
4.0
 40
4.0
 10
80.91649571342599
 20
-136.18185302151
 30
0.0
 10
80.91649571342599
 20
-136.1267491326351
 30
0.0
 10
80.87172821456811
 20
-136.0819463548684
 30
0.0
 10
80.81658904930815
 20
-136.0819463548684
 30
0.0
 10
80.76148516182508
 20
-136.0819463548684
 30
0.0
 10
80.71668238519032
 20
-136.1267491326351
 30
0.0
 10
80.71668238519032
 20
-136.18185302151
 30
0.0
 10
80.71668238519032
 20
-136.2369921881631
 30
0.0
 10
80.76148516182508
 20
-136.2817596881517
 30
0.0
 10
80.81658904930815
 20
-136.2817596881517
 30
0.0
 10
80.87172821456811
 20
-136.2817596881517
 30
0.0
 10
80.91649571342599
 20
-136.2369921881631
 30
0.0
 10
80.91649571342599
 20
-136.18185302151
 30
0.0
  0
SPLINE
  5
70
330
1F
100
AcDbEntity
  8
_U+30EC_U+30A4_U+30E4_U+30FC 1
 62
     7
420
 16777215
370
     9
100
AcDbSpline
210
0.0
220
0.0
230
1.0
 70
    11
 71
     3
 72
    17
 73
    13
 74
     0
 42
0.0000000001
 43
0.0000000001
 12
1.0
 22
0.0
 32
0.0
 13
1.0
 23
0.0
 33
0.0
 40
0.0
 40
0.0
 40
0.0
 40
0.0
 40
1.0
 40
1.0
 40
1.0
 40
2.0
 40
2.0
 40
2.0
 40
3.0
 40
3.0
 40
3.0
 40
4.0
 40
4.0
 40
4.0
 40
4.0
 10
98.91627580976889
 20
-136.18185302151
 30
0.0
 10
98.91627580976889
 20
-136.1267491326351
 30
0.0
 10
98.87147303313414
 20
-136.0819463548684
 30
0.0
 10
98.81636914565107
 20
-136.0819463548684
 30
0.0
 10
98.76122998039111
 20
-136.0819463548684
 30
0.0
 10
98.71646248153323
 20
-136.1267491326351
 30
0.0
 10
98.71646248153323
 20
-136.18185302151
 30
0.0
 10
98.71646248153323
 20
-136.2369921881631
 30
0.0
 10
98.76122998039111
 20
-136.2817596881517
 30
0.0
 10
98.81636914565107
 20
-136.2817596881517
 30
0.0
 10
98.87147303313414
 20
-136.2817596881517
 30
0.0
 10
98.91627580976889
 20
-136.2369921881631
 30
0.0
 10
98.91627580976889
 20
-136.18185302151
 30
0.0
  0
POLYLINE
  5
71
330
1F
100
AcDbEntity
  8
_U+30EC_U+30A4_U+30E4_U+30FC 1
 62
     7
420
 16777215
370
     9
100
AcDb2dPolyline
 66
     1
 10
0.0
 20
0.0
 30
0.0
  0
VERTEX
  5
72
330
71
100
AcDbEntity
  8
_U+30EC_U+30A4_U+30E4_U+30FC 1
 62
     7
420
 16777215
370
     9
100
AcDbVertex
100
AcDb2dVertex
 10
80.81658904930815
 20
-122.6819294137739
 30
0.0
  0
VERTEX
  5
73
330
71
100
AcDbEntity
  8
_U+30EC_U+30A4_U+30E4_U+30FC 1
 62
     7
420
 16777215
370
     9
100
AcDbVertex
100
AcDb2dVertex
 10
88.81681273409433
 20
-122.6819294137739
 30
0.0
  0
SEQEND
  5
74
330
71
100
AcDbEntity
  8
_U+30EC_U+30A4_U+30E4_U+30FC 1
 62
     7
420
 16777215
370
     9
  0
POLYLINE
  5
75
330
1F
100
AcDbEntity
  8
_U+30EC_U+30A4_U+30E4_U+30FC 1
 62
     7
420
 16777215
370
     9
100
AcDb2dPolyline
 66
     1
 10
0.0
 20
0.0
 30
0.0
  0
VERTEX
  5
76
330
75
100
AcDbEntity
  8
_U+30EC_U+30A4_U+30E4_U+30FC 1
 62
     7
420
 16777215
370
     9
100
AcDbVertex
100
AcDb2dVertex
 10
80.81658904930815
 20
-124.1419355245201
 30
0.0
  0
VERTEX
  5
77
330
75
100
AcDbEntity
  8
_U+30EC_U+30A4_U+30E4_U+30FC 1
 62
     7
420
 16777215
370
     9
100
AcDbVertex
100
AcDb2dVertex
 10
80.81658904930815
 20
-121.6821571918017
 30
0.0
  0
SEQEND
  5
78
330
75
100
AcDbEntity
  8
_U+30EC_U+30A4_U+30E4_U+30FC 1
 62
     7
420
 16777215
370
     9
  0
POLYLINE
  5
79
330
1F
100
AcDbEntity
  8
_U+30EC_U+30A4_U+30E4_U+30FC 1
 62
     7
420
 16777215
370
     9
100
AcDb2dPolyline
 66
     1
 10
0.0
 20
0.0
 30
0.0
  0
VERTEX
  5
7A
330
79
100
AcDbEntity
  8
_U+30EC_U+30A4_U+30E4_U+30FC 1
 62
     7
420
 16777215
370
     9
100
AcDbVertex
100
AcDb2dVertex
 10
88.81681273409433
 20
-124.5422677466422
 30
0.0
  0
VERTEX
  5
7B
330
79
100
AcDbEntity
  8
_U+30EC_U+30A4_U+30E4_U+30FC 1
 62
     7
420
 16777215
370
     9
100
AcDbVertex
100
AcDb2dVertex
 10
88.81681273409433
 20
-121.6821571918017
 30
0.0
  0
SEQEND
  5
7C
330
79
100
AcDbEntity
  8
_U+30EC_U+30A4_U+30E4_U+30FC 1
 62
     7
420
 16777215
370
     9
  0
INSERT
  5
7E
330
1F
100
AcDbEntity
  8
_U+30EC_U+30A4_U+30E4_U+30FC 1
100
AcDbBlockReference
  2
block 2
 10
0.0
 20
0.0
 30
0.0
  0
POLYLINE
  5
85
330
1F
100
AcDbEntity
  8
_U+30EC_U+30A4_U+30E4_U+30FC 1
 62
     7
420
 16777215
370
     9
100
AcDb2dPolyline
 66
     1
 10
0.0
 20
0.0
 30
0.0
  0
VERTEX
  5
86
330
85
100
AcDbEntity
  8
_U+30EC_U+30A4_U+30E4_U+30FC 1
 62
     7
420
 16777215
370
     9
100
AcDbVertex
100
AcDb2dVertex
 10
80.81658904930815
 20
-136.18185302151
 30
0.0
  0
VERTEX
  5
87
330
85
100
AcDbEntity
  8
_U+30EC_U+30A4_U+30E4_U+30FC 1
 62
     7
420
 16777215
370
     9
100
AcDbVertex
100
AcDb2dVertex
 10
98.81636914565107
 20
-136.18185302151
 30
0.0
  0
SEQEND
  5
88
330
85
100
AcDbEntity
  8
_U+30EC_U+30A4_U+30E4_U+30FC 1
 62
     7
420
 16777215
370
     9
  0
POLYLINE
  5
89
330
1F
100
AcDbEntity
  8
_U+30EC_U+30A4_U+30E4_U+30FC 1
 62
     7
420
 16777215
370
     9
100
AcDb2dPolyline
 66
     1
 10
0.0
 20
0.0
 30
0.0
  0
VERTEX
  5
8A
330
89
100
AcDbEntity
  8
_U+30EC_U+30A4_U+30E4_U+30FC 1
 62
     7
420
 16777215
370
     9
100
AcDbVertex
100
AcDb2dVertex
 10
80.81658904930815
 20
-133.9218880220752
 30
0.0
  0
VERTEX
  5
8B
330
89
100
AcDbEntity
  8
_U+30EC_U+30A4_U+30E4_U+30FC 1
 62
     7
420
 16777215
370
     9
100
AcDbVertex
100
AcDb2dVertex
 10
80.81658904930815
 20
-137.1816252434826
 30
0.0
  0
SEQEND
  5
8C
330
89
100
AcDbEntity
  8
_U+30EC_U+30A4_U+30E4_U+30FC 1
 62
     7
420
 16777215
370
     9
  0
POLYLINE
  5
8D
330
1F
100
AcDbEntity
  8
_U+30EC_U+30A4_U+30E4_U+30FC 1
 62
     7
420
 16777215
370
     9
100
AcDb2dPolyline
 66
     1
 10
0.0
 20
0.0
 30
0.0
  0
VERTEX
  5
8E
330
8D
100
AcDbEntity
  8
_U+30EC_U+30A4_U+30E4_U+30FC 1
 62
     7
420
 16777215
370
     9
100
AcDbVertex
100
AcDb2dVertex
 10
98.81636914565107
 20
-134.7218469107638
 30
0.0
  0
VERTEX
  5
8F
330
8D
100
AcDbEntity
  8
_U+30EC_U+30A4_U+30E4_U+30FC 1
 62
     7
420
 16777215
370
     9
100
AcDbVertex
100
AcDb2dVertex
 10
98.81636914565107
 20
-137.1816252434826
 30
0.0
  0
SEQEND
  5
90
330
8D
100
AcDbEntity
  8
_U+30EC_U+30A4_U+30E4_U+30FC 1
 62
     7
420
 16777215
370
     9
  0
INSERT
  5
92
330
1F
100
AcDbEntity
  8
_U+30EC_U+30A4_U+30E4_U+30FC 1
100
AcDbBlockReference
  2
block 3
 10
0.0
 20
0.0
 30
0.0
  0
POLYLINE
  5
9B
330
1F
100
AcDbEntity
  8
_U+30EC_U+30A4_U+30E4_U+30FC 1
 62
     7
420
 16777215
370
     9
100
AcDb2dPolyline
 66
     1
 10
0.0
 20
0.0
 30
0.0
  0
VERTEX
  5
9C
330
9B
100
AcDbEntity
  8
_U+30EC_U+30A4_U+30E4_U+30FC 1
 62
     7
420
 16777215
370
     9
100
AcDbVertex
100
AcDb2dVertex
 10
102.6941729356089
 20
-127.6821310791907
 30
0.0
  0
VERTEX
  5
9D
330
9B
100
AcDbEntity
  8
_U+30EC_U+30A4_U+30E4_U+30FC 1
 62
     7
420
 16777215
370
     9
100
AcDbVertex
100
AcDb2dVertex
 10
102.6941729356089
 20
-122.8221233026277
 30
0.0
  0
SEQEND
  5
9E
330
9B
100
AcDbEntity
  8
_U+30EC_U+30A4_U+30E4_U+30FC 1
 62
     7
420
 16777215
370
     9
  0
POLYLINE
  5
9F
330
1F
100
AcDbEntity
  8
_U+30EC_U+30A4_U+30E4_U+30FC 1
 62
     7
420
 16777215
370
     9
100
AcDb2dPolyline
 66
     1
 10
0.0
 20
0.0
 30
0.0
  0
VERTEX
  5
A0
330
9F
100
AcDbEntity
  8
_U+30EC_U+30A4_U+30E4_U+30FC 1
 62
     7
420
 16777215
370
     9
100
AcDbVertex
100
AcDb2dVertex
 10
102.6941729356089
 20
-131.1823569116488
 30
0.0
  0
VERTEX
  5
A1
330
9F
100
AcDbEntity
  8
_U+30EC_U+30A4_U+30E4_U+30FC 1
 62
     7
420
 16777215
370
     9
100
AcDbVertex
100
AcDb2dVertex
 10
102.6941729356089
 20
-127.6821310791907
 30
0.0
  0
SEQEND
  5
A2
330
9F
100
AcDbEntity
  8
_U+30EC_U+30A4_U+30E4_U+30FC 1
 62
     7
420
 16777215
370
     9
  0
POLYLINE
  5
A3
330
1F
100
AcDbEntity
  8
_U+30EC_U+30A4_U+30E4_U+30FC 1
 62
     7
420
 16777215
370
     9
100
AcDb2dPolyline
 66
     1
 10
0.0
 20
0.0
 30
0.0
  0
VERTEX
  5
A4
330
A3
100
AcDbEntity
  8
_U+30EC_U+30A4_U+30E4_U+30FC 1
 62
     7
420
 16777215
370
     9
100
AcDbVertex
100
AcDb2dVertex
 10
101.1765935298812
 20
-131.1785469116497
 30
0.0
  0
VERTEX
  5
A5
330
A3
100
AcDbEntity
  8
_U+30EC_U+30A4_U+30E4_U+30FC 1
 62
     7
420
 16777215
370
     9
100
AcDbVertex
100
AcDb2dVertex
 10
103.6946154100855
 20
-131.1823569116488
 30
0.0
  0
SEQEND
  5
A6
330
A3
100
AcDbEntity
  8
_U+30EC_U+30A4_U+30E4_U+30FC 1
 62
     7
420
 16777215
370
     9
  0
POLYLINE
  5
A7
330
1F
100
AcDbEntity
  8
_U+30EC_U+30A4_U+30E4_U+30FC 1
 62
     7
420
 16777215
370
     9
100
AcDb2dPolyline
 66
     1
 10
0.0
 20
0.0
 30
0.0
  0
VERTEX
  5
A8
330
A7
100
AcDbEntity
  8
_U+30EC_U+30A4_U+30E4_U+30FC 1
 62
     7
420
 16777215
370
     9
100
AcDbVertex
100
AcDb2dVertex
 10
101.2341315839688
 20
-127.6821310791907
 30
0.0
  0
VERTEX
  5
A9
330
A7
100
AcDbEntity
  8
_U+30EC_U+30A4_U+30E4_U+30FC 1
 62
     7
420
 16777215
370
     9
100
AcDbVertex
100
AcDb2dVertex
 10
103.6946154100855
 20
-127.6821310791907
 30
0.0
  0
SEQEND
  5
AA
330
A7
100
AcDbEntity
  8
_U+30EC_U+30A4_U+30E4_U+30FC 1
 62
     7
420
 16777215
370
     9
  0
INSERT
  5
AC
330
1F
100
AcDbEntity
  8
_U+30EC_U+30A4_U+30E4_U+30FC 1
100
AcDbBlockReference
  2
block 4
 10
0.0
 20
0.0
 30
0.0
  0
POLYLINE
  5
BB
330
1F
100
AcDbEntity
  8
_U+30EC_U+30A4_U+30E4_U+30FC 1
  6
AI-Linetype-1
 62
   251
420
  5855577
370
    25
100
AcDb2dPolyline
 66
     1
 10
0.0
 20
0.0
 30
0.0
  0
VERTEX
  5
BC
330
BB
100
AcDbEntity
  8
_U+30EC_U+30A4_U+30E4_U+30FC 1
  6
AI-Linetype-1
 62
   251
420
  5855577
370
    25
100
AcDbVertex
100
AcDb2dVertex
 10
89.37698855313639
 20
-127.7406921902869
 30
0.0
  0
VERTEX
  5
BD
330
BB
100
AcDbEntity
  8
_U+30EC_U+30A4_U+30E4_U+30FC 1
  6
AI-Linetype-1
 62
   251
420
  5855577
370
    25
100
AcDbVertex
100
AcDb2dVertex
 10
89.37698855313639
 20
-126.1090949684726
 30
0.0
  0
VERTEX
  5
BE
330
BB
100
AcDbEntity
  8
_U+30EC_U+30A4_U+30E4_U+30FC 1
  6
AI-Linetype-1
 62
   251
420
  5855577
370
    25
100
AcDbVertex
100
AcDb2dVertex
 10
80.20476656491705
 20
-126.1090949684726
 30
0.0
  0
VERTEX
  5
BF
330
BB
100
AcDbEntity
  8
_U+30EC_U+30A4_U+30E4_U+30FC 1
  6
AI-Linetype-1
 62
   251
420
  5855577
370
    25
100
AcDbVertex
100
AcDb2dVertex
 10
80.20476656491705
 20
-132.1821291336213
 30
0.0
  0
SEQEND
  5
C1
330
BB
100
AcDbEntity
  8
_U+30EC_U+30A4_U+30E4_U+30FC 1
  6
AI-Linetype-1
 62
   251
420
  5855577
370
    25
  0
SPLINE
  5
C2
330
1F
100
AcDbEntity
  8
_U+30EC_U+30A4_U+30E4_U+30FC 1
 62
   179
420
  2234388
370
     9
100
AcDbSpline
210
0.0
220
0.0
230
1.0
 70
    11
 71
     3
 72
    17
 73
    13
 74
     0
 42
0.0000000001
 43
0.0000000001
 12
1.0
 22
0.0
 32
0.0
 13
1.0
 23
0.0
 33
0.0
 40
0.0
 40
0.0
 40
0.0
 40
0.0
 40
1.0
 40
1.0
 40
1.0
 40
2.0
 40
2.0
 40
2.0
 40
3.0
 40
3.0
 40
3.0
 40
4.0
 40
4.0
 40
4.0
 40
4.0
 10
102.7957729330169
 20
-132.1821291336213
 30
0.0
 10
102.7957729330169
 20
-132.1263196891908
 30
0.0
 10
102.751005434159
 20
-132.0815169114241
 30
0.0
 10
102.6958662688991
 20
-132.0815169114241
 30
0.0
 10
102.640762381416
 20
-132.0815169114241
 30
0.0
 10
102.5959596047812
 20
-132.1263196891908
 30
0.0
 10
102.5959596047812
 20
-132.1821291336213
 30
0.0
 10
102.5959596047812
 20
-132.2372330224962
 30
0.0
 10
102.640762381416
 20
-132.2820358002629
 30
0.0
 10
102.6958662688991
 20
-132.2820358002629
 30
0.0
 10
102.751005434159
 20
-132.2820358002629
 30
0.0
 10
102.7957729330169
 20
-132.2372330224962
 30
0.0
 10
102.7957729330169
 20
-132.1821291336213
 30
0.0
  0
POLYLINE
  5
C3
330
1F
100
AcDbEntity
  8
_U+30EC_U+30A4_U+30E4_U+30FC 1
 62
   179
420
  2234388
370
     9
100
AcDb2dPolyline
 66
     1
 10
0.0
 20
0.0
 30
0.0
  0
VERTEX
  5
C4
330
C3
100
AcDbEntity
  8
_U+30EC_U+30A4_U+30E4_U+30FC 1
 62
   179
420
  2234388
370
     9
100
AcDbVertex
100
AcDb2dVertex
 10
102.6958662688991
 20
-132.1817763558435
 30
0.0
  0
VERTEX
  5
C5
330
C3
100
AcDbEntity
  8
_U+30EC_U+30A4_U+30E4_U+30FC 1
 62
   179
420
  2234388
370
     9
100
AcDbVertex
100
AcDb2dVertex
 10
102.6958662688991
 20
-128.4224705234498
 30
0.0
  0
SEQEND
  5
C6
330
C3
100
AcDbEntity
  8
_U+30EC_U+30A4_U+30E4_U+30FC 1
 62
   179
420
  2234388
370
     9
  0
POLYLINE
  5
C7
330
1F
100
AcDbEntity
  8
_U+30EC_U+30A4_U+30E4_U+30FC 1
 62
   179
420
  2234388
370
     9
100
AcDb2dPolyline
 66
     1
 10
0.0
 20
0.0
 30
0.0
  0
VERTEX
  5
C8
330
C7
100
AcDbEntity
  8
_U+30EC_U+30A4_U+30E4_U+30FC 1
 62
   179
420
  2234388
370
     9
100
AcDbVertex
100
AcDb2dVertex
 10
101.2151874177854
 20
-132.1817763558435
 30
0.0
  0
VERTEX
  5
C9
330
C7
100
AcDbEntity
  8
_U+30EC_U+30A4_U+30E4_U+30FC 1
 62
   179
420
  2234388
370
     9
100
AcDbVertex
100
AcDb2dVertex
 10
103.6959912433838
 20
-132.1817763558435
 30
0.0
  0
SEQEND
  5
CA
330
C7
100
AcDbEntity
  8
_U+30EC_U+30A4_U+30E4_U+30FC 1
 62
   179
420
  2234388
370
     9
  0
INSERT
  5
CC
330
1F
100
AcDbEntity
  8
_U+30EC_U+30A4_U+30E4_U+30FC 1
100
AcDbBlockReference
  2
block 5
 10
0.0
 20
0.0
 30
0.0
  0
SPLINE
  5
D1
330
1F
100
AcDbEntity
  8
_U+30EC_U+30A4_U+30E4_U+30FC 1
 62
   179
420
  2234388
370
     9
100
AcDbSpline
210
0.0
220
0.0
230
1.0
 70
    11
 71
     3
 72
    17
 73
    13
 74
     0
 42
0.0000000001
 43
0.0000000001
 12
1.0
 22
0.0
 32
0.0
 13
1.0
 23
0.0
 33
0.0
 40
0.0
 40
0.0
 40
0.0
 40
0.0
 40
1.0
 40
1.0
 40
1.0
 40
2.0
 40
2.0
 40
2.0
 40
3.0
 40
3.0
 40
3.0
 40
4.0
 40
4.0
 40
4.0
 40
4.0
 10
80.91857710226178
 20
-129.3375055232213
 30
0.0
 10
80.91857710226178
 20
-129.2823663565682
 30
0.0
 10
80.87377432562701
 20
-129.2375988565796
 30
0.0
 10
80.81849404925956
 20
-129.2375988565796
 30
0.0
 10
80.76335488399961
 20
-129.2375988565796
 30
0.0
 10
80.71858738514172
 20
-129.2823663565682
 30
0.0
 10
80.71858738514172
 20
-129.3375055232213
 30
0.0
 10
80.71858738514172
 20
-129.3926094120962
 30
0.0
 10
80.76335488399961
 20
-129.4374121898629
 30
0.0
 10
80.81849404925956
 20
-129.4374121898629
 30
0.0
 10
80.87377432562701
 20
-129.4374121898629
 30
0.0
 10
80.91857710226178
 20
-129.3926094120962
 30
0.0
 10
80.91857710226178
 20
-129.3375055232213
 30
0.0
  0
SPLINE
  5
D2
330
1F
100
AcDbEntity
  8
_U+30EC_U+30A4_U+30E4_U+30FC 1
 62
   179
420
  2234388
370
     9
100
AcDbSpline
210
0.0
220
0.0
230
1.0
 70
    11
 71
     3
 72
    17
 73
    13
 74
     0
 42
0.0000000001
 43
0.0000000001
 12
1.0
 22
0.0
 32
0.0
 13
1.0
 23
0.0
 33
0.0
 40
0.0
 40
0.0
 40
0.0
 40
0.0
 40
1.0
 40
1.0
 40
1.0
 40
2.0
 40
2.0
 40
2.0
 40
3.0
 40
3.0
 40
3.0
 40
4.0
 40
4.0
 40
4.0
 40
4.0
 10
81.91834929897769
 20
-129.3375055232213
 30
0.0
 10
81.91834929897769
 20
-129.2823663565682
 30
0.0
 10
81.87354652234292
 20
-129.2375988565796
 30
0.0
 10
81.81826624597547
 20
-129.2375988565796
 30
0.0
 10
81.7631270807155
 20
-129.2375988565796
 30
0.0
 10
81.71835958185763
 20
-129.2823663565682
 30
0.0
 10
81.71835958185763
 20
-129.3375055232213
 30
0.0
 10
81.71835958185763
 20
-129.3926094120962
 30
0.0
 10
81.7631270807155
 20
-129.4374121898629
 30
0.0
 10
81.81826624597547
 20
-129.4374121898629
 30
0.0
 10
81.87354652234292
 20
-129.4374121898629
 30
0.0
 10
81.91834929897769
 20
-129.3926094120962
 30
0.0
 10
81.91834929897769
 20
-129.3375055232213
 30
0.0
  0
INSERT
  5
D4
330
1F
100
AcDbEntity
  8
_U+30EC_U+30A4_U+30E4_U+30FC 1
100
AcDbBlockReference
  2
block 6
 10
0.0
 20
0.0
 30
0.0
  0
POLYLINE
  5
D9
330
1F
100
AcDbEntity
  8
_U+30EC_U+30A4_U+30E4_U+30FC 1
 62
   179
420
  2234388
370
     9
100
AcDb2dPolyline
 66
     1
 10
0.0
 20
0.0
 30
0.0
  0
VERTEX
  5
DA
330
D9
100
AcDbEntity
  8
_U+30EC_U+30A4_U+30E4_U+30FC 1
 62
   179
420
  2234388
370
     9
100
AcDbVertex
100
AcDb2dVertex
 10
82.67971427955365
 20
-129.3375055232213
 30
0.0
  0
VERTEX
  5
DB
330
D9
100
AcDbEntity
  8
_U+30EC_U+30A4_U+30E4_U+30FC 1
 62
   179
420
  2234388
370
     9
100
AcDbVertex
100
AcDb2dVertex
 10
78.09067522996313
 20
-129.3375055232213
 30
0.0
  0
SEQEND
  5
DC
330
D9
100
AcDbEntity
  8
_U+30EC_U+30A4_U+30E4_U+30FC 1
 62
   179
420
  2234388
370
     9
  0
ENDSEC
  0
SECTION
  2
OBJECTS
  0
DICTIONARY
  5
C
330
0
100
AcDbDictionary
281
     1
  3
ACAD_GROUP
350
D
  3
ACAD_LAYOUT
350
1A
  3
ACAD_MATERIAL
350
3B
  3
ACAD_MLEADERSTYLE
350
DE
  3
ACAD_MLINESTYLE
350
17
  3
ACAD_PLOTSETTINGS
350
19
  3
ACAD_PLOTSTYLENAME
350
E
  3
ACAD_TABLESTYLE
350
DD
  3
ACAD_VISUALSTYLE
350
2A
  0
SUN
  5
3F
330
29
100
AcDbSun
 90
        1
290
     0
 63
     7
421
 16777215
 40
1.0
291
     1
 91
  2455826
 92
 54000000
292
     0
 70
     2
 71
   256
280
     1
  0
DICTIONARY
  5
D
102
{ACAD_REACTORS
330
C
102
}
330
C
100
AcDbDictionary
281
     1
  0
DICTIONARY
  5
1A
102
{ACAD_REACTORS
330
C
102
}
330
C
100
AcDbDictionary
281
     1
  3
Layout1
350
1E
  3
Layout2
350
26
  3
Model
350
22
  0
DICTIONARY
  5
3B
102
{ACAD_REACTORS
330
C
102
}
330
C
100
AcDbDictionary
281
     1
  3
ByBlock
350
3D
  3
ByLayer
350
3C
  3
Global
350
3E
  0
DICTIONARY
  5
DE
102
{ACAD_REACTORS
330
C
102
}
330
C
100
AcDbDictionary
281
     1
  0
DICTIONARY
  5
17
102
{ACAD_REACTORS
330
C
102
}
330
C
100
AcDbDictionary
281
     1
  3
Standard
350
18
  0
DICTIONARY
  5
19
102
{ACAD_REACTORS
330
C
102
}
330
C
100
AcDbDictionary
281
     1
  0
ACDBDICTIONARYWDFLT
  5
E
102
{ACAD_REACTORS
330
C
102
}
330
C
100
AcDbDictionary
281
     1
  3
Normal
350
F
100
AcDbDictionaryWithDefault
340
F
  0
DICTIONARY
  5
DD
102
{ACAD_REACTORS
330
C
102
}
330
C
100
AcDbDictionary
281
     1
  0
DICTIONARY
  5
2A
102
{ACAD_REACTORS
330
C
102
}
330
C
100
AcDbDictionary
281
     1
  3
2dWireframe
350
2F
  3
3D Hidden
350
31
  3
3dWireframe
350
30
  3
Basic
350
32
  3
Brighten
350
36
  3
ColorChange
350
3A
  3
Conceptual
350
34
  3
Dim
350
35
  3
Facepattern
350
39
  3
Flat
350
2B
  3
FlatWithEdges
350
2C
  3
Gouraud
350
2D
  3
GouraudWithEdges
350
2E
  3
Linepattern
350
38
  3
Realistic
350
33
  3
Thicken
350
37
  0
LAYOUT
  5
1E
102
{ACAD_REACTORS
330
1A
102
}
330
1A
100
AcDbPlotSettings
  1

  2
none_device
  4

  6

 40
0.0
 41
0.0
 42
0.0
 43
0.0
 44
0.0
 45
0.0
 46
0.0
 47
0.0
 48
0.0
 49
0.0
140
0.0
141
0.0
142
1.0
143
1.0
 70
   688
 72
     0
 73
     0
 74
     5
  7

 75
    16
 76
     0
 77
     2
 78
   300
147
1.0
148
0.0
149
0.0
100
AcDbLayout
  1
Layout1
 70
     1
 71
     1
 10
0.0
 20
0.0
 11
12.0
 21
9.0
 12
0.0
 22
0.0
 32
0.0
 14
1.000000000000000E+20
 24
1.000000000000000E+20
 34
1.000000000000000E+20
 15
-1.000000000000000E+20
 25
-1.000000000000000E+20
 35
-1.000000000000000E+20
146
0.0
 13
0.0
 23
0.0
 33
0.0
 16
1.0
 26
0.0
 36
0.0
 17
0.0
 27
1.0
 37
0.0
 76
     0
330
1B
  0
LAYOUT
  5
26
102
{ACAD_REACTORS
330
1A
102
}
330
1A
100
AcDbPlotSettings
  1

  2
none_device
  4

  6

 40
0.0
 41
0.0
 42
0.0
 43
0.0
 44
0.0
 45
0.0
 46
0.0
 47
0.0
 48
0.0
 49
0.0
140
0.0
141
0.0
142
1.0
143
1.0
 70
   688
 72
     0
 73
     0
 74
     5
  7

 75
    16
 76
     0
 77
     2
 78
   300
147
1.0
148
0.0
149
0.0
100
AcDbLayout
  1
Layout2
 70
     1
 71
     2
 10
0.0
 20
0.0
 11
0.0
 21
0.0
 12
0.0
 22
0.0
 32
0.0
 14
0.0
 24
0.0
 34
0.0
 15
0.0
 25
0.0
 35
0.0
146
0.0
 13
0.0
 23
0.0
 33
0.0
 16
1.0
 26
0.0
 36
0.0
 17
0.0
 27
1.0
 37
0.0
 76
     0
330
23
  0
LAYOUT
  5
22
102
{ACAD_REACTORS
330
1A
102
}
330
1A
100
AcDbPlotSettings
  1

  2
none_device
  4

  6

 40
0.0
 41
0.0
 42
0.0
 43
0.0
 44
0.0
 45
0.0
 46
0.0
 47
0.0
 48
0.0
 49
0.0
140
0.0
141
0.0
142
1.0
143
1.0
 70
  1712
 72
     0
 73
     0
 74
     0
  7

 75
     0
 76
     0
 77
     2
 78
   300
147
1.0
148
0.0
149
0.0
100
AcDbLayout
  1
Model
 70
     1
 71
     0
 10
0.0
 20
0.0
 11
12.0
 21
9.0
 12
0.0
 22
0.0
 32
0.0
 14
1.000000000000000E+20
 24
1.000000000000000E+20
 34
1.000000000000000E+20
 15
-1.000000000000000E+20
 25
-1.000000000000000E+20
 35
-1.000000000000000E+20
146
0.0
 13
0.0
 23
0.0
 33
0.0
 16
1.0
 26
0.0
 36
0.0
 17
0.0
 27
1.0
 37
0.0
 76
     0
330
1F
331
29
  0
MATERIAL
  5
3D
102
{ACAD_REACTORS
330
3B
102
}
330
3B
100
AcDbMaterial
  1
ByBlock
 72
     1
 94
      127
  0
MATERIAL
  5
3C
102
{ACAD_REACTORS
330
3B
102
}
330
3B
100
AcDbMaterial
  1
ByLayer
 72
     1
 94
      127
  0
MATERIAL
  5
3E
102
{ACAD_REACTORS
330
3B
102
}
330
3B
100
AcDbMaterial
  1
Global
 72
     1
 94
      127
  0
MLINESTYLE
  5
18
102
{ACAD_REACTORS
330
17
102
}
330
17
100
AcDbMlineStyle
  2
Standard
 70
     0
  3

 62
   256
 51
90.0
 52
90.0
 71
     2
 49
0.5
 62
   256
  6
BYLAYER
 49
-0.5
 62
   256
  6
BYLAYER
  0
ACDBPLACEHOLDER
  5
F
102
{ACAD_REACTORS
330
E
102
}
330
E
  0
VISUALSTYLE
  5
2F
102
{ACAD_REACTORS
330
2A
102
}
330
2A
100
AcDbVisualStyle
  2
2dWireframe
 70
     4
177
     2
291
     0
 71
     0
176
     1
 72
     2
176
     1
 73
     0
176
     1
 90
        0
176
     1
 40
-0.6
176
     1
 41
-30.0
176
     1
 62
     5
 63
     7
421
 16777215
176
     1
 74
     1
176
     1
 91
        4
176
     1
 64
     7
176
     1
 65
   257
176
     1
 75
     1
176
     1
175
     1
176
     1
 42
1.0
176
     1
 92
        0
176
     1
 66
   257
176
     1
 43
1.0
176
     1
 76
     1
176
     1
 77
     6
176
     1
 78
     2
176
     1
 67
     7
176
     1
 79
     5
176
     1
170
     0
176
     1
171
     0
176
     1
290
     0
176
     1
 93
        1
176
     1
 44
0.0
176
     1
173
     0
176
     1
  0
VISUALSTYLE
  5
31
102
{ACAD_REACTORS
330
2A
102
}
330
2A
100
AcDbVisualStyle
  2
3D Hidden
 70
     6
177
     2
291
     0
 71
     1
176
     1
 72
     2
176
     1
 73
     2
176
     1
 90
        0
176
     1
 40
-0.6
176
     1
 41
-30.0
176
     1
 62
     5
 63
     7
421
 16777215
176
     1
 74
     2
176
     1
 91
        2
176
     1
 64
     7
176
     1
 65
   257
176
     1
 75
     2
176
     1
175
     1
176
     1
 42
40.0
176
     1
 92
        0
176
     1
 66
   257
176
     1
 43
1.0
176
     1
 76
     1
176
     1
 77
     6
176
     1
 78
     2
176
     1
 67
     7
176
     1
 79
     3
176
     1
170
     0
176
     1
171
     0
176
     1
290
     0
176
     1
 93
        1
176
     1
 44
0.0
176
     1
173
     0
176
     1
  0
VISUALSTYLE
  5
30
102
{ACAD_REACTORS
330
2A
102
}
330
2A
100
AcDbVisualStyle
  2
3dWireframe
 70
     5
177
     2
291
     0
 71
     0
176
     1
 72
     2
176
     1
 73
     0
176
     1
 90
        0
176
     1
 40
-0.6
176
     1
 41
-30.0
176
     1
 62
     5
 63
     7
421
 16777215
176
     1
 74
     1
176
     1
 91
        4
176
     1
 64
     7
176
     1
 65
   257
176
     1
 75
     1
176
     1
175
     1
176
     1
 42
1.0
176
     1
 92
        0
176
     1
 66
   257
176
     1
 43
1.0
176
     1
 76
     1
176
     1
 77
     6
176
     1
 78
     2
176
     1
 67
     7
176
     1
 79
     5
176
     1
170
     0
176
     1
171
     0
176
     1
290
     0
176
     1
 93
        1
176
     1
 44
0.0
176
     1
173
     0
176
     1
  0
VISUALSTYLE
  5
32
102
{ACAD_REACTORS
330
2A
102
}
330
2A
100
AcDbVisualStyle
  2
Basic
 70
     7
177
     2
291
     1
 71
     1
176
     1
 72
     0
176
     1
 73
     1
176
     1
 90
        0
176
     1
 40
-0.6
176
     1
 41
-30.0
176
     1
 62
     5
 63
     7
421
 16777215
176
     1
 74
     0
176
     1
 91
        4
176
     1
 64
     7
176
     1
 65
   257
176
     1
 75
     1
176
     1
175
     1
176
     1
 42
1.0
176
     1
 92
        8
176
     1
 66
     7
176
     1
 43
1.0
176
     1
 76
     1
176
     1
 77
     6
176
     1
 78
     2
176
     1
 67
     7
176
     1
 79
     5
176
     1
170
     0
176
     1
171
     0
176
     1
290
     0
176
     1
 93
        1
176
     1
 44
0.0
176
     1
173
     0
176
     1
  0
VISUALSTYLE
  5
36
102
{ACAD_REACTORS
330
2A
102
}
330
2A
100
AcDbVisualStyle
  2
Brighten
 70
    12
177
     2
291
     1
 71
     2
176
     1
 72
     2
176
     1
 73
     0
176
     1
 90
        0
176
     1
 40
-0.6
176
     1
 41
-30.0
176
     1
 62
     5
 63
     7
421
 16777215
176
     1
 74
     1
176
     1
 91
        4
176
     1
 64
     7
176
     1
 65
   257
176
     1
 75
     1
176
     1
175
     1
176
     1
 42
1.0
176
     1
 92
        8
176
     1
 66
     7
176
     1
 43
1.0
176
     1
 76
     1
176
     1
 77
     6
176
     1
 78
     2
176
     1
 67
     7
176
     1
 79
     5
176
     1
170
     0
176
     1
171
     0
176
     1
290
     0
176
     1
 93
        1
176
     1
 44
50.0
176
     1
173
     0
176
     1
  0
VISUALSTYLE
  5
3A
102
{ACAD_REACTORS
330
2A
102
}
330
2A
100
AcDbVisualStyle
  2
ColorChange
 70
    16
177
     2
291
     1
 71
     2
176
     1
 72
     2
176
     1
 73
     3
176
     1
 90
        0
176
     1
 40
-0.6
176
     1
 41
-30.0
176
     1
 62
     5
 63
     8
421
  8421504
176
     1
 74
     1
176
     1
 91
        4
176
     1
 64
     7
176
     1
 65
   257
176
     1
 75
     1
176
     1
175
     1
176
     1
 42
1.0
176
     1
 92
        8
176
     1
 66
     8
424
  8421504
176
     1
 43
1.0
176
     1
 76
     1
176
     1
 77
     6
176
     1
 78
     2
176
     1
 67
     7
176
     1
 79
     5
176
     1
170
     0
176
     1
171
     0
176
     1
290
     0
176
     1
 93
        1
176
     1
 44
0.0
176
     1
173
     0
176
     1
  0
VISUALSTYLE
  5
34
102
{ACAD_REACTORS
330
2A
102
}
330
2A
100
AcDbVisualStyle
  2
Conceptual
 70
     9
177
     2
291
     0
 71
     3
176
     1
 72
     2
176
     1
 73
     0
176
     1
 90
        0
176
     1
 40
-0.6
176
     1
 41
-30.0
176
     1
 62
     5
 63
     7
421
 16777215
176
     1
 74
     2
176
     1
 91
        2
176
     1
 64
     7
176
     1
 65
   257
176
     1
 75
     1
176
     1
175
     1
176
     1
 42
40.0
176
     1
 92
        8
176
     1
 66
     7
176
     1
 43
1.0
176
     1
 76
     1
176
     1
 77
     6
176
     1
 78
     2
176
     1
 67
     7
176
     1
 79
     3
176
     1
170
     0
176
     1
171
     0
176
     1
290
     0
176
     1
 93
        1
176
     1
 44
0.0
176
     1
173
     0
176
     1
  0
VISUALSTYLE
  5
35
102
{ACAD_REACTORS
330
2A
102
}
330
2A
100
AcDbVisualStyle
  2
Dim
 70
    11
177
     2
291
     1
 71
     2
176
     1
 72
     2
176
     1
 73
     0
176
     1
 90
        0
176
     1
 40
-0.6
176
     1
 41
-30.0
176
     1
 62
     5
 63
     7
421
 16777215
176
     1
 74
     1
176
     1
 91
        4
176
     1
 64
     7
176
     1
 65
   257
176
     1
 75
     1
176
     1
175
     1
176
     1
 42
1.0
176
     1
 92
        8
176
     1
 66
     7
176
     1
 43
1.0
176
     1
 76
     1
176
     1
 77
     6
176
     1
 78
     2
176
     1
 67
     7
176
     1
 79
     5
176
     1
170
     0
176
     1
171
     0
176
     1
290
     0
176
     1
 93
        1
176
     1
 44
-50.0
176
     1
173
     0
176
     1
  0
VISUALSTYLE
  5
39
102
{ACAD_REACTORS
330
2A
102
}
330
2A
100
AcDbVisualStyle
  2
Facepattern
 70
    15
177
     2
291
     1
 71
     2
176
     1
 72
     2
176
     1
 73
     0
176
     1
 90
        0
176
     1
 40
-0.6
176
     1
 41
-30.0
176
     1
 62
     5
 63
     7
421
 16777215
176
     1
 74
     1
176
     1
 91
        4
176
     1
 64
     7
176
     1
 65
   257
176
     1
 75
     1
176
     1
175
     1
176
     1
 42
1.0
176
     1
 92
        8
176
     1
 66
     7
176
     1
 43
1.0
176
     1
 76
     1
176
     1
 77
     6
176
     1
 78
     2
176
     1
 67
     7
176
     1
 79
     5
176
     1
170
     0
176
     1
171
     0
176
     1
290
     0
176
     1
 93
        1
176
     1
 44
0.0
176
     1
173
     0
176
     1
  0
VISUALSTYLE
  5
2B
102
{ACAD_REACTORS
330
2A
102
}
330
2A
100
AcDbVisualStyle
  2
Flat
 70
     0
177
     2
291
     1
 71
     2
176
     1
 72
     1
176
     1
 73
     1
176
     1
 90
        2
176
     1
 40
-0.6
176
     1
 41
30.0
176
     1
 62
     5
 63
     7
421
 16777215
176
     1
 74
     0
176
     1
 91
        4
176
     1
 64
     7
176
     1
 65
   257
176
     1
 75
     1
176
     1
175
     1
176
     1
 42
1.0
176
     1
 92
        8
176
     1
 66
     7
176
     1
 43
1.0
176
     1
 76
     1
176
     1
 77
     6
176
     1
 78
     2
176
     1
 67
     7
176
     1
 79
     5
176
     1
170
     0
176
     1
171
     0
176
     1
290
     0
176
     1
 93
       13
176
     1
 44
0.0
176
     1
173
     0
176
     1
  0
VISUALSTYLE
  5
2C
102
{ACAD_REACTORS
330
2A
102
}
330
2A
100
AcDbVisualStyle
  2
FlatWithEdges
 70
     1
177
     2
291
     1
 71
     2
176
     1
 72
     1
176
     1
 73
     1
176
     1
 90
        2
176
     1
 40
-0.6
176
     1
 41
30.0
176
     1
 62
     5
 63
     7
421
 16777215
176
     1
 74
     1
176
     1
 91
        4
176
     1
 64
     7
176
     1
 65
   257
176
     1
 75
     1
176
     1
175
     1
176
     1
 42
1.0
176
     1
 92
        0
176
     1
 66
   257
176
     1
 43
1.0
176
     1
 76
     1
176
     1
 77
     6
176
     1
 78
     2
176
     1
 67
     7
176
     1
 79
     5
176
     1
170
     0
176
     1
171
     0
176
     1
290
     0
176
     1
 93
       13
176
     1
 44
0.0
176
     1
173
     0
176
     1
  0
VISUALSTYLE
  5
2D
102
{ACAD_REACTORS
330
2A
102
}
330
2A
100
AcDbVisualStyle
  2
Gouraud
 70
     2
177
     2
291
     1
 71
     2
176
     1
 72
     2
176
     1
 73
     1
176
     1
 90
        2
176
     1
 40
-0.6
176
     1
 41
30.0
176
     1
 62
     5
 63
     7
421
 16777215
176
     1
 74
     0
176
     1
 91
        4
176
     1
 64
     7
176
     1
 65
   257
176
     1
 75
     1
176
     1
175
     1
176
     1
 42
1.0
176
     1
 92
        0
176
     1
 66
     7
176
     1
 43
1.0
176
     1
 76
     1
176
     1
 77
     6
176
     1
 78
     2
176
     1
 67
     7
176
     1
 79
     5
176
     1
170
     0
176
     1
171
     0
176
     1
290
     0
176
     1
 93
       13
176
     1
 44
0.0
176
     1
173
     0
176
     1
  0
VISUALSTYLE
  5
2E
102
{ACAD_REACTORS
330
2A
102
}
330
2A
100
AcDbVisualStyle
  2
GouraudWithEdges
 70
     3
177
     2
291
     1
 71
     2
176
     1
 72
     2
176
     1
 73
     1
176
     1
 90
        2
176
     1
 40
-0.6
176
     1
 41
30.0
176
     1
 62
     5
 63
     7
421
 16777215
176
     1
 74
     1
176
     1
 91
        4
176
     1
 64
     7
176
     1
 65
   257
176
     1
 75
     1
176
     1
175
     1
176
     1
 42
1.0
176
     1
 92
        0
176
     1
 66
   257
176
     1
 43
1.0
176
     1
 76
     1
176
     1
 77
     6
176
     1
 78
     2
176
     1
 67
     7
176
     1
 79
     5
176
     1
170
     0
176
     1
171
     0
176
     1
290
     0
176
     1
 93
       13
176
     1
 44
0.0
176
     1
173
     0
176
     1
  0
VISUALSTYLE
  5
38
102
{ACAD_REACTORS
330
2A
102
}
330
2A
100
AcDbVisualStyle
  2
Linepattern
 70
    14
177
     2
291
     1
 71
     2
176
     1
 72
     2
176
     1
 73
     0
176
     1
 90
        0
176
     1
 40
-0.6
176
     1
 41
-30.0
176
     1
 62
     5
 63
     7
421
 16777215
176
     1
 74
     1
176
     1
 91
        4
176
     1
 64
     7
176
     1
 65
   257
176
     1
 75
     7
176
     1
175
     7
176
     1
 42
1.0
176
     1
 92
        8
176
     1
 66
     7
176
     1
 43
1.0
176
     1
 76
     1
176
     1
 77
     6
176
     1
 78
     2
176
     1
 67
     7
176
     1
 79
     5
176
     1
170
     0
176
     1
171
     0
176
     1
290
     0
176
     1
 93
        1
176
     1
 44
0.0
176
     1
173
     0
176
     1
  0
VISUALSTYLE
  5
33
102
{ACAD_REACTORS
330
2A
102
}
330
2A
100
AcDbVisualStyle
  2
Realistic
 70
     8
177
     2
291
     0
 71
     2
176
     1
 72
     2
176
     1
 73
     0
176
     1
 90
        0
176
     1
 40
-0.6
176
     1
 41
-30.0
176
     1
 62
     5
 63
     7
421
 16777215
176
     1
 74
     1
176
     1
 91
        0
176
     1
 64
     7
176
     1
 65
   257
176
     1
 75
     1
176
     1
175
     1
176
     1
 42
1.0
176
     1
 92
        8
176
     1
 66
     8
424
  7895160
176
     1
 43
1.0
176
     1
 76
     1
176
     1
 77
     6
176
     1
 78
     2
176
     1
 67
     7
176
     1
 79
     5
176
     1
170
     0
176
     1
171
     0
176
     1
290
     0
176
     1
 93
       13
176
     1
 44
0.0
176
     1
173
     0
176
     1
  0
VISUALSTYLE
  5
37
102
{ACAD_REACTORS
330
2A
102
}
330
2A
100
AcDbVisualStyle
  2
Thicken
 70
    13
177
     2
291
     1
 71
     2
176
     1
 72
     2
176
     1
 73
     0
176
     1
 90
        0
176
     1
 40
-0.6
176
     1
 41
-30.0
176
     1
 62
     5
 63
     7
421
 16777215
176
     1
 74
     1
176
     1
 91
        4
176
     1
 64
     7
176
     1
 65
   257
176
     1
 75
     1
176
     1
175
     1
176
     1
 42
1.0
176
     1
 92
       12
176
     1
 66
     7
176
     1
 43
1.0
176
     1
 76
     1
176
     1
 77
     6
176
     1
 78
     2
176
     1
 67
     7
176
     1
 79
     5
176
     1
170
     0
176
     1
171
     0
176
     1
290
     0
176
     1
 93
        1
176
     1
 44
0.0
176
     1
173
     0
176
     1
  0
ENDSEC
  0
EOF
