  0
SECTION
  2
HEADER
  9
$ACADVER
  1
AC1024
  9
$ACADMAINTVER
 70
     6
  9
$DWGCODEPAGE
  3
UNDEFINED
  9
$INSBASE
 10
0.0
 20
0.0
 30
0.0
  9
$EXTMIN
 10
1.000000000000000E+20
 20
1.000000000000000E+20
 30
1.000000000000000E+20
  9
$EXTMAX
 10
-1.000000000000000E+20
 20
-1.000000000000000E+20
 30
-1.000000000000000E+20
  9
$LIMMIN
 10
0.0
 20
0.0
  9
$LIMMAX
 10
12.0
 20
9.0
  9
$ORTHOMODE
 70
     0
  9
$REGENMODE
 70
     1
  9
$FILLMODE
 70
     1
  9
$QTEXTMODE
 70
     0
  9
$MIRRTEXT
 70
     1
  9
$LTSCALE
 40
1.0
  9
$ATTMODE
 70
     1
  9
$TEXTSIZE
 40
0.2
  9
$TRACEWID
 40
0.05
  9
$TEXTSTYLE
  7
Standard
  9
$CLAYER
  8
0
  9
$CELTYPE
  6
ByLayer
  9
$CECOLOR
 62
   256
  9
$CELTSCALE
 40
1.0
  9
$DISPSILH
 70
     0
  9
$DIMSCALE
 40
1.0
  9
$DIMASZ
 40
0.18
  9
$DIMEXO
 40
0.0625
  9
$DIMDLI
 40
0.38
  9
$DIMRND
 40
0.0
  9
$DIMDLE
 40
0.0
  9
$DIMEXE
 40
0.18
  9
$DIMTP
 40
0.0
  9
$DIMTM
 40
0.0
  9
$DIMTXT
 40
0.18
  9
$DIMCEN
 40
0.09
  9
$DIMTSZ
 40
0.0
  9
$DIMTOL
 70
     0
  9
$DIMLIM
 70
     0
  9
$DIMTIH
 70
     1
  9
$DIMTOH
 70
     1
  9
$DIMSE1
 70
     0
  9
$DIMSE2
 70
     0
  9
$DIMTAD
 70
     0
  9
$DIMZIN
 70
     0
  9
$DIMBLK
  1

  9
$DIMASO
 70
     1
  9
$DIMSHO
 70
     1
  9
$DIMPOST
  1

  9
$DIMAPOST
  1

  9
$DIMALT
 70
     0
  9
$DIMALTD
 70
     2
  9
$DIMALTF
 40
25.4
  9
$DIMLFAC
 40
1.0
  9
$DIMTOFL
 70
     0
  9
$DIMTVP
 40
0.0
  9
$DIMTIX
 70
     0
  9
$DIMSOXD
 70
     0
  9
$DIMSAH
 70
     0
  9
$DIMBLK1
  1

  9
$DIMBLK2
  1

  9
$DIMSTYLE
  2
Standard
  9
$DIMCLRD
 70
     0
  9
$DIMCLRE
 70
     0
  9
$DIMCLRT
 70
     0
  9
$DIMTFAC
 40
1.0
  9
$DIMGAP
 40
0.09
  9
$DIMJUST
 70
     0
  9
$DIMSD1
 70
     0
  9
$DIMSD2
 70
     0
  9
$DIMTOLJ
 70
     1
  9
$DIMTZIN
 70
     0
  9
$DIMALTZ
 70
     0
  9
$DIMALTTZ
 70
     0
  9
$DIMUPT
 70
     0
  9
$DIMDEC
 70
     4
  9
$DIMTDEC
 70
     4
  9
$DIMALTU
 70
     2
  9
$DIMALTTD
 70
     2
  9
$DIMTXSTY
  7
Standard
  9
$DIMAUNIT
 70
     0
  9
$DIMADEC
 70
     0
  9
$DIMALTRND
 40
0.0
  9
$DIMAZIN
 70
     0
  9
$DIMDSEP
 70
    46
  9
$DIMATFIT
 70
     3
  9
$DIMFRAC
 70
     0
  9
$DIMLDRBLK
  1

  9
$DIMLUNIT
 70
     2
  9
$DIMLWD
 70
    -2
  9
$DIMLWE
 70
    -2
  9
$DIMTMOVE
 70
     0
  9
$DIMFXL
 40
1.0
  9
$DIMFXLON
 70
     0
  9
$DIMJOGANG
 40
0.7853981633974483
  9
$DIMTFILL
 70
     0
  9
$DIMTFILLCLR
 70
     0
  9
$DIMARCSYM
 70
     0
  9
$DIMLTYPE
  6

  9
$DIMLTEX1
  6

  9
$DIMLTEX2
  6

  9
$DIMTXTDIRECTION
 70
     0
  9
$LUNITS
 70
     2
  9
$LUPREC
 70
     4
  9
$SKETCHINC
 40
0.1
  9
$FILLETRAD
 40
0.5
  9
$AUNITS
 70
     0
  9
$AUPREC
 70
     0
  9
$MENU
  1
.
  9
$ELEVATION
 40
0.0
  9
$PELEVATION
 40
0.0
  9
$THICKNESS
 40
0.0
  9
$LIMCHECK
 70
     0
  9
$CHAMFERA
 40
0.5
  9
$CHAMFERB
 40
0.5
  9
$CHAMFERC
 40
1.0
  9
$CHAMFERD
 40
0.0
  9
$SKPOLY
 70
     0
  9
$TDCREATE
 40
2457917.622060185
  9
$TDUCREATE
 40
2457917.247060185
  9
$TDUPDATE
 40
2457917.622060185
  9
$TDUUPDATE
 40
2457917.247060185
  9
$TDINDWG
 40
0.0000000116
  9
$TDUSRTIMER
 40
0.0000000116
  9
$USRTIMER
 70
     1
  9
$ANGBASE
 50
0.0
  9
$ANGDIR
 70
     0
  9
$PDMODE
 70
     0
  9
$PDSIZE
 40
0.0
  9
$PLINEWID
 40
0.0
  9
$SPLFRAME
 70
     0
  9
$SPLINETYPE
 70
     6
  9
$SPLINESEGS
 70
     8
  9
$HANDSEED
  5
EE
  9
$SURFTAB1
 70
     6
  9
$SURFTAB2
 70
     6
  9
$SURFTYPE
 70
     6
  9
$SURFU
 70
     6
  9
$SURFV
 70
     6
  9
$UCSBASE
  2

  9
$UCSNAME
  2

  9
$UCSORG
 10
0.0
 20
0.0
 30
0.0
  9
$UCSXDIR
 10
1.0
 20
0.0
 30
0.0
  9
$UCSYDIR
 10
0.0
 20
1.0
 30
0.0
  9
$UCSORTHOREF
  2

  9
$UCSORTHOVIEW
 70
     0
  9
$UCSORGTOP
 10
0.0
 20
0.0
 30
0.0
  9
$UCSORGBOTTOM
 10
0.0
 20
0.0
 30
0.0
  9
$UCSORGLEFT
 10
0.0
 20
0.0
 30
0.0
  9
$UCSORGRIGHT
 10
0.0
 20
0.0
 30
0.0
  9
$UCSORGFRONT
 10
0.0
 20
0.0
 30
0.0
  9
$UCSORGBACK
 10
0.0
 20
0.0
 30
0.0
  9
$PUCSBASE
  2

  9
$PUCSNAME
  2

  9
$PUCSORG
 10
0.0
 20
0.0
 30
0.0
  9
$PUCSXDIR
 10
1.0
 20
0.0
 30
0.0
  9
$PUCSYDIR
 10
0.0
 20
1.0
 30
0.0
  9
$PUCSORTHOREF
  2

  9
$PUCSORTHOVIEW
 70
     0
  9
$PUCSORGTOP
 10
0.0
 20
0.0
 30
0.0
  9
$PUCSORGBOTTOM
 10
0.0
 20
0.0
 30
0.0
  9
$PUCSORGLEFT
 10
0.0
 20
0.0
 30
0.0
  9
$PUCSORGRIGHT
 10
0.0
 20
0.0
 30
0.0
  9
$PUCSORGFRONT
 10
0.0
 20
0.0
 30
0.0
  9
$PUCSORGBACK
 10
0.0
 20
0.0
 30
0.0
  9
$USERI1
 70
     0
  9
$USERI2
 70
     0
  9
$USERI3
 70
     0
  9
$USERI4
 70
     0
  9
$USERI5
 70
     0
  9
$USERR1
 40
0.0
  9
$USERR2
 40
0.0
  9
$USERR3
 40
0.0
  9
$USERR4
 40
0.0
  9
$USERR5
 40
0.0
  9
$WORLDVIEW
 70
     1
  9
$SHADEDGE
 70
     3
  9
$SHADEDIF
 70
    70
  9
$TILEMODE
 70
     1
  9
$MAXACTVP
 70
    64
  9
$PINSBASE
 10
0.0
 20
0.0
 30
0.0
  9
$PLIMCHECK
 70
     0
  9
$PEXTMIN
 10
1.000000000000000E+20
 20
1.000000000000000E+20
 30
1.000000000000000E+20
  9
$PEXTMAX
 10
-1.000000000000000E+20
 20
-1.000000000000000E+20
 30
-1.000000000000000E+20
  9
$PLIMMIN
 10
0.0
 20
0.0
  9
$PLIMMAX
 10
12.0
 20
9.0
  9
$UNITMODE
 70
     0
  9
$VISRETAIN
 70
     1
  9
$PLINEGEN
 70
     0
  9
$PSLTSCALE
 70
     1
  9
$TREEDEPTH
 70
  3020
  9
$CMLSTYLE
  2
Standard
  9
$CMLJUST
 70
     0
  9
$CMLSCALE
 40
1.0
  9
$PROXYGRAPHICS
 70
     1
  9
$MEASUREMENT
 70
     0
  9
$CELWEIGHT
370
    -1
  9
$ENDCAPS
280
     0
  9
$JOINSTYLE
280
     0
  9
$LWDISPLAY
290
     1
  9
$INSUNITS
 70
     1
  9
$HYPERLINKBASE
  1

  9
$STYLESHEET
  1

  9
$XEDIT
290
     1
  9
$CEPSNTYPE
380
     0
  9
$PSTYLEMODE
290
     1
  9
$FINGERPRINTGUID
  2
{3FB5B898-463A-7D58-AEC2-586615256B5A}
  9
$VERSIONGUID
  2
{FAEB1C32-E019-11D5-929B-00C0DF256EC4}
  9
$EXTNAMES
290
     1
  9
$PSVPSCALE
 40
0.0
  9
$OLESTARTUP
290
     0
  9
$SORTENTS
280
   127
  9
$INDEXCTL
280
     0
  9
$HIDETEXT
280
     1
  9
$XCLIPFRAME
280
     2
  9
$HALOGAP
280
     0
  9
$OBSCOLOR
 70
   257
  9
$OBSLTYPE
280
     0
  9
$INTERSECTIONDISPLAY
280
     0
  9
$INTERSECTIONCOLOR
 70
   257
  9
$DIMASSOC
280
     2
  9
$PROJECTNAME
  1

  9
$CAMERADISPLAY
290
     0
  9
$LENSLENGTH
 40
50.0
  9
$CAMERAHEIGHT
 40
0.0
  9
$STEPSPERSEC
 40
2.0
  9
$STEPSIZE
 40
6.0
  9
$3DDWFPREC
 40
2.0
  9
$PSOLWIDTH
 40
0.25
  9
$PSOLHEIGHT
 40
4.0
  9
$LOFTANG1
 40
1.570796326794897
  9
$LOFTANG2
 40
1.570796326794897
  9
$LOFTMAG1
 40
0.0
  9
$LOFTMAG2
 40
0.0
  9
$LOFTPARAM
 70
     7
  9
$LOFTNORMALS
280
     1
  9
$LATITUDE
 40
37.795
  9
$LONGITUDE
 40
-122.394
  9
$NORTHDIRECTION
 40
0.0
  9
$TIMEZONE
 70
 -8000
  9
$LIGHTGLYPHDISPLAY
280
     1
  9
$TILEMODELIGHTSYNCH
280
     1
  9
$CMATERIAL
347
3C
  9
$SOLIDHIST
280
     1
  9
$SHOWHIST
280
     1
  9
$DWFFRAME
280
     2
  9
$DGNFRAME
280
     2
  9
$REALWORLDSCALE
290
     1
  9
$INTERFERECOLOR
 62
   256
  9
$CSHADOW
280
     0
  9
$SHADOWPLANELOCATION
 40
0.0
  0
ENDSEC
  0
SECTION
  2
CLASSES
  0
CLASS
  1
ACDBDICTIONARYWDFLT
  2
AcDbDictionaryWithDefault
  3
ObjectDBX Classes
 90
        0
 91
        4
280
     0
281
     0
  0
CLASS
  1
VISUALSTYLE
  2
AcDbVisualStyle
  3
ObjectDBX Classes
 90
     4095
 91
        4
280
     0
281
     0
  0
CLASS
  1
MATERIAL
  2
AcDbMaterial
  3
ObjectDBX Classes
 90
     1153
 91
        4
280
     0
281
     0
  0
CLASS
  1
SUN
  2
AcDbSun
  3
SCENEOE
 90
     1024
 91
        4
280
     0
281
     0
  0
ENDSEC
  0
SECTION
  2
TABLES
  0
TABLE
  2
VPORT
  5
8
330
0
100
AcDbSymbolTable
 70
     1
  0
VPORT
  5
29
330
8
100
AcDbSymbolTableRecord
100
AcDbViewportTableRecord
  2
*Active
 70
     0
 10
0.0
 20
0.0
 11
1.0
 21
1.0
 12
0.0
 22
0.0
 13
0.0
 23
0.0
 14
0.5
 24
0.5
 15
0.5
 25
0.5
 16
0.0
 26
0.0
 36
1.0
 17
91.00082462281999
 27
-128.4993055234307
 37
0.0
 40
256.9986110468615
 41
0.7081814508812795
 42
50.0
 43
0.0
 44
0.0
 50
0.0
 51
0.0
 71
     0
 72
   100
 73
     1
 74
     3
 75
     0
 76
     0
 77
     0
 78
     0
281
     0
 65
     1
110
0.0
120
0.0
130
0.0
111
1.0
121
0.0
131
0.0
112
0.0
122
1.0
132
0.0
 79
     0
146
0.0
 60
     3
 61
     5
292
     1
282
     1
141
0.0
142
0.0
 63
   250
361
3F
  0
ENDTAB
  0
TABLE
  2
LTYPE
  5
5
330
0
100
AcDbSymbolTable
 70
     1
  0
LTYPE
  5
14
330
5
100
AcDbSymbolTableRecord
100
AcDbLinetypeTableRecord
  2
ByBlock
 70
     0
  3

 72
    65
 73
     0
 40
0.0
  0
LTYPE
  5
15
330
5
100
AcDbSymbolTableRecord
100
AcDbLinetypeTableRecord
  2
ByLayer
 70
     0
  3

 72
    65
 73
     0
 40
0.0
  0
LTYPE
  5
16
330
5
100
AcDbSymbolTableRecord
100
AcDbLinetypeTableRecord
  2
Continuous
 70
     0
  3
Solid line
 72
    65
 73
     0
 40
0.0
  0
ENDTAB
  0
TABLE
  2
LAYER
  5
2
330
0
100
AcDbSymbolTable
 70
     2
  0
LAYER
  5
10
330
2
100
AcDbSymbolTableRecord
100
AcDbLayerTableRecord
  2
0
 70
     0
 62
     7
  6
Continuous
370
    -3
390
F
347
3E
  0
LAYER
  5
40
330
2
100
AcDbSymbolTableRecord
100
AcDbLayerTableRecord
  2
_U+30EC_U+30A4_U+30E4_U+30FC 1
 70
     0
 62
     7
  6
Continuous
370
    -3
390
F
347
3E
  0
ENDTAB
  0
TABLE
  2
STYLE
  5
3
330
0
100
AcDbSymbolTable
 70
     1
  0
STYLE
  5
11
330
3
100
AcDbSymbolTableRecord
100
AcDbTextStyleTableRecord
  2
Standard
 70
     0
 40
0.0
 41
1.0
 50
0.0
 71
     0
 42
0.2
  3
txt
  4

  0
ENDTAB
  0
TABLE
  2
VIEW
  5
6
330
0
100
AcDbSymbolTable
 70
     0
  0
ENDTAB
  0
TABLE
  2
UCS
  5
7
330
0
100
AcDbSymbolTable
 70
     0
  0
ENDTAB
  0
TABLE
  2
APPID
  5
9
330
0
100
AcDbSymbolTable
 70
     1
  0
APPID
  5
12
330
9
100
AcDbSymbolTableRecord
100
AcDbRegAppTableRecord
  2
ACAD
 70
     0
  0
ENDTAB
  0
TABLE
  2
DIMSTYLE
  5
A
330
0
100
AcDbSymbolTable
 70
     1
100
AcDbDimStyleTable
  0
DIMSTYLE
105
27
330
A
100
AcDbSymbolTableRecord
100
AcDbDimStyleTableRecord
  2
Standard
 70
     0
178
     0
340
11
  0
ENDTAB
  0
TABLE
  2
BLOCK_RECORD
  5
1
330
0
100
AcDbSymbolTable
 70
     7
  0
BLOCK_RECORD
  5
1F
330
1
100
AcDbSymbolTableRecord
100
AcDbBlockTableRecord
  2
*Model_Space
340
22
 70
     0
280
     1
281
     0
  0
BLOCK_RECORD
  5
1B
330
1
100
AcDbSymbolTableRecord
100
AcDbBlockTableRecord
  2
*Paper_Space
340
1E
 70
     0
280
     1
281
     0
  0
BLOCK_RECORD
  5
23
330
1
100
AcDbSymbolTableRecord
100
AcDbBlockTableRecord
  2
*Paper_Space0
340
26
 70
     0
280
     1
281
     0
  0
BLOCK_RECORD
  5
52
330
1
100
AcDbSymbolTableRecord
100
AcDbBlockTableRecord
  2
block 2
340
0
102
{BLKREFS
331
53
102
}
 70
     0
280
     1
281
     0
  0
BLOCK_RECORD
  5
5E
330
1
100
AcDbSymbolTableRecord
100
AcDbBlockTableRecord
  2
block 3
340
0
102
{BLKREFS
331
5F
102
}
 70
     0
280
     1
281
     0
  0
BLOCK_RECORD
  5
6B
330
1
100
AcDbSymbolTableRecord
100
AcDbBlockTableRecord
  2
block 4
340
0
102
{BLKREFS
331
6C
102
}
 70
     0
280
     1
281
     0
  0
BLOCK_RECORD
  5
77
330
1
100
AcDbSymbolTableRecord
100
AcDbBlockTableRecord
  2
block 5
340
0
102
{BLKREFS
331
78
102
}
 70
     0
280
     1
281
     0
  0
BLOCK_RECORD
  5
A3
330
1
100
AcDbSymbolTableRecord
100
AcDbBlockTableRecord
  2
block 6
340
0
102
{BLKREFS
331
A4
102
}
 70
     0
280
     1
281
     0
  0
BLOCK_RECORD
  5
AF
330
1
100
AcDbSymbolTableRecord
100
AcDbBlockTableRecord
  2
block 7
340
0
102
{BLKREFS
331
B0
102
}
 70
     0
280
     1
281
     0
  0
ENDTAB
  0
ENDSEC
  0
SECTION
  2
BLOCKS
  0
BLOCK
  5
20
330
1F
100
AcDbEntity
  8
0
100
AcDbBlockBegin
  2
*Model_Space
 70
     0
 10
0.0
 20
0.0
 30
0.0
  3
*Model_Space
  1

  0
ENDBLK
  5
21
330
1F
100
AcDbEntity
  8
0
100
AcDbBlockEnd
  0
BLOCK
  5
1C
330
1B
100
AcDbEntity
 67
     1
  8
0
100
AcDbBlockBegin
  2
*Paper_Space
 70
     0
 10
0.0
 20
0.0
 30
0.0
  3
*Paper_Space
  1

  0
ENDBLK
  5
1D
330
1B
100
AcDbEntity
 67
     1
  8
0
100
AcDbBlockEnd
  0
BLOCK
  5
24
330
23
100
AcDbEntity
  8
0
100
AcDbBlockBegin
  2
*Paper_Space0
 70
     0
 10
0.0
 20
0.0
 30
0.0
  3
*Paper_Space0
  1

  0
ENDBLK
  5
25
330
23
100
AcDbEntity
  8
0
100
AcDbBlockEnd
  0
BLOCK
  5
54
330
52
100
AcDbEntity
  8
0
100
AcDbBlockBegin
  2
block 2
 70
     0
 10
0.0
 20
0.0
 30
0.0
  3
block 2
  1

  0
SPLINE
  5
56
330
52
100
AcDbEntity
  8
_U+30EC_U+30A4_U+30E4_U+30FC 1
370
     0
100
AcDbSpline
210
0.0
220
0.0
230
1.0
 70
    11
 71
     3
 72
    62
 73
    58
 74
     0
 42
0.0000000001
 43
0.0000000001
 12
1.0
 22
0.0
 32
0.0
 13
1.0
 23
0.0
 33
0.0
 40
0.0
 40
0.0
 40
0.0
 40
0.0
 40
1.0
 40
1.0
 40
1.0
 40
2.0
 40
2.0
 40
2.0
 40
3.0
 40
3.0
 40
3.0
 40
4.0
 40
4.0
 40
4.0
 40
5.0
 40
5.0
 40
5.0
 40
6.0
 40
6.0
 40
6.0
 40
7.0
 40
7.0
 40
7.0
 40
8.0
 40
8.0
 40
8.0
 40
9.0
 40
9.0
 40
9.0
 40
10.0
 40
10.0
 40
10.0
 40
11.0
 40
11.0
 40
11.0
 40
12.0
 40
12.0
 40
12.0
 40
13.0
 40
13.0
 40
13.0
 40
14.0
 40
14.0
 40
14.0
 40
15.0
 40
15.0
 40
15.0
 40
16.0
 40
16.0
 40
16.0
 40
17.0
 40
17.0
 40
17.0
 40
18.0
 40
18.0
 40
18.0
 40
19.0
 40
19.0
 40
19.0
 40
19.0
 10
65.00068357749983
 20
-128.3549560225988
 30
0.0
 10
64.90525443255841
 20
-128.3549560225988
 30
0.0
 10
64.68752439789063
 20
-128.3339409401387
 30
0.0
 10
64.56246743177606
 20
-128.1479057839352
 30
0.0
 10
64.4887423883917
 20
-128.0355956711161
 30
0.0
 10
64.48426376426089
 20
-127.9363769211409
 30
0.0
 10
64.48012964967859
 20
-127.8516275722038
 30
0.0
 10
64.48012964967859
 20
-127.8516275722038
 30
0.0
 10
64.70027125118605
 20
-127.8516275722038
 30
0.0
 10
64.70027125118605
 20
-127.8516275722038
 30
0.0
 10
64.7023383084772
 20
-127.9256971251366
 30
0.0
 10
64.71267359493295
 20
-128.1603081276822
 30
0.0
 10
64.996204953369
 20
-128.1603081276822
 30
0.0
 10
65.13366426323047
 20
-128.1603081276822
 30
0.0
 10
65.28628199322705
 20
-128.0907171988801
 30
0.0
 10
65.28628199322705
 20
-127.862307368208
 30
0.0
 10
65.28628199322705
 20
-127.7458631408066
 30
0.0
 10
65.24804143334077
 20
-127.6972872944646
 30
0.0
 10
65.21634655487647
 20
-127.6655924160003
 30
0.0
 10
65.1422770019436
 20
-127.5915228630674
 30
0.0
 10
65.02583277454215
 20
-127.578776009772
 30
0.0
 10
64.97105575632668
 20
-127.578776009772
 30
0.0
 10
64.95176322160928
 20
-127.578776009772
 30
0.0
 10
64.91593422856269
 20
-127.5808430670631
 30
0.0
 10
64.88837346468068
 20
-127.5849771816454
 30
0.0
 10
64.88837346468068
 20
-127.5849771816454
 30
0.0
 10
64.88837346468068
 20
-127.3903292867288
 30
0.0
 10
64.88837346468068
 20
-127.3903292867288
 30
0.0
 10
64.92661402456696
 20
-127.3968749681508
 30
0.0
 10
64.96864418948701
 20
-127.3989420254419
 30
0.0
 10
64.97518987090898
 20
-127.3989420254419
 30
0.0
 10
65.04064668512873
 20
-127.3989420254419
 30
0.0
 10
65.23942869462765
 20
-127.3775824334334
 30
0.0
 10
65.23942869462765
 20
-127.1409043735967
 30
0.0
 10
65.23942869462765
 20
-126.9631374465578
 30
0.0
 10
65.10851506618815
 20
-126.9080159187938
 30
0.0
 10
64.99827201066016
 20
-126.9080159187938
 30
0.0
 10
64.73403318694149
 20
-126.9080159187938
 30
0.0
 10
64.72542044822838
 20
-127.1409043735967
 30
0.0
 10
64.72128633364608
 20
-127.2125623596899
 30
0.0
 10
64.72128633364608
 20
-127.2125623596899
 30
0.0
 10
64.51802570001632
 20
-127.2125623596899
 30
0.0
 10
64.51802570001632
 20
-127.2125623596899
 30
0.0
 10
64.52663843872945
 20
-127.0878499031239
 30
0.0
 10
64.55419920261146
 20
-126.7113009665861
 30
0.0
 10
65.01101886395558
 20
-126.7113009665861
 30
0.0
 10
65.23529458004535
 20
-126.7113009665861
 30
0.0
 10
65.47645126401284
 20
-126.8384249899918
 30
0.0
 10
65.47645126401284
 20
-127.1343586921747
 30
0.0
 10
65.47645126401284
 20
-127.3207383579268
 30
0.0
 10
65.38136662861994
 20
-127.4030761400242
 30
0.0
 10
65.28180336909622
 20
-127.4643988396617
 30
0.0
 10
65.34312606873367
 20
-127.4919596035437
 30
0.0
 10
65.52502711035486
 20
-127.57223032835
 30
0.0
 10
65.52502711035486
 20
-127.8495605149126
 30
0.0
 10
65.52502711035486
 20
-128.1878688915641
 30
0.0
 10
65.27766925451392
 20
-128.3549560225988
 30
0.0
 10
65.00068357749983
 20
-128.3549560225988
 30
0.0
  0
HATCH
  5
57
330
52
100
AcDbEntity
  8
_U+30EC_U+30A4_U+30E4_U+30FC 1
 62
   179
420
  2234388
100
AcDbHatch
 10
0.0
 20
0.0
 30
0.0
210
0.0
220
0.0
230
1.0
  2
SOLID
 70
     1
 71
     0
 91
        1
 92
        1
 93
        1
 72
     4
 94
        3
 73
     0
 74
     1
 95
       62
 96
       58
 40
0.0
 40
0.0
 40
0.0
 40
0.0
 40
1.0
 40
1.0
 40
1.0
 40
2.0
 40
2.0
 40
2.0
 40
3.0
 40
3.0
 40
3.0
 40
4.0
 40
4.0
 40
4.0
 40
5.0
 40
5.0
 40
5.0
 40
6.0
 40
6.0
 40
6.0
 40
7.0
 40
7.0
 40
7.0
 40
8.0
 40
8.0
 40
8.0
 40
9.0
 40
9.0
 40
9.0
 40
10.0
 40
10.0
 40
10.0
 40
11.0
 40
11.0
 40
11.0
 40
12.0
 40
12.0
 40
12.0
 40
13.0
 40
13.0
 40
13.0
 40
14.0
 40
14.0
 40
14.0
 40
15.0
 40
15.0
 40
15.0
 40
16.0
 40
16.0
 40
16.0
 40
17.0
 40
17.0
 40
17.0
 40
18.0
 40
18.0
 40
18.0
 40
19.0
 40
19.0
 40
19.0
 40
19.0
 10
65.00068357749983
 20
-128.3549560225988
 10
64.90525443255841
 20
-128.3549560225988
 10
64.68752439789063
 20
-128.3339409401387
 10
64.56246743177606
 20
-128.1479057839352
 10
64.4887423883917
 20
-128.0355956711161
 10
64.48426376426089
 20
-127.9363769211409
 10
64.48012964967859
 20
-127.8516275722038
 10
64.48012964967859
 20
-127.8516275722038
 10
64.70027125118605
 20
-127.8516275722038
 10
64.70027125118605
 20
-127.8516275722038
 10
64.7023383084772
 20
-127.9256971251366
 10
64.71267359493295
 20
-128.1603081276822
 10
64.996204953369
 20
-128.1603081276822
 10
65.13366426323047
 20
-128.1603081276822
 10
65.28628199322705
 20
-128.0907171988801
 10
65.28628199322705
 20
-127.862307368208
 10
65.28628199322705
 20
-127.7458631408066
 10
65.24804143334077
 20
-127.6972872944646
 10
65.21634655487647
 20
-127.6655924160003
 10
65.1422770019436
 20
-127.5915228630674
 10
65.02583277454215
 20
-127.578776009772
 10
64.97105575632668
 20
-127.578776009772
 10
64.95176322160928
 20
-127.578776009772
 10
64.91593422856269
 20
-127.5808430670631
 10
64.88837346468068
 20
-127.5849771816454
 10
64.88837346468068
 20
-127.5849771816454
 10
64.88837346468068
 20
-127.3903292867288
 10
64.88837346468068
 20
-127.3903292867288
 10
64.92661402456696
 20
-127.3968749681508
 10
64.96864418948701
 20
-127.3989420254419
 10
64.97518987090898
 20
-127.3989420254419
 10
65.04064668512873
 20
-127.3989420254419
 10
65.23942869462765
 20
-127.3775824334334
 10
65.23942869462765
 20
-127.1409043735967
 10
65.23942869462765
 20
-126.9631374465578
 10
65.10851506618815
 20
-126.9080159187938
 10
64.99827201066016
 20
-126.9080159187938
 10
64.73403318694149
 20
-126.9080159187938
 10
64.72542044822838
 20
-127.1409043735967
 10
64.72128633364608
 20
-127.2125623596899
 10
64.72128633364608
 20
-127.2125623596899
 10
64.51802570001632
 20
-127.2125623596899
 10
64.51802570001632
 20
-127.2125623596899
 10
64.52663843872945
 20
-127.0878499031239
 10
64.55419920261146
 20
-126.7113009665861
 10
65.01101886395558
 20
-126.7113009665861
 10
65.23529458004535
 20
-126.7113009665861
 10
65.47645126401284
 20
-126.8384249899918
 10
65.47645126401284
 20
-127.1343586921747
 10
65.47645126401284
 20
-127.3207383579268
 10
65.38136662861994
 20
-127.4030761400242
 10
65.28180336909622
 20
-127.4643988396617
 10
65.34312606873367
 20
-127.4919596035437
 10
65.52502711035486
 20
-127.57223032835
 10
65.52502711035486
 20
-127.8495605149126
 10
65.52502711035486
 20
-128.1878688915641
 10
65.27766925451392
 20
-128.3549560225988
 10
65.00068357749983
 20
-128.3549560225988
 97
        0
 97
        0
 75
     2
 76
     1
 98
        0
  0
SPLINE
  5
58
330
52
100
AcDbEntity
  8
_U+30EC_U+30A4_U+30E4_U+30FC 1
370
     0
100
AcDbSpline
210
0.0
220
0.0
230
1.0
 70
    11
 71
     3
 72
    29
 73
    25
 74
     0
 42
0.0000000001
 43
0.0000000001
 12
1.0
 22
0.0
 32
0.0
 13
1.0
 23
0.0
 33
0.0
 40
0.0
 40
0.0
 40
0.0
 40
0.0
 40
1.0
 40
1.0
 40
1.0
 40
2.0
 40
2.0
 40
2.0
 40
3.0
 40
3.0
 40
3.0
 40
4.0
 40
4.0
 40
4.0
 40
5.0
 40
5.0
 40
5.0
 40
6.0
 40
6.0
 40
6.0
 40
7.0
 40
7.0
 40
7.0
 40
8.0
 40
8.0
 40
8.0
 40
8.0
 10
66.58370495297213
 20
-128.1265461919267
 30
0.0
 10
66.47552895473528
 20
-128.3360079974299
 30
0.0
 10
66.30224065182722
 20
-128.3549560225988
 30
0.0
 10
66.18579642442577
 20
-128.3549560225988
 30
0.0
 10
66.02491046526461
 20
-128.3549560225988
 30
0.0
 10
65.88331704082084
 20
-128.3084472335479
 30
0.0
 10
65.78823240542795
 20
-128.1265461919267
 30
0.0
 10
65.68453503132193
 20
-127.9318982970101
 30
0.0
 10
65.66558700615305
 20
-127.6948757276249
 30
0.0
 10
65.66558700615305
 20
-127.5322672207211
 30
0.0
 10
65.66558700615305
 20
-127.3882622294377
 30
0.0
 10
65.68246797403077
 20
-127.1364257494659
 30
0.0
 10
65.78823240542795
 20
-126.937643739967
 30
0.0
 10
65.89606389411627
 20
-126.7347276158858
 30
0.0
 10
66.05694985327743
 20
-126.7113009665861
 30
0.0
 10
66.18579642442577
 20
-126.7113009665861
 30
0.0
 10
66.3446153262958
 20
-126.7113009665861
 30
0.0
 10
66.4882758080307
 20
-126.7557426983458
 30
0.0
 10
66.58370495297213
 20
-126.937643739967
 30
0.0
 10
66.68292370294733
 20
-127.1302245775924
 30
0.0
 10
66.70635035224703
 20
-127.3586344082645
 30
0.0
 10
66.70635035224703
 20
-127.5322672207211
 30
0.0
 10
66.70635035224703
 20
-127.703488466338
 30
0.0
 10
66.68499076023848
 20
-127.9339653543012
 30
0.0
 10
66.58370495297213
 20
-128.1265461919267
 30
0.0
  0
SPLINE
  5
59
330
52
100
AcDbEntity
  8
_U+30EC_U+30A4_U+30E4_U+30FC 1
370
     0
100
AcDbSpline
210
0.0
220
0.0
230
1.0
 70
    11
 71
     3
 72
    17
 73
    13
 74
     0
 42
0.0000000001
 43
0.0000000001
 12
1.0
 22
0.0
 32
0.0
 13
1.0
 23
0.0
 33
0.0
 40
0.0
 40
0.0
 40
0.0
 40
0.0
 40
1.0
 40
1.0
 40
1.0
 40
2.0
 40
2.0
 40
2.0
 40
3.0
 40
3.0
 40
3.0
 40
4.0
 40
4.0
 40
4.0
 40
4.0
 10
66.18579642442577
 20
-126.9038818042115
 30
0.0
 10
65.93637151129369
 20
-126.9038818042115
 30
0.0
 10
65.88951821269428
 20
-127.1874131626476
 30
0.0
 10
65.88951821269428
 20
-127.5322672207211
 30
0.0
 10
65.88951821269428
 20
-127.8516275722038
 30
0.0
 10
65.92569171528942
 20
-128.1603081276822
 30
0.0
 10
66.18579642442577
 20
-128.1603081276822
 30
0.0
 10
66.43349878981525
 20
-128.1603081276822
 30
0.0
 10
66.48207463615726
 20
-127.8791883360858
 30
0.0
 10
66.48207463615726
 20
-127.5322672207211
 30
0.0
 10
66.48207463615726
 20
-127.2125623596899
 30
0.0
 10
66.44383407627099
 20
-126.9038818042115
 30
0.0
 10
66.18579642442577
 20
-126.9038818042115
 30
0.0
  0
HATCH
  5
5A
330
52
100
AcDbEntity
  8
_U+30EC_U+30A4_U+30E4_U+30FC 1
 62
   179
420
  2234388
100
AcDbHatch
 10
0.0
 20
0.0
 30
0.0
210
0.0
220
0.0
230
1.0
  2
SOLID
 70
     1
 71
     0
 91
        2
 92
        1
 93
        1
 72
     4
 94
        3
 73
     0
 74
     1
 95
       29
 96
       25
 40
0.0
 40
0.0
 40
0.0
 40
0.0
 40
1.0
 40
1.0
 40
1.0
 40
2.0
 40
2.0
 40
2.0
 40
3.0
 40
3.0
 40
3.0
 40
4.0
 40
4.0
 40
4.0
 40
5.0
 40
5.0
 40
5.0
 40
6.0
 40
6.0
 40
6.0
 40
7.0
 40
7.0
 40
7.0
 40
8.0
 40
8.0
 40
8.0
 40
8.0
 10
66.58370495297213
 20
-128.1265461919267
 10
66.47552895473528
 20
-128.3360079974299
 10
66.30224065182722
 20
-128.3549560225988
 10
66.18579642442577
 20
-128.3549560225988
 10
66.02491046526461
 20
-128.3549560225988
 10
65.88331704082084
 20
-128.3084472335479
 10
65.78823240542795
 20
-128.1265461919267
 10
65.68453503132193
 20
-127.9318982970101
 10
65.66558700615305
 20
-127.6948757276249
 10
65.66558700615305
 20
-127.5322672207211
 10
65.66558700615305
 20
-127.3882622294377
 10
65.68246797403077
 20
-127.1364257494659
 10
65.78823240542795
 20
-126.937643739967
 10
65.89606389411627
 20
-126.7347276158858
 10
66.05694985327743
 20
-126.7113009665861
 10
66.18579642442577
 20
-126.7113009665861
 10
66.3446153262958
 20
-126.7113009665861
 10
66.4882758080307
 20
-126.7557426983458
 10
66.58370495297213
 20
-126.937643739967
 10
66.68292370294733
 20
-127.1302245775924
 10
66.70635035224703
 20
-127.3586344082645
 10
66.70635035224703
 20
-127.5322672207211
 10
66.70635035224703
 20
-127.703488466338
 10
66.68499076023848
 20
-127.9339653543012
 10
66.58370495297213
 20
-128.1265461919267
 97
        0
 97
        0
 92
        1
 93
        1
 72
     4
 94
        3
 73
     0
 74
     1
 95
       17
 96
       13
 40
0.0
 40
0.0
 40
0.0
 40
0.0
 40
1.0
 40
1.0
 40
1.0
 40
2.0
 40
2.0
 40
2.0
 40
3.0
 40
3.0
 40
3.0
 40
4.0
 40
4.0
 40
4.0
 40
4.0
 10
66.18579642442577
 20
-126.9038818042115
 10
65.93637151129369
 20
-126.9038818042115
 10
65.88951821269428
 20
-127.1874131626476
 10
65.88951821269428
 20
-127.5322672207211
 10
65.88951821269428
 20
-127.8516275722038
 10
65.92569171528942
 20
-128.1603081276822
 10
66.18579642442577
 20
-128.1603081276822
 10
66.43349878981525
 20
-128.1603081276822
 10
66.48207463615726
 20
-127.8791883360858
 10
66.48207463615726
 20
-127.5322672207211
 10
66.48207463615726
 20
-127.2125623596899
 10
66.44383407627099
 20
-126.9038818042115
 10
66.18579642442577
 20
-126.9038818042115
 97
        0
 97
        0
 75
     2
 76
     1
 98
        0
  0
SPLINE
  5
5B
330
52
100
AcDbEntity
  8
_U+30EC_U+30A4_U+30E4_U+30FC 1
370
     0
100
AcDbSpline
210
0.0
220
0.0
230
1.0
 70
    11
 71
     3
 72
    29
 73
    25
 74
     0
 42
0.0000000001
 43
0.0000000001
 12
1.0
 22
0.0
 32
0.0
 13
1.0
 23
0.0
 33
0.0
 40
0.0
 40
0.0
 40
0.0
 40
0.0
 40
1.0
 40
1.0
 40
1.0
 40
2.0
 40
2.0
 40
2.0
 40
3.0
 40
3.0
 40
3.0
 40
4.0
 40
4.0
 40
4.0
 40
5.0
 40
5.0
 40
5.0
 40
6.0
 40
6.0
 40
6.0
 40
7.0
 40
7.0
 40
7.0
 40
8.0
 40
8.0
 40
8.0
 40
8.0
 10
67.76054957073347
 20
-128.1265461919267
 30
0.0
 10
67.65237357249663
 20
-128.3360079974299
 30
0.0
 10
67.47908526958857
 20
-128.3549560225988
 30
0.0
 10
67.36264104218712
 20
-128.3549560225988
 30
0.0
 10
67.20175508302596
 20
-128.3549560225988
 30
0.0
 10
67.06016165858219
 20
-128.3084472335479
 30
0.0
 10
66.9650770231893
 20
-128.1265461919267
 30
0.0
 10
66.86137964908328
 20
-127.9318982970101
 30
0.0
 10
66.8424316239144
 20
-127.6948757276249
 30
0.0
 10
66.8424316239144
 20
-127.5322672207211
 30
0.0
 10
66.8424316239144
 20
-127.3882622294377
 30
0.0
 10
66.85931259179212
 20
-127.1364257494659
 30
0.0
 10
66.9650770231893
 20
-126.937643739967
 30
0.0
 10
67.07290851187761
 20
-126.7347276158858
 30
0.0
 10
67.23379447103878
 20
-126.7113009665861
 30
0.0
 10
67.36264104218712
 20
-126.7113009665861
 30
0.0
 10
67.52145994405714
 20
-126.7113009665861
 30
0.0
 10
67.66512042579205
 20
-126.7557426983458
 30
0.0
 10
67.76054957073347
 20
-126.937643739967
 30
0.0
 10
67.85976832070867
 20
-127.1302245775924
 30
0.0
 10
67.88319497000838
 20
-127.3586344082645
 30
0.0
 10
67.88319497000838
 20
-127.5322672207211
 30
0.0
 10
67.88319497000838
 20
-127.703488466338
 30
0.0
 10
67.86183537799982
 20
-127.9339653543012
 30
0.0
 10
67.76054957073347
 20
-128.1265461919267
 30
0.0
  0
SPLINE
  5
5C
330
52
100
AcDbEntity
  8
_U+30EC_U+30A4_U+30E4_U+30FC 1
370
     0
100
AcDbSpline
210
0.0
220
0.0
230
1.0
 70
    11
 71
     3
 72
    17
 73
    13
 74
     0
 42
0.0000000001
 43
0.0000000001
 12
1.0
 22
0.0
 32
0.0
 13
1.0
 23
0.0
 33
0.0
 40
0.0
 40
0.0
 40
0.0
 40
0.0
 40
1.0
 40
1.0
 40
1.0
 40
2.0
 40
2.0
 40
2.0
 40
3.0
 40
3.0
 40
3.0
 40
4.0
 40
4.0
 40
4.0
 40
4.0
 10
67.36264104218712
 20
-126.9038818042115
 30
0.0
 10
67.11321612905503
 20
-126.9038818042115
 30
0.0
 10
67.06636283045563
 20
-127.1874131626476
 30
0.0
 10
67.06636283045563
 20
-127.5322672207211
 30
0.0
 10
67.06636283045563
 20
-127.8516275722038
 30
0.0
 10
67.10253633305076
 20
-128.1603081276822
 30
0.0
 10
67.36264104218712
 20
-128.1603081276822
 30
0.0
 10
67.61034340757658
 20
-128.1603081276822
 30
0.0
 10
67.65891925391861
 20
-127.8791883360858
 30
0.0
 10
67.65891925391861
 20
-127.5322672207211
 30
0.0
 10
67.65891925391861
 20
-127.2125623596899
 30
0.0
 10
67.62067869403234
 20
-126.9038818042115
 30
0.0
 10
67.36264104218712
 20
-126.9038818042115
 30
0.0
  0
HATCH
  5
5D
330
52
100
AcDbEntity
  8
_U+30EC_U+30A4_U+30E4_U+30FC 1
 62
   179
420
  2234388
100
AcDbHatch
 10
0.0
 20
0.0
 30
0.0
210
0.0
220
0.0
230
1.0
  2
SOLID
 70
     1
 71
     0
 91
        2
 92
        1
 93
        1
 72
     4
 94
        3
 73
     0
 74
     1
 95
       29
 96
       25
 40
0.0
 40
0.0
 40
0.0
 40
0.0
 40
1.0
 40
1.0
 40
1.0
 40
2.0
 40
2.0
 40
2.0
 40
3.0
 40
3.0
 40
3.0
 40
4.0
 40
4.0
 40
4.0
 40
5.0
 40
5.0
 40
5.0
 40
6.0
 40
6.0
 40
6.0
 40
7.0
 40
7.0
 40
7.0
 40
8.0
 40
8.0
 40
8.0
 40
8.0
 10
67.76054957073347
 20
-128.1265461919267
 10
67.65237357249663
 20
-128.3360079974299
 10
67.47908526958857
 20
-128.3549560225988
 10
67.36264104218712
 20
-128.3549560225988
 10
67.20175508302596
 20
-128.3549560225988
 10
67.06016165858219
 20
-128.3084472335479
 10
66.9650770231893
 20
-128.1265461919267
 10
66.86137964908328
 20
-127.9318982970101
 10
66.8424316239144
 20
-127.6948757276249
 10
66.8424316239144
 20
-127.5322672207211
 10
66.8424316239144
 20
-127.3882622294377
 10
66.85931259179212
 20
-127.1364257494659
 10
66.9650770231893
 20
-126.937643739967
 10
67.07290851187761
 20
-126.7347276158858
 10
67.23379447103878
 20
-126.7113009665861
 10
67.36264104218712
 20
-126.7113009665861
 10
67.52145994405714
 20
-126.7113009665861
 10
67.66512042579205
 20
-126.7557426983458
 10
67.76054957073347
 20
-126.937643739967
 10
67.85976832070867
 20
-127.1302245775924
 10
67.88319497000838
 20
-127.3586344082645
 10
67.88319497000838
 20
-127.5322672207211
 10
67.88319497000838
 20
-127.703488466338
 10
67.86183537799982
 20
-127.9339653543012
 10
67.76054957073347
 20
-128.1265461919267
 97
        0
 97
        0
 92
        1
 93
        1
 72
     4
 94
        3
 73
     0
 74
     1
 95
       17
 96
       13
 40
0.0
 40
0.0
 40
0.0
 40
0.0
 40
1.0
 40
1.0
 40
1.0
 40
2.0
 40
2.0
 40
2.0
 40
3.0
 40
3.0
 40
3.0
 40
4.0
 40
4.0
 40
4.0
 40
4.0
 10
67.36264104218712
 20
-126.9038818042115
 10
67.11321612905503
 20
-126.9038818042115
 10
67.06636283045563
 20
-127.1874131626476
 10
67.06636283045563
 20
-127.5322672207211
 10
67.06636283045563
 20
-127.8516275722038
 10
67.10253633305076
 20
-128.1603081276822
 10
67.36264104218712
 20
-128.1603081276822
 10
67.61034340757658
 20
-128.1603081276822
 10
67.65891925391861
 20
-127.8791883360858
 10
67.65891925391861
 20
-127.5322672207211
 10
67.65891925391861
 20
-127.2125623596899
 10
67.62067869403234
 20
-126.9038818042115
 10
67.36264104218712
 20
-126.9038818042115
 97
        0
 97
        0
 75
     2
 76
     1
 98
        0
  0
ENDBLK
  5
55
330
52
100
AcDbEntity
  8
0
100
AcDbBlockEnd
  0
BLOCK
  5
60
330
5E
100
AcDbEntity
  8
0
100
AcDbBlockBegin
  2
block 3
 70
     0
 10
0.0
 20
0.0
 30
0.0
  3
block 3
  1

  0
SPLINE
  5
62
330
5E
100
AcDbEntity
  8
_U+30EC_U+30A4_U+30E4_U+30FC 1
370
     0
100
AcDbSpline
210
0.0
220
0.0
230
1.0
 70
    11
 71
     3
 72
    32
 73
    28
 74
     0
 42
0.0000000001
 43
0.0000000001
 12
1.0
 22
0.0
 32
0.0
 13
1.0
 23
0.0
 33
0.0
 40
0.0
 40
0.0
 40
0.0
 40
0.0
 40
1.0
 40
1.0
 40
1.0
 40
2.0
 40
2.0
 40
2.0
 40
3.0
 40
3.0
 40
3.0
 40
4.0
 40
4.0
 40
4.0
 40
5.0
 40
5.0
 40
5.0
 40
6.0
 40
6.0
 40
6.0
 40
7.0
 40
7.0
 40
7.0
 40
8.0
 40
8.0
 40
8.0
 40
9.0
 40
9.0
 40
9.0
 40
9.0
 10
95.1755859137061
 20
-136.527756042257
 30
0.0
 10
94.65951061001569
 20
-136.527756042257
 30
0.0
 10
94.65124238085109
 20
-135.9737846882288
 30
0.0
 10
94.65124238085109
 20
-135.7598442585948
 30
0.0
 10
94.65124238085109
 20
-135.5293673706315
 30
0.0
 10
94.67053491556848
 20
-134.8820339289531
 30
0.0
 10
95.2141709831409
 20
-134.8820339289531
 30
0.0
 10
95.38711477650045
 20
-134.8820339289531
 30
0.0
 10
95.63309459414728
 20
-134.9519693673037
 30
0.0
 10
95.67099064448503
 20
-135.2840765720818
 30
0.0
 10
95.67099064448503
 20
-135.2840765720818
 30
0.0
 10
95.45739472439955
 20
-135.2840765720818
 30
0.0
 10
95.45739472439955
 20
-135.2840765720818
 30
0.0
 10
95.44637041884674
 20
-135.2268879870266
 30
0.0
 10
95.41467554038245
 20
-135.0787488811609
 30
0.0
 10
95.21210392584976
 20
-135.0787488811609
 30
0.0
 10
94.91995982870057
 20
-135.0787488811609
 30
0.0
 10
94.87999672107168
 20
-135.4067219713567
 30
0.0
 10
94.86690535822773
 20
-135.611705152729
 30
0.0
 10
94.95992293632946
 20
-135.5335014852139
 30
0.0
 10
95.02813582693742
 20
-135.4742458428676
 30
0.0
 10
95.2100368685586
 20
-135.4742458428676
 30
0.0
 10
95.38987085288865
 20
-135.4742458428676
 30
0.0
 10
95.69235023649358
 20
-135.5824218411044
 30
0.0
 10
95.69235023649358
 20
-135.9885985988153
 30
0.0
 10
95.69235023649358
 20
-136.307958950298
 30
0.0
 10
95.49322371744614
 20
-136.527756042257
 30
0.0
 10
95.1755859137061
 20
-136.527756042257
 30
0.0
  0
SPLINE
  5
63
330
5E
100
AcDbEntity
  8
_U+30EC_U+30A4_U+30E4_U+30FC 1
370
     0
100
AcDbSpline
210
0.0
220
0.0
230
1.0
 70
    11
 71
     3
 72
    17
 73
    13
 74
     0
 42
0.0000000001
 43
0.0000000001
 12
1.0
 22
0.0
 32
0.0
 13
1.0
 23
0.0
 33
0.0
 40
0.0
 40
0.0
 40
0.0
 40
0.0
 40
1.0
 40
1.0
 40
1.0
 40
2.0
 40
2.0
 40
2.0
 40
3.0
 40
3.0
 40
3.0
 40
4.0
 40
4.0
 40
4.0
 40
4.0
 10
95.19281139113235
 20
-135.6688937377842
 30
0.0
 10
94.93029511515633
 20
-135.6688937377842
 30
0.0
 10
94.89239906481858
 20
-135.8804226005785
 30
0.0
 10
94.89239906481858
 20
-135.9968668279799
 30
0.0
 10
94.89239906481858
 20
-136.1725666977277
 30
0.0
 10
94.98748370021147
 20
-136.33551971418
 30
0.0
 10
95.1714517991238
 20
-136.33551971418
 30
0.0
 10
95.29203014110755
 20
-136.33551971418
 30
0.0
 10
95.46773001085529
 20
-136.2762640718337
 30
0.0
 10
95.46773001085529
 20
-135.9906656561065
 30
0.0
 10
95.46773001085529
 20
-135.7663899400168
 30
0.0
 10
95.32785913415415
 20
-135.6688937377842
 30
0.0
 10
95.19281139113235
 20
-135.6688937377842
 30
0.0
  0
HATCH
  5
64
330
5E
100
AcDbEntity
  8
_U+30EC_U+30A4_U+30E4_U+30FC 1
 62
   179
420
  2234388
100
AcDbHatch
 10
0.0
 20
0.0
 30
0.0
210
0.0
220
0.0
230
1.0
  2
SOLID
 70
     1
 71
     0
 91
        2
 92
        1
 93
        1
 72
     4
 94
        3
 73
     0
 74
     1
 95
       32
 96
       28
 40
0.0
 40
0.0
 40
0.0
 40
0.0
 40
1.0
 40
1.0
 40
1.0
 40
2.0
 40
2.0
 40
2.0
 40
3.0
 40
3.0
 40
3.0
 40
4.0
 40
4.0
 40
4.0
 40
5.0
 40
5.0
 40
5.0
 40
6.0
 40
6.0
 40
6.0
 40
7.0
 40
7.0
 40
7.0
 40
8.0
 40
8.0
 40
8.0
 40
9.0
 40
9.0
 40
9.0
 40
9.0
 10
95.1755859137061
 20
-136.527756042257
 10
94.65951061001569
 20
-136.527756042257
 10
94.65124238085109
 20
-135.9737846882288
 10
94.65124238085109
 20
-135.7598442585948
 10
94.65124238085109
 20
-135.5293673706315
 10
94.67053491556848
 20
-134.8820339289531
 10
95.2141709831409
 20
-134.8820339289531
 10
95.38711477650045
 20
-134.8820339289531
 10
95.63309459414728
 20
-134.9519693673037
 10
95.67099064448503
 20
-135.2840765720818
 10
95.67099064448503
 20
-135.2840765720818
 10
95.45739472439955
 20
-135.2840765720818
 10
95.45739472439955
 20
-135.2840765720818
 10
95.44637041884674
 20
-135.2268879870266
 10
95.41467554038245
 20
-135.0787488811609
 10
95.21210392584976
 20
-135.0787488811609
 10
94.91995982870057
 20
-135.0787488811609
 10
94.87999672107168
 20
-135.4067219713567
 10
94.86690535822773
 20
-135.611705152729
 10
94.95992293632946
 20
-135.5335014852139
 10
95.02813582693742
 20
-135.4742458428676
 10
95.2100368685586
 20
-135.4742458428676
 10
95.38987085288865
 20
-135.4742458428676
 10
95.69235023649358
 20
-135.5824218411044
 10
95.69235023649358
 20
-135.9885985988153
 10
95.69235023649358
 20
-136.307958950298
 10
95.49322371744614
 20
-136.527756042257
 10
95.1755859137061
 20
-136.527756042257
 97
        0
 97
        0
 92
        1
 93
        1
 72
     4
 94
        3
 73
     0
 74
     1
 95
       17
 96
       13
 40
0.0
 40
0.0
 40
0.0
 40
0.0
 40
1.0
 40
1.0
 40
1.0
 40
2.0
 40
2.0
 40
2.0
 40
3.0
 40
3.0
 40
3.0
 40
4.0
 40
4.0
 40
4.0
 40
4.0
 10
95.19281139113235
 20
-135.6688937377842
 10
94.93029511515633
 20
-135.6688937377842
 10
94.89239906481858
 20
-135.8804226005785
 10
94.89239906481858
 20
-135.9968668279799
 10
94.89239906481858
 20
-136.1725666977277
 10
94.98748370021147
 20
-136.33551971418
 10
95.1714517991238
 20
-136.33551971418
 10
95.29203014110755
 20
-136.33551971418
 10
95.46773001085529
 20
-136.2762640718337
 10
95.46773001085529
 20
-135.9906656561065
 10
95.46773001085529
 20
-135.7663899400168
 10
95.32785913415415
 20
-135.6688937377842
 10
95.19281139113235
 20
-135.6688937377842
 97
        0
 97
        0
 75
     2
 76
     1
 98
        0
  0
SPLINE
  5
65
330
5E
100
AcDbEntity
  8
_U+30EC_U+30A4_U+30E4_U+30FC 1
370
     0
100
AcDbSpline
210
0.0
220
0.0
230
1.0
 70
    11
 71
     3
 72
    29
 73
    25
 74
     0
 42
0.0000000001
 43
0.0000000001
 12
1.0
 22
0.0
 32
0.0
 13
1.0
 23
0.0
 33
0.0
 40
0.0
 40
0.0
 40
0.0
 40
0.0
 40
1.0
 40
1.0
 40
1.0
 40
2.0
 40
2.0
 40
2.0
 40
3.0
 40
3.0
 40
3.0
 40
4.0
 40
4.0
 40
4.0
 40
5.0
 40
5.0
 40
5.0
 40
6.0
 40
6.0
 40
6.0
 40
7.0
 40
7.0
 40
7.0
 40
8.0
 40
8.0
 40
8.0
 40
8.0
 10
96.74654945498003
 20
-136.2993462115849
 30
0.0
 10
96.6383734567432
 20
-136.5088080170881
 30
0.0
 10
96.4647406442866
 20
-136.527756042257
 30
0.0
 10
96.34829641688515
 20
-136.527756042257
 30
0.0
 10
96.18775496727251
 20
-136.527756042257
 30
0.0
 10
96.04581703328022
 20
-136.4812472532061
 30
0.0
 10
95.95073239788732
 20
-136.2993462115849
 30
0.0
 10
95.84737953332983
 20
-136.1046983166683
 30
0.0
 10
95.82808699861242
 20
-135.8676757472831
 30
0.0
 10
95.82808699861242
 20
-135.7050672403793
 30
0.0
 10
95.82808699861242
 20
-135.5610622490958
 30
0.0
 10
95.84531247603867
 20
-135.3092257691241
 30
0.0
 10
95.95073239788732
 20
-135.1104437596252
 30
0.0
 10
96.05890839612417
 20
-134.907527635544
 30
0.0
 10
96.2194498457368
 20
-134.8841009862442
 30
0.0
 10
96.34829641688515
 20
-134.8841009862442
 30
0.0
 10
96.5074598283037
 20
-134.8841009862442
 30
0.0
 10
96.6507758004901
 20
-134.928542718004
 30
0.0
 10
96.74654945498003
 20
-135.1104437596252
 30
0.0
 10
96.84576820495523
 20
-135.3030245972506
 30
0.0
 10
96.86919485425493
 20
-135.5314344279227
 30
0.0
 10
96.86919485425493
 20
-135.7050672403793
 30
0.0
 10
96.86919485425493
 20
-135.8762884859962
 30
0.0
 10
96.84783526224638
 20
-136.1067653739594
 30
0.0
 10
96.74654945498003
 20
-136.2993462115849
 30
0.0
  0
SPLINE
  5
66
330
5E
100
AcDbEntity
  8
_U+30EC_U+30A4_U+30E4_U+30FC 1
370
     0
100
AcDbSpline
210
0.0
220
0.0
230
1.0
 70
    11
 71
     3
 72
    17
 73
    13
 74
     0
 42
0.0000000001
 43
0.0000000001
 12
1.0
 22
0.0
 32
0.0
 13
1.0
 23
0.0
 33
0.0
 40
0.0
 40
0.0
 40
0.0
 40
0.0
 40
1.0
 40
1.0
 40
1.0
 40
2.0
 40
2.0
 40
2.0
 40
3.0
 40
3.0
 40
3.0
 40
4.0
 40
4.0
 40
4.0
 40
4.0
 10
96.34829641688515
 20
-135.0766818238697
 30
0.0
 10
96.09887150375306
 20
-135.0766818238697
 30
0.0
 10
96.05201820515367
 20
-135.3602131823058
 30
0.0
 10
96.05201820515367
 20
-135.7050672403793
 30
0.0
 10
96.05201820515367
 20
-136.024427591862
 30
0.0
 10
96.08853621729732
 20
-136.3331081473403
 30
0.0
 10
96.34829641688515
 20
-136.3331081473403
 30
0.0
 10
96.59634329182315
 20
-136.3331081473403
 30
0.0
 10
96.64457462861664
 20
-136.051988355744
 30
0.0
 10
96.64457462861664
 20
-135.7050672403793
 30
0.0
 10
96.64457462861664
 20
-135.3853623793481
 30
0.0
 10
96.60667857827889
 20
-135.0766818238697
 30
0.0
 10
96.34829641688515
 20
-135.0766818238697
 30
0.0
  0
HATCH
  5
67
330
5E
100
AcDbEntity
  8
_U+30EC_U+30A4_U+30E4_U+30FC 1
 62
   179
420
  2234388
100
AcDbHatch
 10
0.0
 20
0.0
 30
0.0
210
0.0
220
0.0
230
1.0
  2
SOLID
 70
     1
 71
     0
 91
        2
 92
        1
 93
        1
 72
     4
 94
        3
 73
     0
 74
     1
 95
       29
 96
       25
 40
0.0
 40
0.0
 40
0.0
 40
0.0
 40
1.0
 40
1.0
 40
1.0
 40
2.0
 40
2.0
 40
2.0
 40
3.0
 40
3.0
 40
3.0
 40
4.0
 40
4.0
 40
4.0
 40
5.0
 40
5.0
 40
5.0
 40
6.0
 40
6.0
 40
6.0
 40
7.0
 40
7.0
 40
7.0
 40
8.0
 40
8.0
 40
8.0
 40
8.0
 10
96.74654945498003
 20
-136.2993462115849
 10
96.6383734567432
 20
-136.5088080170881
 10
96.4647406442866
 20
-136.527756042257
 10
96.34829641688515
 20
-136.527756042257
 10
96.18775496727251
 20
-136.527756042257
 10
96.04581703328022
 20
-136.4812472532061
 10
95.95073239788732
 20
-136.2993462115849
 10
95.84737953332983
 20
-136.1046983166683
 10
95.82808699861242
 20
-135.8676757472831
 10
95.82808699861242
 20
-135.7050672403793
 10
95.82808699861242
 20
-135.5610622490958
 10
95.84531247603867
 20
-135.3092257691241
 10
95.95073239788732
 20
-135.1104437596252
 10
96.05890839612417
 20
-134.907527635544
 10
96.2194498457368
 20
-134.8841009862442
 10
96.34829641688515
 20
-134.8841009862442
 10
96.5074598283037
 20
-134.8841009862442
 10
96.6507758004901
 20
-134.928542718004
 10
96.74654945498003
 20
-135.1104437596252
 10
96.84576820495523
 20
-135.3030245972506
 10
96.86919485425493
 20
-135.5314344279227
 10
96.86919485425493
 20
-135.7050672403793
 10
96.86919485425493
 20
-135.8762884859962
 10
96.84783526224638
 20
-136.1067653739594
 10
96.74654945498003
 20
-136.2993462115849
 97
        0
 97
        0
 92
        1
 93
        1
 72
     4
 94
        3
 73
     0
 74
     1
 95
       17
 96
       13
 40
0.0
 40
0.0
 40
0.0
 40
0.0
 40
1.0
 40
1.0
 40
1.0
 40
2.0
 40
2.0
 40
2.0
 40
3.0
 40
3.0
 40
3.0
 40
4.0
 40
4.0
 40
4.0
 40
4.0
 10
96.34829641688515
 20
-135.0766818238697
 10
96.09887150375306
 20
-135.0766818238697
 10
96.05201820515367
 20
-135.3602131823058
 10
96.05201820515367
 20
-135.7050672403793
 10
96.05201820515367
 20
-136.024427591862
 10
96.08853621729732
 20
-136.3331081473403
 10
96.34829641688515
 20
-136.3331081473403
 10
96.59634329182315
 20
-136.3331081473403
 10
96.64457462861664
 20
-136.051988355744
 10
96.64457462861664
 20
-135.7050672403793
 10
96.64457462861664
 20
-135.3853623793481
 10
96.60667857827889
 20
-135.0766818238697
 10
96.34829641688515
 20
-135.0766818238697
 97
        0
 97
        0
 75
     2
 76
     1
 98
        0
  0
SPLINE
  5
68
330
5E
100
AcDbEntity
  8
_U+30EC_U+30A4_U+30E4_U+30FC 1
370
     0
100
AcDbSpline
210
0.0
220
0.0
230
1.0
 70
    11
 71
     3
 72
    29
 73
    25
 74
     0
 42
0.0000000001
 43
0.0000000001
 12
1.0
 22
0.0
 32
0.0
 13
1.0
 23
0.0
 33
0.0
 40
0.0
 40
0.0
 40
0.0
 40
0.0
 40
1.0
 40
1.0
 40
1.0
 40
2.0
 40
2.0
 40
2.0
 40
3.0
 40
3.0
 40
3.0
 40
4.0
 40
4.0
 40
4.0
 40
5.0
 40
5.0
 40
5.0
 40
6.0
 40
6.0
 40
6.0
 40
7.0
 40
7.0
 40
7.0
 40
8.0
 40
8.0
 40
8.0
 40
8.0
 10
97.92339407274137
 20
-136.2993462115849
 30
0.0
 10
97.81521807450453
 20
-136.5088080170881
 30
0.0
 10
97.64158526204794
 20
-136.527756042257
 30
0.0
 10
97.5251410346465
 20
-136.527756042257
 30
0.0
 10
97.36459958503386
 20
-136.527756042257
 30
0.0
 10
97.22266165104156
 20
-136.4812472532061
 30
0.0
 10
97.12757701564867
 20
-136.2993462115849
 30
0.0
 10
97.02422415109118
 20
-136.1046983166683
 30
0.0
 10
97.00493161637377
 20
-135.8676757472831
 30
0.0
 10
97.00493161637377
 20
-135.7050672403793
 30
0.0
 10
97.00493161637377
 20
-135.5610622490958
 30
0.0
 10
97.02215709380002
 20
-135.3092257691241
 30
0.0
 10
97.12757701564867
 20
-135.1104437596252
 30
0.0
 10
97.23575301388551
 20
-134.907527635544
 30
0.0
 10
97.39629446349815
 20
-134.8841009862442
 30
0.0
 10
97.5251410346465
 20
-134.8841009862442
 30
0.0
 10
97.68430444606504
 20
-134.8841009862442
 30
0.0
 10
97.82762041825143
 20
-134.928542718004
 30
0.0
 10
97.92339407274137
 20
-135.1104437596252
 30
0.0
 10
98.02261282271657
 20
-135.3030245972506
 30
0.0
 10
98.04603947201628
 20
-135.5314344279227
 30
0.0
 10
98.04603947201628
 20
-135.7050672403793
 30
0.0
 10
98.04603947201628
 20
-135.8762884859962
 30
0.0
 10
98.02467988000772
 20
-136.1067653739594
 30
0.0
 10
97.92339407274137
 20
-136.2993462115849
 30
0.0
  0
SPLINE
  5
69
330
5E
100
AcDbEntity
  8
_U+30EC_U+30A4_U+30E4_U+30FC 1
370
     0
100
AcDbSpline
210
0.0
220
0.0
230
1.0
 70
    11
 71
     3
 72
    17
 73
    13
 74
     0
 42
0.0000000001
 43
0.0000000001
 12
1.0
 22
0.0
 32
0.0
 13
1.0
 23
0.0
 33
0.0
 40
0.0
 40
0.0
 40
0.0
 40
0.0
 40
1.0
 40
1.0
 40
1.0
 40
2.0
 40
2.0
 40
2.0
 40
3.0
 40
3.0
 40
3.0
 40
4.0
 40
4.0
 40
4.0
 40
4.0
 10
97.5251410346465
 20
-135.0766818238697
 30
0.0
 10
97.2757161215144
 20
-135.0766818238697
 30
0.0
 10
97.228862822915
 20
-135.3602131823058
 30
0.0
 10
97.228862822915
 20
-135.7050672403793
 30
0.0
 10
97.228862822915
 20
-136.024427591862
 30
0.0
 10
97.26538083505866
 20
-136.3331081473403
 30
0.0
 10
97.5251410346465
 20
-136.3331081473403
 30
0.0
 10
97.77318790958448
 20
-136.3331081473403
 30
0.0
 10
97.82141924637799
 20
-136.051988355744
 30
0.0
 10
97.82141924637799
 20
-135.7050672403793
 30
0.0
 10
97.82141924637799
 20
-135.3853623793481
 30
0.0
 10
97.78352319604024
 20
-135.0766818238697
 30
0.0
 10
97.5251410346465
 20
-135.0766818238697
 30
0.0
  0
HATCH
  5
6A
330
5E
100
AcDbEntity
  8
_U+30EC_U+30A4_U+30E4_U+30FC 1
 62
   179
420
  2234388
100
AcDbHatch
 10
0.0
 20
0.0
 30
0.0
210
0.0
220
0.0
230
1.0
  2
SOLID
 70
     1
 71
     0
 91
        2
 92
        1
 93
        1
 72
     4
 94
        3
 73
     0
 74
     1
 95
       29
 96
       25
 40
0.0
 40
0.0
 40
0.0
 40
0.0
 40
1.0
 40
1.0
 40
1.0
 40
2.0
 40
2.0
 40
2.0
 40
3.0
 40
3.0
 40
3.0
 40
4.0
 40
4.0
 40
4.0
 40
5.0
 40
5.0
 40
5.0
 40
6.0
 40
6.0
 40
6.0
 40
7.0
 40
7.0
 40
7.0
 40
8.0
 40
8.0
 40
8.0
 40
8.0
 10
97.92339407274137
 20
-136.2993462115849
 10
97.81521807450453
 20
-136.5088080170881
 10
97.64158526204794
 20
-136.527756042257
 10
97.5251410346465
 20
-136.527756042257
 10
97.36459958503386
 20
-136.527756042257
 10
97.22266165104156
 20
-136.4812472532061
 10
97.12757701564867
 20
-136.2993462115849
 10
97.02422415109118
 20
-136.1046983166683
 10
97.00493161637377
 20
-135.8676757472831
 10
97.00493161637377
 20
-135.7050672403793
 10
97.00493161637377
 20
-135.5610622490958
 10
97.02215709380002
 20
-135.3092257691241
 10
97.12757701564867
 20
-135.1104437596252
 10
97.23575301388551
 20
-134.907527635544
 10
97.39629446349815
 20
-134.8841009862442
 10
97.5251410346465
 20
-134.8841009862442
 10
97.68430444606504
 20
-134.8841009862442
 10
97.82762041825143
 20
-134.928542718004
 10
97.92339407274137
 20
-135.1104437596252
 10
98.02261282271657
 20
-135.3030245972506
 10
98.04603947201628
 20
-135.5314344279227
 10
98.04603947201628
 20
-135.7050672403793
 10
98.04603947201628
 20
-135.8762884859962
 10
98.02467988000772
 20
-136.1067653739594
 10
97.92339407274137
 20
-136.2993462115849
 97
        0
 97
        0
 92
        1
 93
        1
 72
     4
 94
        3
 73
     0
 74
     1
 95
       17
 96
       13
 40
0.0
 40
0.0
 40
0.0
 40
0.0
 40
1.0
 40
1.0
 40
1.0
 40
2.0
 40
2.0
 40
2.0
 40
3.0
 40
3.0
 40
3.0
 40
4.0
 40
4.0
 40
4.0
 40
4.0
 10
97.5251410346465
 20
-135.0766818238697
 10
97.2757161215144
 20
-135.0766818238697
 10
97.228862822915
 20
-135.3602131823058
 10
97.228862822915
 20
-135.7050672403793
 10
97.228862822915
 20
-136.024427591862
 10
97.26538083505866
 20
-136.3331081473403
 10
97.5251410346465
 20
-136.3331081473403
 10
97.77318790958448
 20
-136.3331081473403
 10
97.82141924637799
 20
-136.051988355744
 10
97.82141924637799
 20
-135.7050672403793
 10
97.82141924637799
 20
-135.3853623793481
 10
97.78352319604024
 20
-135.0766818238697
 10
97.5251410346465
 20
-135.0766818238697
 97
        0
 97
        0
 75
     2
 76
     1
 98
        0
  0
ENDBLK
  5
61
330
5E
100
AcDbEntity
  8
0
100
AcDbBlockEnd
  0
BLOCK
  5
6D
330
6B
100
AcDbEntity
  8
0
100
AcDbBlockBegin
  2
block 4
 70
     0
 10
0.0
 20
0.0
 30
0.0
  3
block 4
  1

  0
SPLINE
  5
6F
330
6B
100
AcDbEntity
  8
_U+30EC_U+30A4_U+30E4_U+30FC 1
370
     0
100
AcDbSpline
210
0.0
220
0.0
230
1.0
 70
    11
 71
     3
 72
    62
 73
    58
 74
     0
 42
0.0000000001
 43
0.0000000001
 12
1.0
 22
0.0
 32
0.0
 13
1.0
 23
0.0
 33
0.0
 40
0.0
 40
0.0
 40
0.0
 40
0.0
 40
1.0
 40
1.0
 40
1.0
 40
2.0
 40
2.0
 40
2.0
 40
3.0
 40
3.0
 40
3.0
 40
4.0
 40
4.0
 40
4.0
 40
5.0
 40
5.0
 40
5.0
 40
6.0
 40
6.0
 40
6.0
 40
7.0
 40
7.0
 40
7.0
 40
8.0
 40
8.0
 40
8.0
 40
9.0
 40
9.0
 40
9.0
 40
10.0
 40
10.0
 40
10.0
 40
11.0
 40
11.0
 40
11.0
 40
12.0
 40
12.0
 40
12.0
 40
13.0
 40
13.0
 40
13.0
 40
14.0
 40
14.0
 40
14.0
 40
15.0
 40
15.0
 40
15.0
 40
16.0
 40
16.0
 40
16.0
 40
17.0
 40
17.0
 40
17.0
 40
18.0
 40
18.0
 40
18.0
 40
19.0
 40
19.0
 40
19.0
 40
19.0
 10
98.33783905961694
 20
-116.8311116244381
 30
0.0
 10
98.24240991467552
 20
-116.8311116244381
 30
0.0
 10
98.02467988000772
 20
-116.810096541978
 30
0.0
 10
97.89962291389315
 20
-116.6240613857745
 30
0.0
 10
97.82589787050881
 20
-116.5117512729554
 30
0.0
 10
97.82141924637799
 20
-116.4125325229802
 30
0.0
 10
97.81728513179569
 20
-116.3277831740431
 30
0.0
 10
97.81728513179569
 20
-116.3277831740431
 30
0.0
 10
98.03742673330315
 20
-116.3277831740431
 30
0.0
 10
98.03742673330315
 20
-116.3277831740431
 30
0.0
 10
98.03949379059429
 20
-116.4018527269759
 30
0.0
 10
98.04982907705005
 20
-116.6364637295214
 30
0.0
 10
98.33336043548611
 20
-116.6364637295214
 30
0.0
 10
98.47081974534758
 20
-116.6364637295214
 30
0.0
 10
98.62343747534415
 20
-116.5668728007194
 30
0.0
 10
98.62343747534415
 20
-116.3384629700473
 30
0.0
 10
98.62343747534415
 20
-116.2220187426459
 30
0.0
 10
98.58519691545787
 20
-116.1734428963039
 30
0.0
 10
98.55350203699358
 20
-116.1417480178396
 30
0.0
 10
98.47943248406071
 20
-116.0676784649067
 30
0.0
 10
98.36298825665926
 20
-116.0549316116113
 30
0.0
 10
98.30821123844379
 20
-116.0549316116113
 30
0.0
 10
98.28891870372638
 20
-116.0549316116113
 30
0.0
 10
98.25308971067979
 20
-116.0569986689024
 30
0.0
 10
98.2255289467978
 20
-116.0611327834847
 30
0.0
 10
98.2255289467978
 20
-116.0611327834847
 30
0.0
 10
98.2255289467978
 20
-115.8664848885681
 30
0.0
 10
98.2255289467978
 20
-115.8664848885681
 30
0.0
 10
98.26376950668406
 20
-115.8730305699901
 30
0.0
 10
98.3057996716041
 20
-115.8750976272812
 30
0.0
 10
98.31234535302609
 20
-115.8750976272812
 30
0.0
 10
98.37780216724583
 20
-115.8750976272812
 30
0.0
 10
98.57658417674475
 20
-115.8537380352727
 30
0.0
 10
98.57658417674475
 20
-115.617059975436
 30
0.0
 10
98.57658417674475
 20
-115.4392930483971
 30
0.0
 10
98.44567054830526
 20
-115.3841715206331
 30
0.0
 10
98.33542749277726
 20
-115.3841715206331
 30
0.0
 10
98.0711886690586
 20
-115.3841715206331
 30
0.0
 10
98.06257593034547
 20
-115.617059975436
 30
0.0
 10
98.05844181576317
 20
-115.6887179615292
 30
0.0
 10
98.05844181576317
 20
-115.6887179615292
 30
0.0
 10
97.85518118213344
 20
-115.6887179615292
 30
0.0
 10
97.85518118213344
 20
-115.6887179615292
 30
0.0
 10
97.86379392084656
 20
-115.5640055049632
 30
0.0
 10
97.89135468472855
 20
-115.1874565684254
 30
0.0
 10
98.34817434607268
 20
-115.1874565684254
 30
0.0
 10
98.57245006216245
 20
-115.1874565684254
 30
0.0
 10
98.81360674612993
 20
-115.3145805918311
 30
0.0
 10
98.81360674612993
 20
-115.610514294014
 30
0.0
 10
98.81360674612993
 20
-115.7968939597661
 30
0.0
 10
98.71852211073704
 20
-115.8792317418635
 30
0.0
 10
98.61895885121332
 20
-115.940554441501
 30
0.0
 10
98.68028155085076
 20
-115.968115205383
 30
0.0
 10
98.86218259247195
 20
-116.0483859301893
 30
0.0
 10
98.86218259247195
 20
-116.3257161167519
 30
0.0
 10
98.86218259247195
 20
-116.6640244934034
 30
0.0
 10
98.61482473663102
 20
-116.8311116244381
 30
0.0
 10
98.33783905961694
 20
-116.8311116244381
 30
0.0
  0
HATCH
  5
70
330
6B
100
AcDbEntity
  8
_U+30EC_U+30A4_U+30E4_U+30FC 1
 62
   179
420
  2234388
100
AcDbHatch
 10
0.0
 20
0.0
 30
0.0
210
0.0
220
0.0
230
1.0
  2
SOLID
 70
     1
 71
     0
 91
        1
 92
        1
 93
        1
 72
     4
 94
        3
 73
     0
 74
     1
 95
       62
 96
       58
 40
0.0
 40
0.0
 40
0.0
 40
0.0
 40
1.0
 40
1.0
 40
1.0
 40
2.0
 40
2.0
 40
2.0
 40
3.0
 40
3.0
 40
3.0
 40
4.0
 40
4.0
 40
4.0
 40
5.0
 40
5.0
 40
5.0
 40
6.0
 40
6.0
 40
6.0
 40
7.0
 40
7.0
 40
7.0
 40
8.0
 40
8.0
 40
8.0
 40
9.0
 40
9.0
 40
9.0
 40
10.0
 40
10.0
 40
10.0
 40
11.0
 40
11.0
 40
11.0
 40
12.0
 40
12.0
 40
12.0
 40
13.0
 40
13.0
 40
13.0
 40
14.0
 40
14.0
 40
14.0
 40
15.0
 40
15.0
 40
15.0
 40
16.0
 40
16.0
 40
16.0
 40
17.0
 40
17.0
 40
17.0
 40
18.0
 40
18.0
 40
18.0
 40
19.0
 40
19.0
 40
19.0
 40
19.0
 10
98.33783905961694
 20
-116.8311116244381
 10
98.24240991467552
 20
-116.8311116244381
 10
98.02467988000772
 20
-116.810096541978
 10
97.89962291389315
 20
-116.6240613857745
 10
97.82589787050881
 20
-116.5117512729554
 10
97.82141924637799
 20
-116.4125325229802
 10
97.81728513179569
 20
-116.3277831740431
 10
97.81728513179569
 20
-116.3277831740431
 10
98.03742673330315
 20
-116.3277831740431
 10
98.03742673330315
 20
-116.3277831740431
 10
98.03949379059429
 20
-116.4018527269759
 10
98.04982907705005
 20
-116.6364637295214
 10
98.33336043548611
 20
-116.6364637295214
 10
98.47081974534758
 20
-116.6364637295214
 10
98.62343747534415
 20
-116.5668728007194
 10
98.62343747534415
 20
-116.3384629700473
 10
98.62343747534415
 20
-116.2220187426459
 10
98.58519691545787
 20
-116.1734428963039
 10
98.55350203699358
 20
-116.1417480178396
 10
98.47943248406071
 20
-116.0676784649067
 10
98.36298825665926
 20
-116.0549316116113
 10
98.30821123844379
 20
-116.0549316116113
 10
98.28891870372638
 20
-116.0549316116113
 10
98.25308971067979
 20
-116.0569986689024
 10
98.2255289467978
 20
-116.0611327834847
 10
98.2255289467978
 20
-116.0611327834847
 10
98.2255289467978
 20
-115.8664848885681
 10
98.2255289467978
 20
-115.8664848885681
 10
98.26376950668406
 20
-115.8730305699901
 10
98.3057996716041
 20
-115.8750976272812
 10
98.31234535302609
 20
-115.8750976272812
 10
98.37780216724583
 20
-115.8750976272812
 10
98.57658417674475
 20
-115.8537380352727
 10
98.57658417674475
 20
-115.617059975436
 10
98.57658417674475
 20
-115.4392930483971
 10
98.44567054830526
 20
-115.3841715206331
 10
98.33542749277726
 20
-115.3841715206331
 10
98.0711886690586
 20
-115.3841715206331
 10
98.06257593034547
 20
-115.617059975436
 10
98.05844181576317
 20
-115.6887179615292
 10
98.05844181576317
 20
-115.6887179615292
 10
97.85518118213344
 20
-115.6887179615292
 10
97.85518118213344
 20
-115.6887179615292
 10
97.86379392084656
 20
-115.5640055049632
 10
97.89135468472855
 20
-115.1874565684254
 10
98.34817434607268
 20
-115.1874565684254
 10
98.57245006216245
 20
-115.1874565684254
 10
98.81360674612993
 20
-115.3145805918311
 10
98.81360674612993
 20
-115.610514294014
 10
98.81360674612993
 20
-115.7968939597661
 10
98.71852211073704
 20
-115.8792317418635
 10
98.61895885121332
 20
-115.940554441501
 10
98.68028155085076
 20
-115.968115205383
 10
98.86218259247195
 20
-116.0483859301893
 10
98.86218259247195
 20
-116.3257161167519
 10
98.86218259247195
 20
-116.6640244934034
 10
98.61482473663102
 20
-116.8311116244381
 10
98.33783905961694
 20
-116.8311116244381
 97
        0
 97
        0
 75
     2
 76
     1
 98
        0
  0
SPLINE
  5
71
330
6B
100
AcDbEntity
  8
_U+30EC_U+30A4_U+30E4_U+30FC 1
370
     0
100
AcDbSpline
210
0.0
220
0.0
230
1.0
 70
    11
 71
     3
 72
    29
 73
    25
 74
     0
 42
0.0000000001
 43
0.0000000001
 12
1.0
 22
0.0
 32
0.0
 13
1.0
 23
0.0
 33
0.0
 40
0.0
 40
0.0
 40
0.0
 40
0.0
 40
1.0
 40
1.0
 40
1.0
 40
2.0
 40
2.0
 40
2.0
 40
3.0
 40
3.0
 40
3.0
 40
4.0
 40
4.0
 40
4.0
 40
5.0
 40
5.0
 40
5.0
 40
6.0
 40
6.0
 40
6.0
 40
7.0
 40
7.0
 40
7.0
 40
8.0
 40
8.0
 40
8.0
 40
8.0
 10
99.92086043508924
 20
-116.602701793766
 30
0.0
 10
99.8126844368524
 20
-116.8121635992692
 30
0.0
 10
99.63939613394432
 20
-116.8311116244381
 30
0.0
 10
99.52295190654287
 20
-116.8311116244381
 30
0.0
 10
99.36206594738171
 20
-116.8311116244381
 30
0.0
 10
99.22047252293794
 20
-116.7846028353872
 30
0.0
 10
99.12538788754505
 20
-116.602701793766
 30
0.0
 10
99.02169051343903
 20
-116.4080538988494
 30
0.0
 10
99.00274248827016
 20
-116.1710313294642
 30
0.0
 10
99.00274248827016
 20
-116.0084228225604
 30
0.0
 10
99.00274248827016
 20
-115.864417831277
 30
0.0
 10
99.01962345614788
 20
-115.6125813513052
 30
0.0
 10
99.12538788754505
 20
-115.4137993418063
 30
0.0
 10
99.23321937623336
 20
-115.2108832177251
 30
0.0
 10
99.39410533539453
 20
-115.1874565684254
 30
0.0
 10
99.52295190654287
 20
-115.1874565684254
 30
0.0
 10
99.68177080841289
 20
-115.1874565684254
 30
0.0
 10
99.82543129014782
 20
-115.2318983001851
 30
0.0
 10
99.92086043508924
 20
-115.4137993418063
 30
0.0
 10
100.0200791850644
 20
-115.6063801794317
 30
0.0
 10
100.0435058343641
 20
-115.8347900101038
 30
0.0
 10
100.0435058343641
 20
-116.0084228225604
 30
0.0
 10
100.0435058343641
 20
-116.1796440681773
 30
0.0
 10
100.0221462423556
 20
-116.4101209561405
 30
0.0
 10
99.92086043508924
 20
-116.602701793766
 30
0.0
  0
SPLINE
  5
72
330
6B
100
AcDbEntity
  8
_U+30EC_U+30A4_U+30E4_U+30FC 1
370
     0
100
AcDbSpline
210
0.0
220
0.0
230
1.0
 70
    11
 71
     3
 72
    17
 73
    13
 74
     0
 42
0.0000000001
 43
0.0000000001
 12
1.0
 22
0.0
 32
0.0
 13
1.0
 23
0.0
 33
0.0
 40
0.0
 40
0.0
 40
0.0
 40
0.0
 40
1.0
 40
1.0
 40
1.0
 40
2.0
 40
2.0
 40
2.0
 40
3.0
 40
3.0
 40
3.0
 40
4.0
 40
4.0
 40
4.0
 40
4.0
 10
99.52295190654287
 20
-115.3800374060508
 30
0.0
 10
99.27352699341078
 20
-115.3800374060508
 30
0.0
 10
99.2266736948114
 20
-115.6635687644869
 30
0.0
 10
99.2266736948114
 20
-116.0084228225604
 30
0.0
 10
99.2266736948114
 20
-116.3277831740431
 30
0.0
 10
99.26284719740651
 20
-116.6364637295214
 30
0.0
 10
99.52295190654287
 20
-116.6364637295214
 30
0.0
 10
99.77065427193234
 20
-116.6364637295214
 30
0.0
 10
99.81923011827436
 20
-116.3553439379251
 30
0.0
 10
99.81923011827436
 20
-116.0084228225604
 30
0.0
 10
99.81923011827436
 20
-115.6887179615292
 30
0.0
 10
99.78098955838809
 20
-115.3800374060508
 30
0.0
 10
99.52295190654287
 20
-115.3800374060508
 30
0.0
  0
HATCH
  5
73
330
6B
100
AcDbEntity
  8
_U+30EC_U+30A4_U+30E4_U+30FC 1
 62
   179
420
  2234388
100
AcDbHatch
 10
0.0
 20
0.0
 30
0.0
210
0.0
220
0.0
230
1.0
  2
SOLID
 70
     1
 71
     0
 91
        2
 92
        1
 93
        1
 72
     4
 94
        3
 73
     0
 74
     1
 95
       29
 96
       25
 40
0.0
 40
0.0
 40
0.0
 40
0.0
 40
1.0
 40
1.0
 40
1.0
 40
2.0
 40
2.0
 40
2.0
 40
3.0
 40
3.0
 40
3.0
 40
4.0
 40
4.0
 40
4.0
 40
5.0
 40
5.0
 40
5.0
 40
6.0
 40
6.0
 40
6.0
 40
7.0
 40
7.0
 40
7.0
 40
8.0
 40
8.0
 40
8.0
 40
8.0
 10
99.92086043508924
 20
-116.602701793766
 10
99.8126844368524
 20
-116.8121635992692
 10
99.63939613394432
 20
-116.8311116244381
 10
99.52295190654287
 20
-116.8311116244381
 10
99.36206594738171
 20
-116.8311116244381
 10
99.22047252293794
 20
-116.7846028353872
 10
99.12538788754505
 20
-116.602701793766
 10
99.02169051343903
 20
-116.4080538988494
 10
99.00274248827016
 20
-116.1710313294642
 10
99.00274248827016
 20
-116.0084228225604
 10
99.00274248827016
 20
-115.864417831277
 10
99.01962345614788
 20
-115.6125813513052
 10
99.12538788754505
 20
-115.4137993418063
 10
99.23321937623336
 20
-115.2108832177251
 10
99.39410533539453
 20
-115.1874565684254
 10
99.52295190654287
 20
-115.1874565684254
 10
99.68177080841289
 20
-115.1874565684254
 10
99.82543129014782
 20
-115.2318983001851
 10
99.92086043508924
 20
-115.4137993418063
 10
100.0200791850644
 20
-115.6063801794317
 10
100.0435058343641
 20
-115.8347900101038
 10
100.0435058343641
 20
-116.0084228225604
 10
100.0435058343641
 20
-116.1796440681773
 10
100.0221462423556
 20
-116.4101209561405
 10
99.92086043508924
 20
-116.602701793766
 97
        0
 97
        0
 92
        1
 93
        1
 72
     4
 94
        3
 73
     0
 74
     1
 95
       17
 96
       13
 40
0.0
 40
0.0
 40
0.0
 40
0.0
 40
1.0
 40
1.0
 40
1.0
 40
2.0
 40
2.0
 40
2.0
 40
3.0
 40
3.0
 40
3.0
 40
4.0
 40
4.0
 40
4.0
 40
4.0
 10
99.52295190654287
 20
-115.3800374060508
 10
99.27352699341078
 20
-115.3800374060508
 10
99.2266736948114
 20
-115.6635687644869
 10
99.2266736948114
 20
-116.0084228225604
 10
99.2266736948114
 20
-116.3277831740431
 10
99.26284719740651
 20
-116.6364637295214
 10
99.52295190654287
 20
-116.6364637295214
 10
99.77065427193234
 20
-116.6364637295214
 10
99.81923011827436
 20
-116.3553439379251
 10
99.81923011827436
 20
-116.0084228225604
 10
99.81923011827436
 20
-115.6887179615292
 10
99.78098955838809
 20
-115.3800374060508
 10
99.52295190654287
 20
-115.3800374060508
 97
        0
 97
        0
 75
     2
 76
     1
 98
        0
  0
SPLINE
  5
74
330
6B
100
AcDbEntity
  8
_U+30EC_U+30A4_U+30E4_U+30FC 1
370
     0
100
AcDbSpline
210
0.0
220
0.0
230
1.0
 70
    11
 71
     3
 72
    29
 73
    25
 74
     0
 42
0.0000000001
 43
0.0000000001
 12
1.0
 22
0.0
 32
0.0
 13
1.0
 23
0.0
 33
0.0
 40
0.0
 40
0.0
 40
0.0
 40
0.0
 40
1.0
 40
1.0
 40
1.0
 40
2.0
 40
2.0
 40
2.0
 40
3.0
 40
3.0
 40
3.0
 40
4.0
 40
4.0
 40
4.0
 40
5.0
 40
5.0
 40
5.0
 40
6.0
 40
6.0
 40
6.0
 40
7.0
 40
7.0
 40
7.0
 40
8.0
 40
8.0
 40
8.0
 40
8.0
 10
101.0977050528506
 20
-116.602701793766
 30
0.0
 10
100.9895290546137
 20
-116.8121635992692
 30
0.0
 10
100.8162407517057
 20
-116.8311116244381
 30
0.0
 10
100.6997965243042
 20
-116.8311116244381
 30
0.0
 10
100.5389105651431
 20
-116.8311116244381
 30
0.0
 10
100.3973171406993
 20
-116.7846028353872
 30
0.0
 10
100.3022325053064
 20
-116.602701793766
 30
0.0
 10
100.1985351312004
 20
-116.4080538988494
 30
0.0
 10
100.1795871060315
 20
-116.1710313294642
 30
0.0
 10
100.1795871060315
 20
-116.0084228225604
 30
0.0
 10
100.1795871060315
 20
-115.864417831277
 30
0.0
 10
100.1964680739092
 20
-115.6125813513052
 30
0.0
 10
100.3022325053064
 20
-115.4137993418063
 30
0.0
 10
100.4100639939947
 20
-115.2108832177251
 30
0.0
 10
100.5709499531559
 20
-115.1874565684254
 30
0.0
 10
100.6997965243042
 20
-115.1874565684254
 30
0.0
 10
100.8586154261742
 20
-115.1874565684254
 30
0.0
 10
101.0022759079092
 20
-115.2318983001851
 30
0.0
 10
101.0977050528506
 20
-115.4137993418063
 30
0.0
 10
101.1969238028258
 20
-115.6063801794317
 30
0.0
 10
101.2203504521255
 20
-115.8347900101038
 30
0.0
 10
101.2203504521255
 20
-116.0084228225604
 30
0.0
 10
101.2203504521255
 20
-116.1796440681773
 30
0.0
 10
101.1989908601169
 20
-116.4101209561405
 30
0.0
 10
101.0977050528506
 20
-116.602701793766
 30
0.0
  0
SPLINE
  5
75
330
6B
100
AcDbEntity
  8
_U+30EC_U+30A4_U+30E4_U+30FC 1
370
     0
100
AcDbSpline
210
0.0
220
0.0
230
1.0
 70
    11
 71
     3
 72
    17
 73
    13
 74
     0
 42
0.0000000001
 43
0.0000000001
 12
1.0
 22
0.0
 32
0.0
 13
1.0
 23
0.0
 33
0.0
 40
0.0
 40
0.0
 40
0.0
 40
0.0
 40
1.0
 40
1.0
 40
1.0
 40
2.0
 40
2.0
 40
2.0
 40
3.0
 40
3.0
 40
3.0
 40
4.0
 40
4.0
 40
4.0
 40
4.0
 10
100.6997965243042
 20
-115.3800374060508
 30
0.0
 10
100.4503716111721
 20
-115.3800374060508
 30
0.0
 10
100.4035183125727
 20
-115.6635687644869
 30
0.0
 10
100.4035183125727
 20
-116.0084228225604
 30
0.0
 10
100.4035183125727
 20
-116.3277831740431
 30
0.0
 10
100.4396918151679
 20
-116.6364637295214
 30
0.0
 10
100.6997965243042
 20
-116.6364637295214
 30
0.0
 10
100.9474988896937
 20
-116.6364637295214
 30
0.0
 10
100.9960747360357
 20
-116.3553439379251
 30
0.0
 10
100.9960747360357
 20
-116.0084228225604
 30
0.0
 10
100.9960747360357
 20
-115.6887179615292
 30
0.0
 10
100.9578341761494
 20
-115.3800374060508
 30
0.0
 10
100.6997965243042
 20
-115.3800374060508
 30
0.0
  0
HATCH
  5
76
330
6B
100
AcDbEntity
  8
_U+30EC_U+30A4_U+30E4_U+30FC 1
 62
   179
420
  2234388
100
AcDbHatch
 10
0.0
 20
0.0
 30
0.0
210
0.0
220
0.0
230
1.0
  2
SOLID
 70
     1
 71
     0
 91
        2
 92
        1
 93
        1
 72
     4
 94
        3
 73
     0
 74
     1
 95
       29
 96
       25
 40
0.0
 40
0.0
 40
0.0
 40
0.0
 40
1.0
 40
1.0
 40
1.0
 40
2.0
 40
2.0
 40
2.0
 40
3.0
 40
3.0
 40
3.0
 40
4.0
 40
4.0
 40
4.0
 40
5.0
 40
5.0
 40
5.0
 40
6.0
 40
6.0
 40
6.0
 40
7.0
 40
7.0
 40
7.0
 40
8.0
 40
8.0
 40
8.0
 40
8.0
 10
101.0977050528506
 20
-116.602701793766
 10
100.9895290546137
 20
-116.8121635992692
 10
100.8162407517057
 20
-116.8311116244381
 10
100.6997965243042
 20
-116.8311116244381
 10
100.5389105651431
 20
-116.8311116244381
 10
100.3973171406993
 20
-116.7846028353872
 10
100.3022325053064
 20
-116.602701793766
 10
100.1985351312004
 20
-116.4080538988494
 10
100.1795871060315
 20
-116.1710313294642
 10
100.1795871060315
 20
-116.0084228225604
 10
100.1795871060315
 20
-115.864417831277
 10
100.1964680739092
 20
-115.6125813513052
 10
100.3022325053064
 20
-115.4137993418063
 10
100.4100639939947
 20
-115.2108832177251
 10
100.5709499531559
 20
-115.1874565684254
 10
100.6997965243042
 20
-115.1874565684254
 10
100.8586154261742
 20
-115.1874565684254
 10
101.0022759079092
 20
-115.2318983001851
 10
101.0977050528506
 20
-115.4137993418063
 10
101.1969238028258
 20
-115.6063801794317
 10
101.2203504521255
 20
-115.8347900101038
 10
101.2203504521255
 20
-116.0084228225604
 10
101.2203504521255
 20
-116.1796440681773
 10
101.1989908601169
 20
-116.4101209561405
 10
101.0977050528506
 20
-116.602701793766
 97
        0
 97
        0
 92
        1
 93
        1
 72
     4
 94
        3
 73
     0
 74
     1
 95
       17
 96
       13
 40
0.0
 40
0.0
 40
0.0
 40
0.0
 40
1.0
 40
1.0
 40
1.0
 40
2.0
 40
2.0
 40
2.0
 40
3.0
 40
3.0
 40
3.0
 40
4.0
 40
4.0
 40
4.0
 40
4.0
 10
100.6997965243042
 20
-115.3800374060508
 10
100.4503716111721
 20
-115.3800374060508
 10
100.4035183125727
 20
-115.6635687644869
 10
100.4035183125727
 20
-116.0084228225604
 10
100.4035183125727
 20
-116.3277831740431
 10
100.4396918151679
 20
-116.6364637295214
 10
100.6997965243042
 20
-116.6364637295214
 10
100.9474988896937
 20
-116.6364637295214
 10
100.9960747360357
 20
-116.3553439379251
 10
100.9960747360357
 20
-116.0084228225604
 10
100.9960747360357
 20
-115.6887179615292
 10
100.9578341761494
 20
-115.3800374060508
 10
100.6997965243042
 20
-115.3800374060508
 97
        0
 97
        0
 75
     2
 76
     1
 98
        0
  0
ENDBLK
  5
6E
330
6B
100
AcDbEntity
  8
0
100
AcDbBlockEnd
  0
BLOCK
  5
79
330
77
100
AcDbEntity
  8
0
100
AcDbBlockBegin
  2
block 5
 70
     0
 10
0.0
 20
0.0
 30
0.0
  3
block 5
  1

  0
POLYLINE
  5
7B
330
77
100
AcDbEntity
  8
_U+30EC_U+30A4_U+30E4_U+30FC 1
 62
   179
420
  2234388
370
     9
100
AcDb2dPolyline
 66
     1
 10
0.0
 20
0.0
 30
0.0
  0
VERTEX
  5
7C
330
7B
100
AcDbEntity
  8
_U+30EC_U+30A4_U+30E4_U+30FC 1
 62
   179
420
  2234388
370
     9
100
AcDbVertex
100
AcDb2dVertex
 10
46.22351854296202
 20
-135.526250799452
 30
0.0
  0
VERTEX
  5
7D
330
7B
100
AcDbEntity
  8
_U+30EC_U+30A4_U+30E4_U+30FC 1
 62
   179
420
  2234388
370
     9
100
AcDbVertex
100
AcDb2dVertex
 10
51.98547311818454
 20
-138.2895944098722
 30
0.0
  0
SEQEND
  5
7E
330
7B
100
AcDbEntity
  8
_U+30EC_U+30A4_U+30E4_U+30FC 1
 62
   179
420
  2234388
370
     9
  0
POLYLINE
  5
7F
330
77
100
AcDbEntity
  8
_U+30EC_U+30A4_U+30E4_U+30FC 1
 62
   179
420
  2234388
370
    25
100
AcDb2dPolyline
 66
     1
 10
0.0
 20
0.0
 30
0.0
  0
VERTEX
  5
80
330
7F
100
AcDbEntity
  8
_U+30EC_U+30A4_U+30E4_U+30FC 1
 62
   179
420
  2234388
370
    25
100
AcDbVertex
100
AcDb2dVertex
 10
90.12988686726169
 20
-132.4422321891114
 30
0.0
  0
VERTEX
  5
81
330
7F
100
AcDbEntity
  8
_U+30EC_U+30A4_U+30E4_U+30FC 1
 62
   179
420
  2234388
370
    25
100
AcDbVertex
100
AcDb2dVertex
 10
122.7762943677158
 20
-120.8270944142378
 30
0.0
  0
VERTEX
  5
82
330
7F
100
AcDbEntity
  8
_U+30EC_U+30A4_U+30E4_U+30FC 1
 62
   179
420
  2234388
370
    25
100
AcDbVertex
100
AcDb2dVertex
 10
122.7762943677158
 20
-119.0369941369075
 30
0.0
  0
SEQEND
  5
83
330
7F
100
AcDbEntity
  8
_U+30EC_U+30A4_U+30E4_U+30FC 1
 62
   179
420
  2234388
370
    25
  0
POLYLINE
  5
84
330
77
100
AcDbEntity
  8
_U+30EC_U+30A4_U+30E4_U+30FC 1
 62
   179
420
  2234388
370
    25
100
AcDb2dPolyline
 66
     1
 10
0.0
 20
0.0
 30
0.0
  0
VERTEX
  5
85
330
84
100
AcDbEntity
  8
_U+30EC_U+30A4_U+30E4_U+30FC 1
 62
   179
420
  2234388
370
    25
100
AcDbVertex
100
AcDb2dVertex
 10
53.45546280290419
 20
-145.2865535747895
 30
0.0
  0
VERTEX
  5
86
330
84
100
AcDbEntity
  8
_U+30EC_U+30A4_U+30E4_U+30FC 1
 62
   179
420
  2234388
370
    25
100
AcDbVertex
100
AcDb2dVertex
 10
89.55630549300608
 20
-132.5569555224165
 30
0.0
  0
VERTEX
  5
87
330
84
100
AcDbEntity
  8
_U+30EC_U+30A4_U+30E4_U+30FC 1
 62
   179
420
  2234388
370
    25
100
AcDbVertex
100
AcDb2dVertex
 10
89.55630549300608
 20
-130.6166777451238
 30
0.0
  0
SEQEND
  5
88
330
84
100
AcDbEntity
  8
_U+30EC_U+30A4_U+30E4_U+30FC 1
 62
   179
420
  2234388
370
    25
  0
POLYLINE
  5
89
330
77
100
AcDbEntity
  8
_U+30EC_U+30A4_U+30E4_U+30FC 1
 62
   179
420
  2234388
370
    25
100
AcDb2dPolyline
 66
     1
 10
0.0
 20
0.0
 30
0.0
  0
VERTEX
  5
8A
330
89
100
AcDbEntity
  8
_U+30EC_U+30A4_U+30E4_U+30FC 1
 62
   179
420
  2234388
370
    25
100
AcDbVertex
100
AcDb2dVertex
 10
92.81949985419949
 20
-129.4921985787382
 30
0.0
  0
VERTEX
  5
8B
330
89
100
AcDbEntity
  8
_U+30EC_U+30A4_U+30E4_U+30FC 1
 62
   179
420
  2234388
370
    25
100
AcDbVertex
100
AcDb2dVertex
 10
124.3049157176063
 20
-118.4013944148442
 30
0.0
  0
VERTEX
  5
8C
330
89
100
AcDbEntity
  8
_U+30EC_U+30A4_U+30E4_U+30FC 1
 62
   179
420
  2234388
370
    25
100
AcDbVertex
100
AcDb2dVertex
 10
124.3049157176063
 20
-115.5345458044497
 30
0.0
  0
VERTEX
  5
8D
330
89
100
AcDbEntity
  8
_U+30EC_U+30A4_U+30E4_U+30FC 1
 62
   179
420
  2234388
370
    25
100
AcDbVertex
100
AcDb2dVertex
 10
123.0701935268845
 20
-115.0053791379153
 30
0.0
  0
VERTEX
  5
8E
330
89
100
AcDbEntity
  8
_U+30EC_U+30A4_U+30E4_U+30FC 1
 62
   179
420
  2234388
370
    25
100
AcDbVertex
100
AcDb2dVertex
 10
89.75474298794352
 20
-126.3612958017432
 30
0.0
  0
VERTEX
  5
8F
330
89
100
AcDbEntity
  8
_U+30EC_U+30A4_U+30E4_U+30FC 1
 62
   179
420
  2234388
370
    25
100
AcDbVertex
100
AcDb2dVertex
 10
53.19814669835777
 20
-138.9510527430402
 30
0.0
  0
SEQEND
  5
90
330
89
100
AcDbEntity
  8
_U+30EC_U+30A4_U+30E4_U+30FC 1
 62
   179
420
  2234388
370
    25
  0
POLYLINE
  5
91
330
77
100
AcDbEntity
  8
_U+30EC_U+30A4_U+30E4_U+30FC 1
 62
   179
420
  2234388
370
     9
100
AcDb2dPolyline
 66
     1
 10
0.0
 20
0.0
 30
0.0
  0
VERTEX
  5
92
330
91
100
AcDbEntity
  8
_U+30EC_U+30A4_U+30E4_U+30FC 1
 62
   179
420
  2234388
370
     9
100
AcDbVertex
100
AcDb2dVertex
 10
55.8074321873449
 20
-140.1709582982903
 30
0.0
  0
VERTEX
  5
93
330
91
100
AcDbEntity
  8
_U+30EC_U+30A4_U+30E4_U+30FC 1
 62
   179
420
  2234388
370
     9
100
AcDbVertex
100
AcDb2dVertex
 10
65.80268471012255
 20
-144.8159832971295
 30
0.0
  0
SEQEND
  5
94
330
91
100
AcDbEntity
  8
_U+30EC_U+30A4_U+30E4_U+30FC 1
 62
   179
420
  2234388
370
     9
  0
POLYLINE
  5
95
330
77
100
AcDbEntity
  8
_U+30EC_U+30A4_U+30E4_U+30FC 1
 62
   179
420
  2234388
370
     9
100
AcDb2dPolyline
 66
     1
 10
0.0
 20
0.0
 30
0.0
  0
VERTEX
  5
96
330
95
100
AcDbEntity
  8
_U+30EC_U+30A4_U+30E4_U+30FC 1
 62
   179
420
  2234388
370
     9
100
AcDbVertex
100
AcDb2dVertex
 10
125.5396379083281
 20
-116.0638888598729
 30
0.0
  0
VERTEX
  5
97
330
95
100
AcDbEntity
  8
_U+30EC_U+30A4_U+30E4_U+30FC 1
 62
   179
420
  2234388
370
     9
100
AcDbVertex
100
AcDb2dVertex
 10
135.681998760686
 20
-120.7388999698154
 30
0.0
  0
SEQEND
  5
98
330
95
100
AcDbEntity
  8
_U+30EC_U+30A4_U+30E4_U+30FC 1
 62
   179
420
  2234388
370
     9
  0
POLYLINE
  5
99
330
77
100
AcDbEntity
  8
_U+30EC_U+30A4_U+30E4_U+30FC 1
 62
   179
420
  2234388
370
     9
100
AcDb2dPolyline
 66
     1
 10
0.0
 20
0.0
 30
0.0
  0
VERTEX
  5
9A
330
99
100
AcDbEntity
  8
_U+30EC_U+30A4_U+30E4_U+30FC 1
 62
   179
420
  2234388
370
     9
100
AcDbVertex
100
AcDb2dVertex
 10
116.0146381513311
 20
-111.7421846942866
 30
0.0
  0
VERTEX
  5
9B
330
99
100
AcDbEntity
  8
_U+30EC_U+30A4_U+30E4_U+30FC 1
 62
   179
420
  2234388
370
     9
100
AcDbVertex
100
AcDb2dVertex
 10
121.7472768939682
 20
-114.3880180269585
 30
0.0
  0
SEQEND
  5
9C
330
99
100
AcDbEntity
  8
_U+30EC_U+30A4_U+30E4_U+30FC 1
 62
   179
420
  2234388
370
     9
  0
POLYLINE
  5
9D
330
77
100
AcDbEntity
  8
_U+30EC_U+30A4_U+30E4_U+30FC 1
 62
   179
420
  2234388
370
     9
100
AcDb2dPolyline
 66
     1
 10
0.0
 20
0.0
 30
0.0
  0
VERTEX
  5
9E
330
9D
100
AcDbEntity
  8
_U+30EC_U+30A4_U+30E4_U+30FC 1
 62
   179
420
  2234388
370
     9
100
AcDbVertex
100
AcDb2dVertex
 10
82.67713900184157
 20
-123.0319555247977
 30
0.0
  0
VERTEX
  5
9F
330
9D
100
AcDbEntity
  8
_U+30EC_U+30A4_U+30E4_U+30FC 1
 62
   179
420
  2234388
370
     9
100
AcDbVertex
100
AcDb2dVertex
 10
88.67436107106191
 20
-125.765983301892
 30
0.0
  0
SEQEND
  5
A0
330
9D
100
AcDbEntity
  8
_U+30EC_U+30A4_U+30E4_U+30FC 1
 62
   179
420
  2234388
370
     9
  0
SPLINE
  5
A1
330
77
100
AcDbEntity
  8
_U+30EC_U+30A4_U+30E4_U+30FC 1
 62
   179
420
  2234388
370
     9
100
AcDbSpline
210
0.0
220
0.0
230
1.0
 70
    11
 71
     3
 72
    17
 73
    13
 74
     0
 42
0.0000000001
 43
0.0000000001
 12
1.0
 22
0.0
 32
0.0
 13
1.0
 23
0.0
 33
0.0
 40
0.0
 40
0.0
 40
0.0
 40
0.0
 40
1.0
 40
1.0
 40
1.0
 40
2.0
 40
2.0
 40
2.0
 40
3.0
 40
3.0
 40
3.0
 40
4.0
 40
4.0
 40
4.0
 40
4.0
 10
83.96181664567636
 20
-123.5845466357706
 30
0.0
 10
83.96181664567636
 20
-123.5569594135553
 30
0.0
 10
83.93941313630494
 20
-123.534240524672
 30
0.0
 10
83.9118611925634
 20
-123.534240524672
 30
0.0
 10
83.88427397104499
 20
-123.534240524672
 30
0.0
 10
83.86190786050449
 20
-123.5569594135553
 30
0.0
 10
83.86190786050449
 20
-123.5845466357706
 30
0.0
 10
83.86190786050449
 20
-123.612098580208
 30
0.0
 10
83.88427397104499
 20
-123.6341471913136
 30
0.0
 10
83.9118611925634
 20
-123.6341471913136
 30
0.0
 10
83.93941313630494
 20
-123.6341471913136
 30
0.0
 10
83.96181664567636
 20
-123.612098580208
 30
0.0
 10
83.96181664567636
 20
-123.5845466357706
 30
0.0
  0
HATCH
  5
A2
330
77
100
AcDbEntity
  8
_U+30EC_U+30A4_U+30E4_U+30FC 1
 62
   179
420
  2234388
100
AcDbHatch
 10
0.0
 20
0.0
 30
0.0
210
0.0
220
0.0
230
1.0
  2
SOLID
 70
     1
 71
     0
 91
        1
 92
        1
 93
        1
 72
     4
 94
        3
 73
     0
 74
     1
 95
       17
 96
       13
 40
0.0
 40
0.0
 40
0.0
 40
0.0
 40
1.0
 40
1.0
 40
1.0
 40
2.0
 40
2.0
 40
2.0
 40
3.0
 40
3.0
 40
3.0
 40
4.0
 40
4.0
 40
4.0
 40
4.0
 10
83.96181664567636
 20
-123.5845466357706
 10
83.96181664567636
 20
-123.5569594135553
 10
83.93941313630494
 20
-123.534240524672
 10
83.9118611925634
 20
-123.534240524672
 10
83.88427397104499
 20
-123.534240524672
 10
83.86190786050449
 20
-123.5569594135553
 10
83.86190786050449
 20
-123.5845466357706
 10
83.86190786050449
 20
-123.612098580208
 10
83.88427397104499
 20
-123.6341471913136
 10
83.9118611925634
 20
-123.6341471913136
 10
83.93941313630494
 20
-123.6341471913136
 10
83.96181664567636
 20
-123.612098580208
 10
83.96181664567636
 20
-123.5845466357706
 97
        0
 97
        0
 75
     2
 76
     1
 98
        0
  0
INSERT
  5
A4
330
77
100
AcDbEntity
  8
_U+30EC_U+30A4_U+30E4_U+30FC 1
100
AcDbBlockReference
  2
block 6
 10
0.0
 20
0.0
 30
0.0
  0
INSERT
  5
B0
330
77
100
AcDbEntity
  8
_U+30EC_U+30A4_U+30E4_U+30FC 1
100
AcDbBlockReference
  2
block 7
 10
0.0
 20
0.0
 30
0.0
  0
POLYLINE
  5
BB
330
77
100
AcDbEntity
  8
_U+30EC_U+30A4_U+30E4_U+30FC 1
 62
   179
420
  2234388
370
    25
100
AcDb2dPolyline
 66
     1
 10
0.0
 20
0.0
 30
0.0
  0
VERTEX
  5
BC
330
BB
100
AcDbEntity
  8
_U+30EC_U+30A4_U+30E4_U+30FC 1
 62
   179
420
  2234388
370
    25
100
AcDbVertex
100
AcDb2dVertex
 10
54.54311194182262
 20
-139.598011909545
 30
0.0
  0
VERTEX
  5
BD
330
BB
100
AcDbEntity
  8
_U+30EC_U+30A4_U+30E4_U+30FC 1
 62
   179
420
  2234388
370
    25
100
AcDbVertex
100
AcDb2dVertex
 10
89.55630549300608
 20
-127.4857749681287
 30
0.0
  0
SEQEND
  5
BE
330
BB
100
AcDbEntity
  8
_U+30EC_U+30A4_U+30E4_U+30FC 1
 62
   179
420
  2234388
370
    25
  0
POLYLINE
  5
BF
330
77
100
AcDbEntity
  8
_U+30EC_U+30A4_U+30E4_U+30FC 1
 62
   179
420
  2234388
370
    25
100
AcDb2dPolyline
 66
     1
 10
0.0
 20
0.0
 30
0.0
  0
VERTEX
  5
C0
330
BF
100
AcDbEntity
  8
_U+30EC_U+30A4_U+30E4_U+30FC 1
 62
   179
420
  2234388
370
    25
100
AcDbVertex
100
AcDb2dVertex
 10
53.13200086671195
 20
-139.5539146873338
 30
0.0
  0
VERTEX
  5
C1
330
BF
100
AcDbEntity
  8
_U+30EC_U+30A4_U+30E4_U+30FC 1
 62
   179
420
  2234388
370
    25
100
AcDbVertex
100
AcDb2dVertex
 10
53.30838975110078
 20
-145.2572730192411
 30
0.0
  0
VERTEX
  5
C2
330
BF
100
AcDbEntity
  8
_U+30EC_U+30A4_U+30E4_U+30FC 1
 62
   179
420
  2234388
370
    25
100
AcDbVertex
100
AcDb2dVertex
 10
53.45546280290419
 20
-145.2865535747895
 30
0.0
  0
VERTEX
  5
C3
330
BF
100
AcDbEntity
  8
_U+30EC_U+30A4_U+30E4_U+30FC 1
 62
   179
420
  2234388
370
    25
100
AcDbVertex
100
AcDb2dVertex
 10
53.3965841932952
 20
-139.377525798489
 30
0.0
  0
VERTEX
  5
C4
330
BF
100
AcDbEntity
  8
_U+30EC_U+30A4_U+30E4_U+30FC 1
 62
   179
420
  2234388
370
    25
100
AcDbVertex
100
AcDb2dVertex
 10
54.27852861523937
 20
-139.759584131727
 30
0.0
  0
VERTEX
  5
C5
330
BF
100
AcDbEntity
  8
_U+30EC_U+30A4_U+30E4_U+30FC 1
 62
   179
420
  2234388
370
    25
100
AcDbVertex
100
AcDb2dVertex
 10
54.39632111223423
 20
-142.6731052421096
 30
0.0
  0
VERTEX
  5
C6
330
BF
100
AcDbEntity
  8
_U+30EC_U+30A4_U+30E4_U+30FC 1
 62
   179
420
  2234388
370
    25
100
AcDbVertex
100
AcDb2dVertex
 10
54.54311194182262
 20
-142.6817130198853
 30
0.0
  0
VERTEX
  5
C7
330
BF
100
AcDbEntity
  8
_U+30EC_U+30A4_U+30E4_U+30FC 1
 62
   179
420
  2234388
370
    25
100
AcDbVertex
100
AcDb2dVertex
 10
54.54311194182262
 20
-139.9656063538973
 30
0.0
  0
SEQEND
  5
C8
330
BF
100
AcDbEntity
  8
_U+30EC_U+30A4_U+30E4_U+30FC 1
 62
   179
420
  2234388
370
    25
  0
POLYLINE
  5
C9
330
77
100
AcDbEntity
  8
_U+30EC_U+30A4_U+30E4_U+30FC 1
 62
   179
420
  2234388
370
    25
100
AcDb2dPolyline
 66
     1
 10
0.0
 20
0.0
 30
0.0
  0
VERTEX
  5
CA
330
C9
100
AcDbEntity
  8
_U+30EC_U+30A4_U+30E4_U+30FC 1
 62
   179
420
  2234388
370
    25
100
AcDbVertex
100
AcDb2dVertex
 10
53.13200086671195
 20
-139.5539146873338
 30
0.0
  0
VERTEX
  5
CB
330
C9
100
AcDbEntity
  8
_U+30EC_U+30A4_U+30E4_U+30FC 1
 62
   179
420
  2234388
370
    25
100
AcDbVertex
100
AcDb2dVertex
 10
53.10268503412653
 20
-138.8628582986178
 30
0.0
  0
VERTEX
  5
CC
330
C9
100
AcDbEntity
  8
_U+30EC_U+30A4_U+30E4_U+30FC 1
 62
   179
420
  2234388
370
    25
100
AcDbVertex
100
AcDb2dVertex
 10
54.54311194182262
 20
-139.598011909545
 30
0.0
  0
VERTEX
  5
CD
330
C9
100
AcDbEntity
  8
_U+30EC_U+30A4_U+30E4_U+30FC 1
 62
   179
420
  2234388
370
    25
100
AcDbVertex
100
AcDb2dVertex
 10
54.54311194182262
 20
-139.9656063538973
 30
0.0
  0
SEQEND
  5
CE
330
C9
100
AcDbEntity
  8
_U+30EC_U+30A4_U+30E4_U+30FC 1
 62
   179
420
  2234388
370
    25
  0
POLYLINE
  5
CF
330
77
100
AcDbEntity
  8
_U+30EC_U+30A4_U+30E4_U+30FC 1
 62
   179
420
  2234388
370
    25
100
AcDb2dPolyline
 66
     1
 10
0.0
 20
0.0
 30
0.0
  0
VERTEX
  5
D0
330
CF
100
AcDbEntity
  8
_U+30EC_U+30A4_U+30E4_U+30FC 1
 62
   179
420
  2234388
370
    25
100
AcDbVertex
100
AcDb2dVertex
 10
89.75474298794352
 20
-126.3612958017432
 30
0.0
  0
VERTEX
  5
D1
330
CF
100
AcDbEntity
  8
_U+30EC_U+30A4_U+30E4_U+30FC 1
 62
   179
420
  2234388
370
    25
100
AcDbVertex
100
AcDb2dVertex
 10
89.75474298794352
 20
-132.3981349669002
 30
0.0
  0
VERTEX
  5
D2
330
CF
100
AcDbEntity
  8
_U+30EC_U+30A4_U+30E4_U+30FC 1
 62
   179
420
  2234388
370
    25
100
AcDbVertex
100
AcDb2dVertex
 10
90.12988686726169
 20
-132.4422321891114
 30
0.0
  0
VERTEX
  5
D3
330
CF
100
AcDbEntity
  8
_U+30EC_U+30A4_U+30E4_U+30FC 1
 62
   179
420
  2234388
370
    25
100
AcDbVertex
100
AcDb2dVertex
 10
90.173666588367
 20
-126.7361221905383
 30
0.0
  0
VERTEX
  5
D4
330
CF
100
AcDbEntity
  8
_U+30EC_U+30A4_U+30E4_U+30FC 1
 62
   179
420
  2234388
370
    25
100
AcDbVertex
100
AcDb2dVertex
 10
92.20213875883859
 20
-126.7802194127495
 30
0.0
  0
VERTEX
  5
D5
330
CF
100
AcDbEntity
  8
_U+30EC_U+30A4_U+30E4_U+30FC 1
 62
   179
420
  2234388
370
    25
100
AcDbVertex
100
AcDb2dVertex
 10
92.20213875883859
 20
-129.4921985787382
 30
0.0
  0
VERTEX
  5
D6
330
CF
100
AcDbEntity
  8
_U+30EC_U+30A4_U+30E4_U+30FC 1
 62
   179
420
  2234388
370
    25
100
AcDbVertex
100
AcDb2dVertex
 10
92.81949985419949
 20
-129.4921985787382
 30
0.0
  0
VERTEX
  5
D7
330
CF
100
AcDbEntity
  8
_U+30EC_U+30A4_U+30E4_U+30FC 1
 62
   179
420
  2234388
370
    25
100
AcDbVertex
100
AcDb2dVertex
 10
92.81949985419949
 20
-126.8463652460663
 30
0.0
  0
SEQEND
  5
D8
330
CF
100
AcDbEntity
  8
_U+30EC_U+30A4_U+30E4_U+30FC 1
 62
   179
420
  2234388
370
    25
  0
POLYLINE
  5
D9
330
77
100
AcDbEntity
  8
_U+30EC_U+30A4_U+30E4_U+30FC 1
 62
   179
420
  2234388
370
    25
100
AcDb2dPolyline
 66
     1
 10
0.0
 20
0.0
 30
0.0
  0
VERTEX
  5
DA
330
D9
100
AcDbEntity
  8
_U+30EC_U+30A4_U+30E4_U+30FC 1
 62
   179
420
  2234388
370
    25
100
AcDbVertex
100
AcDb2dVertex
 10
89.75474298794352
 20
-126.3612958017432
 30
0.0
  0
VERTEX
  5
DB
330
D9
100
AcDbEntity
  8
_U+30EC_U+30A4_U+30E4_U+30FC 1
 62
   179
420
  2234388
370
    25
100
AcDbVertex
100
AcDb2dVertex
 10
92.81949985419949
 20
-126.3791816350719
 30
0.0
  0
VERTEX
  5
DC
330
D9
100
AcDbEntity
  8
_U+30EC_U+30A4_U+30E4_U+30FC 1
 62
   179
420
  2234388
370
    25
100
AcDbVertex
100
AcDb2dVertex
 10
92.81949985419949
 20
-126.8463652460663
 30
0.0
  0
SEQEND
  5
DD
330
D9
100
AcDbEntity
  8
_U+30EC_U+30A4_U+30E4_U+30FC 1
 62
   179
420
  2234388
370
    25
  0
POLYLINE
  5
DE
330
77
100
AcDbEntity
  8
_U+30EC_U+30A4_U+30E4_U+30FC 1
 62
   179
420
  2234388
370
    25
100
AcDb2dPolyline
 66
     1
 10
0.0
 20
0.0
 30
0.0
  0
VERTEX
  5
DF
330
DE
100
AcDbEntity
  8
_U+30EC_U+30A4_U+30E4_U+30FC 1
 62
   179
420
  2234388
370
    25
100
AcDbVertex
100
AcDb2dVertex
 10
54.54311194182262
 20
-142.6817130198853
 30
0.0
  0
VERTEX
  5
E0
330
DE
100
AcDbEntity
  8
_U+30EC_U+30A4_U+30E4_U+30FC 1
 62
   179
420
  2234388
370
    25
100
AcDbVertex
100
AcDb2dVertex
 10
89.55630549300608
 20
-130.6166777451238
 30
0.0
  0
VERTEX
  5
E1
330
DE
100
AcDbEntity
  8
_U+30EC_U+30A4_U+30E4_U+30FC 1
 62
   179
420
  2234388
370
    25
100
AcDbVertex
100
AcDb2dVertex
 10
89.55630549300608
 20
-127.4857749681287
 30
0.0
  0
VERTEX
  5
E2
330
DE
100
AcDbEntity
  8
_U+30EC_U+30A4_U+30E4_U+30FC 1
 62
   179
420
  2234388
370
    25
100
AcDbVertex
100
AcDb2dVertex
 10
89.75474298794352
 20
-126.3612958017432
 30
0.0
  0
SEQEND
  5
E3
330
DE
100
AcDbEntity
  8
_U+30EC_U+30A4_U+30E4_U+30FC 1
 62
   179
420
  2234388
370
    25
  0
POLYLINE
  5
E4
330
77
100
AcDbEntity
  8
_U+30EC_U+30A4_U+30E4_U+30FC 1
 62
   179
420
  2234388
370
    25
100
AcDb2dPolyline
 66
     1
 10
0.0
 20
0.0
 30
0.0
  0
VERTEX
  5
E5
330
E4
100
AcDbEntity
  8
_U+30EC_U+30A4_U+30E4_U+30FC 1
 62
   179
420
  2234388
370
    25
100
AcDbVertex
100
AcDb2dVertex
 10
92.75335402255368
 20
-126.4274416350599
 30
0.0
  0
VERTEX
  5
E6
330
E4
100
AcDbEntity
  8
_U+30EC_U+30A4_U+30E4_U+30FC 1
 62
   179
420
  2234388
370
    25
100
AcDbVertex
100
AcDb2dVertex
 10
124.1505754437661
 20
-115.4683999711329
 30
0.0
  0
SEQEND
  5
E7
330
E4
100
AcDbEntity
  8
_U+30EC_U+30A4_U+30E4_U+30FC 1
 62
   179
420
  2234388
370
    25
  0
POLYLINE
  5
E8
330
77
100
AcDbEntity
  8
_U+30EC_U+30A4_U+30E4_U+30FC 1
 62
   179
420
  2234388
370
    25
100
AcDb2dPolyline
 66
     1
 10
0.0
 20
0.0
 30
0.0
  0
VERTEX
  5
E9
330
E8
100
AcDbEntity
  8
_U+30EC_U+30A4_U+30E4_U+30FC 1
 62
   179
420
  2234388
370
    25
100
AcDbVertex
100
AcDb2dVertex
 10
89.75474298794352
 20
-132.3981349669002
 30
0.0
  0
VERTEX
  5
EA
330
E8
100
AcDbEntity
  8
_U+30EC_U+30A4_U+30E4_U+30FC 1
 62
   179
420
  2234388
370
    25
100
AcDbVertex
100
AcDb2dVertex
 10
89.55630549300608
 20
-132.5569555224165
 30
0.0
  0
SEQEND
  5
EB
330
E8
100
AcDbEntity
  8
_U+30EC_U+30A4_U+30E4_U+30FC 1
 62
   179
420
  2234388
370
    25
  0
ENDBLK
  5
7A
330
77
100
AcDbEntity
  8
0
100
AcDbBlockEnd
  0
BLOCK
  5
A5
330
A3
100
AcDbEntity
  8
0
100
AcDbBlockBegin
  2
block 6
 70
     0
 10
0.0
 20
0.0
 30
0.0
  3
block 6
  1

  0
POLYLINE
  5
A7
330
A3
100
AcDbEntity
  8
_U+30EC_U+30A4_U+30E4_U+30FC 1
 62
   179
420
  2234388
370
     9
100
AcDb2dPolyline
 66
     1
 10
0.0
 20
0.0
 30
0.0
  0
VERTEX
  5
A8
330
A7
100
AcDbEntity
  8
_U+30EC_U+30A4_U+30E4_U+30FC 1
 62
   179
420
  2234388
370
     9
100
AcDbVertex
100
AcDb2dVertex
 10
47.37731351352625
 20
-136.0847332993123
 30
0.0
  0
VERTEX
  5
A9
330
A7
100
AcDbEntity
  8
_U+30EC_U+30A4_U+30E4_U+30FC 1
 62
   179
420
  2234388
370
     9
100
AcDbVertex
100
AcDb2dVertex
 10
117.1556272888887
 20
-112.224502471944
 30
0.0
  0
SEQEND
  5
AA
330
A7
100
AcDbEntity
  8
_U+30EC_U+30A4_U+30E4_U+30FC 1
 62
   179
420
  2234388
370
     9
  0
SPLINE
  5
AB
330
A3
100
AcDbEntity
  8
_U+30EC_U+30A4_U+30E4_U+30FC 1
 62
   179
420
  2234388
370
     9
100
AcDbSpline
210
0.0
220
0.0
230
1.0
 70
    11
 71
     3
 72
    17
 73
    13
 74
     0
 42
0.0000000001
 43
0.0000000001
 12
1.0
 22
0.0
 32
0.0
 13
1.0
 23
0.0
 33
0.0
 40
0.0
 40
0.0
 40
0.0
 40
0.0
 40
1.0
 40
1.0
 40
1.0
 40
2.0
 40
2.0
 40
2.0
 40
3.0
 40
3.0
 40
3.0
 40
4.0
 40
4.0
 40
4.0
 40
4.0
 10
47.43344165480843
 20
-136.0847332993123
 30
0.0
 10
47.43344165480843
 20
-136.057146077097
 30
0.0
 10
47.41107434599828
 20
-136.0347799659912
 30
0.0
 10
47.38316962448797
 20
-136.0347799659912
 30
0.0
 10
47.35558240296955
 20
-136.0347799659912
 30
0.0
 10
47.33321629242905
 20
-136.057146077097
 30
0.0
 10
47.33321629242905
 20
-136.0847332993123
 30
0.0
 10
47.33321629242905
 20
-136.1126380215272
 30
0.0
 10
47.35558240296955
 20
-136.1346866326328
 30
0.0
 10
47.38316962448797
 20
-136.1346866326328
 30
0.0
 10
47.41107434599828
 20
-136.1346866326328
 30
0.0
 10
47.43344165480843
 20
-136.1126380215272
 30
0.0
 10
47.43344165480843
 20
-136.0847332993123
 30
0.0
  0
HATCH
  5
AC
330
A3
100
AcDbEntity
  8
_U+30EC_U+30A4_U+30E4_U+30FC 1
 62
   179
420
  2234388
100
AcDbHatch
 10
0.0
 20
0.0
 30
0.0
210
0.0
220
0.0
230
1.0
  2
SOLID
 70
     1
 71
     0
 91
        1
 92
        1
 93
        1
 72
     4
 94
        3
 73
     0
 74
     1
 95
       17
 96
       13
 40
0.0
 40
0.0
 40
0.0
 40
0.0
 40
1.0
 40
1.0
 40
1.0
 40
2.0
 40
2.0
 40
2.0
 40
3.0
 40
3.0
 40
3.0
 40
4.0
 40
4.0
 40
4.0
 40
4.0
 10
47.43344165480843
 20
-136.0847332993123
 10
47.43344165480843
 20
-136.057146077097
 10
47.41107434599828
 20
-136.0347799659912
 10
47.38316962448797
 20
-136.0347799659912
 10
47.35558240296955
 20
-136.0347799659912
 10
47.33321629242905
 20
-136.057146077097
 10
47.33321629242905
 20
-136.0847332993123
 10
47.33321629242905
 20
-136.1126380215272
 10
47.35558240296955
 20
-136.1346866326328
 10
47.38316962448797
 20
-136.1346866326328
 10
47.41107434599828
 20
-136.1346866326328
 10
47.43344165480843
 20
-136.1126380215272
 10
47.43344165480843
 20
-136.0847332993123
 97
        0
 97
        0
 75
     2
 76
     1
 98
        0
  0
SPLINE
  5
AD
330
A3
100
AcDbEntity
  8
_U+30EC_U+30A4_U+30E4_U+30FC 1
 62
   179
420
  2234388
370
     9
100
AcDbSpline
210
0.0
220
0.0
230
1.0
 70
    11
 71
     3
 72
    17
 73
    13
 74
     0
 42
0.0000000001
 43
0.0000000001
 12
1.0
 22
0.0
 32
0.0
 13
1.0
 23
0.0
 33
0.0
 40
0.0
 40
0.0
 40
0.0
 40
0.0
 40
1.0
 40
1.0
 40
1.0
 40
2.0
 40
2.0
 40
2.0
 40
3.0
 40
3.0
 40
3.0
 40
4.0
 40
4.0
 40
4.0
 40
4.0
 10
117.2169753428792
 20
-112.2272541386098
 30
0.0
 10
117.2169753428792
 20
-112.1997021941724
 30
0.0
 10
117.1949267323306
 20
-112.177300805289
 30
0.0
 10
117.1673395108121
 20
-112.177300805289
 30
0.0
 10
117.1397875670706
 20
-112.177300805289
 30
0.0
 10
117.1170686787613
 20
-112.1997021941724
 30
0.0
 10
117.1170686787613
 20
-112.2272541386098
 30
0.0
 10
117.1170686787613
 20
-112.255158860825
 30
0.0
 10
117.1397875670706
 20
-112.2772074719306
 30
0.0
 10
117.1673395108121
 20
-112.2772074719306
 30
0.0
 10
117.1949267323306
 20
-112.2772074719306
 30
0.0
 10
117.2169753428792
 20
-112.255158860825
 30
0.0
 10
117.2169753428792
 20
-112.2272541386098
 30
0.0
  0
HATCH
  5
AE
330
A3
100
AcDbEntity
  8
_U+30EC_U+30A4_U+30E4_U+30FC 1
 62
   179
420
  2234388
100
AcDbHatch
 10
0.0
 20
0.0
 30
0.0
210
0.0
220
0.0
230
1.0
  2
SOLID
 70
     1
 71
     0
 91
        1
 92
        1
 93
        1
 72
     4
 94
        3
 73
     0
 74
     1
 95
       17
 96
       13
 40
0.0
 40
0.0
 40
0.0
 40
0.0
 40
1.0
 40
1.0
 40
1.0
 40
2.0
 40
2.0
 40
2.0
 40
3.0
 40
3.0
 40
3.0
 40
4.0
 40
4.0
 40
4.0
 40
4.0
 10
117.2169753428792
 20
-112.2272541386098
 10
117.2169753428792
 20
-112.1997021941724
 10
117.1949267323306
 20
-112.177300805289
 10
117.1673395108121
 20
-112.177300805289
 10
117.1397875670706
 20
-112.177300805289
 10
117.1170686787613
 20
-112.1997021941724
 10
117.1170686787613
 20
-112.2272541386098
 10
117.1170686787613
 20
-112.255158860825
 10
117.1397875670706
 20
-112.2772074719306
 10
117.1673395108121
 20
-112.2772074719306
 10
117.1949267323306
 20
-112.2772074719306
 10
117.2169753428792
 20
-112.255158860825
 10
117.2169753428792
 20
-112.2272541386098
 97
        0
 97
        0
 75
     2
 76
     1
 98
        0
  0
ENDBLK
  5
A6
330
A3
100
AcDbEntity
  8
0
100
AcDbBlockEnd
  0
BLOCK
  5
B1
330
AF
100
AcDbEntity
  8
0
100
AcDbBlockBegin
  2
block 7
 70
     0
 10
0.0
 20
0.0
 30
0.0
  3
block 7
  1

  0
POLYLINE
  5
B3
330
AF
100
AcDbEntity
  8
_U+30EC_U+30A4_U+30E4_U+30FC 1
 62
   179
420
  2234388
370
     9
100
AcDb2dPolyline
 66
     1
 10
0.0
 20
0.0
 30
0.0
  0
VERTEX
  5
B4
330
B3
100
AcDbEntity
  8
_U+30EC_U+30A4_U+30E4_U+30FC 1
 62
   179
420
  2234388
370
     9
100
AcDbVertex
100
AcDb2dVertex
 10
64.59759585197803
 20
-144.2427194083839
 30
0.0
  0
VERTEX
  5
B5
330
B3
100
AcDbEntity
  8
_U+30EC_U+30A4_U+30E4_U+30FC 1
 62
   179
420
  2234388
370
     9
100
AcDbVertex
100
AcDb2dVertex
 10
134.4665416330504
 20
-120.1511369144067
 30
0.0
  0
SEQEND
  5
B6
330
B3
100
AcDbEntity
  8
_U+30EC_U+30A4_U+30E4_U+30FC 1
 62
   179
420
  2234388
370
     9
  0
SPLINE
  5
B7
330
AF
100
AcDbEntity
  8
_U+30EC_U+30A4_U+30E4_U+30FC 1
 62
   179
420
  2234388
370
     9
100
AcDbSpline
210
0.0
220
0.0
230
1.0
 70
    11
 71
     3
 72
    17
 73
    13
 74
     0
 42
0.0000000001
 43
0.0000000001
 12
1.0
 22
0.0
 32
0.0
 13
1.0
 23
0.0
 33
0.0
 40
0.0
 40
0.0
 40
0.0
 40
0.0
 40
1.0
 40
1.0
 40
1.0
 40
2.0
 40
2.0
 40
2.0
 40
3.0
 40
3.0
 40
3.0
 40
4.0
 40
4.0
 40
4.0
 40
4.0
 10
64.65340529499866
 20
-144.2427194083839
 30
0.0
 10
64.65340529499866
 20
-144.2151321861686
 30
0.0
 10
64.63103918445816
 20
-144.1927660750628
 30
0.0
 10
64.60313609496048
 20
-144.1927660750628
 30
0.0
 10
64.57554724142943
 20
-144.1927660750628
 30
0.0
 10
64.55318113088893
 20
-144.2151321861686
 30
0.0
 10
64.55318113088893
 20
-144.2427194083839
 30
0.0
 10
64.55318113088893
 20
-144.2706241305988
 30
0.0
 10
64.57554724142943
 20
-144.2926727417044
 30
0.0
 10
64.60313609496048
 20
-144.2926727417044
 30
0.0
 10
64.63103918445816
 20
-144.2926727417044
 30
0.0
 10
64.65340529499866
 20
-144.2706241305988
 30
0.0
 10
64.65340529499866
 20
-144.2427194083839
 30
0.0
  0
HATCH
  5
B8
330
AF
100
AcDbEntity
  8
_U+30EC_U+30A4_U+30E4_U+30FC 1
 62
   179
420
  2234388
100
AcDbHatch
 10
0.0
 20
0.0
 30
0.0
210
0.0
220
0.0
230
1.0
  2
SOLID
 70
     1
 71
     0
 91
        1
 92
        1
 93
        1
 72
     4
 94
        3
 73
     0
 74
     1
 95
       17
 96
       13
 40
0.0
 40
0.0
 40
0.0
 40
0.0
 40
1.0
 40
1.0
 40
1.0
 40
2.0
 40
2.0
 40
2.0
 40
3.0
 40
3.0
 40
3.0
 40
4.0
 40
4.0
 40
4.0
 40
4.0
 10
64.65340529499866
 20
-144.2427194083839
 10
64.65340529499866
 20
-144.2151321861686
 10
64.63103918445816
 20
-144.1927660750628
 10
64.60313609496048
 20
-144.1927660750628
 10
64.57554724142943
 20
-144.1927660750628
 10
64.55318113088893
 20
-144.2151321861686
 10
64.55318113088893
 20
-144.2427194083839
 10
64.55318113088893
 20
-144.2706241305988
 10
64.57554724142943
 20
-144.2926727417044
 10
64.60313609496048
 20
-144.2926727417044
 10
64.63103918445816
 20
-144.2926727417044
 10
64.65340529499866
 20
-144.2706241305988
 10
64.65340529499866
 20
-144.2427194083839
 97
        0
 97
        0
 75
     2
 76
     1
 98
        0
  0
SPLINE
  5
B9
330
AF
100
AcDbEntity
  8
_U+30EC_U+30A4_U+30E4_U+30FC 1
 62
   179
420
  2234388
370
     9
100
AcDbSpline
210
0.0
220
0.0
230
1.0
 70
    11
 71
     3
 72
    17
 73
    13
 74
     0
 42
0.0000000001
 43
0.0000000001
 12
1.0
 22
0.0
 32
0.0
 13
1.0
 23
0.0
 33
0.0
 40
0.0
 40
0.0
 40
0.0
 40
0.0
 40
1.0
 40
1.0
 40
1.0
 40
2.0
 40
2.0
 40
2.0
 40
3.0
 40
3.0
 40
3.0
 40
4.0
 40
4.0
 40
4.0
 40
4.0
 10
134.4858351800916
 20
-120.158721636627
 30
0.0
 10
134.4858351800916
 20
-120.1311696921895
 30
0.0
 10
134.4631162917823
 20
-120.1084155255284
 30
0.0
 10
134.4355290702639
 20
-120.1084155255284
 30
0.0
 10
134.4079805219535
 20
-120.1084155255284
 30
0.0
 10
134.3859285159738
 20
-120.1311696921895
 30
0.0
 10
134.3859285159738
 20
-120.158721636627
 30
0.0
 10
134.3859285159738
 20
-120.1862735810644
 30
0.0
 10
134.4079805219535
 20
-120.20832219217
 30
0.0
 10
134.4355290702639
 20
-120.20832219217
 30
0.0
 10
134.4631162917823
 20
-120.20832219217
 30
0.0
 10
134.4858351800916
 20
-120.1862735810644
 30
0.0
 10
134.4858351800916
 20
-120.158721636627
 30
0.0
  0
HATCH
  5
BA
330
AF
100
AcDbEntity
  8
_U+30EC_U+30A4_U+30E4_U+30FC 1
 62
   179
420
  2234388
100
AcDbHatch
 10
0.0
 20
0.0
 30
0.0
210
0.0
220
0.0
230
1.0
  2
SOLID
 70
     1
 71
     0
 91
        1
 92
        1
 93
        1
 72
     4
 94
        3
 73
     0
 74
     1
 95
       17
 96
       13
 40
0.0
 40
0.0
 40
0.0
 40
0.0
 40
1.0
 40
1.0
 40
1.0
 40
2.0
 40
2.0
 40
2.0
 40
3.0
 40
3.0
 40
3.0
 40
4.0
 40
4.0
 40
4.0
 40
4.0
 10
134.4858351800916
 20
-120.158721636627
 10
134.4858351800916
 20
-120.1311696921895
 10
134.4631162917823
 20
-120.1084155255284
 10
134.4355290702639
 20
-120.1084155255284
 10
134.4079805219535
 20
-120.1084155255284
 10
134.3859285159738
 20
-120.1311696921895
 10
134.3859285159738
 20
-120.158721636627
 10
134.3859285159738
 20
-120.1862735810644
 10
134.4079805219535
 20
-120.20832219217
 10
134.4355290702639
 20
-120.20832219217
 10
134.4631162917823
 20
-120.20832219217
 10
134.4858351800916
 20
-120.1862735810644
 10
134.4858351800916
 20
-120.158721636627
 97
        0
 97
        0
 75
     2
 76
     1
 98
        0
  0
ENDBLK
  5
B2
330
AF
100
AcDbEntity
  8
0
100
AcDbBlockEnd
  0
ENDSEC
  0
SECTION
  2
ENTITIES
  0
POLYLINE
  5
41
330
1F
100
AcDbEntity
  8
_U+30EC_U+30A4_U+30E4_U+30FC 1
370
     0
100
AcDb2dPolyline
 66
     1
 10
0.0
 20
0.0
 30
0.0
  0
VERTEX
  5
42
330
41
100
AcDbEntity
  8
_U+30EC_U+30A4_U+30E4_U+30FC 1
370
     0
100
AcDbVertex
100
AcDb2dVertex
 10
53.07308697932608
 20
-139.0237249652443
 30
0.0
  0
VERTEX
  5
43
330
41
100
AcDbEntity
  8
_U+30EC_U+30A4_U+30E4_U+30FC 1
370
     0
100
AcDbVertex
100
AcDb2dVertex
 10
53.30838975110078
 20
-145.2572730192411
 30
0.0
  0
VERTEX
  5
44
330
41
100
AcDbEntity
  8
_U+30EC_U+30A4_U+30E4_U+30FC 1
370
     0
100
AcDbVertex
100
AcDb2dVertex
 10
53.45546280290419
 20
-145.2865535747895
 30
0.0
  0
VERTEX
  5
45
330
41
100
AcDbEntity
  8
_U+30EC_U+30A4_U+30E4_U+30FC 1
370
     0
100
AcDbVertex
100
AcDb2dVertex
 10
89.55630549300608
 20
-132.5569555224165
 30
0.0
  0
VERTEX
  5
46
330
41
100
AcDbEntity
  8
_U+30EC_U+30A4_U+30E4_U+30FC 1
370
     0
100
AcDbVertex
100
AcDb2dVertex
 10
89.75474298794352
 20
-132.3981349669002
 30
0.0
  0
VERTEX
  5
47
330
41
100
AcDbEntity
  8
_U+30EC_U+30A4_U+30E4_U+30FC 1
370
     0
100
AcDbVertex
100
AcDb2dVertex
 10
90.12988686726169
 20
-132.4422321891114
 30
0.0
  0
VERTEX
  5
48
330
41
100
AcDbEntity
  8
_U+30EC_U+30A4_U+30E4_U+30FC 1
370
     0
100
AcDbVertex
100
AcDb2dVertex
 10
122.7762943677158
 20
-120.8270944142378
 30
0.0
  0
VERTEX
  5
49
330
41
100
AcDbEntity
  8
_U+30EC_U+30A4_U+30E4_U+30FC 1
370
     0
100
AcDbVertex
100
AcDb2dVertex
 10
122.7762943677158
 20
-118.9450249702639
 30
0.0
  0
VERTEX
  5
4A
330
41
100
AcDbEntity
  8
_U+30EC_U+30A4_U+30E4_U+30FC 1
370
     0
100
AcDbVertex
100
AcDb2dVertex
 10
124.3049157176063
 20
-118.4013944148442
 30
0.0
  0
VERTEX
  5
4B
330
41
100
AcDbEntity
  8
_U+30EC_U+30A4_U+30E4_U+30FC 1
370
     0
100
AcDbVertex
100
AcDb2dVertex
 10
124.3049157176063
 20
-115.5345458044497
 30
0.0
  0
VERTEX
  5
4C
330
41
100
AcDbEntity
  8
_U+30EC_U+30A4_U+30E4_U+30FC 1
370
     0
100
AcDbVertex
100
AcDb2dVertex
 10
123.0701935268845
 20
-115.0053791379153
 30
0.0
  0
VERTEX
  5
4D
330
41
100
AcDbEntity
  8
_U+30EC_U+30A4_U+30E4_U+30FC 1
370
     0
100
AcDbVertex
100
AcDb2dVertex
 10
89.75474298794352
 20
-126.3612958017432
 30
0.0
  0
VERTEX
  5
4E
330
41
100
AcDbEntity
  8
_U+30EC_U+30A4_U+30E4_U+30FC 1
370
     0
100
AcDbVertex
100
AcDb2dVertex
 10
53.19814669835777
 20
-138.9510527430402
 30
0.0
  0
VERTEX
  5
4F
330
41
100
AcDbEntity
  8
_U+30EC_U+30A4_U+30E4_U+30FC 1
370
     0
100
AcDbVertex
100
AcDb2dVertex
 10
53.07308697932608
 20
-139.0237249652443
 30
0.0
  0
SEQEND
  5
51
330
41
100
AcDbEntity
  8
_U+30EC_U+30A4_U+30E4_U+30FC 1
370
     0
  0
HATCH
  5
50
330
1F
100
AcDbEntity
  8
_U+30EC_U+30A4_U+30E4_U+30FC 1
 62
     9
420
 13224394
100
AcDbHatch
 10
0.0
 20
0.0
 30
0.0
210
0.0
220
0.0
230
1.0
  2
SOLID
 70
     1
 71
     0
 91
        1
 92
        1
 93
       13
 72
     1
 10
53.07308697932608
 20
-139.0237249652443
 11
53.30838975110078
 21
-145.2572730192411
 72
     1
 10
53.30838975110078
 20
-145.2572730192411
 11
53.45546280290419
 21
-145.2865535747895
 72
     1
 10
53.45546280290419
 20
-145.2865535747895
 11
89.55630549300608
 21
-132.5569555224165
 72
     1
 10
89.55630549300608
 20
-132.5569555224165
 11
89.75474298794352
 21
-132.3981349669002
 72
     1
 10
89.75474298794352
 20
-132.3981349669002
 11
90.12988686726169
 21
-132.4422321891114
 72
     1
 10
90.12988686726169
 20
-132.4422321891114
 11
122.7762943677158
 21
-120.8270944142378
 72
     1
 10
122.7762943677158
 20
-120.8270944142378
 11
122.7762943677158
 21
-118.9450249702639
 72
     1
 10
122.7762943677158
 20
-118.9450249702639
 11
124.3049157176063
 21
-118.4013944148442
 72
     1
 10
124.3049157176063
 20
-118.4013944148442
 11
124.3049157176063
 21
-115.5345458044497
 72
     1
 10
124.3049157176063
 20
-115.5345458044497
 11
123.0701935268845
 21
-115.0053791379153
 72
     1
 10
123.0701935268845
 20
-115.0053791379153
 11
89.75474298794352
 21
-126.3612958017432
 72
     1
 10
89.75474298794352
 20
-126.3612958017432
 11
53.19814669835777
 21
-138.9510527430402
 72
     1
 10
53.19814669835777
 20
-138.9510527430402
 11
53.07308697932608
 21
-139.0237249652443
 97
        0
 75
     2
 76
     1
 98
        0
  0
INSERT
  5
53
330
1F
100
AcDbEntity
  8
_U+30EC_U+30A4_U+30E4_U+30FC 1
100
AcDbBlockReference
  2
block 2
 10
0.0
 20
0.0
 30
0.0
  0
INSERT
  5
5F
330
1F
100
AcDbEntity
  8
_U+30EC_U+30A4_U+30E4_U+30FC 1
100
AcDbBlockReference
  2
block 3
 10
0.0
 20
0.0
 30
0.0
  0
INSERT
  5
6C
330
1F
100
AcDbEntity
  8
_U+30EC_U+30A4_U+30E4_U+30FC 1
100
AcDbBlockReference
  2
block 4
 10
0.0
 20
0.0
 30
0.0
  0
INSERT
  5
78
330
1F
100
AcDbEntity
  8
_U+30EC_U+30A4_U+30E4_U+30FC 1
100
AcDbBlockReference
  2
block 5
 10
0.0
 20
0.0
 30
0.0
  0
ENDSEC
  0
SECTION
  2
OBJECTS
  0
DICTIONARY
  5
C
330
0
100
AcDbDictionary
281
     1
  3
ACAD_GROUP
350
D
  3
ACAD_LAYOUT
350
1A
  3
ACAD_MATERIAL
350
3B
  3
ACAD_MLEADERSTYLE
350
ED
  3
ACAD_MLINESTYLE
350
17
  3
ACAD_PLOTSETTINGS
350
19
  3
ACAD_PLOTSTYLENAME
350
E
  3
ACAD_TABLESTYLE
350
EC
  3
ACAD_VISUALSTYLE
350
2A
  0
SUN
  5
3F
330
29
100
AcDbSun
 90
        1
290
     0
 63
     7
421
 16777215
 40
1.0
291
     1
 91
  2455826
 92
 54000000
292
     0
 70
     2
 71
   256
280
     1
  0
DICTIONARY
  5
D
102
{ACAD_REACTORS
330
C
102
}
330
C
100
AcDbDictionary
281
     1
  0
DICTIONARY
  5
1A
102
{ACAD_REACTORS
330
C
102
}
330
C
100
AcDbDictionary
281
     1
  3
Layout1
350
1E
  3
Layout2
350
26
  3
Model
350
22
  0
DICTIONARY
  5
3B
102
{ACAD_REACTORS
330
C
102
}
330
C
100
AcDbDictionary
281
     1
  3
ByBlock
350
3D
  3
ByLayer
350
3C
  3
Global
350
3E
  0
DICTIONARY
  5
ED
102
{ACAD_REACTORS
330
C
102
}
330
C
100
AcDbDictionary
281
     1
  0
DICTIONARY
  5
17
102
{ACAD_REACTORS
330
C
102
}
330
C
100
AcDbDictionary
281
     1
  3
Standard
350
18
  0
DICTIONARY
  5
19
102
{ACAD_REACTORS
330
C
102
}
330
C
100
AcDbDictionary
281
     1
  0
ACDBDICTIONARYWDFLT
  5
E
102
{ACAD_REACTORS
330
C
102
}
330
C
100
AcDbDictionary
281
     1
  3
Normal
350
F
100
AcDbDictionaryWithDefault
340
F
  0
DICTIONARY
  5
EC
102
{ACAD_REACTORS
330
C
102
}
330
C
100
AcDbDictionary
281
     1
  0
DICTIONARY
  5
2A
102
{ACAD_REACTORS
330
C
102
}
330
C
100
AcDbDictionary
281
     1
  3
2dWireframe
350
2F
  3
3D Hidden
350
31
  3
3dWireframe
350
30
  3
Basic
350
32
  3
Brighten
350
36
  3
ColorChange
350
3A
  3
Conceptual
350
34
  3
Dim
350
35
  3
Facepattern
350
39
  3
Flat
350
2B
  3
FlatWithEdges
350
2C
  3
Gouraud
350
2D
  3
GouraudWithEdges
350
2E
  3
Linepattern
350
38
  3
Realistic
350
33
  3
Thicken
350
37
  0
LAYOUT
  5
1E
102
{ACAD_REACTORS
330
1A
102
}
330
1A
100
AcDbPlotSettings
  1

  2
none_device
  4

  6

 40
0.0
 41
0.0
 42
0.0
 43
0.0
 44
0.0
 45
0.0
 46
0.0
 47
0.0
 48
0.0
 49
0.0
140
0.0
141
0.0
142
1.0
143
1.0
 70
   688
 72
     0
 73
     0
 74
     5
  7

 75
    16
 76
     0
 77
     2
 78
   300
147
1.0
148
0.0
149
0.0
100
AcDbLayout
  1
Layout1
 70
     1
 71
     1
 10
0.0
 20
0.0
 11
12.0
 21
9.0
 12
0.0
 22
0.0
 32
0.0
 14
1.000000000000000E+20
 24
1.000000000000000E+20
 34
1.000000000000000E+20
 15
-1.000000000000000E+20
 25
-1.000000000000000E+20
 35
-1.000000000000000E+20
146
0.0
 13
0.0
 23
0.0
 33
0.0
 16
1.0
 26
0.0
 36
0.0
 17
0.0
 27
1.0
 37
0.0
 76
     0
330
1B
  0
LAYOUT
  5
26
102
{ACAD_REACTORS
330
1A
102
}
330
1A
100
AcDbPlotSettings
  1

  2
none_device
  4

  6

 40
0.0
 41
0.0
 42
0.0
 43
0.0
 44
0.0
 45
0.0
 46
0.0
 47
0.0
 48
0.0
 49
0.0
140
0.0
141
0.0
142
1.0
143
1.0
 70
   688
 72
     0
 73
     0
 74
     5
  7

 75
    16
 76
     0
 77
     2
 78
   300
147
1.0
148
0.0
149
0.0
100
AcDbLayout
  1
Layout2
 70
     1
 71
     2
 10
0.0
 20
0.0
 11
0.0
 21
0.0
 12
0.0
 22
0.0
 32
0.0
 14
0.0
 24
0.0
 34
0.0
 15
0.0
 25
0.0
 35
0.0
146
0.0
 13
0.0
 23
0.0
 33
0.0
 16
1.0
 26
0.0
 36
0.0
 17
0.0
 27
1.0
 37
0.0
 76
     0
330
23
  0
LAYOUT
  5
22
102
{ACAD_REACTORS
330
1A
102
}
330
1A
100
AcDbPlotSettings
  1

  2
none_device
  4

  6

 40
0.0
 41
0.0
 42
0.0
 43
0.0
 44
0.0
 45
0.0
 46
0.0
 47
0.0
 48
0.0
 49
0.0
140
0.0
141
0.0
142
1.0
143
1.0
 70
  1712
 72
     0
 73
     0
 74
     0
  7

 75
     0
 76
     0
 77
     2
 78
   300
147
1.0
148
0.0
149
0.0
100
AcDbLayout
  1
Model
 70
     1
 71
     0
 10
0.0
 20
0.0
 11
12.0
 21
9.0
 12
0.0
 22
0.0
 32
0.0
 14
1.000000000000000E+20
 24
1.000000000000000E+20
 34
1.000000000000000E+20
 15
-1.000000000000000E+20
 25
-1.000000000000000E+20
 35
-1.000000000000000E+20
146
0.0
 13
0.0
 23
0.0
 33
0.0
 16
1.0
 26
0.0
 36
0.0
 17
0.0
 27
1.0
 37
0.0
 76
     0
330
1F
331
29
  0
MATERIAL
  5
3D
102
{ACAD_REACTORS
330
3B
102
}
330
3B
100
AcDbMaterial
  1
ByBlock
 72
     1
 94
      127
  0
MATERIAL
  5
3C
102
{ACAD_REACTORS
330
3B
102
}
330
3B
100
AcDbMaterial
  1
ByLayer
 72
     1
 94
      127
  0
MATERIAL
  5
3E
102
{ACAD_REACTORS
330
3B
102
}
330
3B
100
AcDbMaterial
  1
Global
 72
     1
 94
      127
  0
MLINESTYLE
  5
18
102
{ACAD_REACTORS
330
17
102
}
330
17
100
AcDbMlineStyle
  2
Standard
 70
     0
  3

 62
   256
 51
90.0
 52
90.0
 71
     2
 49
0.5
 62
   256
  6
BYLAYER
 49
-0.5
 62
   256
  6
BYLAYER
  0
ACDBPLACEHOLDER
  5
F
102
{ACAD_REACTORS
330
E
102
}
330
E
  0
VISUALSTYLE
  5
2F
102
{ACAD_REACTORS
330
2A
102
}
330
2A
100
AcDbVisualStyle
  2
2dWireframe
 70
     4
177
     2
291
     0
 71
     0
176
     1
 72
     2
176
     1
 73
     0
176
     1
 90
        0
176
     1
 40
-0.6
176
     1
 41
-30.0
176
     1
 62
     5
 63
     7
421
 16777215
176
     1
 74
     1
176
     1
 91
        4
176
     1
 64
     7
176
     1
 65
   257
176
     1
 75
     1
176
     1
175
     1
176
     1
 42
1.0
176
     1
 92
        0
176
     1
 66
   257
176
     1
 43
1.0
176
     1
 76
     1
176
     1
 77
     6
176
     1
 78
     2
176
     1
 67
     7
176
     1
 79
     5
176
     1
170
     0
176
     1
171
     0
176
     1
290
     0
176
     1
 93
        1
176
     1
 44
0.0
176
     1
173
     0
176
     1
  0
VISUALSTYLE
  5
31
102
{ACAD_REACTORS
330
2A
102
}
330
2A
100
AcDbVisualStyle
  2
3D Hidden
 70
     6
177
     2
291
     0
 71
     1
176
     1
 72
     2
176
     1
 73
     2
176
     1
 90
        0
176
     1
 40
-0.6
176
     1
 41
-30.0
176
     1
 62
     5
 63
     7
421
 16777215
176
     1
 74
     2
176
     1
 91
        2
176
     1
 64
     7
176
     1
 65
   257
176
     1
 75
     2
176
     1
175
     1
176
     1
 42
40.0
176
     1
 92
        0
176
     1
 66
   257
176
     1
 43
1.0
176
     1
 76
     1
176
     1
 77
     6
176
     1
 78
     2
176
     1
 67
     7
176
     1
 79
     3
176
     1
170
     0
176
     1
171
     0
176
     1
290
     0
176
     1
 93
        1
176
     1
 44
0.0
176
     1
173
     0
176
     1
  0
VISUALSTYLE
  5
30
102
{ACAD_REACTORS
330
2A
102
}
330
2A
100
AcDbVisualStyle
  2
3dWireframe
 70
     5
177
     2
291
     0
 71
     0
176
     1
 72
     2
176
     1
 73
     0
176
     1
 90
        0
176
     1
 40
-0.6
176
     1
 41
-30.0
176
     1
 62
     5
 63
     7
421
 16777215
176
     1
 74
     1
176
     1
 91
        4
176
     1
 64
     7
176
     1
 65
   257
176
     1
 75
     1
176
     1
175
     1
176
     1
 42
1.0
176
     1
 92
        0
176
     1
 66
   257
176
     1
 43
1.0
176
     1
 76
     1
176
     1
 77
     6
176
     1
 78
     2
176
     1
 67
     7
176
     1
 79
     5
176
     1
170
     0
176
     1
171
     0
176
     1
290
     0
176
     1
 93
        1
176
     1
 44
0.0
176
     1
173
     0
176
     1
  0
VISUALSTYLE
  5
32
102
{ACAD_REACTORS
330
2A
102
}
330
2A
100
AcDbVisualStyle
  2
Basic
 70
     7
177
     2
291
     1
 71
     1
176
     1
 72
     0
176
     1
 73
     1
176
     1
 90
        0
176
     1
 40
-0.6
176
     1
 41
-30.0
176
     1
 62
     5
 63
     7
421
 16777215
176
     1
 74
     0
176
     1
 91
        4
176
     1
 64
     7
176
     1
 65
   257
176
     1
 75
     1
176
     1
175
     1
176
     1
 42
1.0
176
     1
 92
        8
176
     1
 66
     7
176
     1
 43
1.0
176
     1
 76
     1
176
     1
 77
     6
176
     1
 78
     2
176
     1
 67
     7
176
     1
 79
     5
176
     1
170
     0
176
     1
171
     0
176
     1
290
     0
176
     1
 93
        1
176
     1
 44
0.0
176
     1
173
     0
176
     1
  0
VISUALSTYLE
  5
36
102
{ACAD_REACTORS
330
2A
102
}
330
2A
100
AcDbVisualStyle
  2
Brighten
 70
    12
177
     2
291
     1
 71
     2
176
     1
 72
     2
176
     1
 73
     0
176
     1
 90
        0
176
     1
 40
-0.6
176
     1
 41
-30.0
176
     1
 62
     5
 63
     7
421
 16777215
176
     1
 74
     1
176
     1
 91
        4
176
     1
 64
     7
176
     1
 65
   257
176
     1
 75
     1
176
     1
175
     1
176
     1
 42
1.0
176
     1
 92
        8
176
     1
 66
     7
176
     1
 43
1.0
176
     1
 76
     1
176
     1
 77
     6
176
     1
 78
     2
176
     1
 67
     7
176
     1
 79
     5
176
     1
170
     0
176
     1
171
     0
176
     1
290
     0
176
     1
 93
        1
176
     1
 44
50.0
176
     1
173
     0
176
     1
  0
VISUALSTYLE
  5
3A
102
{ACAD_REACTORS
330
2A
102
}
330
2A
100
AcDbVisualStyle
  2
ColorChange
 70
    16
177
     2
291
     1
 71
     2
176
     1
 72
     2
176
     1
 73
     3
176
     1
 90
        0
176
     1
 40
-0.6
176
     1
 41
-30.0
176
     1
 62
     5
 63
     8
421
  8421504
176
     1
 74
     1
176
     1
 91
        4
176
     1
 64
     7
176
     1
 65
   257
176
     1
 75
     1
176
     1
175
     1
176
     1
 42
1.0
176
     1
 92
        8
176
     1
 66
     8
424
  8421504
176
     1
 43
1.0
176
     1
 76
     1
176
     1
 77
     6
176
     1
 78
     2
176
     1
 67
     7
176
     1
 79
     5
176
     1
170
     0
176
     1
171
     0
176
     1
290
     0
176
     1
 93
        1
176
     1
 44
0.0
176
     1
173
     0
176
     1
  0
VISUALSTYLE
  5
34
102
{ACAD_REACTORS
330
2A
102
}
330
2A
100
AcDbVisualStyle
  2
Conceptual
 70
     9
177
     2
291
     0
 71
     3
176
     1
 72
     2
176
     1
 73
     0
176
     1
 90
        0
176
     1
 40
-0.6
176
     1
 41
-30.0
176
     1
 62
     5
 63
     7
421
 16777215
176
     1
 74
     2
176
     1
 91
        2
176
     1
 64
     7
176
     1
 65
   257
176
     1
 75
     1
176
     1
175
     1
176
     1
 42
40.0
176
     1
 92
        8
176
     1
 66
     7
176
     1
 43
1.0
176
     1
 76
     1
176
     1
 77
     6
176
     1
 78
     2
176
     1
 67
     7
176
     1
 79
     3
176
     1
170
     0
176
     1
171
     0
176
     1
290
     0
176
     1
 93
        1
176
     1
 44
0.0
176
     1
173
     0
176
     1
  0
VISUALSTYLE
  5
35
102
{ACAD_REACTORS
330
2A
102
}
330
2A
100
AcDbVisualStyle
  2
Dim
 70
    11
177
     2
291
     1
 71
     2
176
     1
 72
     2
176
     1
 73
     0
176
     1
 90
        0
176
     1
 40
-0.6
176
     1
 41
-30.0
176
     1
 62
     5
 63
     7
421
 16777215
176
     1
 74
     1
176
     1
 91
        4
176
     1
 64
     7
176
     1
 65
   257
176
     1
 75
     1
176
     1
175
     1
176
     1
 42
1.0
176
     1
 92
        8
176
     1
 66
     7
176
     1
 43
1.0
176
     1
 76
     1
176
     1
 77
     6
176
     1
 78
     2
176
     1
 67
     7
176
     1
 79
     5
176
     1
170
     0
176
     1
171
     0
176
     1
290
     0
176
     1
 93
        1
176
     1
 44
-50.0
176
     1
173
     0
176
     1
  0
VISUALSTYLE
  5
39
102
{ACAD_REACTORS
330
2A
102
}
330
2A
100
AcDbVisualStyle
  2
Facepattern
 70
    15
177
     2
291
     1
 71
     2
176
     1
 72
     2
176
     1
 73
     0
176
     1
 90
        0
176
     1
 40
-0.6
176
     1
 41
-30.0
176
     1
 62
     5
 63
     7
421
 16777215
176
     1
 74
     1
176
     1
 91
        4
176
     1
 64
     7
176
     1
 65
   257
176
     1
 75
     1
176
     1
175
     1
176
     1
 42
1.0
176
     1
 92
        8
176
     1
 66
     7
176
     1
 43
1.0
176
     1
 76
     1
176
     1
 77
     6
176
     1
 78
     2
176
     1
 67
     7
176
     1
 79
     5
176
     1
170
     0
176
     1
171
     0
176
     1
290
     0
176
     1
 93
        1
176
     1
 44
0.0
176
     1
173
     0
176
     1
  0
VISUALSTYLE
  5
2B
102
{ACAD_REACTORS
330
2A
102
}
330
2A
100
AcDbVisualStyle
  2
Flat
 70
     0
177
     2
291
     1
 71
     2
176
     1
 72
     1
176
     1
 73
     1
176
     1
 90
        2
176
     1
 40
-0.6
176
     1
 41
30.0
176
     1
 62
     5
 63
     7
421
 16777215
176
     1
 74
     0
176
     1
 91
        4
176
     1
 64
     7
176
     1
 65
   257
176
     1
 75
     1
176
     1
175
     1
176
     1
 42
1.0
176
     1
 92
        8
176
     1
 66
     7
176
     1
 43
1.0
176
     1
 76
     1
176
     1
 77
     6
176
     1
 78
     2
176
     1
 67
     7
176
     1
 79
     5
176
     1
170
     0
176
     1
171
     0
176
     1
290
     0
176
     1
 93
       13
176
     1
 44
0.0
176
     1
173
     0
176
     1
  0
VISUALSTYLE
  5
2C
102
{ACAD_REACTORS
330
2A
102
}
330
2A
100
AcDbVisualStyle
  2
FlatWithEdges
 70
     1
177
     2
291
     1
 71
     2
176
     1
 72
     1
176
     1
 73
     1
176
     1
 90
        2
176
     1
 40
-0.6
176
     1
 41
30.0
176
     1
 62
     5
 63
     7
421
 16777215
176
     1
 74
     1
176
     1
 91
        4
176
     1
 64
     7
176
     1
 65
   257
176
     1
 75
     1
176
     1
175
     1
176
     1
 42
1.0
176
     1
 92
        0
176
     1
 66
   257
176
     1
 43
1.0
176
     1
 76
     1
176
     1
 77
     6
176
     1
 78
     2
176
     1
 67
     7
176
     1
 79
     5
176
     1
170
     0
176
     1
171
     0
176
     1
290
     0
176
     1
 93
       13
176
     1
 44
0.0
176
     1
173
     0
176
     1
  0
VISUALSTYLE
  5
2D
102
{ACAD_REACTORS
330
2A
102
}
330
2A
100
AcDbVisualStyle
  2
Gouraud
 70
     2
177
     2
291
     1
 71
     2
176
     1
 72
     2
176
     1
 73
     1
176
     1
 90
        2
176
     1
 40
-0.6
176
     1
 41
30.0
176
     1
 62
     5
 63
     7
421
 16777215
176
     1
 74
     0
176
     1
 91
        4
176
     1
 64
     7
176
     1
 65
   257
176
     1
 75
     1
176
     1
175
     1
176
     1
 42
1.0
176
     1
 92
        0
176
     1
 66
     7
176
     1
 43
1.0
176
     1
 76
     1
176
     1
 77
     6
176
     1
 78
     2
176
     1
 67
     7
176
     1
 79
     5
176
     1
170
     0
176
     1
171
     0
176
     1
290
     0
176
     1
 93
       13
176
     1
 44
0.0
176
     1
173
     0
176
     1
  0
VISUALSTYLE
  5
2E
102
{ACAD_REACTORS
330
2A
102
}
330
2A
100
AcDbVisualStyle
  2
GouraudWithEdges
 70
     3
177
     2
291
     1
 71
     2
176
     1
 72
     2
176
     1
 73
     1
176
     1
 90
        2
176
     1
 40
-0.6
176
     1
 41
30.0
176
     1
 62
     5
 63
     7
421
 16777215
176
     1
 74
     1
176
     1
 91
        4
176
     1
 64
     7
176
     1
 65
   257
176
     1
 75
     1
176
     1
175
     1
176
     1
 42
1.0
176
     1
 92
        0
176
     1
 66
   257
176
     1
 43
1.0
176
     1
 76
     1
176
     1
 77
     6
176
     1
 78
     2
176
     1
 67
     7
176
     1
 79
     5
176
     1
170
     0
176
     1
171
     0
176
     1
290
     0
176
     1
 93
       13
176
     1
 44
0.0
176
     1
173
     0
176
     1
  0
VISUALSTYLE
  5
38
102
{ACAD_REACTORS
330
2A
102
}
330
2A
100
AcDbVisualStyle
  2
Linepattern
 70
    14
177
     2
291
     1
 71
     2
176
     1
 72
     2
176
     1
 73
     0
176
     1
 90
        0
176
     1
 40
-0.6
176
     1
 41
-30.0
176
     1
 62
     5
 63
     7
421
 16777215
176
     1
 74
     1
176
     1
 91
        4
176
     1
 64
     7
176
     1
 65
   257
176
     1
 75
     7
176
     1
175
     7
176
     1
 42
1.0
176
     1
 92
        8
176
     1
 66
     7
176
     1
 43
1.0
176
     1
 76
     1
176
     1
 77
     6
176
     1
 78
     2
176
     1
 67
     7
176
     1
 79
     5
176
     1
170
     0
176
     1
171
     0
176
     1
290
     0
176
     1
 93
        1
176
     1
 44
0.0
176
     1
173
     0
176
     1
  0
VISUALSTYLE
  5
33
102
{ACAD_REACTORS
330
2A
102
}
330
2A
100
AcDbVisualStyle
  2
Realistic
 70
     8
177
     2
291
     0
 71
     2
176
     1
 72
     2
176
     1
 73
     0
176
     1
 90
        0
176
     1
 40
-0.6
176
     1
 41
-30.0
176
     1
 62
     5
 63
     7
421
 16777215
176
     1
 74
     1
176
     1
 91
        0
176
     1
 64
     7
176
     1
 65
   257
176
     1
 75
     1
176
     1
175
     1
176
     1
 42
1.0
176
     1
 92
        8
176
     1
 66
     8
424
  7895160
176
     1
 43
1.0
176
     1
 76
     1
176
     1
 77
     6
176
     1
 78
     2
176
     1
 67
     7
176
     1
 79
     5
176
     1
170
     0
176
     1
171
     0
176
     1
290
     0
176
     1
 93
       13
176
     1
 44
0.0
176
     1
173
     0
176
     1
  0
VISUALSTYLE
  5
37
102
{ACAD_REACTORS
330
2A
102
}
330
2A
100
AcDbVisualStyle
  2
Thicken
 70
    13
177
     2
291
     1
 71
     2
176
     1
 72
     2
176
     1
 73
     0
176
     1
 90
        0
176
     1
 40
-0.6
176
     1
 41
-30.0
176
     1
 62
     5
 63
     7
421
 16777215
176
     1
 74
     1
176
     1
 91
        4
176
     1
 64
     7
176
     1
 65
   257
176
     1
 75
     1
176
     1
175
     1
176
     1
 42
1.0
176
     1
 92
       12
176
     1
 66
     7
176
     1
 43
1.0
176
     1
 76
     1
176
     1
 77
     6
176
     1
 78
     2
176
     1
 67
     7
176
     1
 79
     5
176
     1
170
     0
176
     1
171
     0
176
     1
290
     0
176
     1
 93
        1
176
     1
 44
0.0
176
     1
173
     0
176
     1
  0
ENDSEC
  0
EOF
