  0
SECTION
  2
HEADER
  9
$ACADVER
  1
AC1024
  9
$ACADMAINTVER
 70
     6
  9
$DWGCODEPAGE
  3
UNDEFINED
  9
$INSBASE
 10
0.0
 20
0.0
 30
0.0
  9
$EXTMIN
 10
1.000000000000000E+20
 20
1.000000000000000E+20
 30
1.000000000000000E+20
  9
$EXTMAX
 10
-1.000000000000000E+20
 20
-1.000000000000000E+20
 30
-1.000000000000000E+20
  9
$LIMMIN
 10
0.0
 20
0.0
  9
$LIMMAX
 10
12.0
 20
9.0
  9
$ORTHOMODE
 70
     0
  9
$REGENMODE
 70
     1
  9
$FILLMODE
 70
     1
  9
$QTEXTMODE
 70
     0
  9
$MIRRTEXT
 70
     1
  9
$LTSCALE
 40
1.0
  9
$ATTMODE
 70
     1
  9
$TEXTSIZE
 40
0.2
  9
$TRACEWID
 40
0.05
  9
$TEXTSTYLE
  7
Standard
  9
$CLAYER
  8
0
  9
$CELTYPE
  6
ByLayer
  9
$CECOLOR
 62
   256
  9
$CELTSCALE
 40
1.0
  9
$DISPSILH
 70
     0
  9
$DIMSCALE
 40
1.0
  9
$DIMASZ
 40
0.18
  9
$DIMEXO
 40
0.0625
  9
$DIMDLI
 40
0.38
  9
$DIMRND
 40
0.0
  9
$DIMDLE
 40
0.0
  9
$DIMEXE
 40
0.18
  9
$DIMTP
 40
0.0
  9
$DIMTM
 40
0.0
  9
$DIMTXT
 40
0.18
  9
$DIMCEN
 40
0.09
  9
$DIMTSZ
 40
0.0
  9
$DIMTOL
 70
     0
  9
$DIMLIM
 70
     0
  9
$DIMTIH
 70
     1
  9
$DIMTOH
 70
     1
  9
$DIMSE1
 70
     0
  9
$DIMSE2
 70
     0
  9
$DIMTAD
 70
     0
  9
$DIMZIN
 70
     0
  9
$DIMBLK
  1

  9
$DIMASO
 70
     1
  9
$DIMSHO
 70
     1
  9
$DIMPOST
  1

  9
$DIMAPOST
  1

  9
$DIMALT
 70
     0
  9
$DIMALTD
 70
     2
  9
$DIMALTF
 40
25.4
  9
$DIMLFAC
 40
1.0
  9
$DIMTOFL
 70
     0
  9
$DIMTVP
 40
0.0
  9
$DIMTIX
 70
     0
  9
$DIMSOXD
 70
     0
  9
$DIMSAH
 70
     0
  9
$DIMBLK1
  1

  9
$DIMBLK2
  1

  9
$DIMSTYLE
  2
Standard
  9
$DIMCLRD
 70
     0
  9
$DIMCLRE
 70
     0
  9
$DIMCLRT
 70
     0
  9
$DIMTFAC
 40
1.0
  9
$DIMGAP
 40
0.09
  9
$DIMJUST
 70
     0
  9
$DIMSD1
 70
     0
  9
$DIMSD2
 70
     0
  9
$DIMTOLJ
 70
     1
  9
$DIMTZIN
 70
     0
  9
$DIMALTZ
 70
     0
  9
$DIMALTTZ
 70
     0
  9
$DIMUPT
 70
     0
  9
$DIMDEC
 70
     4
  9
$DIMTDEC
 70
     4
  9
$DIMALTU
 70
     2
  9
$DIMALTTD
 70
     2
  9
$DIMTXSTY
  7
Standard
  9
$DIMAUNIT
 70
     0
  9
$DIMADEC
 70
     0
  9
$DIMALTRND
 40
0.0
  9
$DIMAZIN
 70
     0
  9
$DIMDSEP
 70
    46
  9
$DIMATFIT
 70
     3
  9
$DIMFRAC
 70
     0
  9
$DIMLDRBLK
  1

  9
$DIMLUNIT
 70
     2
  9
$DIMLWD
 70
    -2
  9
$DIMLWE
 70
    -2
  9
$DIMTMOVE
 70
     0
  9
$DIMFXL
 40
1.0
  9
$DIMFXLON
 70
     0
  9
$DIMJOGANG
 40
0.7853981633974483
  9
$DIMTFILL
 70
     0
  9
$DIMTFILLCLR
 70
     0
  9
$DIMARCSYM
 70
     0
  9
$DIMLTYPE
  6

  9
$DIMLTEX1
  6

  9
$DIMLTEX2
  6

  9
$DIMTXTDIRECTION
 70
     0
  9
$LUNITS
 70
     2
  9
$LUPREC
 70
     4
  9
$SKETCHINC
 40
0.1
  9
$FILLETRAD
 40
0.5
  9
$AUNITS
 70
     0
  9
$AUPREC
 70
     0
  9
$MENU
  1
.
  9
$ELEVATION
 40
0.0
  9
$PELEVATION
 40
0.0
  9
$THICKNESS
 40
0.0
  9
$LIMCHECK
 70
     0
  9
$CHAMFERA
 40
0.5
  9
$CHAMFERB
 40
0.5
  9
$CHAMFERC
 40
1.0
  9
$CHAMFERD
 40
0.0
  9
$SKPOLY
 70
     0
  9
$TDCREATE
 40
2457917.617511574
  9
$TDUCREATE
 40
2457917.242511574
  9
$TDUPDATE
 40
2457917.617511574
  9
$TDUUPDATE
 40
2457917.242511574
  9
$TDINDWG
 40
0.0000000116
  9
$TDUSRTIMER
 40
0.0000000116
  9
$USRTIMER
 70
     1
  9
$ANGBASE
 50
0.0
  9
$ANGDIR
 70
     0
  9
$PDMODE
 70
     0
  9
$PDSIZE
 40
0.0
  9
$PLINEWID
 40
0.0
  9
$SPLFRAME
 70
     0
  9
$SPLINETYPE
 70
     6
  9
$SPLINESEGS
 70
     8
  9
$HANDSEED
  5
D2
  9
$SURFTAB1
 70
     6
  9
$SURFTAB2
 70
     6
  9
$SURFTYPE
 70
     6
  9
$SURFU
 70
     6
  9
$SURFV
 70
     6
  9
$UCSBASE
  2

  9
$UCSNAME
  2

  9
$UCSORG
 10
0.0
 20
0.0
 30
0.0
  9
$UCSXDIR
 10
1.0
 20
0.0
 30
0.0
  9
$UCSYDIR
 10
0.0
 20
1.0
 30
0.0
  9
$UCSORTHOREF
  2

  9
$UCSORTHOVIEW
 70
     0
  9
$UCSORGTOP
 10
0.0
 20
0.0
 30
0.0
  9
$UCSORGBOTTOM
 10
0.0
 20
0.0
 30
0.0
  9
$UCSORGLEFT
 10
0.0
 20
0.0
 30
0.0
  9
$UCSORGRIGHT
 10
0.0
 20
0.0
 30
0.0
  9
$UCSORGFRONT
 10
0.0
 20
0.0
 30
0.0
  9
$UCSORGBACK
 10
0.0
 20
0.0
 30
0.0
  9
$PUCSBASE
  2

  9
$PUCSNAME
  2

  9
$PUCSORG
 10
0.0
 20
0.0
 30
0.0
  9
$PUCSXDIR
 10
1.0
 20
0.0
 30
0.0
  9
$PUCSYDIR
 10
0.0
 20
1.0
 30
0.0
  9
$PUCSORTHOREF
  2

  9
$PUCSORTHOVIEW
 70
     0
  9
$PUCSORGTOP
 10
0.0
 20
0.0
 30
0.0
  9
$PUCSORGBOTTOM
 10
0.0
 20
0.0
 30
0.0
  9
$PUCSORGLEFT
 10
0.0
 20
0.0
 30
0.0
  9
$PUCSORGRIGHT
 10
0.0
 20
0.0
 30
0.0
  9
$PUCSORGFRONT
 10
0.0
 20
0.0
 30
0.0
  9
$PUCSORGBACK
 10
0.0
 20
0.0
 30
0.0
  9
$USERI1
 70
     0
  9
$USERI2
 70
     0
  9
$USERI3
 70
     0
  9
$USERI4
 70
     0
  9
$USERI5
 70
     0
  9
$USERR1
 40
0.0
  9
$USERR2
 40
0.0
  9
$USERR3
 40
0.0
  9
$USERR4
 40
0.0
  9
$USERR5
 40
0.0
  9
$WORLDVIEW
 70
     1
  9
$SHADEDGE
 70
     3
  9
$SHADEDIF
 70
    70
  9
$TILEMODE
 70
     1
  9
$MAXACTVP
 70
    64
  9
$PINSBASE
 10
0.0
 20
0.0
 30
0.0
  9
$PLIMCHECK
 70
     0
  9
$PEXTMIN
 10
1.000000000000000E+20
 20
1.000000000000000E+20
 30
1.000000000000000E+20
  9
$PEXTMAX
 10
-1.000000000000000E+20
 20
-1.000000000000000E+20
 30
-1.000000000000000E+20
  9
$PLIMMIN
 10
0.0
 20
0.0
  9
$PLIMMAX
 10
12.0
 20
9.0
  9
$UNITMODE
 70
     0
  9
$VISRETAIN
 70
     1
  9
$PLINEGEN
 70
     0
  9
$PSLTSCALE
 70
     1
  9
$TREEDEPTH
 70
  3020
  9
$CMLSTYLE
  2
Standard
  9
$CMLJUST
 70
     0
  9
$CMLSCALE
 40
1.0
  9
$PROXYGRAPHICS
 70
     1
  9
$MEASUREMENT
 70
     0
  9
$CELWEIGHT
370
    -1
  9
$ENDCAPS
280
     0
  9
$JOINSTYLE
280
     0
  9
$LWDISPLAY
290
     1
  9
$INSUNITS
 70
     1
  9
$HYPERLINKBASE
  1

  9
$STYLESHEET
  1

  9
$XEDIT
290
     1
  9
$CEPSNTYPE
380
     0
  9
$PSTYLEMODE
290
     1
  9
$FINGERPRINTGUID
  2
{2ED5980F-DCFC-4D4C-D9D0-41286CF85E36}
  9
$VERSIONGUID
  2
{FAEB1C32-E019-11D5-929B-00C0DF256EC4}
  9
$EXTNAMES
290
     1
  9
$PSVPSCALE
 40
0.0
  9
$OLESTARTUP
290
     0
  9
$SORTENTS
280
   127
  9
$INDEXCTL
280
     0
  9
$HIDETEXT
280
     1
  9
$XCLIPFRAME
280
     2
  9
$HALOGAP
280
     0
  9
$OBSCOLOR
 70
   257
  9
$OBSLTYPE
280
     0
  9
$INTERSECTIONDISPLAY
280
     0
  9
$INTERSECTIONCOLOR
 70
   257
  9
$DIMASSOC
280
     2
  9
$PROJECTNAME
  1

  9
$CAMERADISPLAY
290
     0
  9
$LENSLENGTH
 40
50.0
  9
$CAMERAHEIGHT
 40
0.0
  9
$STEPSPERSEC
 40
2.0
  9
$STEPSIZE
 40
6.0
  9
$3DDWFPREC
 40
2.0
  9
$PSOLWIDTH
 40
0.25
  9
$PSOLHEIGHT
 40
4.0
  9
$LOFTANG1
 40
1.570796326794897
  9
$LOFTANG2
 40
1.570796326794897
  9
$LOFTMAG1
 40
0.0
  9
$LOFTMAG2
 40
0.0
  9
$LOFTPARAM
 70
     7
  9
$LOFTNORMALS
280
     1
  9
$LATITUDE
 40
37.795
  9
$LONGITUDE
 40
-122.394
  9
$NORTHDIRECTION
 40
0.0
  9
$TIMEZONE
 70
 -8000
  9
$LIGHTGLYPHDISPLAY
280
     1
  9
$TILEMODELIGHTSYNCH
280
     1
  9
$CMATERIAL
347
3C
  9
$SOLIDHIST
280
     1
  9
$SHOWHIST
280
     1
  9
$DWFFRAME
280
     2
  9
$DGNFRAME
280
     2
  9
$REALWORLDSCALE
290
     1
  9
$INTERFERECOLOR
 62
   256
  9
$CSHADOW
280
     0
  9
$SHADOWPLANELOCATION
 40
0.0
  0
ENDSEC
  0
SECTION
  2
CLASSES
  0
CLASS
  1
ACDBDICTIONARYWDFLT
  2
AcDbDictionaryWithDefault
  3
ObjectDBX Classes
 90
        0
 91
        4
280
     0
281
     0
  0
CLASS
  1
VISUALSTYLE
  2
AcDbVisualStyle
  3
ObjectDBX Classes
 90
     4095
 91
        4
280
     0
281
     0
  0
CLASS
  1
MATERIAL
  2
AcDbMaterial
  3
ObjectDBX Classes
 90
     1153
 91
        4
280
     0
281
     0
  0
CLASS
  1
SUN
  2
AcDbSun
  3
SCENEOE
 90
     1024
 91
        4
280
     0
281
     0
  0
ENDSEC
  0
SECTION
  2
TABLES
  0
TABLE
  2
VPORT
  5
8
330
0
100
AcDbSymbolTable
 70
     1
  0
VPORT
  5
29
330
8
100
AcDbSymbolTableRecord
100
AcDbViewportTableRecord
  2
*Active
 70
     0
 10
0.0
 20
0.0
 11
1.0
 21
1.0
 12
0.0
 22
0.0
 13
0.0
 23
0.0
 14
0.5
 24
0.5
 15
0.5
 25
0.5
 16
0.0
 26
0.0
 36
1.0
 17
91.00082462281999
 27
-128.4993055234307
 37
0.0
 40
256.9986110468615
 41
0.7081814508812795
 42
50.0
 43
0.0
 44
0.0
 50
0.0
 51
0.0
 71
     0
 72
   100
 73
     1
 74
     3
 75
     0
 76
     0
 77
     0
 78
     0
281
     0
 65
     1
110
0.0
120
0.0
130
0.0
111
1.0
121
0.0
131
0.0
112
0.0
122
1.0
132
0.0
 79
     0
146
0.0
 60
     3
 61
     5
292
     1
282
     1
141
0.0
142
0.0
 63
   250
361
3F
  0
ENDTAB
  0
TABLE
  2
LTYPE
  5
5
330
0
100
AcDbSymbolTable
 70
     1
  0
LTYPE
  5
14
330
5
100
AcDbSymbolTableRecord
100
AcDbLinetypeTableRecord
  2
ByBlock
 70
     0
  3

 72
    65
 73
     0
 40
0.0
  0
LTYPE
  5
15
330
5
100
AcDbSymbolTableRecord
100
AcDbLinetypeTableRecord
  2
ByLayer
 70
     0
  3

 72
    65
 73
     0
 40
0.0
  0
LTYPE
  5
16
330
5
100
AcDbSymbolTableRecord
100
AcDbLinetypeTableRecord
  2
Continuous
 70
     0
  3
Solid line
 72
    65
 73
     0
 40
0.0
  0
ENDTAB
  0
TABLE
  2
LAYER
  5
2
330
0
100
AcDbSymbolTable
 70
     2
  0
LAYER
  5
10
330
2
100
AcDbSymbolTableRecord
100
AcDbLayerTableRecord
  2
0
 70
     0
 62
     7
  6
Continuous
370
    -3
390
F
347
3E
  0
LAYER
  5
40
330
2
100
AcDbSymbolTableRecord
100
AcDbLayerTableRecord
  2
_U+30EC_U+30A4_U+30E4_U+30FC 1
 70
     0
 62
     7
  6
Continuous
370
    -3
390
F
347
3E
  0
ENDTAB
  0
TABLE
  2
STYLE
  5
3
330
0
100
AcDbSymbolTable
 70
     1
  0
STYLE
  5
11
330
3
100
AcDbSymbolTableRecord
100
AcDbTextStyleTableRecord
  2
Standard
 70
     0
 40
0.0
 41
1.0
 50
0.0
 71
     0
 42
0.2
  3
txt
  4

  0
ENDTAB
  0
TABLE
  2
VIEW
  5
6
330
0
100
AcDbSymbolTable
 70
     0
  0
ENDTAB
  0
TABLE
  2
UCS
  5
7
330
0
100
AcDbSymbolTable
 70
     0
  0
ENDTAB
  0
TABLE
  2
APPID
  5
9
330
0
100
AcDbSymbolTable
 70
     1
  0
APPID
  5
12
330
9
100
AcDbSymbolTableRecord
100
AcDbRegAppTableRecord
  2
ACAD
 70
     0
  0
ENDTAB
  0
TABLE
  2
DIMSTYLE
  5
A
330
0
100
AcDbSymbolTable
 70
     1
100
AcDbDimStyleTable
  0
DIMSTYLE
105
27
330
A
100
AcDbSymbolTableRecord
100
AcDbDimStyleTableRecord
  2
Standard
 70
     0
178
     0
340
11
  0
ENDTAB
  0
TABLE
  2
BLOCK_RECORD
  5
1
330
0
100
AcDbSymbolTable
 70
     4
  0
BLOCK_RECORD
  5
1F
330
1
100
AcDbSymbolTableRecord
100
AcDbBlockTableRecord
  2
*Model_Space
340
22
 70
     0
280
     1
281
     0
  0
BLOCK_RECORD
  5
1B
330
1
100
AcDbSymbolTableRecord
100
AcDbBlockTableRecord
  2
*Paper_Space
340
1E
 70
     0
280
     1
281
     0
  0
BLOCK_RECORD
  5
23
330
1
100
AcDbSymbolTableRecord
100
AcDbBlockTableRecord
  2
*Paper_Space0
340
26
 70
     0
280
     1
281
     0
  0
BLOCK_RECORD
  5
74
330
1
100
AcDbSymbolTableRecord
100
AcDbBlockTableRecord
  2
block 2
340
0
102
{BLKREFS
331
75
102
}
 70
     0
280
     1
281
     0
  0
BLOCK_RECORD
  5
97
330
1
100
AcDbSymbolTableRecord
100
AcDbBlockTableRecord
  2
block 3
340
0
102
{BLKREFS
331
98
102
}
 70
     0
280
     1
281
     0
  0
BLOCK_RECORD
  5
BA
330
1
100
AcDbSymbolTableRecord
100
AcDbBlockTableRecord
  2
block 4
340
0
102
{BLKREFS
331
BB
102
}
 70
     0
280
     1
281
     0
  0
ENDTAB
  0
ENDSEC
  0
SECTION
  2
BLOCKS
  0
BLOCK
  5
20
330
1F
100
AcDbEntity
  8
0
100
AcDbBlockBegin
  2
*Model_Space
 70
     0
 10
0.0
 20
0.0
 30
0.0
  3
*Model_Space
  1

  0
ENDBLK
  5
21
330
1F
100
AcDbEntity
  8
0
100
AcDbBlockEnd
  0
BLOCK
  5
1C
330
1B
100
AcDbEntity
 67
     1
  8
0
100
AcDbBlockBegin
  2
*Paper_Space
 70
     0
 10
0.0
 20
0.0
 30
0.0
  3
*Paper_Space
  1

  0
ENDBLK
  5
1D
330
1B
100
AcDbEntity
 67
     1
  8
0
100
AcDbBlockEnd
  0
BLOCK
  5
24
330
23
100
AcDbEntity
  8
0
100
AcDbBlockBegin
  2
*Paper_Space0
 70
     0
 10
0.0
 20
0.0
 30
0.0
  3
*Paper_Space0
  1

  0
ENDBLK
  5
25
330
23
100
AcDbEntity
  8
0
100
AcDbBlockEnd
  0
BLOCK
  5
76
330
74
100
AcDbEntity
  8
0
100
AcDbBlockBegin
  2
block 2
 70
     0
 10
0.0
 20
0.0
 30
0.0
  3
block 2
  1

  0
SPLINE
  5
78
330
74
100
AcDbEntity
  8
_U+30EC_U+30A4_U+30E4_U+30FC 1
370
     0
100
AcDbSpline
210
0.0
220
0.0
230
1.0
 70
    11
 71
     3
 72
    62
 73
    58
 74
     0
 42
0.0000000001
 43
0.0000000001
 12
1.0
 22
0.0
 32
0.0
 13
1.0
 23
0.0
 33
0.0
 40
0.0
 40
0.0
 40
0.0
 40
0.0
 40
1.0
 40
1.0
 40
1.0
 40
2.0
 40
2.0
 40
2.0
 40
3.0
 40
3.0
 40
3.0
 40
4.0
 40
4.0
 40
4.0
 40
5.0
 40
5.0
 40
5.0
 40
6.0
 40
6.0
 40
6.0
 40
7.0
 40
7.0
 40
7.0
 40
8.0
 40
8.0
 40
8.0
 40
9.0
 40
9.0
 40
9.0
 40
10.0
 40
10.0
 40
10.0
 40
11.0
 40
11.0
 40
11.0
 40
12.0
 40
12.0
 40
12.0
 40
13.0
 40
13.0
 40
13.0
 40
14.0
 40
14.0
 40
14.0
 40
15.0
 40
15.0
 40
15.0
 40
16.0
 40
16.0
 40
16.0
 40
17.0
 40
17.0
 40
17.0
 40
18.0
 40
18.0
 40
18.0
 40
19.0
 40
19.0
 40
19.0
 40
19.0
 10
97.35495331767515
 20
-113.2709499499809
 30
0.0
 10
97.26400279686456
 20
-113.2413221288077
 30
0.0
 10
97.06349823962302
 20
-113.1538167034824
 30
0.0
 10
97.00217553998557
 20
-112.9381537261057
 30
0.0
 10
96.96634654693898
 20
-112.8086181358604
 30
0.0
 10
96.99321829172392
 20
-112.7128444813704
 30
0.0
 10
97.01526690282952
 20
-112.63119571837
 30
0.0
 10
97.01526690282952
 20
-112.63119571837
 30
0.0
 10
97.2247287083327
 20
-112.6990640994294
 30
0.0
 10
97.2247287083327
 20
-112.6990640994294
 30
0.0
 10
97.20336911632417
 20
-112.7703775759741
 30
0.0
 10
97.14135739758966
 20
-112.996720349355
 30
0.0
 10
97.41076386453621
 20
-113.0845702842289
 30
0.0
 10
97.5416774929757
 20
-113.1269449586974
 30
0.0
 10
97.70773109536474
 20
-113.10765242398
 30
0.0
 10
97.77870006236088
 20
-112.8902668988608
 30
0.0
 10
97.81452905540748
 20
-112.7796793337843
 30
0.0
 10
97.79351397294747
 20
-112.7214572200835
 30
0.0
 10
97.77318790958448
 20
-112.6814941124546
 30
0.0
 10
97.72564559188804
 20
-112.5881320248044
 30
0.0
 10
97.6188476318453
 20
-112.5402451975594
 30
0.0
 10
97.56648218046949
 20
-112.5233642296817
 30
0.0
 10
97.54856768394619
 20
-112.5175075673567
 30
0.0
 10
97.51342770999665
 20
-112.5082058095466
 30
0.0
 10
97.48621145566318
 20
-112.5037271854157
 30
0.0
 10
97.48621145566318
 20
-112.5037271854157
 30
0.0
 10
97.54650062665505
 20
-112.3183810483093
 30
0.0
 10
97.54650062665505
 20
-112.3183810483093
 30
0.0
 10
97.5802625624105
 20
-112.3362955448326
 30
0.0
 10
97.62022567003939
 20
-112.3514539649677
 30
0.0
 10
97.62642684191285
 20
-112.3535210222588
 30
0.0
 10
97.68843856064734
 20
-112.3738470856218
 30
0.0
 10
97.88411998420953
 20
-112.4151882314448
 30
0.0
 10
97.95750051804535
 20
-112.1898789867095
 30
0.0
 10
98.01227753626083
 20
-112.0207247983837
 30
0.0
 10
97.90479055712103
 20
-111.927707220282
 30
0.0
 10
97.80005965436943
 20
-111.8939452845265
 30
0.0
 10
97.54856768394619
 20
-111.8122965215261
 30
0.0
 10
97.4686414686884
 20
-112.0310600848395
 30
0.0
 10
97.4424587430005
 20
-112.0978949372533
 30
0.0
 10
97.4424587430005
 20
-112.0978949372533
 30
0.0
 10
97.24884437672947
 20
-112.0351941994218
 30
0.0
 10
97.24884437672947
 20
-112.0351941994218
 30
0.0
 10
97.29569767532885
 20
-111.9190944815688
 30
0.0
 10
97.4383246284182
 20
-111.569417289816
 30
0.0
 10
97.87309567865672
 20
-111.7106662047112
 30
0.0
 10
98.08600257964517
 20
-111.7799126239647
 30
0.0
 10
98.27617185043096
 20
-111.9752495379784
 30
0.0
 10
98.18453231052331
 20
-112.2567138391233
 30
0.0
 10
98.12734372546817
 20
-112.4337917470652
 30
0.0
 10
98.01089949806672
 20
-112.4830566125042
 30
0.0
 10
97.89790036615052
 20
-112.5106173763862
 30
0.0
 10
97.94750974113813
 20
-112.555748127243
 30
0.0
 10
98.09564884700387
 20
-112.6883843034251
 30
0.0
 10
98.01021047896967
 20
-112.9519341080467
 30
0.0
 10
97.90547957621808
 20
-113.2740505359176
 30
0.0
 10
97.61815861274825
 20
-113.3563883180151
 30
0.0
 10
97.35495331767515
 20
-113.2709499499809
 30
0.0
  0
HATCH
  5
79
330
74
100
AcDbEntity
  8
_U+30EC_U+30A4_U+30E4_U+30FC 1
 62
   179
420
  2234388
100
AcDbHatch
 10
0.0
 20
0.0
 30
0.0
210
0.0
220
0.0
230
1.0
  2
SOLID
 70
     1
 71
     0
 91
        1
 92
        1
 93
        1
 72
     4
 94
        3
 73
     0
 74
     1
 95
       62
 96
       58
 40
0.0
 40
0.0
 40
0.0
 40
0.0
 40
1.0
 40
1.0
 40
1.0
 40
2.0
 40
2.0
 40
2.0
 40
3.0
 40
3.0
 40
3.0
 40
4.0
 40
4.0
 40
4.0
 40
5.0
 40
5.0
 40
5.0
 40
6.0
 40
6.0
 40
6.0
 40
7.0
 40
7.0
 40
7.0
 40
8.0
 40
8.0
 40
8.0
 40
9.0
 40
9.0
 40
9.0
 40
10.0
 40
10.0
 40
10.0
 40
11.0
 40
11.0
 40
11.0
 40
12.0
 40
12.0
 40
12.0
 40
13.0
 40
13.0
 40
13.0
 40
14.0
 40
14.0
 40
14.0
 40
15.0
 40
15.0
 40
15.0
 40
16.0
 40
16.0
 40
16.0
 40
17.0
 40
17.0
 40
17.0
 40
18.0
 40
18.0
 40
18.0
 40
19.0
 40
19.0
 40
19.0
 40
19.0
 10
97.35495331767515
 20
-113.2709499499809
 10
97.26400279686456
 20
-113.2413221288077
 10
97.06349823962302
 20
-113.1538167034824
 10
97.00217553998557
 20
-112.9381537261057
 10
96.96634654693898
 20
-112.8086181358604
 10
96.99321829172392
 20
-112.7128444813704
 10
97.01526690282952
 20
-112.63119571837
 10
97.01526690282952
 20
-112.63119571837
 10
97.2247287083327
 20
-112.6990640994294
 10
97.2247287083327
 20
-112.6990640994294
 10
97.20336911632417
 20
-112.7703775759741
 10
97.14135739758966
 20
-112.996720349355
 10
97.41076386453621
 20
-113.0845702842289
 10
97.5416774929757
 20
-113.1269449586974
 10
97.70773109536474
 20
-113.10765242398
 10
97.77870006236088
 20
-112.8902668988608
 10
97.81452905540748
 20
-112.7796793337843
 10
97.79351397294747
 20
-112.7214572200835
 10
97.77318790958448
 20
-112.6814941124546
 10
97.72564559188804
 20
-112.5881320248044
 10
97.6188476318453
 20
-112.5402451975594
 10
97.56648218046949
 20
-112.5233642296817
 10
97.54856768394619
 20
-112.5175075673567
 10
97.51342770999665
 20
-112.5082058095466
 10
97.48621145566318
 20
-112.5037271854157
 10
97.48621145566318
 20
-112.5037271854157
 10
97.54650062665505
 20
-112.3183810483093
 10
97.54650062665505
 20
-112.3183810483093
 10
97.5802625624105
 20
-112.3362955448326
 10
97.62022567003939
 20
-112.3514539649677
 10
97.62642684191285
 20
-112.3535210222588
 10
97.68843856064734
 20
-112.3738470856218
 10
97.88411998420953
 20
-112.4151882314448
 10
97.95750051804535
 20
-112.1898789867095
 10
98.01227753626083
 20
-112.0207247983837
 10
97.90479055712103
 20
-111.927707220282
 10
97.80005965436943
 20
-111.8939452845265
 10
97.54856768394619
 20
-111.8122965215261
 10
97.4686414686884
 20
-112.0310600848395
 10
97.4424587430005
 20
-112.0978949372533
 10
97.4424587430005
 20
-112.0978949372533
 10
97.24884437672947
 20
-112.0351941994218
 10
97.24884437672947
 20
-112.0351941994218
 10
97.29569767532885
 20
-111.9190944815688
 10
97.4383246284182
 20
-111.569417289816
 10
97.87309567865672
 20
-111.7106662047112
 10
98.08600257964517
 20
-111.7799126239647
 10
98.27617185043096
 20
-111.9752495379784
 10
98.18453231052331
 20
-112.2567138391233
 10
98.12734372546817
 20
-112.4337917470652
 10
98.01089949806672
 20
-112.4830566125042
 10
97.89790036615052
 20
-112.5106173763862
 10
97.94750974113813
 20
-112.555748127243
 10
98.09564884700387
 20
-112.6883843034251
 10
98.01021047896967
 20
-112.9519341080467
 10
97.90547957621808
 20
-113.2740505359176
 10
97.61815861274825
 20
-113.3563883180151
 10
97.35495331767515
 20
-113.2709499499809
 97
        0
 97
        0
 75
     2
 76
     1
 98
        0
  0
SPLINE
  5
7A
330
74
100
AcDbEntity
  8
_U+30EC_U+30A4_U+30E4_U+30FC 1
370
     0
100
AcDbSpline
210
0.0
220
0.0
230
1.0
 70
    11
 71
     3
 72
    29
 73
    25
 74
     0
 42
0.0000000001
 43
0.0000000001
 12
1.0
 22
0.0
 32
0.0
 13
1.0
 23
0.0
 33
0.0
 40
0.0
 40
0.0
 40
0.0
 40
0.0
 40
1.0
 40
1.0
 40
1.0
 40
2.0
 40
2.0
 40
2.0
 40
3.0
 40
3.0
 40
3.0
 40
4.0
 40
4.0
 40
4.0
 40
5.0
 40
5.0
 40
5.0
 40
6.0
 40
6.0
 40
6.0
 40
7.0
 40
7.0
 40
7.0
 40
8.0
 40
8.0
 40
8.0
 40
8.0
 10
98.93073999262843
 20
-113.5424234742186
 30
0.0
 10
98.76399737114234
 20
-113.7084770766076
 30
0.0
 10
98.59312063507394
 20
-113.6729925931095
 30
0.0
 10
98.4821885604489
 20
-113.6371636000629
 30
0.0
 10
98.32922632090381
 20
-113.5875542250753
 30
0.0
 10
98.20864797892007
 20
-113.4993597806529
 30
0.0
 10
98.17419702406757
 20
-113.2967881661203
 30
0.0
 10
98.13630097372982
 20
-113.0797471505495
 30
0.0
 10
98.19142250149382
 20
-112.8482367339407
 30
0.0
 10
98.24172089557847
 20
-112.6932074371045
 30
0.0
 10
98.28581811778966
 20
-112.5567816558886
 30
0.0
 10
98.37952471498846
 20
-112.3225151628916
 30
0.0
 10
98.54178871234373
 20
-112.1661078278613
 30
0.0
 10
98.70749780518425
 20
-112.0062553973457
 30
0.0
 10
98.86735023569983
 20
-112.0338161612277
 30
0.0
 10
98.98999563497473
 20
-112.0737792688566
 30
0.0
 10
99.14089081722867
 20
-112.1226996247471
 30
0.0
 10
99.26422523560062
 20
-112.2095160309754
 30
0.0
 10
99.29833168090458
 20
-112.4117431359596
 30
0.0
 10
99.33347165485414
 20
-112.6256835655936
 30
0.0
 10
99.28489580851212
 20
-112.8503037912319
 30
0.0
 10
99.23115231894222
 20
-113.0149793554268
 30
0.0
 10
99.17809784846936
 20
-113.1782768814277
 30
0.0
 10
99.08714732765877
 20
-113.3908392728676
 30
0.0
 10
98.93073999262843
 20
-113.5424234742186
 30
0.0
  0
SPLINE
  5
7B
330
74
100
AcDbEntity
  8
_U+30EC_U+30A4_U+30E4_U+30FC 1
370
     0
100
AcDbSpline
210
0.0
220
0.0
230
1.0
 70
    11
 71
     3
 72
    17
 73
    13
 74
     0
 42
0.0000000001
 43
0.0000000001
 12
1.0
 22
0.0
 32
0.0
 13
1.0
 23
0.0
 33
0.0
 40
0.0
 40
0.0
 40
0.0
 40
0.0
 40
1.0
 40
1.0
 40
1.0
 40
2.0
 40
2.0
 40
2.0
 40
3.0
 40
3.0
 40
3.0
 40
4.0
 40
4.0
 40
4.0
 40
4.0
 10
98.93073999262843
 20
-112.2570583486718
 30
0.0
 10
98.69302840414619
 20
-112.1798882098023
 30
0.0
 10
98.56142575660965
 20
-112.4348252757108
 30
0.0
 10
98.4546277965669
 20
-112.7627983659065
 30
0.0
 10
98.35609806568876
 20
-113.0666557877056
 30
0.0
 10
98.29477536605131
 20
-113.3715467381502
 30
0.0
 10
98.54213322189224
 20
-113.4518174629565
 30
0.0
 10
98.77777775308334
 20
-113.528298582729
 30
0.0
 10
98.91075843881399
 20
-113.2757730836602
 30
0.0
 10
99.01824541795378
 20
-112.9457329361733
 30
0.0
 10
99.11677514883192
 20
-112.6422200239228
 30
0.0
 10
99.17603079117822
 20
-112.3366400543811
 30
0.0
 10
98.93073999262843
 20
-112.2570583486718
 30
0.0
  0
HATCH
  5
7C
330
74
100
AcDbEntity
  8
_U+30EC_U+30A4_U+30E4_U+30FC 1
 62
   179
420
  2234388
100
AcDbHatch
 10
0.0
 20
0.0
 30
0.0
210
0.0
220
0.0
230
1.0
  2
SOLID
 70
     1
 71
     0
 91
        2
 92
        1
 93
        1
 72
     4
 94
        3
 73
     0
 74
     1
 95
       29
 96
       25
 40
0.0
 40
0.0
 40
0.0
 40
0.0
 40
1.0
 40
1.0
 40
1.0
 40
2.0
 40
2.0
 40
2.0
 40
3.0
 40
3.0
 40
3.0
 40
4.0
 40
4.0
 40
4.0
 40
5.0
 40
5.0
 40
5.0
 40
6.0
 40
6.0
 40
6.0
 40
7.0
 40
7.0
 40
7.0
 40
8.0
 40
8.0
 40
8.0
 40
8.0
 10
98.93073999262843
 20
-113.5424234742186
 10
98.76399737114234
 20
-113.7084770766076
 10
98.59312063507394
 20
-113.6729925931095
 10
98.4821885604489
 20
-113.6371636000629
 10
98.32922632090381
 20
-113.5875542250753
 10
98.20864797892007
 20
-113.4993597806529
 10
98.17419702406757
 20
-113.2967881661203
 10
98.13630097372982
 20
-113.0797471505495
 10
98.19142250149382
 20
-112.8482367339407
 10
98.24172089557847
 20
-112.6932074371045
 10
98.28581811778966
 20
-112.5567816558886
 10
98.37952471498846
 20
-112.3225151628916
 10
98.54178871234373
 20
-112.1661078278613
 10
98.70749780518425
 20
-112.0062553973457
 10
98.86735023569983
 20
-112.0338161612277
 10
98.98999563497473
 20
-112.0737792688566
 10
99.14089081722867
 20
-112.1226996247471
 10
99.26422523560062
 20
-112.2095160309754
 10
99.29833168090458
 20
-112.4117431359596
 10
99.33347165485414
 20
-112.6256835655936
 10
99.28489580851212
 20
-112.8503037912319
 10
99.23115231894222
 20
-113.0149793554268
 10
99.17809784846936
 20
-113.1782768814277
 10
99.08714732765877
 20
-113.3908392728676
 10
98.93073999262843
 20
-113.5424234742186
 97
        0
 97
        0
 92
        1
 93
        1
 72
     4
 94
        3
 73
     0
 74
     1
 95
       17
 96
       13
 40
0.0
 40
0.0
 40
0.0
 40
0.0
 40
1.0
 40
1.0
 40
1.0
 40
2.0
 40
2.0
 40
2.0
 40
3.0
 40
3.0
 40
3.0
 40
4.0
 40
4.0
 40
4.0
 40
4.0
 10
98.93073999262843
 20
-112.2570583486718
 10
98.69302840414619
 20
-112.1798882098023
 10
98.56142575660965
 20
-112.4348252757108
 10
98.4546277965669
 20
-112.7627983659065
 10
98.35609806568876
 20
-113.0666557877056
 10
98.29477536605131
 20
-113.3715467381502
 10
98.54213322189224
 20
-113.4518174629565
 10
98.77777775308334
 20
-113.528298582729
 10
98.91075843881399
 20
-113.2757730836602
 10
99.01824541795378
 20
-112.9457329361733
 10
99.11677514883192
 20
-112.6422200239228
 10
99.17603079117822
 20
-112.3366400543811
 10
98.93073999262843
 20
-112.2570583486718
 97
        0
 97
        0
 75
     2
 76
     1
 98
        0
  0
POLYLINE
  5
7D
330
74
100
AcDbEntity
  8
_U+30EC_U+30A4_U+30E4_U+30FC 1
370
     0
100
AcDb2dPolyline
 66
     1
 10
0.0
 20
0.0
 30
0.0
  0
VERTEX
  5
7E
330
7D
100
AcDbEntity
  8
_U+30EC_U+30A4_U+30E4_U+30FC 1
370
     0
100
AcDbVertex
100
AcDb2dVertex
 10
100.4176432040623
 20
-114.2124945460997
 30
0.0
  0
VERTEX
  5
7F
330
7D
100
AcDbEntity
  8
_U+30EC_U+30A4_U+30E4_U+30FC 1
370
     0
100
AcDbVertex
100
AcDb2dVertex
 10
100.7476833515492
 20
-113.1965358874995
 30
0.0
  0
VERTEX
  5
80
330
7D
100
AcDbEntity
  8
_U+30EC_U+30A4_U+30E4_U+30FC 1
370
     0
100
AcDbVertex
100
AcDb2dVertex
 10
100.8041829175073
 20
-113.0435736479544
 30
0.0
  0
VERTEX
  5
81
330
7D
100
AcDbEntity
  8
_U+30EC_U+30A4_U+30E4_U+30FC 1
370
     0
100
AcDbVertex
100
AcDb2dVertex
 10
100.7221896449583
 20
-113.1793104100732
 30
0.0
  0
VERTEX
  5
82
330
7D
100
AcDbEntity
  8
_U+30EC_U+30A4_U+30E4_U+30FC 1
370
     0
100
AcDbVertex
100
AcDb2dVertex
 10
100.0614203308874
 20
-114.0967393377953
 30
0.0
  0
VERTEX
  5
83
330
7D
100
AcDbEntity
  8
_U+30EC_U+30A4_U+30E4_U+30FC 1
370
     0
100
AcDbVertex
100
AcDb2dVertex
 10
99.8044162076878
 20
-114.0133680270522
 30
0.0
  0
VERTEX
  5
84
330
7D
100
AcDbEntity
  8
_U+30EC_U+30A4_U+30E4_U+30FC 1
370
     0
100
AcDbVertex
100
AcDb2dVertex
 10
99.81096188910976
 20
-112.8833767078903
 30
0.0
  0
VERTEX
  5
85
330
7D
100
AcDbEntity
  8
_U+30EC_U+30A4_U+30E4_U+30FC 1
370
     0
100
AcDbVertex
100
AcDb2dVertex
 10
99.82439776150224
 20
-112.7252468251173
 30
0.0
  0
VERTEX
  5
86
330
7D
100
AcDbEntity
  8
_U+30EC_U+30A4_U+30E4_U+30FC 1
370
     0
100
AcDbVertex
100
AcDb2dVertex
 10
99.77823348199989
 20
-112.8813096505991
 30
0.0
  0
VERTEX
  5
87
330
7D
100
AcDbEntity
  8
_U+30EC_U+30A4_U+30E4_U+30FC 1
370
     0
100
AcDbVertex
100
AcDb2dVertex
 10
99.44819333451295
 20
-113.8976128187478
 30
0.0
  0
VERTEX
  5
88
330
7D
100
AcDbEntity
  8
_U+30EC_U+30A4_U+30E4_U+30FC 1
370
     0
100
AcDbVertex
100
AcDb2dVertex
 10
99.24079858630091
 20
-113.8300889472369
 30
0.0
  0
VERTEX
  5
89
330
7D
100
AcDbEntity
  8
_U+30EC_U+30A4_U+30E4_U+30FC 1
370
     0
100
AcDbVertex
100
AcDb2dVertex
 10
99.71828882055654
 20
-112.3614447418749
 30
0.0
  0
VERTEX
  5
8A
330
7D
100
AcDbEntity
  8
_U+30EC_U+30A4_U+30E4_U+30FC 1
370
     0
100
AcDbVertex
100
AcDb2dVertex
 10
100.021801732807
 20
-112.4603189823016
 30
0.0
  0
VERTEX
  5
8B
330
7D
100
AcDbEntity
  8
_U+30EC_U+30A4_U+30E4_U+30FC 1
370
     0
100
AcDbVertex
100
AcDb2dVertex
 10
100.0187011468703
 20
-113.6667914212361
 30
0.0
  0
VERTEX
  5
8C
330
7D
100
AcDbEntity
  8
_U+30EC_U+30A4_U+30E4_U+30FC 1
370
     0
100
AcDbVertex
100
AcDb2dVertex
 10
100.0111219368028
 20
-113.8135524889077
 30
0.0
  0
VERTEX
  5
8D
330
7D
100
AcDbEntity
  8
_U+30EC_U+30A4_U+30E4_U+30FC 1
370
     0
100
AcDbVertex
100
AcDb2dVertex
 10
100.0910481520606
 20
-113.6902180705358
 30
0.0
  0
VERTEX
  5
8E
330
7D
100
AcDbEntity
  8
_U+30EC_U+30A4_U+30E4_U+30FC 1
370
     0
100
AcDbVertex
100
AcDb2dVertex
 10
100.800737822022
 20
-112.7131889909189
 30
0.0
  0
VERTEX
  5
8F
330
7D
100
AcDbEntity
  8
_U+30EC_U+30A4_U+30E4_U+30FC 1
370
     0
100
AcDbVertex
100
AcDb2dVertex
 10
101.1021836769814
 20
-112.8113742122486
 30
0.0
  0
VERTEX
  5
90
330
7D
100
AcDbEntity
  8
_U+30EC_U+30A4_U+30E4_U+30FC 1
370
     0
100
AcDbVertex
100
AcDb2dVertex
 10
100.6250379522743
 20
-114.2800184176106
 30
0.0
  0
VERTEX
  5
91
330
7D
100
AcDbEntity
  8
_U+30EC_U+30A4_U+30E4_U+30FC 1
370
     0
100
AcDbVertex
100
AcDb2dVertex
 10
100.4176432040623
 20
-114.2124945460997
 30
0.0
  0
SEQEND
  5
92
330
7D
100
AcDbEntity
  8
_U+30EC_U+30A4_U+30E4_U+30FC 1
370
     0
  0
HATCH
  5
93
330
74
100
AcDbEntity
  8
_U+30EC_U+30A4_U+30E4_U+30FC 1
 62
   179
420
  2234388
100
AcDbHatch
 10
0.0
 20
0.0
 30
0.0
210
0.0
220
0.0
230
1.0
  2
SOLID
 70
     1
 71
     0
 91
        1
 92
        1
 93
       19
 72
     1
 10
100.4176432040623
 20
-114.2124945460997
 11
100.7476833515492
 21
-113.1965358874995
 72
     1
 10
100.7476833515492
 20
-113.1965358874995
 11
100.8041829175073
 21
-113.0435736479544
 72
     1
 10
100.8041829175073
 20
-113.0435736479544
 11
100.7221896449583
 21
-113.1793104100732
 72
     1
 10
100.7221896449583
 20
-113.1793104100732
 11
100.0614203308874
 21
-114.0967393377953
 72
     1
 10
100.0614203308874
 20
-114.0967393377953
 11
99.8044162076878
 21
-114.0133680270522
 72
     1
 10
99.8044162076878
 20
-114.0133680270522
 11
99.81096188910976
 21
-112.8833767078903
 72
     1
 10
99.81096188910976
 20
-112.8833767078903
 11
99.82439776150224
 21
-112.7252468251173
 72
     1
 10
99.82439776150224
 20
-112.7252468251173
 11
99.77823348199989
 21
-112.8813096505991
 72
     1
 10
99.77823348199989
 20
-112.8813096505991
 11
99.44819333451295
 21
-113.8976128187478
 72
     1
 10
99.44819333451295
 20
-113.8976128187478
 11
99.24079858630091
 21
-113.8300889472369
 72
     1
 10
99.24079858630091
 20
-113.8300889472369
 11
99.71828882055654
 21
-112.3614447418749
 72
     1
 10
99.71828882055654
 20
-112.3614447418749
 11
100.021801732807
 21
-112.4603189823016
 72
     1
 10
100.021801732807
 20
-112.4603189823016
 11
100.0187011468703
 21
-113.6667914212361
 72
     1
 10
100.0187011468703
 20
-113.6667914212361
 11
100.0111219368028
 21
-113.8135524889077
 72
     1
 10
100.0111219368028
 20
-113.8135524889077
 11
100.0910481520606
 21
-113.6902180705358
 72
     1
 10
100.0910481520606
 20
-113.6902180705358
 11
100.800737822022
 21
-112.7131889909189
 72
     1
 10
100.800737822022
 20
-112.7131889909189
 11
101.1021836769814
 21
-112.8113742122486
 72
     1
 10
101.1021836769814
 20
-112.8113742122486
 11
100.6250379522743
 21
-114.2800184176106
 72
     1
 10
100.6250379522743
 20
-114.2800184176106
 11
100.4176432040623
 21
-114.2124945460997
 97
        0
 75
     2
 76
     1
 98
        0
  0
SPLINE
  5
94
330
74
100
AcDbEntity
  8
_U+30EC_U+30A4_U+30E4_U+30FC 1
370
     0
100
AcDbSpline
210
0.0
220
0.0
230
1.0
 70
    11
 71
     3
 72
    44
 73
    40
 74
     0
 42
0.0000000001
 43
0.0000000001
 12
1.0
 22
0.0
 32
0.0
 13
1.0
 23
0.0
 33
0.0
 40
0.0
 40
0.0
 40
0.0
 40
0.0
 40
1.0
 40
1.0
 40
1.0
 40
2.0
 40
2.0
 40
2.0
 40
3.0
 40
3.0
 40
3.0
 40
4.0
 40
4.0
 40
4.0
 40
5.0
 40
5.0
 40
5.0
 40
6.0
 40
6.0
 40
6.0
 40
7.0
 40
7.0
 40
7.0
 40
8.0
 40
8.0
 40
8.0
 40
9.0
 40
9.0
 40
9.0
 40
10.0
 40
10.0
 40
10.0
 40
11.0
 40
11.0
 40
11.0
 40
12.0
 40
12.0
 40
12.0
 40
13.0
 40
13.0
 40
13.0
 40
13.0
 10
101.8576931168967
 20
-114.6803385129966
 30
0.0
 10
101.848735868635
 20
-114.630729138009
 30
0.0
 10
101.8452907731498
 20
-114.5742295720509
 30
0.0
 10
101.9141926828548
 20
-114.3540879705434
 30
0.0
 10
101.985850668948
 20
-114.1215440252891
 30
0.0
 10
101.9507106949984
 20
-114.0367946763519
 30
0.0
 10
101.7819010162212
 20
-113.9816731485879
 30
0.0
 10
101.7819010162212
 20
-113.9816731485879
 30
0.0
 10
101.393294245485
 20
-113.8555826538278
 30
0.0
 10
101.393294245485
 20
-113.8555826538278
 30
0.0
 10
101.393294245485
 20
-113.8555826538278
 30
0.0
 10
101.1955457646317
 20
-114.465364554717
 30
0.0
 10
101.1955457646317
 20
-114.465364554717
 30
0.0
 10
101.1955457646317
 20
-114.465364554717
 30
0.0
 10
100.9723035771875
 20
-114.3926730399782
 30
0.0
 10
100.9723035771875
 20
-114.3926730399782
 30
0.0
 10
100.9723035771875
 20
-114.3926730399782
 30
0.0
 10
101.4494493018946
 20
-112.9240288346162
 30
0.0
 10
101.4494493018946
 20
-112.9240288346162
 30
0.0
 10
101.4494493018946
 20
-112.9240288346162
 30
0.0
 10
102.0912705907966
 20
-113.1324571114738
 30
0.0
 10
102.0912705907966
 20
-113.1324571114738
 30
0.0
 10
102.3827256688488
 20
-113.2271972373182
 30
0.0
 10
102.4888346097945
 20
-113.4418266860493
 30
0.0
 10
102.4095974136337
 20
-113.6853949368564
 30
0.0
 10
102.3944389934986
 20
-113.7336262736499
 30
0.0
 10
102.3606770577432
 20
-113.8094183743254
 30
0.0
 10
102.2931531862323
 20
-113.872119112157
 30
0.0
 10
102.2049587418099
 20
-113.9527343465118
 30
0.0
 10
102.1367458512019
 20
-113.9503227796721
 30
0.0
 10
102.0733560942733
 20
-113.9472221937354
 30
0.0
 10
102.1911783598689
 20
-114.0302489949299
 30
0.0
 10
102.2400987157594
 20
-114.0974283568923
 30
0.0
 10
102.1470811376577
 20
-114.3985297023032
 30
0.0
 10
102.0671549223999
 20
-114.6572563732454
 30
0.0
 10
102.0916151003452
 20
-114.6989420286169
 30
0.0
 10
102.1388129084931
 20
-114.7719780529042
 30
0.0
 10
102.1388129084931
 20
-114.7719780529042
 30
0.0
 10
101.8576931168967
 20
-114.6803385129966
 30
0.0
 10
101.8576931168967
 20
-114.6803385129966
 30
0.0
  0
SPLINE
  5
95
330
74
100
AcDbEntity
  8
_U+30EC_U+30A4_U+30E4_U+30FC 1
370
     0
100
AcDbSpline
210
0.0
220
0.0
230
1.0
 70
    11
 71
     3
 72
    20
 73
    16
 74
     0
 42
0.0000000001
 43
0.0000000001
 12
1.0
 22
0.0
 32
0.0
 13
1.0
 23
0.0
 33
0.0
 40
0.0
 40
0.0
 40
0.0
 40
0.0
 40
1.0
 40
1.0
 40
1.0
 40
2.0
 40
2.0
 40
2.0
 40
3.0
 40
3.0
 40
3.0
 40
4.0
 40
4.0
 40
4.0
 40
5.0
 40
5.0
 40
5.0
 40
5.0
 10
102.0299478911592
 20
-113.3350287260065
 30
0.0
 10
102.0299478911592
 20
-113.3350287260065
 30
0.0
 10
101.6075791846676
 20
-113.1979139256936
 30
0.0
 10
101.6075791846676
 20
-113.1979139256936
 30
0.0
 10
101.6075791846676
 20
-113.1979139256936
 30
0.0
 10
101.4587510597048
 20
-113.6543890774892
 30
0.0
 10
101.4587510597048
 20
-113.6543890774892
 30
0.0
 10
101.4587510597048
 20
-113.6543890774892
 30
0.0
 10
101.8793972184538
 20
-113.7911593682536
 30
0.0
 10
101.8793972184538
 20
-113.7911593682536
 30
0.0
 10
101.9741373442981
 20
-113.8218207180723
 30
0.0
 10
102.1264105647462
 20
-113.7915038778021
 30
0.0
 10
102.179465035219
 20
-113.6282063518013
 30
0.0
 10
102.2035807036158
 20
-113.5537922893199
 30
0.0
 10
102.2187391237509
 20
-113.3966959351925
 30
0.0
 10
102.0299478911592
 20
-113.3350287260065
 30
0.0
  0
HATCH
  5
96
330
74
100
AcDbEntity
  8
_U+30EC_U+30A4_U+30E4_U+30FC 1
 62
   179
420
  2234388
100
AcDbHatch
 10
0.0
 20
0.0
 30
0.0
210
0.0
220
0.0
230
1.0
  2
SOLID
 70
     1
 71
     0
 91
        2
 92
        1
 93
        1
 72
     4
 94
        3
 73
     0
 74
     1
 95
       44
 96
       40
 40
0.0
 40
0.0
 40
0.0
 40
0.0
 40
1.0
 40
1.0
 40
1.0
 40
2.0
 40
2.0
 40
2.0
 40
3.0
 40
3.0
 40
3.0
 40
4.0
 40
4.0
 40
4.0
 40
5.0
 40
5.0
 40
5.0
 40
6.0
 40
6.0
 40
6.0
 40
7.0
 40
7.0
 40
7.0
 40
8.0
 40
8.0
 40
8.0
 40
9.0
 40
9.0
 40
9.0
 40
10.0
 40
10.0
 40
10.0
 40
11.0
 40
11.0
 40
11.0
 40
12.0
 40
12.0
 40
12.0
 40
13.0
 40
13.0
 40
13.0
 40
13.0
 10
101.8576931168967
 20
-114.6803385129966
 10
101.848735868635
 20
-114.630729138009
 10
101.8452907731498
 20
-114.5742295720509
 10
101.9141926828548
 20
-114.3540879705434
 10
101.985850668948
 20
-114.1215440252891
 10
101.9507106949984
 20
-114.0367946763519
 10
101.7819010162212
 20
-113.9816731485879
 10
101.7819010162212
 20
-113.9816731485879
 10
101.393294245485
 20
-113.8555826538278
 10
101.393294245485
 20
-113.8555826538278
 10
101.393294245485
 20
-113.8555826538278
 10
101.1955457646317
 20
-114.465364554717
 10
101.1955457646317
 20
-114.465364554717
 10
101.1955457646317
 20
-114.465364554717
 10
100.9723035771875
 20
-114.3926730399782
 10
100.9723035771875
 20
-114.3926730399782
 10
100.9723035771875
 20
-114.3926730399782
 10
101.4494493018946
 20
-112.9240288346162
 10
101.4494493018946
 20
-112.9240288346162
 10
101.4494493018946
 20
-112.9240288346162
 10
102.0912705907966
 20
-113.1324571114738
 10
102.0912705907966
 20
-113.1324571114738
 10
102.3827256688488
 20
-113.2271972373182
 10
102.4888346097945
 20
-113.4418266860493
 10
102.4095974136337
 20
-113.6853949368564
 10
102.3944389934986
 20
-113.7336262736499
 10
102.3606770577432
 20
-113.8094183743254
 10
102.2931531862323
 20
-113.872119112157
 10
102.2049587418099
 20
-113.9527343465118
 10
102.1367458512019
 20
-113.9503227796721
 10
102.0733560942733
 20
-113.9472221937354
 10
102.1911783598689
 20
-114.0302489949299
 10
102.2400987157594
 20
-114.0974283568923
 10
102.1470811376577
 20
-114.3985297023032
 10
102.0671549223999
 20
-114.6572563732454
 10
102.0916151003452
 20
-114.6989420286169
 10
102.1388129084931
 20
-114.7719780529042
 10
102.1388129084931
 20
-114.7719780529042
 10
101.8576931168967
 20
-114.6803385129966
 10
101.8576931168967
 20
-114.6803385129966
 97
        0
 97
        0
 92
        1
 93
        1
 72
     4
 94
        3
 73
     0
 74
     1
 95
       20
 96
       16
 40
0.0
 40
0.0
 40
0.0
 40
0.0
 40
1.0
 40
1.0
 40
1.0
 40
2.0
 40
2.0
 40
2.0
 40
3.0
 40
3.0
 40
3.0
 40
4.0
 40
4.0
 40
4.0
 40
5.0
 40
5.0
 40
5.0
 40
5.0
 10
102.0299478911592
 20
-113.3350287260065
 10
102.0299478911592
 20
-113.3350287260065
 10
101.6075791846676
 20
-113.1979139256936
 10
101.6075791846676
 20
-113.1979139256936
 10
101.6075791846676
 20
-113.1979139256936
 10
101.4587510597048
 20
-113.6543890774892
 10
101.4587510597048
 20
-113.6543890774892
 10
101.4587510597048
 20
-113.6543890774892
 10
101.8793972184538
 20
-113.7911593682536
 10
101.8793972184538
 20
-113.7911593682536
 10
101.9741373442981
 20
-113.8218207180723
 10
102.1264105647462
 20
-113.7915038778021
 10
102.179465035219
 20
-113.6282063518013
 10
102.2035807036158
 20
-113.5537922893199
 10
102.2187391237509
 20
-113.3966959351925
 10
102.0299478911592
 20
-113.3350287260065
 97
        0
 97
        0
 75
     2
 76
     1
 98
        0
  0
ENDBLK
  5
77
330
74
100
AcDbEntity
  8
0
100
AcDbBlockEnd
  0
BLOCK
  5
99
330
97
100
AcDbEntity
  8
0
100
AcDbBlockBegin
  2
block 3
 70
     0
 10
0.0
 20
0.0
 30
0.0
  3
block 3
  1

  0
SPLINE
  5
9B
330
97
100
AcDbEntity
  8
_U+30EC_U+30A4_U+30E4_U+30FC 1
370
     0
100
AcDbSpline
210
0.0
220
0.0
230
1.0
 70
    11
 71
     3
 72
    62
 73
    58
 74
     0
 42
0.0000000001
 43
0.0000000001
 12
1.0
 22
0.0
 32
0.0
 13
1.0
 23
0.0
 33
0.0
 40
0.0
 40
0.0
 40
0.0
 40
0.0
 40
1.0
 40
1.0
 40
1.0
 40
2.0
 40
2.0
 40
2.0
 40
3.0
 40
3.0
 40
3.0
 40
4.0
 40
4.0
 40
4.0
 40
5.0
 40
5.0
 40
5.0
 40
6.0
 40
6.0
 40
6.0
 40
7.0
 40
7.0
 40
7.0
 40
8.0
 40
8.0
 40
8.0
 40
9.0
 40
9.0
 40
9.0
 40
10.0
 40
10.0
 40
10.0
 40
11.0
 40
11.0
 40
11.0
 40
12.0
 40
12.0
 40
12.0
 40
13.0
 40
13.0
 40
13.0
 40
14.0
 40
14.0
 40
14.0
 40
15.0
 40
15.0
 40
15.0
 40
16.0
 40
16.0
 40
16.0
 40
17.0
 40
17.0
 40
17.0
 40
18.0
 40
18.0
 40
18.0
 40
19.0
 40
19.0
 40
19.0
 40
19.0
 10
99.98803979705161
 20
-137.7125243796344
 30
0.0
 10
99.92706160696268
 20
-137.7855604039217
 30
0.0
 10
99.77065427193234
 20
-137.9388671530153
 30
0.0
 10
99.54741208448816
 20
-137.9147514846185
 30
0.0
 10
99.41443139875751
 20
-137.8995930644834
 30
0.0
 10
99.33519420259677
 20
-137.838959383943
 30
0.0
 10
99.26767033108587
 20
-137.7872829516643
 30
0.0
 10
99.26767033108587
 20
-137.7872829516643
 30
0.0
 10
99.40926375552964
 20
-137.6191622919841
 30
0.0
 10
99.40926375552964
 20
-137.6191622919841
 30
0.0
 10
99.46748586923036
 20
-137.6653265714864
 30
0.0
 10
99.6542100445309
 20
-137.8079535245758
 30
0.0
 10
99.83611108615209
 20
-137.5909125090051
 30
0.0
 10
99.92465004012301
 20
-137.4854925871564
 30
0.0
 10
99.96909177188273
 20
-137.3235730993497
 30
0.0
 10
99.79408092123204
 20
-137.176812031678
 30
0.0
 10
99.70485294816407
 20
-137.1023979691966
 30
0.0
 10
99.64318573897809
 20
-137.099986402357
 30
0.0
 10
99.59839949766985
 20
-137.1037760073907
 30
0.0
 10
99.49401310446677
 20
-137.1130777652009
 30
0.0
 10
99.40960826507816
 20
-137.1940375091043
 30
0.0
 10
99.37446829112861
 20
-137.2360676740243
 30
0.0
 10
99.36206594738171
 20
-137.2505370750624
 30
0.0
 10
99.34036184582463
 20
-137.2794758771385
 30
0.0
 10
99.32623695433512
 20
-137.3035915455352
 30
0.0
 10
99.32623695433512
 20
-137.3035915455352
 30
0.0
 10
99.17671981027527
 20
-137.1781900698721
 30
0.0
 10
99.17671981027527
 20
-137.1781900698721
 30
0.0
 10
99.20634763144842
 20
-137.1533853823783
 30
0.0
 10
99.23528643352452
 20
-137.1223795230111
 30
0.0
 10
99.23942054810682
 20
-137.1175563893317
 30
0.0
 10
99.28145071302687
 20
-137.0672579952471
 30
0.0
 10
99.39307180674896
 20
-136.901204392858
 30
0.0
 10
99.21117076512776
 20
-136.74893117241
 30
0.0
 10
99.07543400300892
 20
-136.6345540022997
 30
0.0
 10
98.94865448915174
 20
-136.7000108165194
 30
0.0
 10
98.87803003170411
 20
-136.7840711463595
 30
0.0
 10
98.70818682428128
 20
-136.9866427608922
 30
0.0
 10
98.88113061764084
 20
-137.1423610768255
 30
0.0
 10
98.93349606901663
 20
-137.1919704518131
 30
0.0
 10
98.93349606901663
 20
-137.1919704518131
 30
0.0
 10
98.80258244057714
 20
-137.3476887677464
 30
0.0
 10
98.80258244057714
 20
-137.3476887677464
 30
0.0
 10
98.71266544841211
 20
-137.2608723615181
 30
0.0
 10
98.44188094327149
 20
-136.997667066445
 30
0.0
 10
98.73540307861477
 20
-136.6476453651437
 30
0.0
 10
98.87975257944673
 20
-136.4760796099782
 30
0.0
 10
99.13193356896703
 20
-136.3730712549692
 30
0.0
 10
99.35862085189646
 20
-136.5635850353036
 30
0.0
 10
99.50124780498581
 20
-136.6831298486417
 30
0.0
 10
99.50331486227695
 20
-136.8088758338533
 30
0.0
 10
99.48643389439923
 20
-136.9246310421577
 30
0.0
 10
99.54706757493963
 20
-136.8950032209846
 30
0.0
 10
99.7258680306241
 20
-136.8074977956592
 30
0.0
 10
99.93808591251549
 20
-136.9859537417952
 30
0.0
 10
100.1971570930063
 20
-137.2033392669144
 30
0.0
 10
100.166151233639
 20
-137.500306497743
 30
0.0
 10
99.98803979705161
 20
-137.7125243796344
 30
0.0
  0
HATCH
  5
9C
330
97
100
AcDbEntity
  8
_U+30EC_U+30A4_U+30E4_U+30FC 1
 62
   179
420
  2234388
100
AcDbHatch
 10
0.0
 20
0.0
 30
0.0
210
0.0
220
0.0
230
1.0
  2
SOLID
 70
     1
 71
     0
 91
        1
 92
        1
 93
        1
 72
     4
 94
        3
 73
     0
 74
     1
 95
       62
 96
       58
 40
0.0
 40
0.0
 40
0.0
 40
0.0
 40
1.0
 40
1.0
 40
1.0
 40
2.0
 40
2.0
 40
2.0
 40
3.0
 40
3.0
 40
3.0
 40
4.0
 40
4.0
 40
4.0
 40
5.0
 40
5.0
 40
5.0
 40
6.0
 40
6.0
 40
6.0
 40
7.0
 40
7.0
 40
7.0
 40
8.0
 40
8.0
 40
8.0
 40
9.0
 40
9.0
 40
9.0
 40
10.0
 40
10.0
 40
10.0
 40
11.0
 40
11.0
 40
11.0
 40
12.0
 40
12.0
 40
12.0
 40
13.0
 40
13.0
 40
13.0
 40
14.0
 40
14.0
 40
14.0
 40
15.0
 40
15.0
 40
15.0
 40
16.0
 40
16.0
 40
16.0
 40
17.0
 40
17.0
 40
17.0
 40
18.0
 40
18.0
 40
18.0
 40
19.0
 40
19.0
 40
19.0
 40
19.0
 10
99.98803979705161
 20
-137.7125243796344
 10
99.92706160696268
 20
-137.7855604039217
 10
99.77065427193234
 20
-137.9388671530153
 10
99.54741208448816
 20
-137.9147514846185
 10
99.41443139875751
 20
-137.8995930644834
 10
99.33519420259677
 20
-137.838959383943
 10
99.26767033108587
 20
-137.7872829516643
 10
99.26767033108587
 20
-137.7872829516643
 10
99.40926375552964
 20
-137.6191622919841
 10
99.40926375552964
 20
-137.6191622919841
 10
99.46748586923036
 20
-137.6653265714864
 10
99.6542100445309
 20
-137.8079535245758
 10
99.83611108615209
 20
-137.5909125090051
 10
99.92465004012301
 20
-137.4854925871564
 10
99.96909177188273
 20
-137.3235730993497
 10
99.79408092123204
 20
-137.176812031678
 10
99.70485294816407
 20
-137.1023979691966
 10
99.64318573897809
 20
-137.099986402357
 10
99.59839949766985
 20
-137.1037760073907
 10
99.49401310446677
 20
-137.1130777652009
 10
99.40960826507816
 20
-137.1940375091043
 10
99.37446829112861
 20
-137.2360676740243
 10
99.36206594738171
 20
-137.2505370750624
 10
99.34036184582463
 20
-137.2794758771385
 10
99.32623695433512
 20
-137.3035915455352
 10
99.32623695433512
 20
-137.3035915455352
 10
99.17671981027527
 20
-137.1781900698721
 10
99.17671981027527
 20
-137.1781900698721
 10
99.20634763144842
 20
-137.1533853823783
 10
99.23528643352452
 20
-137.1223795230111
 10
99.23942054810682
 20
-137.1175563893317
 10
99.28145071302687
 20
-137.0672579952471
 10
99.39307180674896
 20
-136.901204392858
 10
99.21117076512776
 20
-136.74893117241
 10
99.07543400300892
 20
-136.6345540022997
 10
98.94865448915174
 20
-136.7000108165194
 10
98.87803003170411
 20
-136.7840711463595
 10
98.70818682428128
 20
-136.9866427608922
 10
98.88113061764084
 20
-137.1423610768255
 10
98.93349606901663
 20
-137.1919704518131
 10
98.93349606901663
 20
-137.1919704518131
 10
98.80258244057714
 20
-137.3476887677464
 10
98.80258244057714
 20
-137.3476887677464
 10
98.71266544841211
 20
-137.2608723615181
 10
98.44188094327149
 20
-136.997667066445
 10
98.73540307861477
 20
-136.6476453651437
 10
98.87975257944673
 20
-136.4760796099782
 10
99.13193356896703
 20
-136.3730712549692
 10
99.35862085189646
 20
-136.5635850353036
 10
99.50124780498581
 20
-136.6831298486417
 10
99.50331486227695
 20
-136.8088758338533
 10
99.48643389439923
 20
-136.9246310421577
 10
99.54706757493963
 20
-136.8950032209846
 10
99.7258680306241
 20
-136.8074977956592
 10
99.93808591251549
 20
-136.9859537417952
 10
100.1971570930063
 20
-137.2033392669144
 10
100.166151233639
 20
-137.500306497743
 10
99.98803979705161
 20
-137.7125243796344
 97
        0
 97
        0
 75
     2
 76
     1
 98
        0
  0
SPLINE
  5
9D
330
97
100
AcDbEntity
  8
_U+30EC_U+30A4_U+30E4_U+30FC 1
370
     0
100
AcDbSpline
210
0.0
220
0.0
230
1.0
 70
    11
 71
     3
 72
    29
 73
    25
 74
     0
 42
0.0000000001
 43
0.0000000001
 12
1.0
 22
0.0
 32
0.0
 13
1.0
 23
0.0
 33
0.0
 40
0.0
 40
0.0
 40
0.0
 40
0.0
 40
1.0
 40
1.0
 40
1.0
 40
2.0
 40
2.0
 40
2.0
 40
3.0
 40
3.0
 40
3.0
 40
4.0
 40
4.0
 40
4.0
 40
5.0
 40
5.0
 40
5.0
 40
6.0
 40
6.0
 40
6.0
 40
7.0
 40
7.0
 40
7.0
 40
8.0
 40
8.0
 40
8.0
 40
8.0
 10
100.8303656431952
 20
-136.3527451916063
 30
0.0
 10
100.9216606735543
 20
-136.5704752262741
 30
0.0
 10
100.8248534904188
 20
-136.7151692366546
 30
0.0
 10
100.7497504088403
 20
-136.804741719271
 30
0.0
 10
100.6463975442828
 20
-136.9277316280944
 30
0.0
 10
100.5196180304257
 20
-137.0066243147067
 30
0.0
 10
100.3191134731841
 20
-136.9625270924955
 30
0.0
 10
100.1034504958075
 20
-136.9163628129931
 30
0.0
 10
99.90983612953643
 20
-136.7789035031317
 30
0.0
 10
99.78477916342186
 20
-136.6741726003801
 30
0.0
 10
99.6748806174424
 20
-136.5814995318269
 30
0.0
 10
99.49297957582121
 20
-136.4071777002732
 30
0.0
 10
99.40823022688406
 20
-136.1984049138671
 30
0.0
 10
99.32210283975282
 20
-135.9848089937816
 30
0.0
 10
99.407541207787
 20
-135.8470051743716
 30
0.0
 10
99.49056800898153
 20
-135.7477864243964
 30
0.0
 10
99.59254283534493
 20
-135.6265190633156
 30
0.0
 10
99.71897783965359
 20
-135.5448703003152
 30
0.0
 10
99.91948239689513
 20
-135.5886230129778
 30
0.0
 10
100.1310112596895
 20
-135.6361653306743
 30
0.0
 10
100.3211805304753
 20
-135.7657009209197
 30
0.0
 10
100.4538167066574
 20
-135.8769775050933
 30
0.0
 10
100.5850748446454
 20
-135.9868760510727
 30
0.0
 10
100.7483723706463
 20
-136.1515516152677
 30
0.0
 10
100.8303656431952
 20
-136.3527451916063
 30
0.0
  0
SPLINE
  5
9E
330
97
100
AcDbEntity
  8
_U+30EC_U+30A4_U+30E4_U+30FC 1
370
     0
100
AcDbSpline
210
0.0
220
0.0
230
1.0
 70
    11
 71
     3
 72
    17
 73
    13
 74
     0
 42
0.0000000001
 43
0.0000000001
 12
1.0
 22
0.0
 32
0.0
 13
1.0
 23
0.0
 33
0.0
 40
0.0
 40
0.0
 40
0.0
 40
0.0
 40
1.0
 40
1.0
 40
1.0
 40
2.0
 40
2.0
 40
2.0
 40
3.0
 40
3.0
 40
3.0
 40
4.0
 40
4.0
 40
4.0
 40
4.0
 10
99.63836260529875
 20
-135.8718098618654
 30
0.0
 10
99.4778211556861
 20
-136.0630126612968
 30
0.0
 10
99.6652343500837
 20
-136.2810872055131
 30
0.0
 10
99.92912866425384
 20
-136.5022623356661
 30
0.0
 10
100.1737304437066
 20
-136.707590026587
 30
0.0
 10
100.4334906432944
 20
-136.8788112722039
 30
0.0
 10
100.6009222838776
 20
-136.679340243608
 30
0.0
 10
100.7600856952961
 20
-136.4898599919192
 30
0.0
 10
100.5754285772867
 20
-136.2714409381544
 30
0.0
 10
100.3098117153739
 20
-136.0485432602587
 30
0.0
 10
100.0652099359212
 20
-135.8432155693378
 30
0.0
 10
99.8044162076878
 20
-135.6740613810121
 30
0.0
 10
99.63836260529875
 20
-135.8718098618654
 30
0.0
  0
HATCH
  5
9F
330
97
100
AcDbEntity
  8
_U+30EC_U+30A4_U+30E4_U+30FC 1
 62
   179
420
  2234388
100
AcDbHatch
 10
0.0
 20
0.0
 30
0.0
210
0.0
220
0.0
230
1.0
  2
SOLID
 70
     1
 71
     0
 91
        2
 92
        1
 93
        1
 72
     4
 94
        3
 73
     0
 74
     1
 95
       29
 96
       25
 40
0.0
 40
0.0
 40
0.0
 40
0.0
 40
1.0
 40
1.0
 40
1.0
 40
2.0
 40
2.0
 40
2.0
 40
3.0
 40
3.0
 40
3.0
 40
4.0
 40
4.0
 40
4.0
 40
5.0
 40
5.0
 40
5.0
 40
6.0
 40
6.0
 40
6.0
 40
7.0
 40
7.0
 40
7.0
 40
8.0
 40
8.0
 40
8.0
 40
8.0
 10
100.8303656431952
 20
-136.3527451916063
 10
100.9216606735543
 20
-136.5704752262741
 10
100.8248534904188
 20
-136.7151692366546
 10
100.7497504088403
 20
-136.804741719271
 10
100.6463975442828
 20
-136.9277316280944
 10
100.5196180304257
 20
-137.0066243147067
 10
100.3191134731841
 20
-136.9625270924955
 10
100.1034504958075
 20
-136.9163628129931
 10
99.90983612953643
 20
-136.7789035031317
 10
99.78477916342186
 20
-136.6741726003801
 10
99.6748806174424
 20
-136.5814995318269
 10
99.49297957582121
 20
-136.4071777002732
 10
99.40823022688406
 20
-136.1984049138671
 10
99.32210283975282
 20
-135.9848089937816
 10
99.407541207787
 20
-135.8470051743716
 10
99.49056800898153
 20
-135.7477864243964
 10
99.59254283534493
 20
-135.6265190633156
 10
99.71897783965359
 20
-135.5448703003152
 10
99.91948239689513
 20
-135.5886230129778
 10
100.1310112596895
 20
-135.6361653306743
 10
100.3211805304753
 20
-135.7657009209197
 10
100.4538167066574
 20
-135.8769775050933
 10
100.5850748446454
 20
-135.9868760510727
 10
100.7483723706463
 20
-136.1515516152677
 10
100.8303656431952
 20
-136.3527451916063
 97
        0
 97
        0
 92
        1
 93
        1
 72
     4
 94
        3
 73
     0
 74
     1
 95
       17
 96
       13
 40
0.0
 40
0.0
 40
0.0
 40
0.0
 40
1.0
 40
1.0
 40
1.0
 40
2.0
 40
2.0
 40
2.0
 40
3.0
 40
3.0
 40
3.0
 40
4.0
 40
4.0
 40
4.0
 40
4.0
 10
99.63836260529875
 20
-135.8718098618654
 10
99.4778211556861
 20
-136.0630126612968
 10
99.6652343500837
 20
-136.2810872055131
 10
99.92912866425384
 20
-136.5022623356661
 10
100.1737304437066
 20
-136.707590026587
 10
100.4334906432944
 20
-136.8788112722039
 10
100.6009222838776
 20
-136.679340243608
 10
100.7600856952961
 20
-136.4898599919192
 10
100.5754285772867
 20
-136.2714409381544
 10
100.3098117153739
 20
-136.0485432602587
 10
100.0652099359212
 20
-135.8432155693378
 10
99.8044162076878
 20
-135.6740613810121
 10
99.63836260529875
 20
-135.8718098618654
 97
        0
 97
        0
 75
     2
 76
     1
 98
        0
  0
POLYLINE
  5
A0
330
97
100
AcDbEntity
  8
_U+30EC_U+30A4_U+30E4_U+30FC 1
370
     0
100
AcDb2dPolyline
 66
     1
 10
0.0
 20
0.0
 30
0.0
  0
VERTEX
  5
A1
330
A0
100
AcDbEntity
  8
_U+30EC_U+30A4_U+30E4_U+30FC 1
370
     0
100
AcDbVertex
100
AcDb2dVertex
 10
102.0085882991506
 20
-135.2255099488325
 30
0.0
  0
VERTEX
  5
A2
330
A0
100
AcDbEntity
  8
_U+30EC_U+30A4_U+30E4_U+30FC 1
370
     0
100
AcDbVertex
100
AcDb2dVertex
 10
101.1903781214038
 20
-134.5385579090737
 30
0.0
  0
VERTEX
  5
A3
330
A0
100
AcDbEntity
  8
_U+30EC_U+30A4_U+30E4_U+30FC 1
370
     0
100
AcDbVertex
100
AcDb2dVertex
 10
101.0694552698715
 20
-134.4290038726428
 30
0.0
  0
VERTEX
  5
A4
330
A0
100
AcDbEntity
  8
_U+30EC_U+30A4_U+30E4_U+30FC 1
370
     0
100
AcDbVertex
100
AcDb2dVertex
 10
101.1645399052644
 20
-134.5557833864999
 30
0.0
  0
VERTEX
  5
A5
330
A0
100
AcDbEntity
  8
_U+30EC_U+30A4_U+30E4_U+30FC 1
370
     0
100
AcDbVertex
100
AcDb2dVertex
 10
101.7681206342802
 20
-135.5121418932053
 30
0.0
  0
VERTEX
  5
A6
330
A0
100
AcDbEntity
  8
_U+30EC_U+30A4_U+30E4_U+30FC 1
370
     0
100
AcDbVertex
100
AcDb2dVertex
 10
101.5937988027266
 20
-135.7195366414173
 30
0.0
  0
VERTEX
  5
A7
330
A0
100
AcDbEntity
  8
_U+30EC_U+30A4_U+30E4_U+30FC 1
370
     0
100
AcDbVertex
100
AcDb2dVertex
 10
100.5485568325018
 20
-135.2899332344067
 30
0.0
  0
VERTEX
  5
A8
330
A0
100
AcDbEntity
  8
_U+30EC_U+30A4_U+30E4_U+30FC 1
370
     0
100
AcDbVertex
100
AcDb2dVertex
 10
100.4073079176065
 20
-135.2182752483135
 30
0.0
  0
VERTEX
  5
A9
330
A0
100
AcDbEntity
  8
_U+30EC_U+30A4_U+30E4_U+30FC 1
370
     0
100
AcDbVertex
100
AcDb2dVertex
 10
100.5347764505608
 20
-135.3199055651284
 30
0.0
  0
VERTEX
  5
AA
330
A0
100
AcDbEntity
  8
_U+30EC_U+30A4_U+30E4_U+30FC 1
370
     0
100
AcDbVertex
100
AcDb2dVertex
 10
101.3533311378561
 20
-136.0065130953386
 30
0.0
  0
VERTEX
  5
AB
330
A0
100
AcDbEntity
  8
_U+30EC_U+30A4_U+30E4_U+30FC 1
370
     0
100
AcDbVertex
100
AcDb2dVertex
 10
101.213460261155
 20
-136.1736002263733
 30
0.0
  0
VERTEX
  5
AC
330
A0
100
AcDbEntity
  8
_U+30EC_U+30A4_U+30E4_U+30FC 1
370
     0
100
AcDbVertex
100
AcDb2dVertex
 10
100.0304144715202
 20
-135.1807237075243
 30
0.0
  0
VERTEX
  5
AD
330
A0
100
AcDbEntity
  8
_U+30EC_U+30A4_U+30E4_U+30FC 1
370
     0
100
AcDbVertex
100
AcDb2dVertex
 10
100.2357421624411
 20
-134.9361219280715
 30
0.0
  0
VERTEX
  5
AE
330
A0
100
AcDbEntity
  8
_U+30EC_U+30A4_U+30E4_U+30FC 1
370
     0
100
AcDbVertex
100
AcDb2dVertex
 10
101.3533311378561
 20
-135.3908745321245
 30
0.0
  0
VERTEX
  5
AF
330
A0
100
AcDbEntity
  8
_U+30EC_U+30A4_U+30E4_U+30FC 1
370
     0
100
AcDbVertex
100
AcDb2dVertex
 10
101.4863118235868
 20
-135.452886250859
 30
0.0
  0
VERTEX
  5
B0
330
A0
100
AcDbEntity
  8
_U+30EC_U+30A4_U+30E4_U+30FC 1
370
     0
100
AcDbVertex
100
AcDb2dVertex
 10
101.4022514937467
 20
-135.3323079088753
 30
0.0
  0
VERTEX
  5
B1
330
A0
100
AcDbEntity
  8
_U+30EC_U+30A4_U+30E4_U+30FC 1
370
     0
100
AcDbVertex
100
AcDb2dVertex
 10
100.7618082430387
 20
-134.3091145497561
 30
0.0
  0
VERTEX
  5
B2
330
A0
100
AcDbEntity
  8
_U+30EC_U+30A4_U+30E4_U+30FC 1
370
     0
100
AcDbVertex
100
AcDb2dVertex
 10
100.9657578957655
 20
-134.0658908084974
 30
0.0
  0
VERTEX
  5
B3
330
A0
100
AcDbEntity
  8
_U+30EC_U+30A4_U+30E4_U+30FC 1
370
     0
100
AcDbVertex
100
AcDb2dVertex
 10
102.1488036854003
 20
-135.0587673273464
 30
0.0
  0
VERTEX
  5
B4
330
A0
100
AcDbEntity
  8
_U+30EC_U+30A4_U+30E4_U+30FC 1
370
     0
100
AcDbVertex
100
AcDb2dVertex
 10
102.0085882991506
 20
-135.2255099488325
 30
0.0
  0
SEQEND
  5
B5
330
A0
100
AcDbEntity
  8
_U+30EC_U+30A4_U+30E4_U+30FC 1
370
     0
  0
HATCH
  5
B6
330
97
100
AcDbEntity
  8
_U+30EC_U+30A4_U+30E4_U+30FC 1
 62
   179
420
  2234388
100
AcDbHatch
 10
0.0
 20
0.0
 30
0.0
210
0.0
220
0.0
230
1.0
  2
SOLID
 70
     1
 71
     0
 91
        1
 92
        1
 93
       19
 72
     1
 10
102.0085882991506
 20
-135.2255099488325
 11
101.1903781214038
 21
-134.5385579090737
 72
     1
 10
101.1903781214038
 20
-134.5385579090737
 11
101.0694552698715
 21
-134.4290038726428
 72
     1
 10
101.0694552698715
 20
-134.4290038726428
 11
101.1645399052644
 21
-134.5557833864999
 72
     1
 10
101.1645399052644
 20
-134.5557833864999
 11
101.7681206342802
 21
-135.5121418932053
 72
     1
 10
101.7681206342802
 20
-135.5121418932053
 11
101.5937988027266
 21
-135.7195366414173
 72
     1
 10
101.5937988027266
 20
-135.7195366414173
 11
100.5485568325018
 21
-135.2899332344067
 72
     1
 10
100.5485568325018
 20
-135.2899332344067
 11
100.4073079176065
 21
-135.2182752483135
 72
     1
 10
100.4073079176065
 20
-135.2182752483135
 11
100.5347764505608
 21
-135.3199055651284
 72
     1
 10
100.5347764505608
 20
-135.3199055651284
 11
101.3533311378561
 21
-136.0065130953386
 72
     1
 10
101.3533311378561
 20
-136.0065130953386
 11
101.213460261155
 21
-136.1736002263733
 72
     1
 10
101.213460261155
 20
-136.1736002263733
 11
100.0304144715202
 21
-135.1807237075243
 72
     1
 10
100.0304144715202
 20
-135.1807237075243
 11
100.2357421624411
 21
-134.9361219280715
 72
     1
 10
100.2357421624411
 20
-134.9361219280715
 11
101.3533311378561
 21
-135.3908745321245
 72
     1
 10
101.3533311378561
 20
-135.3908745321245
 11
101.4863118235868
 21
-135.452886250859
 72
     1
 10
101.4863118235868
 20
-135.452886250859
 11
101.4022514937467
 21
-135.3323079088753
 72
     1
 10
101.4022514937467
 20
-135.3323079088753
 11
100.7618082430387
 21
-134.3091145497561
 72
     1
 10
100.7618082430387
 20
-134.3091145497561
 11
100.9657578957655
 21
-134.0658908084974
 72
     1
 10
100.9657578957655
 20
-134.0658908084974
 11
102.1488036854003
 21
-135.0587673273464
 72
     1
 10
102.1488036854003
 20
-135.0587673273464
 11
102.0085882991506
 21
-135.2255099488325
 97
        0
 75
     2
 76
     1
 98
        0
  0
SPLINE
  5
B7
330
97
100
AcDbEntity
  8
_U+30EC_U+30A4_U+30E4_U+30FC 1
370
     0
100
AcDbSpline
210
0.0
220
0.0
230
1.0
 70
    11
 71
     3
 72
    44
 73
    40
 74
     0
 42
0.0000000001
 43
0.0000000001
 12
1.0
 22
0.0
 32
0.0
 13
1.0
 23
0.0
 33
0.0
 40
0.0
 40
0.0
 40
0.0
 40
0.0
 40
1.0
 40
1.0
 40
1.0
 40
2.0
 40
2.0
 40
2.0
 40
3.0
 40
3.0
 40
3.0
 40
4.0
 40
4.0
 40
4.0
 40
5.0
 40
5.0
 40
5.0
 40
6.0
 40
6.0
 40
6.0
 40
7.0
 40
7.0
 40
7.0
 40
8.0
 40
8.0
 40
8.0
 40
9.0
 40
9.0
 40
9.0
 40
10.0
 40
10.0
 40
10.0
 40
11.0
 40
11.0
 40
11.0
 40
12.0
 40
12.0
 40
12.0
 40
13.0
 40
13.0
 40
13.0
 40
13.0
 10
102.9814832641852
 20
-134.0658908084974
 30
0.0
 10
102.9325629082946
 20
-134.0552110124931
 30
0.0
 10
102.8788194187247
 20
-134.0369520064213
 30
0.0
 10
102.7003634725888
 20
-133.8908799578467
 30
0.0
 10
102.5115722399971
 20
-133.7375732087531
 30
0.0
 10
102.4199327000895
 20
-133.7379177183016
 30
0.0
 10
102.3055555299792
 20
-133.8743434995175
 30
0.0
 10
102.3055555299792
 20
-133.8743434995175
 30
0.0
 10
102.0430392540031
 20
-134.1871581695782
 30
0.0
 10
102.0430392540031
 20
-134.1871581695782
 30
0.0
 10
102.0430392540031
 20
-134.1871581695782
 30
0.0
 10
102.5343098701998
 20
-134.5991915896141
 30
0.0
 10
102.5343098701998
 20
-134.5991915896141
 30
0.0
 10
102.5343098701998
 20
-134.5991915896141
 30
0.0
 10
102.3834146879458
 20
-134.7790255739441
 30
0.0
 10
102.3834146879458
 20
-134.7790255739441
 30
0.0
 10
102.3834146879458
 20
-134.7790255739441
 30
0.0
 10
101.200368898311
 20
-133.7861490550951
 30
0.0
 10
101.200368898311
 20
-133.7861490550951
 30
0.0
 10
101.200368898311
 20
-133.7861490550951
 30
0.0
 10
101.634106419904
 20
-133.2693847323077
 30
0.0
 10
101.634106419904
 20
-133.2693847323077
 30
0.0
 10
101.8311658816603
 20
-133.0344292202136
 30
0.0
 10
102.0699109987881
 20
-133.0165147236903
 30
0.0
 10
102.2662814414473
 20
-133.1811902878853
 30
0.0
 10
102.3048665108821
 20
-133.2135741854466
 30
0.0
 10
102.3627441150343
 20
-133.2731743373414
 30
0.0
 10
102.3958170316927
 20
-133.3589572149241
 30
0.0
 10
102.4371581775157
 20
-133.4705783086463
 30
0.0
 10
102.4095974136337
 20
-133.5332790464778
 30
0.0
 10
102.3827256688488
 20
-133.59115665063
 30
0.0
 10
102.503648520381
 20
-133.5132974926634
 30
0.0
 10
102.5846082642844
 20
-133.4926269197518
 30
0.0
 10
102.8285210246401
 20
-133.6917534387993
 30
0.0
 10
103.0386718492403
 20
-133.8626301748677
 30
0.0
 10
103.0862141669368
 20
-133.8553954743487
 30
0.0
 10
103.1719970445195
 20
-133.839203525568
 30
0.0
 10
103.1719970445195
 20
-133.839203525568
 30
0.0
 10
102.9814832641852
 20
-134.0658908084974
 30
0.0
 10
102.9814832641852
 20
-134.0658908084974
 30
0.0
  0
SPLINE
  5
B8
330
97
100
AcDbEntity
  8
_U+30EC_U+30A4_U+30E4_U+30FC 1
370
     0
100
AcDbSpline
210
0.0
220
0.0
230
1.0
 70
    11
 71
     3
 72
    20
 73
    16
 74
     0
 42
0.0000000001
 43
0.0000000001
 12
1.0
 22
0.0
 32
0.0
 13
1.0
 23
0.0
 33
0.0
 40
0.0
 40
0.0
 40
0.0
 40
0.0
 40
1.0
 40
1.0
 40
1.0
 40
2.0
 40
2.0
 40
2.0
 40
3.0
 40
3.0
 40
3.0
 40
4.0
 40
4.0
 40
4.0
 40
5.0
 40
5.0
 40
5.0
 40
5.0
 10
101.7991264936474
 20
-133.4020209084898
 30
0.0
 10
101.7991264936474
 20
-133.4020209084898
 30
0.0
 10
101.5131835683717
 20
-133.7420518328839
 30
0.0
 10
101.5131835683717
 20
-133.7420518328839
 30
0.0
 10
101.5131835683717
 20
-133.7420518328839
 30
0.0
 10
101.8811197661964
 20
-134.0507323883623
 30
0.0
 10
101.8811197661964
 20
-134.0507323883623
 30
0.0
 10
101.8811197661964
 20
-134.0507323883623
 30
0.0
 10
102.165684653278
 20
-133.7124240117108
 30
0.0
 10
102.165684653278
 20
-133.7124240117108
 30
0.0
 10
102.2294189197551
 20
-133.6359428919382
 30
0.0
 10
102.2580132122827
 20
-133.4836696714902
 30
0.0
 10
102.1267550742947
 20
-133.3734266159622
 30
0.0
 10
102.0664659033028
 20
-133.3231282218776
 30
0.0
 10
101.9265950266017
 20
-133.2494031784932
 30
0.0
 10
101.7991264936474
 20
-133.4020209084898
 30
0.0
  0
HATCH
  5
B9
330
97
100
AcDbEntity
  8
_U+30EC_U+30A4_U+30E4_U+30FC 1
 62
   179
420
  2234388
100
AcDbHatch
 10
0.0
 20
0.0
 30
0.0
210
0.0
220
0.0
230
1.0
  2
SOLID
 70
     1
 71
     0
 91
        2
 92
        1
 93
        1
 72
     4
 94
        3
 73
     0
 74
     1
 95
       44
 96
       40
 40
0.0
 40
0.0
 40
0.0
 40
0.0
 40
1.0
 40
1.0
 40
1.0
 40
2.0
 40
2.0
 40
2.0
 40
3.0
 40
3.0
 40
3.0
 40
4.0
 40
4.0
 40
4.0
 40
5.0
 40
5.0
 40
5.0
 40
6.0
 40
6.0
 40
6.0
 40
7.0
 40
7.0
 40
7.0
 40
8.0
 40
8.0
 40
8.0
 40
9.0
 40
9.0
 40
9.0
 40
10.0
 40
10.0
 40
10.0
 40
11.0
 40
11.0
 40
11.0
 40
12.0
 40
12.0
 40
12.0
 40
13.0
 40
13.0
 40
13.0
 40
13.0
 10
102.9814832641852
 20
-134.0658908084974
 10
102.9325629082946
 20
-134.0552110124931
 10
102.8788194187247
 20
-134.0369520064213
 10
102.7003634725888
 20
-133.8908799578467
 10
102.5115722399971
 20
-133.7375732087531
 10
102.4199327000895
 20
-133.7379177183016
 10
102.3055555299792
 20
-133.8743434995175
 10
102.3055555299792
 20
-133.8743434995175
 10
102.0430392540031
 20
-134.1871581695782
 10
102.0430392540031
 20
-134.1871581695782
 10
102.0430392540031
 20
-134.1871581695782
 10
102.5343098701998
 20
-134.5991915896141
 10
102.5343098701998
 20
-134.5991915896141
 10
102.5343098701998
 20
-134.5991915896141
 10
102.3834146879458
 20
-134.7790255739441
 10
102.3834146879458
 20
-134.7790255739441
 10
102.3834146879458
 20
-134.7790255739441
 10
101.200368898311
 20
-133.7861490550951
 10
101.200368898311
 20
-133.7861490550951
 10
101.200368898311
 20
-133.7861490550951
 10
101.634106419904
 20
-133.2693847323077
 10
101.634106419904
 20
-133.2693847323077
 10
101.8311658816603
 20
-133.0344292202136
 10
102.0699109987881
 20
-133.0165147236903
 10
102.2662814414473
 20
-133.1811902878853
 10
102.3048665108821
 20
-133.2135741854466
 10
102.3627441150343
 20
-133.2731743373414
 10
102.3958170316927
 20
-133.3589572149241
 10
102.4371581775157
 20
-133.4705783086463
 10
102.4095974136337
 20
-133.5332790464778
 10
102.3827256688488
 20
-133.59115665063
 10
102.503648520381
 20
-133.5132974926634
 10
102.5846082642844
 20
-133.4926269197518
 10
102.8285210246401
 20
-133.6917534387993
 10
103.0386718492403
 20
-133.8626301748677
 10
103.0862141669368
 20
-133.8553954743487
 10
103.1719970445195
 20
-133.839203525568
 10
103.1719970445195
 20
-133.839203525568
 10
102.9814832641852
 20
-134.0658908084974
 10
102.9814832641852
 20
-134.0658908084974
 97
        0
 97
        0
 92
        1
 93
        1
 72
     4
 94
        3
 73
     0
 74
     1
 95
       20
 96
       16
 40
0.0
 40
0.0
 40
0.0
 40
0.0
 40
1.0
 40
1.0
 40
1.0
 40
2.0
 40
2.0
 40
2.0
 40
3.0
 40
3.0
 40
3.0
 40
4.0
 40
4.0
 40
4.0
 40
5.0
 40
5.0
 40
5.0
 40
5.0
 10
101.7991264936474
 20
-133.4020209084898
 10
101.7991264936474
 20
-133.4020209084898
 10
101.5131835683717
 20
-133.7420518328839
 10
101.5131835683717
 20
-133.7420518328839
 10
101.5131835683717
 20
-133.7420518328839
 10
101.8811197661964
 20
-134.0507323883623
 10
101.8811197661964
 20
-134.0507323883623
 10
101.8811197661964
 20
-134.0507323883623
 10
102.165684653278
 20
-133.7124240117108
 10
102.165684653278
 20
-133.7124240117108
 10
102.2294189197551
 20
-133.6359428919382
 10
102.2580132122827
 20
-133.4836696714902
 10
102.1267550742947
 20
-133.3734266159622
 10
102.0664659033028
 20
-133.3231282218776
 10
101.9265950266017
 20
-133.2494031784932
 10
101.7991264936474
 20
-133.4020209084898
 97
        0
 97
        0
 75
     2
 76
     1
 98
        0
  0
ENDBLK
  5
9A
330
97
100
AcDbEntity
  8
0
100
AcDbBlockEnd
  0
BLOCK
  5
BC
330
BA
100
AcDbEntity
  8
0
100
AcDbBlockBegin
  2
block 4
 70
     0
 10
0.0
 20
0.0
 30
0.0
  3
block 4
  1

  0
SPLINE
  5
BE
330
BA
100
AcDbEntity
  8
_U+30EC_U+30A4_U+30E4_U+30FC 1
370
     0
100
AcDbSpline
210
0.0
220
0.0
230
1.0
 70
    11
 71
     3
 72
    44
 73
    40
 74
     0
 42
0.0000000001
 43
0.0000000001
 12
1.0
 22
0.0
 32
0.0
 13
1.0
 23
0.0
 33
0.0
 40
0.0
 40
0.0
 40
0.0
 40
0.0
 40
1.0
 40
1.0
 40
1.0
 40
2.0
 40
2.0
 40
2.0
 40
3.0
 40
3.0
 40
3.0
 40
4.0
 40
4.0
 40
4.0
 40
5.0
 40
5.0
 40
5.0
 40
6.0
 40
6.0
 40
6.0
 40
7.0
 40
7.0
 40
7.0
 40
8.0
 40
8.0
 40
8.0
 40
9.0
 40
9.0
 40
9.0
 40
10.0
 40
10.0
 40
10.0
 40
11.0
 40
11.0
 40
11.0
 40
12.0
 40
12.0
 40
12.0
 40
13.0
 40
13.0
 40
13.0
 40
13.0
 10
83.96800128109133
 20
-131.3091254012005
 30
0.0
 10
83.92597111617128
 20
-131.5757757917588
 30
0.0
 10
83.91287975332735
 20
-131.6935980573544
 30
0.0
 10
83.97971460574118
 20
-131.8300238385703
 30
0.0
 10
83.97971460574118
 20
-131.8300238385703
 30
0.0
 10
84.53024086428411
 20
-131.2794975800274
 30
0.0
 10
84.53024086428411
 20
-131.2794975800274
 30
0.0
 10
84.53024086428411
 20
-131.2794975800274
 30
0.0
 10
84.67562389376165
 20
-131.4241915904078
 30
0.0
 10
84.67562389376165
 20
-131.4241915904078
 30
0.0
 10
84.67562389376165
 20
-131.4241915904078
 30
0.0
 10
83.94870874637394
 20
-132.1511067377956
 30
0.0
 10
83.94870874637394
 20
-132.1511067377956
 30
0.0
 10
83.71788734886219
 20
-131.8761881180726
 30
0.0
 10
83.70893010060055
 20
-131.7742132917092
 30
0.0
 10
83.770252800238
 20
-131.2912109046772
 30
0.0
 10
83.81090492696394
 20
-130.9697834959034
 30
0.0
 10
83.80952688876984
 20
-130.8757323891561
 30
0.0
 10
83.71203068653728
 20
-130.7782361869235
 30
0.0
 10
83.6283148662457
 20
-130.6945203666319
 30
0.0
 10
83.48499889405932
 20
-130.6524902017119
 30
0.0
 10
83.34581703645522
 20
-130.791672059316
 30
0.0
 10
83.16184893754287
 20
-130.9756401582283
 30
0.0
 10
83.31860078212175
 20
-131.1447943465541
 30
0.0
 10
83.39818248783101
 20
-131.2298882050397
 30
0.0
 10
83.39818248783101
 20
-131.2298882050397
 30
0.0
 10
83.23970809550953
 20
-131.3883625973612
 30
0.0
 10
83.23970809550953
 20
-131.3883625973612
 30
0.0
 10
83.15564776566943
 20
-131.2925889428713
 30
0.0
 10
83.08398977957623
 20
-131.2061170461915
 30
0.0
 10
83.05711803479127
 20
-131.0652126408448
 30
0.0
 10
83.02094453219615
 20
-130.8740098414135
 30
0.0
 10
83.12877602088447
 20
-130.7186360350287
 30
0.0
 10
83.21076929343343
 20
-130.6359537433827
 30
0.0
 10
83.40713973609266
 20
-130.4402723198205
 30
0.0
 10
83.68378090355823
 20
-130.4237358614913
 30
0.0
 10
83.87670625073221
 20
-130.6166612086653
 30
0.0
 10
84.03828122899043
 20
-130.7782361869235
 30
0.0
 10
84.02622339479205
 20
-130.9308539169201
 30
0.0
 10
83.96800128109133
 20
-131.3091254012005
 30
0.0
  0
HATCH
  5
BF
330
BA
100
AcDbEntity
  8
_U+30EC_U+30A4_U+30E4_U+30FC 1
 62
   179
420
  2234388
100
AcDbHatch
 10
0.0
 20
0.0
 30
0.0
210
0.0
220
0.0
230
1.0
  2
SOLID
 70
     1
 71
     0
 91
        1
 92
        1
 93
        1
 72
     4
 94
        3
 73
     0
 74
     1
 95
       44
 96
       40
 40
0.0
 40
0.0
 40
0.0
 40
0.0
 40
1.0
 40
1.0
 40
1.0
 40
2.0
 40
2.0
 40
2.0
 40
3.0
 40
3.0
 40
3.0
 40
4.0
 40
4.0
 40
4.0
 40
5.0
 40
5.0
 40
5.0
 40
6.0
 40
6.0
 40
6.0
 40
7.0
 40
7.0
 40
7.0
 40
8.0
 40
8.0
 40
8.0
 40
9.0
 40
9.0
 40
9.0
 40
10.0
 40
10.0
 40
10.0
 40
11.0
 40
11.0
 40
11.0
 40
12.0
 40
12.0
 40
12.0
 40
13.0
 40
13.0
 40
13.0
 40
13.0
 10
83.96800128109133
 20
-131.3091254012005
 10
83.92597111617128
 20
-131.5757757917588
 10
83.91287975332735
 20
-131.6935980573544
 10
83.97971460574118
 20
-131.8300238385703
 10
83.97971460574118
 20
-131.8300238385703
 10
84.53024086428411
 20
-131.2794975800274
 10
84.53024086428411
 20
-131.2794975800274
 10
84.53024086428411
 20
-131.2794975800274
 10
84.67562389376165
 20
-131.4241915904078
 10
84.67562389376165
 20
-131.4241915904078
 10
84.67562389376165
 20
-131.4241915904078
 10
83.94870874637394
 20
-132.1511067377956
 10
83.94870874637394
 20
-132.1511067377956
 10
83.71788734886219
 20
-131.8761881180726
 10
83.70893010060055
 20
-131.7742132917092
 10
83.770252800238
 20
-131.2912109046772
 10
83.81090492696394
 20
-130.9697834959034
 10
83.80952688876984
 20
-130.8757323891561
 10
83.71203068653728
 20
-130.7782361869235
 10
83.6283148662457
 20
-130.6945203666319
 10
83.48499889405932
 20
-130.6524902017119
 10
83.34581703645522
 20
-130.791672059316
 10
83.16184893754287
 20
-130.9756401582283
 10
83.31860078212175
 20
-131.1447943465541
 10
83.39818248783101
 20
-131.2298882050397
 10
83.39818248783101
 20
-131.2298882050397
 10
83.23970809550953
 20
-131.3883625973612
 10
83.23970809550953
 20
-131.3883625973612
 10
83.15564776566943
 20
-131.2925889428713
 10
83.08398977957623
 20
-131.2061170461915
 10
83.05711803479127
 20
-131.0652126408448
 10
83.02094453219615
 20
-130.8740098414135
 10
83.12877602088447
 20
-130.7186360350287
 10
83.21076929343343
 20
-130.6359537433827
 10
83.40713973609266
 20
-130.4402723198205
 10
83.68378090355823
 20
-130.4237358614913
 10
83.87670625073221
 20
-130.6166612086653
 10
84.03828122899043
 20
-130.7782361869235
 10
84.02622339479205
 20
-130.9308539169201
 10
83.96800128109133
 20
-131.3091254012005
 97
        0
 97
        0
 75
     2
 76
     1
 98
        0
  0
SPLINE
  5
C0
330
BA
100
AcDbEntity
  8
_U+30EC_U+30A4_U+30E4_U+30FC 1
370
     0
100
AcDbSpline
210
0.0
220
0.0
230
1.0
 70
    11
 71
     3
 72
    29
 73
    25
 74
     0
 42
0.0000000001
 43
0.0000000001
 12
1.0
 22
0.0
 32
0.0
 13
1.0
 23
0.0
 33
0.0
 40
0.0
 40
0.0
 40
0.0
 40
0.0
 40
1.0
 40
1.0
 40
1.0
 40
2.0
 40
2.0
 40
2.0
 40
3.0
 40
3.0
 40
3.0
 40
4.0
 40
4.0
 40
4.0
 40
5.0
 40
5.0
 40
5.0
 40
6.0
 40
6.0
 40
6.0
 40
7.0
 40
7.0
 40
7.0
 40
8.0
 40
8.0
 40
8.0
 40
8.0
 10
85.30125323388302
 20
-130.5474147894118
 30
0.0
 10
85.37291121997622
 20
-130.7716905055015
 30
0.0
 10
85.26404620264232
 20
-130.9081162867174
 30
0.0
 10
85.18136391099632
 20
-130.9901095592664
 30
0.0
 10
85.06767575998309
 20
-131.1037977102796
 30
0.0
 10
84.93469507425245
 20
-131.1713215817905
 30
0.0
 10
84.73866914114173
 20
-131.1099988821531
 30
0.0
 10
84.52782929744444
 20
-131.0455755965789
 30
0.0
 10
84.34696178446882
 20
-130.8915798283882
 30
0.0
 10
84.23155108571295
 20
-130.7761691296324
 30
0.0
 10
84.12992076889807
 20
-130.6745388128175
 30
0.0
 10
83.96386716650903
 20
-130.4847140515802
 30
0.0
 10
83.89772133319224
 20
-130.2693955837521
 30
0.0
 10
83.83088648077839
 20
-130.0489094726961
 30
0.0
 10
83.92803817346244
 20
-129.9193738824507
 30
0.0
 10
84.01898869427303
 20
-129.8277343425431
 30
0.0
 10
84.13129880709218
 20
-129.7157687392724
 30
0.0
 10
84.26427949282282
 20
-129.6451442818248
 30
0.0
 10
84.46064993548207
 20
-129.7064669814623
 30
0.0
 10
84.66701115504853
 20
-129.7726128147791
 30
0.0
 10
84.84477808208742
 20
-129.9176513347081
 30
0.0
 10
84.96742348136232
 20
-130.040296733983
 30
0.0
 10
85.08869084244311
 20
-130.1615640950638
 30
0.0
 10
85.23717445785738
 20
-130.3396755316512
 30
0.0
 10
85.30125323388302
 20
-130.5474147894118
 30
0.0
  0
SPLINE
  5
C1
330
BA
100
AcDbEntity
  8
_U+30EC_U+30A4_U+30E4_U+30FC 1
370
     0
100
AcDbSpline
210
0.0
220
0.0
230
1.0
 70
    11
 71
     3
 72
    17
 73
    13
 74
     0
 42
0.0000000001
 43
0.0000000001
 12
1.0
 22
0.0
 32
0.0
 13
1.0
 23
0.0
 33
0.0
 40
0.0
 40
0.0
 40
0.0
 40
0.0
 40
1.0
 40
1.0
 40
1.0
 40
2.0
 40
2.0
 40
2.0
 40
3.0
 40
3.0
 40
3.0
 40
4.0
 40
4.0
 40
4.0
 40
4.0
 10
84.15541447548893
 20
-129.964160123759
 30
0.0
 10
83.97902558664414
 20
-130.1405490126038
 30
0.0
 10
84.14645722722727
 20
-130.3737819769552
 30
0.0
 10
84.39036998758297
 20
-130.6173502277623
 30
0.0
 10
84.61636825141535
 20
-130.8433484915947
 30
0.0
 10
84.85993650222252
 20
-131.0366183483172
 30
0.0
 10
85.04390460113486
 20
-130.8526502494049
 30
0.0
 10
85.21891545178555
 20
-130.6776393987542
 30
0.0
 10
85.05423988759061
 20
-130.4440619248543
 30
0.0
 10
84.80894908904082
 20
-130.1987711263045
 30
0.0
 10
84.58329533475695
 20
-129.9731173720206
 30
0.0
 10
84.33800453620717
 20
-129.7815700630407
 30
0.0
 10
84.15541447548893
 20
-129.964160123759
 30
0.0
  0
HATCH
  5
C2
330
BA
100
AcDbEntity
  8
_U+30EC_U+30A4_U+30E4_U+30FC 1
 62
   179
420
  2234388
100
AcDbHatch
 10
0.0
 20
0.0
 30
0.0
210
0.0
220
0.0
230
1.0
  2
SOLID
 70
     1
 71
     0
 91
        2
 92
        1
 93
        1
 72
     4
 94
        3
 73
     0
 74
     1
 95
       29
 96
       25
 40
0.0
 40
0.0
 40
0.0
 40
0.0
 40
1.0
 40
1.0
 40
1.0
 40
2.0
 40
2.0
 40
2.0
 40
3.0
 40
3.0
 40
3.0
 40
4.0
 40
4.0
 40
4.0
 40
5.0
 40
5.0
 40
5.0
 40
6.0
 40
6.0
 40
6.0
 40
7.0
 40
7.0
 40
7.0
 40
8.0
 40
8.0
 40
8.0
 40
8.0
 10
85.30125323388302
 20
-130.5474147894118
 10
85.37291121997622
 20
-130.7716905055015
 10
85.26404620264232
 20
-130.9081162867174
 10
85.18136391099632
 20
-130.9901095592664
 10
85.06767575998309
 20
-131.1037977102796
 10
84.93469507425245
 20
-131.1713215817905
 10
84.73866914114173
 20
-131.1099988821531
 10
84.52782929744444
 20
-131.0455755965789
 10
84.34696178446882
 20
-130.8915798283882
 10
84.23155108571295
 20
-130.7761691296324
 10
84.12992076889807
 20
-130.6745388128175
 10
83.96386716650903
 20
-130.4847140515802
 10
83.89772133319224
 20
-130.2693955837521
 10
83.83088648077839
 20
-130.0489094726961
 10
83.92803817346244
 20
-129.9193738824507
 10
84.01898869427303
 20
-129.8277343425431
 10
84.13129880709218
 20
-129.7157687392724
 10
84.26427949282282
 20
-129.6451442818248
 10
84.46064993548207
 20
-129.7064669814623
 10
84.66701115504853
 20
-129.7726128147791
 10
84.84477808208742
 20
-129.9176513347081
 10
84.96742348136232
 20
-130.040296733983
 10
85.08869084244311
 20
-130.1615640950638
 10
85.23717445785738
 20
-130.3396755316512
 10
85.30125323388302
 20
-130.5474147894118
 97
        0
 97
        0
 92
        1
 93
        1
 72
     4
 94
        3
 73
     0
 74
     1
 95
       17
 96
       13
 40
0.0
 40
0.0
 40
0.0
 40
0.0
 40
1.0
 40
1.0
 40
1.0
 40
2.0
 40
2.0
 40
2.0
 40
3.0
 40
3.0
 40
3.0
 40
4.0
 40
4.0
 40
4.0
 40
4.0
 10
84.15541447548893
 20
-129.964160123759
 10
83.97902558664414
 20
-130.1405490126038
 10
84.14645722722727
 20
-130.3737819769552
 10
84.39036998758297
 20
-130.6173502277623
 10
84.61636825141535
 20
-130.8433484915947
 10
84.85993650222252
 20
-131.0366183483172
 10
85.04390460113486
 20
-130.8526502494049
 10
85.21891545178555
 20
-130.6776393987542
 10
85.05423988759061
 20
-130.4440619248543
 10
84.80894908904082
 20
-130.1987711263045
 10
84.58329533475695
 20
-129.9731173720206
 10
84.33800453620717
 20
-129.7815700630407
 10
84.15541447548893
 20
-129.964160123759
 97
        0
 97
        0
 75
     2
 76
     1
 98
        0
  0
SPLINE
  5
C3
330
BA
100
AcDbEntity
  8
_U+30EC_U+30A4_U+30E4_U+30FC 1
370
     0
100
AcDbSpline
210
0.0
220
0.0
230
1.0
 70
    11
 71
     3
 72
    29
 73
    25
 74
     0
 42
0.0000000001
 43
0.0000000001
 12
1.0
 22
0.0
 32
0.0
 13
1.0
 23
0.0
 33
0.0
 40
0.0
 40
0.0
 40
0.0
 40
0.0
 40
1.0
 40
1.0
 40
1.0
 40
2.0
 40
2.0
 40
2.0
 40
3.0
 40
3.0
 40
3.0
 40
4.0
 40
4.0
 40
4.0
 40
5.0
 40
5.0
 40
5.0
 40
6.0
 40
6.0
 40
6.0
 40
7.0
 40
7.0
 40
7.0
 40
8.0
 40
8.0
 40
8.0
 40
8.0
 10
86.13358830311938
 20
-129.7154242297239
 30
0.0
 10
86.20524628921258
 20
-129.9393554362652
 30
0.0
 10
86.09603676233016
 20
-130.0757812174811
 30
0.0
 10
86.01369898023269
 20
-130.1581189995785
 30
0.0
 10
85.90001082921944
 20
-130.2718071505918
 30
0.0
 10
85.7670301434888
 20
-130.3389865125542
 30
0.0
 10
85.57065970082957
 20
-130.2776638129167
 30
0.0
 10
85.35981985713227
 20
-130.2135850368911
 30
0.0
 10
85.17895234415666
 20
-130.0592447591519
 30
0.0
 10
85.06354164540079
 20
-129.9441785699445
 30
0.0
 10
84.96225583813444
 20
-129.8422037435811
 30
0.0
 10
84.7962022357454
 20
-129.6527234918924
 30
0.0
 10
84.7300564024286
 20
-129.4370605145157
 30
0.0
 10
84.66287704046623
 20
-129.2169189130083
 30
0.0
 10
84.76002873315028
 20
-129.0870388132143
 30
0.0
 10
84.8513237635094
 20
-128.9957437828552
 30
0.0
 10
84.96363387632854
 20
-128.8837781795846
 30
0.0
 10
85.09661456205919
 20
-128.813153722137
 30
0.0
 10
85.2926404951699
 20
-128.8744764217744
 30
0.0
 10
85.49900171473637
 20
-128.9402777455427
 30
0.0
 10
85.67676864177525
 20
-129.0856607750202
 30
0.0
 10
85.79941404105016
 20
-129.2083061742952
 30
0.0
 10
85.92068140213094
 20
-129.3295735353759
 30
0.0
 10
86.06916501754522
 20
-129.5073404624148
 30
0.0
 10
86.13358830311938
 20
-129.7154242297239
 30
0.0
  0
SPLINE
  5
C4
330
BA
100
AcDbEntity
  8
_U+30EC_U+30A4_U+30E4_U+30FC 1
370
     0
100
AcDbSpline
210
0.0
220
0.0
230
1.0
 70
    11
 71
     3
 72
    17
 73
    13
 74
     0
 42
0.0000000001
 43
0.0000000001
 12
1.0
 22
0.0
 32
0.0
 13
1.0
 23
0.0
 33
0.0
 40
0.0
 40
0.0
 40
0.0
 40
0.0
 40
1.0
 40
1.0
 40
1.0
 40
2.0
 40
2.0
 40
2.0
 40
3.0
 40
3.0
 40
3.0
 40
4.0
 40
4.0
 40
4.0
 40
4.0
 10
84.98774954472529
 20
-129.1318250545226
 30
0.0
 10
84.81101614633197
 20
-129.3085584529159
 30
0.0
 10
84.97879229646364
 20
-129.5417914172673
 30
0.0
 10
85.2223605472708
 20
-129.7853596680745
 30
0.0
 10
85.44835881110319
 20
-130.0113579319069
 30
0.0
 10
85.69192706191035
 20
-130.2046277886294
 30
0.0
 10
85.8758951608227
 20
-130.0206596897171
 30
0.0
 10
86.05090601147339
 20
-129.8456488390664
 30
0.0
 10
85.88623044727845
 20
-129.6120713651664
 30
0.0
 10
85.64093964872866
 20
-129.3667805666167
 30
0.0
 10
85.41528589444479
 20
-129.1407823027843
 30
0.0
 10
85.17033960544353
 20
-128.9492349938044
 30
0.0
 10
84.98774954472529
 20
-129.1318250545226
 30
0.0
  0
HATCH
  5
C5
330
BA
100
AcDbEntity
  8
_U+30EC_U+30A4_U+30E4_U+30FC 1
 62
   179
420
  2234388
100
AcDbHatch
 10
0.0
 20
0.0
 30
0.0
210
0.0
220
0.0
230
1.0
  2
SOLID
 70
     1
 71
     0
 91
        2
 92
        1
 93
        1
 72
     4
 94
        3
 73
     0
 74
     1
 95
       29
 96
       25
 40
0.0
 40
0.0
 40
0.0
 40
0.0
 40
1.0
 40
1.0
 40
1.0
 40
2.0
 40
2.0
 40
2.0
 40
3.0
 40
3.0
 40
3.0
 40
4.0
 40
4.0
 40
4.0
 40
5.0
 40
5.0
 40
5.0
 40
6.0
 40
6.0
 40
6.0
 40
7.0
 40
7.0
 40
7.0
 40
8.0
 40
8.0
 40
8.0
 40
8.0
 10
86.13358830311938
 20
-129.7154242297239
 10
86.20524628921258
 20
-129.9393554362652
 10
86.09603676233016
 20
-130.0757812174811
 10
86.01369898023269
 20
-130.1581189995785
 10
85.90001082921944
 20
-130.2718071505918
 10
85.7670301434888
 20
-130.3389865125542
 10
85.57065970082957
 20
-130.2776638129167
 10
85.35981985713227
 20
-130.2135850368911
 10
85.17895234415666
 20
-130.0592447591519
 10
85.06354164540079
 20
-129.9441785699445
 10
84.96225583813444
 20
-129.8422037435811
 10
84.7962022357454
 20
-129.6527234918924
 10
84.7300564024286
 20
-129.4370605145157
 10
84.66287704046623
 20
-129.2169189130083
 10
84.76002873315028
 20
-129.0870388132143
 10
84.8513237635094
 20
-128.9957437828552
 10
84.96363387632854
 20
-128.8837781795846
 10
85.09661456205919
 20
-128.813153722137
 10
85.2926404951699
 20
-128.8744764217744
 10
85.49900171473637
 20
-128.9402777455427
 10
85.67676864177525
 20
-129.0856607750202
 10
85.79941404105016
 20
-129.2083061742952
 10
85.92068140213094
 20
-129.3295735353759
 10
86.06916501754522
 20
-129.5073404624148
 10
86.13358830311938
 20
-129.7154242297239
 97
        0
 97
        0
 92
        1
 93
        1
 72
     4
 94
        3
 73
     0
 74
     1
 95
       17
 96
       13
 40
0.0
 40
0.0
 40
0.0
 40
0.0
 40
1.0
 40
1.0
 40
1.0
 40
2.0
 40
2.0
 40
2.0
 40
3.0
 40
3.0
 40
3.0
 40
4.0
 40
4.0
 40
4.0
 40
4.0
 10
84.98774954472529
 20
-129.1318250545226
 10
84.81101614633197
 20
-129.3085584529159
 10
84.97879229646364
 20
-129.5417914172673
 10
85.2223605472708
 20
-129.7853596680745
 10
85.44835881110319
 20
-130.0113579319069
 10
85.69192706191035
 20
-130.2046277886294
 10
85.8758951608227
 20
-130.0206596897171
 10
86.05090601147339
 20
-129.8456488390664
 10
85.88623044727845
 20
-129.6120713651664
 10
85.64093964872866
 20
-129.3667805666167
 10
85.41528589444479
 20
-129.1407823027843
 10
85.17033960544353
 20
-128.9492349938044
 10
84.98774954472529
 20
-129.1318250545226
 97
        0
 97
        0
 75
     2
 76
     1
 98
        0
  0
ENDBLK
  5
BD
330
BA
100
AcDbEntity
  8
0
100
AcDbBlockEnd
  0
ENDSEC
  0
SECTION
  2
ENTITIES
  0
POLYLINE
  5
41
330
1F
100
AcDbEntity
  8
_U+30EC_U+30A4_U+30E4_U+30FC 1
 62
     7
420
 16777215
370
     9
100
AcDb2dPolyline
 66
     1
 10
0.0
 20
0.0
 30
0.0
  0
VERTEX
  5
42
330
41
100
AcDbEntity
  8
_U+30EC_U+30A4_U+30E4_U+30FC 1
 62
     7
420
 16777215
370
     9
100
AcDbVertex
100
AcDb2dVertex
 10
86.81624528513306
 20
-112.5228466385361
 30
0.0
  0
VERTEX
  5
43
330
41
100
AcDbEntity
  8
_U+30EC_U+30A4_U+30E4_U+30FC 1
 62
     7
420
 16777215
370
     9
100
AcDbVertex
100
AcDb2dVertex
 10
88.64144690523496
 20
-111.2798694166246
 30
0.0
  0
VERTEX
  5
44
330
41
100
AcDbEntity
  8
_U+30EC_U+30A4_U+30E4_U+30FC 1
 62
     7
420
 16777215
370
     9
100
AcDbVertex
100
AcDb2dVertex
 10
110.7584257854283
 20
-118.6599452481129
 30
0.0
  0
VERTEX
  5
45
330
41
100
AcDbEntity
  8
_U+30EC_U+30A4_U+30E4_U+30FC 1
 62
     7
420
 16777215
370
     9
100
AcDbVertex
100
AcDb2dVertex
 10
107.4780158691185
 20
-119.4805769145742
 30
0.0
  0
VERTEX
  5
46
330
41
100
AcDbEntity
  8
_U+30EC_U+30A4_U+30E4_U+30FC 1
 62
     7
420
 16777215
370
     9
100
AcDbVertex
100
AcDb2dVertex
 10
86.81624528513306
 20
-112.5228466385361
 30
0.0
  0
SEQEND
  5
47
330
41
100
AcDbEntity
  8
_U+30EC_U+30A4_U+30E4_U+30FC 1
 62
     7
420
 16777215
370
     9
  0
POLYLINE
  5
48
330
1F
100
AcDbEntity
  8
_U+30EC_U+30A4_U+30E4_U+30FC 1
 62
     7
420
 16777215
370
     9
100
AcDb2dPolyline
 66
     1
 10
0.0
 20
0.0
 30
0.0
  0
VERTEX
  5
49
330
48
100
AcDbEntity
  8
_U+30EC_U+30A4_U+30E4_U+30FC 1
 62
     7
420
 16777215
370
     9
100
AcDbVertex
100
AcDb2dVertex
 10
110.7584257854283
 20
-118.6599452481129
 30
0.0
  0
VERTEX
  5
4A
330
48
100
AcDbEntity
  8
_U+30EC_U+30A4_U+30E4_U+30FC 1
 62
     7
420
 16777215
370
     9
100
AcDbVertex
100
AcDb2dVertex
 10
91.5782159969784
 20
-138.3405707987484
 30
0.0
  0
VERTEX
  5
4B
330
48
100
AcDbEntity
  8
_U+30EC_U+30A4_U+30E4_U+30FC 1
 62
     7
420
 16777215
370
     9
100
AcDbVertex
100
AcDb2dVertex
 10
89.54060688229548
 20
-137.7052885766848
 30
0.0
  0
VERTEX
  5
4C
330
48
100
AcDbEntity
  8
_U+30EC_U+30A4_U+30E4_U+30FC 1
 62
     7
420
 16777215
370
     9
100
AcDbVertex
100
AcDb2dVertex
 10
107.4780158691185
 20
-119.4805769145742
 30
0.0
  0
VERTEX
  5
4D
330
48
100
AcDbEntity
  8
_U+30EC_U+30A4_U+30E4_U+30FC 1
 62
     7
420
 16777215
370
     9
100
AcDbVertex
100
AcDb2dVertex
 10
110.7584257854283
 20
-118.6599452481129
 30
0.0
  0
SEQEND
  5
4E
330
48
100
AcDbEntity
  8
_U+30EC_U+30A4_U+30E4_U+30FC 1
 62
     7
420
 16777215
370
     9
  0
POLYLINE
  5
4F
330
1F
100
AcDbEntity
  8
_U+30EC_U+30A4_U+30E4_U+30FC 1
 62
     7
420
 16777215
370
     9
100
AcDb2dPolyline
 66
     1
 10
0.0
 20
0.0
 30
0.0
  0
VERTEX
  5
50
330
4F
100
AcDbEntity
  8
_U+30EC_U+30A4_U+30E4_U+30FC 1
 62
     7
420
 16777215
370
     9
100
AcDbVertex
100
AcDb2dVertex
 10
86.81624528513306
 20
-112.5228466385361
 30
0.0
  0
VERTEX
  5
51
330
4F
100
AcDbEntity
  8
_U+30EC_U+30A4_U+30E4_U+30FC 1
 62
     7
420
 16777215
370
     9
100
AcDbVertex
100
AcDb2dVertex
 10
86.81624528513306
 20
-113.2159844161405
 30
0.0
  0
VERTEX
  5
52
330
4F
100
AcDbEntity
  8
_U+30EC_U+30A4_U+30E4_U+30FC 1
 62
     7
420
 16777215
370
     9
100
AcDbVertex
100
AcDb2dVertex
 10
106.9116311613459
 20
-120.0558869144303
 30
0.0
  0
VERTEX
  5
53
330
4F
100
AcDbEntity
  8
_U+30EC_U+30A4_U+30E4_U+30FC 1
 62
     7
420
 16777215
370
     9
100
AcDbVertex
100
AcDb2dVertex
 10
107.4780158691185
 20
-119.4805769145742
 30
0.0
  0
VERTEX
  5
54
330
4F
100
AcDbEntity
  8
_U+30EC_U+30A4_U+30E4_U+30FC 1
 62
     7
420
 16777215
370
     9
100
AcDbVertex
100
AcDb2dVertex
 10
86.81624528513306
 20
-112.5228466385361
 30
0.0
  0
SEQEND
  5
55
330
4F
100
AcDbEntity
  8
_U+30EC_U+30A4_U+30E4_U+30FC 1
 62
     7
420
 16777215
370
     9
  0
SPLINE
  5
56
330
1F
100
AcDbEntity
  8
_U+30EC_U+30A4_U+30E4_U+30FC 1
 62
     7
420
 16777215
370
     9
100
AcDbSpline
210
0.0
220
0.0
230
1.0
 70
    11
 71
     3
 72
    26
 73
    22
 74
     0
 42
0.0000000001
 43
0.0000000001
 12
1.0
 22
0.0
 32
0.0
 13
1.0
 23
0.0
 33
0.0
 40
0.0
 40
0.0
 40
0.0
 40
0.0
 40
1.0
 40
1.0
 40
1.0
 40
2.0
 40
2.0
 40
2.0
 40
3.0
 40
3.0
 40
3.0
 40
4.0
 40
4.0
 40
4.0
 40
5.0
 40
5.0
 40
5.0
 40
6.0
 40
6.0
 40
6.0
 40
7.0
 40
7.0
 40
7.0
 40
7.0
 10
89.06174633895667
 20
-144.580327741633
 30
0.0
 10
88.9825124520892
 20
-144.5017641305414
 30
0.0
 10
86.39834474023904
 20
-140.7335330203724
 30
0.0
 10
89.85066326327416
 20
-138.9386349652654
 30
0.0
 10
90.08698909057833
 20
-138.8793682986137
 30
0.0
 10
90.14696131127053
 20
-138.8001344097441
 30
0.0
 10
90.24549442188318
 20
-138.701603576436
 30
0.0
 10
90.34402297290973
 20
-138.6030727431272
 30
0.0
 10
90.83734740476842
 20
-138.1097482988061
 30
0.0
 10
90.83734740476842
 20
-138.1097482988061
 30
0.0
 10
90.83734740476842
 20
-138.1097482988061
 30
0.0
 10
91.5782159969784
 20
-138.3405707987484
 30
0.0
 10
91.5782159969784
 20
-138.3405707987484
 30
0.0
 10
91.5782159969784
 20
-138.3405707987484
 30
0.0
 10
106.7394050546287
 20
-122.7844113581928
 30
0.0
 10
106.7394050546287
 20
-122.7844113581928
 30
0.0
 10
106.6794328339365
 20
-123.1978316358673
 30
0.0
 10
106.3046064546102
 20
-124.6378705243963
 30
0.0
 10
106.7394050546287
 20
-125.8216163574335
 30
0.0
 10
106.1751017356919
 20
-126.4417291350561
 30
0.0
 10
89.06174633895667
 20
-144.580327741633
 30
0.0
 10
89.06174633895667
 20
-144.580327741633
 30
0.0
  0
POLYLINE
  5
57
330
1F
100
AcDbEntity
  8
_U+30EC_U+30A4_U+30E4_U+30FC 1
 62
     7
420
 16777215
370
     9
100
AcDb2dPolyline
 66
     1
 10
0.0
 20
0.0
 30
0.0
  0
VERTEX
  5
58
330
57
100
AcDbEntity
  8
_U+30EC_U+30A4_U+30E4_U+30FC 1
 62
     7
420
 16777215
370
     9
100
AcDbVertex
100
AcDb2dVertex
 10
89.54060688229548
 20
-137.7052885766848
 30
0.0
  0
VERTEX
  5
59
330
57
100
AcDbEntity
  8
_U+30EC_U+30A4_U+30E4_U+30FC 1
 62
     7
420
 16777215
370
     9
100
AcDbVertex
100
AcDb2dVertex
 10
89.85066326327416
 20
-138.9386349652654
 30
0.0
  0
VERTEX
  5
5A
330
57
100
AcDbEntity
  8
_U+30EC_U+30A4_U+30E4_U+30FC 1
 62
     7
420
 16777215
370
     9
100
AcDbVertex
100
AcDb2dVertex
 10
90.08010992408715
 20
-138.8469832986217
 30
0.0
  0
VERTEX
  5
5B
330
57
100
AcDbEntity
  8
_U+30EC_U+30A4_U+30E4_U+30FC 1
 62
     7
420
 16777215
370
     9
100
AcDbVertex
100
AcDb2dVertex
 10
90.83734740476842
 20
-138.1097482988061
 30
0.0
  0
VERTEX
  5
5C
330
57
100
AcDbEntity
  8
_U+30EC_U+30A4_U+30E4_U+30FC 1
 62
     7
420
 16777215
370
     9
100
AcDbVertex
100
AcDb2dVertex
 10
89.54060688229548
 20
-137.7052885766848
 30
0.0
  0
SEQEND
  5
5D
330
57
100
AcDbEntity
  8
_U+30EC_U+30A4_U+30E4_U+30FC 1
 62
     7
420
 16777215
370
     9
  0
POLYLINE
  5
5E
330
1F
100
AcDbEntity
  8
_U+30EC_U+30A4_U+30E4_U+30FC 1
 62
     7
420
 16777215
370
     9
100
AcDb2dPolyline
 66
     1
 10
0.0
 20
0.0
 30
0.0
  0
VERTEX
  5
5F
330
5E
100
AcDbEntity
  8
_U+30EC_U+30A4_U+30E4_U+30FC 1
 62
     7
420
 16777215
370
     9
100
AcDbVertex
100
AcDb2dVertex
 10
101.3733024137516
 20
-125.6837860796903
 30
0.0
  0
VERTEX
  5
60
330
5E
100
AcDbEntity
  8
_U+30EC_U+30A4_U+30E4_U+30FC 1
 62
     7
420
 16777215
370
     9
100
AcDbVertex
100
AcDb2dVertex
 10
84.26756701682193
 20
-119.8436910811501
 30
0.0
  0
VERTEX
  5
61
330
5E
100
AcDbEntity
  8
_U+30EC_U+30A4_U+30E4_U+30FC 1
 62
     7
420
 16777215
370
     9
100
AcDbVertex
100
AcDb2dVertex
 10
84.26756701682193
 20
-118.3050860815349
 30
0.0
  0
VERTEX
  5
62
330
5E
100
AcDbEntity
  8
_U+30EC_U+30A4_U+30E4_U+30FC 1
 62
     7
420
 16777215
370
     9
100
AcDbVertex
100
AcDb2dVertex
 10
102.59631238255
 20
-124.4408088577788
 30
0.0
  0
VERTEX
  5
63
330
5E
100
AcDbEntity
  8
_U+30EC_U+30A4_U+30E4_U+30FC 1
 62
     7
420
 16777215
370
     9
100
AcDbVertex
100
AcDb2dVertex
 10
101.3733024137516
 20
-125.6837860796903
 30
0.0
  0
SEQEND
  5
64
330
5E
100
AcDbEntity
  8
_U+30EC_U+30A4_U+30E4_U+30FC 1
 62
     7
420
 16777215
370
     9
  0
POLYLINE
  5
65
330
1F
100
AcDbEntity
  8
_U+30EC_U+30A4_U+30E4_U+30FC 1
 62
     7
420
 16777215
370
     9
100
AcDb2dPolyline
 66
     1
 10
0.0
 20
0.0
 30
0.0
  0
VERTEX
  5
66
330
65
100
AcDbEntity
  8
_U+30EC_U+30A4_U+30E4_U+30FC 1
 62
     7
420
 16777215
370
     9
100
AcDbVertex
100
AcDb2dVertex
 10
84.26756701682193
 20
-118.3050860815349
 30
0.0
  0
VERTEX
  5
67
330
65
100
AcDbEntity
  8
_U+30EC_U+30A4_U+30E4_U+30FC 1
 62
     7
420
 16777215
370
     9
100
AcDbVertex
100
AcDb2dVertex
 10
85.03683421941851
 20
-117.9102924705225
 30
0.0
  0
VERTEX
  5
68
330
65
100
AcDbEntity
  8
_U+30EC_U+30A4_U+30E4_U+30FC 1
 62
     7
420
 16777215
370
     9
100
AcDbVertex
100
AcDb2dVertex
 10
103.0372845935221
 20
-123.9936277467794
 30
0.0
  0
VERTEX
  5
69
330
65
100
AcDbEntity
  8
_U+30EC_U+30A4_U+30E4_U+30FC 1
 62
     7
420
 16777215
370
     9
100
AcDbVertex
100
AcDb2dVertex
 10
102.59631238255
 20
-124.4408088577788
 30
0.0
  0
VERTEX
  5
6A
330
65
100
AcDbEntity
  8
_U+30EC_U+30A4_U+30E4_U+30FC 1
 62
     7
420
 16777215
370
     9
100
AcDbVertex
100
AcDb2dVertex
 10
84.26756701682193
 20
-118.3050860815349
 30
0.0
  0
SEQEND
  5
6B
330
65
100
AcDbEntity
  8
_U+30EC_U+30A4_U+30E4_U+30FC 1
 62
     7
420
 16777215
370
     9
  0
SPLINE
  5
6C
330
1F
100
AcDbEntity
  8
_U+30EC_U+30A4_U+30E4_U+30FC 1
 62
     7
420
 16777215
370
     9
100
AcDbSpline
210
0.0
220
0.0
230
1.0
 70
    11
 71
     3
 72
    17
 73
    13
 74
     0
 42
0.0000000001
 43
0.0000000001
 12
1.0
 22
0.0
 32
0.0
 13
1.0
 23
0.0
 33
0.0
 40
0.0
 40
0.0
 40
0.0
 40
0.0
 40
1.0
 40
1.0
 40
1.0
 40
2.0
 40
2.0
 40
2.0
 40
3.0
 40
3.0
 40
3.0
 40
4.0
 40
4.0
 40
4.0
 40
4.0
 10
85.03683421941851
 20
-117.9130441371886
 30
0.0
 10
85.03683421941851
 20
-117.9130441371886
 30
0.0
 10
103.0372845935221
 20
-123.9957091356678
 30
0.0
 10
103.0372845935221
 20
-123.9957091356678
 30
0.0
 10
103.0372845935221
 20
-123.9957091356678
 30
0.0
 10
106.9116311613459
 20
-120.0586385810964
 30
0.0
 10
106.9116311613459
 20
-120.0586385810964
 30
0.0
 10
106.9116311613459
 20
-120.0586385810964
 30
0.0
 10
86.81624528513306
 20
-113.2187713605841
 30
0.0
 10
86.81624528513306
 20
-113.2187713605841
 30
0.0
 10
84.76089144868061
 20
-114.1454833047969
 30
0.0
 10
84.76089144868061
 20
-117.1833585818154
 30
0.0
 10
85.03683421941851
 20
-117.9130441371886
 30
0.0
  0
SPLINE
  5
6D
330
1F
100
AcDbEntity
  8
_U+30EC_U+30A4_U+30E4_U+30FC 1
 62
     7
420
 16777215
370
     9
100
AcDbSpline
210
0.0
220
0.0
230
1.0
 70
    11
 71
     3
 72
    14
 73
    10
 74
     0
 42
0.0000000001
 43
0.0000000001
 12
1.0
 22
0.0
 32
0.0
 13
1.0
 23
0.0
 33
0.0
 40
0.0
 40
0.0
 40
0.0
 40
0.0
 40
1.0
 40
1.0
 40
1.0
 40
2.0
 40
2.0
 40
2.0
 40
3.0
 40
3.0
 40
3.0
 40
3.0
 10
88.33068496871871
 20
-143.1340799642163
 30
0.0
 10
88.33068496871871
 20
-143.1340799642163
 30
0.0
 10
87.68647748515382
 20
-143.8540994084811
 30
0.0
 10
87.68647748515382
 20
-143.8540994084811
 30
0.0
 10
87.68647748515382
 20
-143.8540994084811
 30
0.0
 10
89.00868856253251
 20
-144.580327741633
 30
0.0
 10
89.00868856253251
 20
-144.580327741633
 30
0.0
 10
89.00868856253251
 20
-144.580327741633
 30
0.0
 10
88.28796358091974
 20
-143.2119380197523
 30
0.0
 10
88.33068496871871
 20
-143.1340799642163
 30
0.0
  0
POLYLINE
  5
6E
330
1F
100
AcDbEntity
  8
_U+30EC_U+30A4_U+30E4_U+30FC 1
 62
     7
420
 16777215
370
     9
100
AcDb2dPolyline
 66
     1
 10
0.0
 20
0.0
 30
0.0
  0
VERTEX
  5
6F
330
6E
100
AcDbEntity
  8
_U+30EC_U+30A4_U+30E4_U+30FC 1
 62
     7
420
 16777215
370
     9
100
AcDbVertex
100
AcDb2dVertex
 10
87.68647748515382
 20
-143.8540994084811
 30
0.0
  0
VERTEX
  5
70
330
6E
100
AcDbEntity
  8
_U+30EC_U+30A4_U+30E4_U+30FC 1
 62
     7
420
 16777215
370
     9
100
AcDbVertex
100
AcDb2dVertex
 10
87.37363415980177
 20
-145.8818660746407
 30
0.0
  0
VERTEX
  5
71
330
6E
100
AcDbEntity
  8
_U+30EC_U+30A4_U+30E4_U+30FC 1
 62
     7
420
 16777215
370
     9
100
AcDbVertex
100
AcDb2dVertex
 10
88.78407495715176
 20
-144.4569966305522
 30
0.0
  0
VERTEX
  5
72
330
6E
100
AcDbEntity
  8
_U+30EC_U+30A4_U+30E4_U+30FC 1
 62
     7
420
 16777215
370
     9
100
AcDbVertex
100
AcDb2dVertex
 10
87.68647748515382
 20
-143.8540994084811
 30
0.0
  0
SEQEND
  5
73
330
6E
100
AcDbEntity
  8
_U+30EC_U+30A4_U+30E4_U+30FC 1
 62
     7
420
 16777215
370
     9
  0
INSERT
  5
75
330
1F
100
AcDbEntity
  8
_U+30EC_U+30A4_U+30E4_U+30FC 1
100
AcDbBlockReference
  2
block 2
 10
0.0
 20
0.0
 30
0.0
  0
INSERT
  5
98
330
1F
100
AcDbEntity
  8
_U+30EC_U+30A4_U+30E4_U+30FC 1
100
AcDbBlockReference
  2
block 3
 10
0.0
 20
0.0
 30
0.0
  0
INSERT
  5
BB
330
1F
100
AcDbEntity
  8
_U+30EC_U+30A4_U+30E4_U+30FC 1
100
AcDbBlockReference
  2
block 4
 10
0.0
 20
0.0
 30
0.0
  0
POLYLINE
  5
C6
330
1F
100
AcDbEntity
  8
_U+30EC_U+30A4_U+30E4_U+30FC 1
 62
   179
420
  2234388
370
     9
100
AcDb2dPolyline
 66
     1
 10
0.0
 20
0.0
 30
0.0
  0
VERTEX
  5
C7
330
C6
100
AcDbEntity
  8
_U+30EC_U+30A4_U+30E4_U+30FC 1
 62
   179
420
  2234388
370
     9
100
AcDbVertex
100
AcDb2dVertex
 10
90.63961546536854
 20
-122.2373235805517
 30
0.0
  0
VERTEX
  5
C8
330
C6
100
AcDbEntity
  8
_U+30EC_U+30A4_U+30E4_U+30FC 1
 62
   179
420
  2234388
370
     9
100
AcDbVertex
100
AcDb2dVertex
 10
74.1516997748992
 20
-137.7142491322382
 30
0.0
  0
SEQEND
  5
C9
330
C6
100
AcDbEntity
  8
_U+30EC_U+30A4_U+30E4_U+30FC 1
 62
   179
420
  2234388
370
     9
  0
POLYLINE
  5
CA
330
1F
100
AcDbEntity
  8
_U+30EC_U+30A4_U+30E4_U+30FC 1
 62
   179
420
  2234388
370
     9
100
AcDb2dPolyline
 66
     1
 10
0.0
 20
0.0
 30
0.0
  0
VERTEX
  5
CB
330
CA
100
AcDbEntity
  8
_U+30EC_U+30A4_U+30E4_U+30FC 1
 62
   179
420
  2234388
370
     9
100
AcDbVertex
100
AcDb2dVertex
 10
71.48212456522796
 20
-136.5573849658607
 30
0.0
  0
VERTEX
  5
CC
330
CA
100
AcDbEntity
  8
_U+30EC_U+30A4_U+30E4_U+30FC 1
 62
   179
420
  2234388
370
     9
100
AcDbVertex
100
AcDb2dVertex
 10
84.54936589852153
 20
-142.2500541311039
 30
0.0
  0
SEQEND
  5
CD
330
CA
100
AcDbEntity
  8
_U+30EC_U+30A4_U+30E4_U+30FC 1
 62
   179
420
  2234388
370
     9
  0
SPLINE
  5
CE
330
1F
100
AcDbEntity
  8
_U+30EC_U+30A4_U+30E4_U+30FC 1
 62
   179
420
  2234388
370
     9
100
AcDbSpline
210
0.0
220
0.0
230
1.0
 70
    11
 71
     3
 72
    17
 73
    13
 74
     0
 42
0.0000000001
 43
0.0000000001
 12
1.0
 22
0.0
 32
0.0
 13
1.0
 23
0.0
 33
0.0
 40
0.0
 40
0.0
 40
0.0
 40
0.0
 40
1.0
 40
1.0
 40
1.0
 40
2.0
 40
2.0
 40
2.0
 40
3.0
 40
3.0
 40
3.0
 40
4.0
 40
4.0
 40
4.0
 40
4.0
 10
74.15311088597431
 20
-137.7965874655507
 30
0.0
 10
74.20821664811471
 20
-137.7965874655507
 30
0.0
 10
74.2530194258811
 20
-137.7517846877846
 30
0.0
 10
74.2530194258811
 20
-137.696680798909
 30
0.0
 10
74.2530194258811
 20
-137.6415416322566
 30
0.0
 10
74.20821664811471
 20
-137.5967741322674
 30
0.0
 10
74.15311088597431
 20
-137.5967741322674
 30
0.0
 10
74.09797172071436
 20
-137.5967741322674
 30
0.0
 10
74.05320422185648
 20
-137.6415416322566
 30
0.0
 10
74.05320422185648
 20
-137.696680798909
 30
0.0
 10
74.05320422185648
 20
-137.7517846877846
 30
0.0
 10
74.09797172071436
 20
-137.7965874655507
 30
0.0
 10
74.15311088597431
 20
-137.7965874655507
 30
0.0
  0
HATCH
  5
CF
330
1F
100
AcDbEntity
  8
_U+30EC_U+30A4_U+30E4_U+30FC 1
 62
   179
420
  2234388
100
AcDbHatch
 10
0.0
 20
0.0
 30
0.0
210
0.0
220
0.0
230
1.0
  2
SOLID
 70
     1
 71
     0
 91
        1
 92
        1
 93
        1
 72
     4
 94
        3
 73
     0
 74
     1
 95
       17
 96
       13
 40
0.0
 40
0.0
 40
0.0
 40
0.0
 40
1.0
 40
1.0
 40
1.0
 40
2.0
 40
2.0
 40
2.0
 40
3.0
 40
3.0
 40
3.0
 40
4.0
 40
4.0
 40
4.0
 40
4.0
 10
74.15311088597431
 20
-137.7965874655507
 10
74.20821664811471
 20
-137.7965874655507
 10
74.2530194258811
 20
-137.7517846877846
 10
74.2530194258811
 20
-137.696680798909
 10
74.2530194258811
 20
-137.6415416322566
 10
74.20821664811471
 20
-137.5967741322674
 10
74.15311088597431
 20
-137.5967741322674
 10
74.09797172071436
 20
-137.5967741322674
 10
74.05320422185648
 20
-137.6415416322566
 10
74.05320422185648
 20
-137.696680798909
 10
74.05320422185648
 20
-137.7517846877846
 10
74.09797172071436
 20
-137.7965874655507
 10
74.15311088597431
 20
-137.7965874655507
 97
        0
 97
        0
 75
     2
 76
     1
 98
        0
  0
ENDSEC
  0
SECTION
  2
OBJECTS
  0
DICTIONARY
  5
C
330
0
100
AcDbDictionary
281
     1
  3
ACAD_GROUP
350
D
  3
ACAD_LAYOUT
350
1A
  3
ACAD_MATERIAL
350
3B
  3
ACAD_MLEADERSTYLE
350
D1
  3
ACAD_MLINESTYLE
350
17
  3
ACAD_PLOTSETTINGS
350
19
  3
ACAD_PLOTSTYLENAME
350
E
  3
ACAD_TABLESTYLE
350
D0
  3
ACAD_VISUALSTYLE
350
2A
  0
SUN
  5
3F
330
29
100
AcDbSun
 90
        1
290
     0
 63
     7
421
 16777215
 40
1.0
291
     1
 91
  2455826
 92
 54000000
292
     0
 70
     2
 71
   256
280
     1
  0
DICTIONARY
  5
D
102
{ACAD_REACTORS
330
C
102
}
330
C
100
AcDbDictionary
281
     1
  0
DICTIONARY
  5
1A
102
{ACAD_REACTORS
330
C
102
}
330
C
100
AcDbDictionary
281
     1
  3
Layout1
350
1E
  3
Layout2
350
26
  3
Model
350
22
  0
DICTIONARY
  5
3B
102
{ACAD_REACTORS
330
C
102
}
330
C
100
AcDbDictionary
281
     1
  3
ByBlock
350
3D
  3
ByLayer
350
3C
  3
Global
350
3E
  0
DICTIONARY
  5
D1
102
{ACAD_REACTORS
330
C
102
}
330
C
100
AcDbDictionary
281
     1
  0
DICTIONARY
  5
17
102
{ACAD_REACTORS
330
C
102
}
330
C
100
AcDbDictionary
281
     1
  3
Standard
350
18
  0
DICTIONARY
  5
19
102
{ACAD_REACTORS
330
C
102
}
330
C
100
AcDbDictionary
281
     1
  0
ACDBDICTIONARYWDFLT
  5
E
102
{ACAD_REACTORS
330
C
102
}
330
C
100
AcDbDictionary
281
     1
  3
Normal
350
F
100
AcDbDictionaryWithDefault
340
F
  0
DICTIONARY
  5
D0
102
{ACAD_REACTORS
330
C
102
}
330
C
100
AcDbDictionary
281
     1
  0
DICTIONARY
  5
2A
102
{ACAD_REACTORS
330
C
102
}
330
C
100
AcDbDictionary
281
     1
  3
2dWireframe
350
2F
  3
3D Hidden
350
31
  3
3dWireframe
350
30
  3
Basic
350
32
  3
Brighten
350
36
  3
ColorChange
350
3A
  3
Conceptual
350
34
  3
Dim
350
35
  3
Facepattern
350
39
  3
Flat
350
2B
  3
FlatWithEdges
350
2C
  3
Gouraud
350
2D
  3
GouraudWithEdges
350
2E
  3
Linepattern
350
38
  3
Realistic
350
33
  3
Thicken
350
37
  0
LAYOUT
  5
1E
102
{ACAD_REACTORS
330
1A
102
}
330
1A
100
AcDbPlotSettings
  1

  2
none_device
  4

  6

 40
0.0
 41
0.0
 42
0.0
 43
0.0
 44
0.0
 45
0.0
 46
0.0
 47
0.0
 48
0.0
 49
0.0
140
0.0
141
0.0
142
1.0
143
1.0
 70
   688
 72
     0
 73
     0
 74
     5
  7

 75
    16
 76
     0
 77
     2
 78
   300
147
1.0
148
0.0
149
0.0
100
AcDbLayout
  1
Layout1
 70
     1
 71
     1
 10
0.0
 20
0.0
 11
12.0
 21
9.0
 12
0.0
 22
0.0
 32
0.0
 14
1.000000000000000E+20
 24
1.000000000000000E+20
 34
1.000000000000000E+20
 15
-1.000000000000000E+20
 25
-1.000000000000000E+20
 35
-1.000000000000000E+20
146
0.0
 13
0.0
 23
0.0
 33
0.0
 16
1.0
 26
0.0
 36
0.0
 17
0.0
 27
1.0
 37
0.0
 76
     0
330
1B
  0
LAYOUT
  5
26
102
{ACAD_REACTORS
330
1A
102
}
330
1A
100
AcDbPlotSettings
  1

  2
none_device
  4

  6

 40
0.0
 41
0.0
 42
0.0
 43
0.0
 44
0.0
 45
0.0
 46
0.0
 47
0.0
 48
0.0
 49
0.0
140
0.0
141
0.0
142
1.0
143
1.0
 70
   688
 72
     0
 73
     0
 74
     5
  7

 75
    16
 76
     0
 77
     2
 78
   300
147
1.0
148
0.0
149
0.0
100
AcDbLayout
  1
Layout2
 70
     1
 71
     2
 10
0.0
 20
0.0
 11
0.0
 21
0.0
 12
0.0
 22
0.0
 32
0.0
 14
0.0
 24
0.0
 34
0.0
 15
0.0
 25
0.0
 35
0.0
146
0.0
 13
0.0
 23
0.0
 33
0.0
 16
1.0
 26
0.0
 36
0.0
 17
0.0
 27
1.0
 37
0.0
 76
     0
330
23
  0
LAYOUT
  5
22
102
{ACAD_REACTORS
330
1A
102
}
330
1A
100
AcDbPlotSettings
  1

  2
none_device
  4

  6

 40
0.0
 41
0.0
 42
0.0
 43
0.0
 44
0.0
 45
0.0
 46
0.0
 47
0.0
 48
0.0
 49
0.0
140
0.0
141
0.0
142
1.0
143
1.0
 70
  1712
 72
     0
 73
     0
 74
     0
  7

 75
     0
 76
     0
 77
     2
 78
   300
147
1.0
148
0.0
149
0.0
100
AcDbLayout
  1
Model
 70
     1
 71
     0
 10
0.0
 20
0.0
 11
12.0
 21
9.0
 12
0.0
 22
0.0
 32
0.0
 14
1.000000000000000E+20
 24
1.000000000000000E+20
 34
1.000000000000000E+20
 15
-1.000000000000000E+20
 25
-1.000000000000000E+20
 35
-1.000000000000000E+20
146
0.0
 13
0.0
 23
0.0
 33
0.0
 16
1.0
 26
0.0
 36
0.0
 17
0.0
 27
1.0
 37
0.0
 76
     0
330
1F
331
29
  0
MATERIAL
  5
3D
102
{ACAD_REACTORS
330
3B
102
}
330
3B
100
AcDbMaterial
  1
ByBlock
 72
     1
 94
      127
  0
MATERIAL
  5
3C
102
{ACAD_REACTORS
330
3B
102
}
330
3B
100
AcDbMaterial
  1
ByLayer
 72
     1
 94
      127
  0
MATERIAL
  5
3E
102
{ACAD_REACTORS
330
3B
102
}
330
3B
100
AcDbMaterial
  1
Global
 72
     1
 94
      127
  0
MLINESTYLE
  5
18
102
{ACAD_REACTORS
330
17
102
}
330
17
100
AcDbMlineStyle
  2
Standard
 70
     0
  3

 62
   256
 51
90.0
 52
90.0
 71
     2
 49
0.5
 62
   256
  6
BYLAYER
 49
-0.5
 62
   256
  6
BYLAYER
  0
ACDBPLACEHOLDER
  5
F
102
{ACAD_REACTORS
330
E
102
}
330
E
  0
VISUALSTYLE
  5
2F
102
{ACAD_REACTORS
330
2A
102
}
330
2A
100
AcDbVisualStyle
  2
2dWireframe
 70
     4
177
     2
291
     0
 71
     0
176
     1
 72
     2
176
     1
 73
     0
176
     1
 90
        0
176
     1
 40
-0.6
176
     1
 41
-30.0
176
     1
 62
     5
 63
     7
421
 16777215
176
     1
 74
     1
176
     1
 91
        4
176
     1
 64
     7
176
     1
 65
   257
176
     1
 75
     1
176
     1
175
     1
176
     1
 42
1.0
176
     1
 92
        0
176
     1
 66
   257
176
     1
 43
1.0
176
     1
 76
     1
176
     1
 77
     6
176
     1
 78
     2
176
     1
 67
     7
176
     1
 79
     5
176
     1
170
     0
176
     1
171
     0
176
     1
290
     0
176
     1
 93
        1
176
     1
 44
0.0
176
     1
173
     0
176
     1
  0
VISUALSTYLE
  5
31
102
{ACAD_REACTORS
330
2A
102
}
330
2A
100
AcDbVisualStyle
  2
3D Hidden
 70
     6
177
     2
291
     0
 71
     1
176
     1
 72
     2
176
     1
 73
     2
176
     1
 90
        0
176
     1
 40
-0.6
176
     1
 41
-30.0
176
     1
 62
     5
 63
     7
421
 16777215
176
     1
 74
     2
176
     1
 91
        2
176
     1
 64
     7
176
     1
 65
   257
176
     1
 75
     2
176
     1
175
     1
176
     1
 42
40.0
176
     1
 92
        0
176
     1
 66
   257
176
     1
 43
1.0
176
     1
 76
     1
176
     1
 77
     6
176
     1
 78
     2
176
     1
 67
     7
176
     1
 79
     3
176
     1
170
     0
176
     1
171
     0
176
     1
290
     0
176
     1
 93
        1
176
     1
 44
0.0
176
     1
173
     0
176
     1
  0
VISUALSTYLE
  5
30
102
{ACAD_REACTORS
330
2A
102
}
330
2A
100
AcDbVisualStyle
  2
3dWireframe
 70
     5
177
     2
291
     0
 71
     0
176
     1
 72
     2
176
     1
 73
     0
176
     1
 90
        0
176
     1
 40
-0.6
176
     1
 41
-30.0
176
     1
 62
     5
 63
     7
421
 16777215
176
     1
 74
     1
176
     1
 91
        4
176
     1
 64
     7
176
     1
 65
   257
176
     1
 75
     1
176
     1
175
     1
176
     1
 42
1.0
176
     1
 92
        0
176
     1
 66
   257
176
     1
 43
1.0
176
     1
 76
     1
176
     1
 77
     6
176
     1
 78
     2
176
     1
 67
     7
176
     1
 79
     5
176
     1
170
     0
176
     1
171
     0
176
     1
290
     0
176
     1
 93
        1
176
     1
 44
0.0
176
     1
173
     0
176
     1
  0
VISUALSTYLE
  5
32
102
{ACAD_REACTORS
330
2A
102
}
330
2A
100
AcDbVisualStyle
  2
Basic
 70
     7
177
     2
291
     1
 71
     1
176
     1
 72
     0
176
     1
 73
     1
176
     1
 90
        0
176
     1
 40
-0.6
176
     1
 41
-30.0
176
     1
 62
     5
 63
     7
421
 16777215
176
     1
 74
     0
176
     1
 91
        4
176
     1
 64
     7
176
     1
 65
   257
176
     1
 75
     1
176
     1
175
     1
176
     1
 42
1.0
176
     1
 92
        8
176
     1
 66
     7
176
     1
 43
1.0
176
     1
 76
     1
176
     1
 77
     6
176
     1
 78
     2
176
     1
 67
     7
176
     1
 79
     5
176
     1
170
     0
176
     1
171
     0
176
     1
290
     0
176
     1
 93
        1
176
     1
 44
0.0
176
     1
173
     0
176
     1
  0
VISUALSTYLE
  5
36
102
{ACAD_REACTORS
330
2A
102
}
330
2A
100
AcDbVisualStyle
  2
Brighten
 70
    12
177
     2
291
     1
 71
     2
176
     1
 72
     2
176
     1
 73
     0
176
     1
 90
        0
176
     1
 40
-0.6
176
     1
 41
-30.0
176
     1
 62
     5
 63
     7
421
 16777215
176
     1
 74
     1
176
     1
 91
        4
176
     1
 64
     7
176
     1
 65
   257
176
     1
 75
     1
176
     1
175
     1
176
     1
 42
1.0
176
     1
 92
        8
176
     1
 66
     7
176
     1
 43
1.0
176
     1
 76
     1
176
     1
 77
     6
176
     1
 78
     2
176
     1
 67
     7
176
     1
 79
     5
176
     1
170
     0
176
     1
171
     0
176
     1
290
     0
176
     1
 93
        1
176
     1
 44
50.0
176
     1
173
     0
176
     1
  0
VISUALSTYLE
  5
3A
102
{ACAD_REACTORS
330
2A
102
}
330
2A
100
AcDbVisualStyle
  2
ColorChange
 70
    16
177
     2
291
     1
 71
     2
176
     1
 72
     2
176
     1
 73
     3
176
     1
 90
        0
176
     1
 40
-0.6
176
     1
 41
-30.0
176
     1
 62
     5
 63
     8
421
  8421504
176
     1
 74
     1
176
     1
 91
        4
176
     1
 64
     7
176
     1
 65
   257
176
     1
 75
     1
176
     1
175
     1
176
     1
 42
1.0
176
     1
 92
        8
176
     1
 66
     8
424
  8421504
176
     1
 43
1.0
176
     1
 76
     1
176
     1
 77
     6
176
     1
 78
     2
176
     1
 67
     7
176
     1
 79
     5
176
     1
170
     0
176
     1
171
     0
176
     1
290
     0
176
     1
 93
        1
176
     1
 44
0.0
176
     1
173
     0
176
     1
  0
VISUALSTYLE
  5
34
102
{ACAD_REACTORS
330
2A
102
}
330
2A
100
AcDbVisualStyle
  2
Conceptual
 70
     9
177
     2
291
     0
 71
     3
176
     1
 72
     2
176
     1
 73
     0
176
     1
 90
        0
176
     1
 40
-0.6
176
     1
 41
-30.0
176
     1
 62
     5
 63
     7
421
 16777215
176
     1
 74
     2
176
     1
 91
        2
176
     1
 64
     7
176
     1
 65
   257
176
     1
 75
     1
176
     1
175
     1
176
     1
 42
40.0
176
     1
 92
        8
176
     1
 66
     7
176
     1
 43
1.0
176
     1
 76
     1
176
     1
 77
     6
176
     1
 78
     2
176
     1
 67
     7
176
     1
 79
     3
176
     1
170
     0
176
     1
171
     0
176
     1
290
     0
176
     1
 93
        1
176
     1
 44
0.0
176
     1
173
     0
176
     1
  0
VISUALSTYLE
  5
35
102
{ACAD_REACTORS
330
2A
102
}
330
2A
100
AcDbVisualStyle
  2
Dim
 70
    11
177
     2
291
     1
 71
     2
176
     1
 72
     2
176
     1
 73
     0
176
     1
 90
        0
176
     1
 40
-0.6
176
     1
 41
-30.0
176
     1
 62
     5
 63
     7
421
 16777215
176
     1
 74
     1
176
     1
 91
        4
176
     1
 64
     7
176
     1
 65
   257
176
     1
 75
     1
176
     1
175
     1
176
     1
 42
1.0
176
     1
 92
        8
176
     1
 66
     7
176
     1
 43
1.0
176
     1
 76
     1
176
     1
 77
     6
176
     1
 78
     2
176
     1
 67
     7
176
     1
 79
     5
176
     1
170
     0
176
     1
171
     0
176
     1
290
     0
176
     1
 93
        1
176
     1
 44
-50.0
176
     1
173
     0
176
     1
  0
VISUALSTYLE
  5
39
102
{ACAD_REACTORS
330
2A
102
}
330
2A
100
AcDbVisualStyle
  2
Facepattern
 70
    15
177
     2
291
     1
 71
     2
176
     1
 72
     2
176
     1
 73
     0
176
     1
 90
        0
176
     1
 40
-0.6
176
     1
 41
-30.0
176
     1
 62
     5
 63
     7
421
 16777215
176
     1
 74
     1
176
     1
 91
        4
176
     1
 64
     7
176
     1
 65
   257
176
     1
 75
     1
176
     1
175
     1
176
     1
 42
1.0
176
     1
 92
        8
176
     1
 66
     7
176
     1
 43
1.0
176
     1
 76
     1
176
     1
 77
     6
176
     1
 78
     2
176
     1
 67
     7
176
     1
 79
     5
176
     1
170
     0
176
     1
171
     0
176
     1
290
     0
176
     1
 93
        1
176
     1
 44
0.0
176
     1
173
     0
176
     1
  0
VISUALSTYLE
  5
2B
102
{ACAD_REACTORS
330
2A
102
}
330
2A
100
AcDbVisualStyle
  2
Flat
 70
     0
177
     2
291
     1
 71
     2
176
     1
 72
     1
176
     1
 73
     1
176
     1
 90
        2
176
     1
 40
-0.6
176
     1
 41
30.0
176
     1
 62
     5
 63
     7
421
 16777215
176
     1
 74
     0
176
     1
 91
        4
176
     1
 64
     7
176
     1
 65
   257
176
     1
 75
     1
176
     1
175
     1
176
     1
 42
1.0
176
     1
 92
        8
176
     1
 66
     7
176
     1
 43
1.0
176
     1
 76
     1
176
     1
 77
     6
176
     1
 78
     2
176
     1
 67
     7
176
     1
 79
     5
176
     1
170
     0
176
     1
171
     0
176
     1
290
     0
176
     1
 93
       13
176
     1
 44
0.0
176
     1
173
     0
176
     1
  0
VISUALSTYLE
  5
2C
102
{ACAD_REACTORS
330
2A
102
}
330
2A
100
AcDbVisualStyle
  2
FlatWithEdges
 70
     1
177
     2
291
     1
 71
     2
176
     1
 72
     1
176
     1
 73
     1
176
     1
 90
        2
176
     1
 40
-0.6
176
     1
 41
30.0
176
     1
 62
     5
 63
     7
421
 16777215
176
     1
 74
     1
176
     1
 91
        4
176
     1
 64
     7
176
     1
 65
   257
176
     1
 75
     1
176
     1
175
     1
176
     1
 42
1.0
176
     1
 92
        0
176
     1
 66
   257
176
     1
 43
1.0
176
     1
 76
     1
176
     1
 77
     6
176
     1
 78
     2
176
     1
 67
     7
176
     1
 79
     5
176
     1
170
     0
176
     1
171
     0
176
     1
290
     0
176
     1
 93
       13
176
     1
 44
0.0
176
     1
173
     0
176
     1
  0
VISUALSTYLE
  5
2D
102
{ACAD_REACTORS
330
2A
102
}
330
2A
100
AcDbVisualStyle
  2
Gouraud
 70
     2
177
     2
291
     1
 71
     2
176
     1
 72
     2
176
     1
 73
     1
176
     1
 90
        2
176
     1
 40
-0.6
176
     1
 41
30.0
176
     1
 62
     5
 63
     7
421
 16777215
176
     1
 74
     0
176
     1
 91
        4
176
     1
 64
     7
176
     1
 65
   257
176
     1
 75
     1
176
     1
175
     1
176
     1
 42
1.0
176
     1
 92
        0
176
     1
 66
     7
176
     1
 43
1.0
176
     1
 76
     1
176
     1
 77
     6
176
     1
 78
     2
176
     1
 67
     7
176
     1
 79
     5
176
     1
170
     0
176
     1
171
     0
176
     1
290
     0
176
     1
 93
       13
176
     1
 44
0.0
176
     1
173
     0
176
     1
  0
VISUALSTYLE
  5
2E
102
{ACAD_REACTORS
330
2A
102
}
330
2A
100
AcDbVisualStyle
  2
GouraudWithEdges
 70
     3
177
     2
291
     1
 71
     2
176
     1
 72
     2
176
     1
 73
     1
176
     1
 90
        2
176
     1
 40
-0.6
176
     1
 41
30.0
176
     1
 62
     5
 63
     7
421
 16777215
176
     1
 74
     1
176
     1
 91
        4
176
     1
 64
     7
176
     1
 65
   257
176
     1
 75
     1
176
     1
175
     1
176
     1
 42
1.0
176
     1
 92
        0
176
     1
 66
   257
176
     1
 43
1.0
176
     1
 76
     1
176
     1
 77
     6
176
     1
 78
     2
176
     1
 67
     7
176
     1
 79
     5
176
     1
170
     0
176
     1
171
     0
176
     1
290
     0
176
     1
 93
       13
176
     1
 44
0.0
176
     1
173
     0
176
     1
  0
VISUALSTYLE
  5
38
102
{ACAD_REACTORS
330
2A
102
}
330
2A
100
AcDbVisualStyle
  2
Linepattern
 70
    14
177
     2
291
     1
 71
     2
176
     1
 72
     2
176
     1
 73
     0
176
     1
 90
        0
176
     1
 40
-0.6
176
     1
 41
-30.0
176
     1
 62
     5
 63
     7
421
 16777215
176
     1
 74
     1
176
     1
 91
        4
176
     1
 64
     7
176
     1
 65
   257
176
     1
 75
     7
176
     1
175
     7
176
     1
 42
1.0
176
     1
 92
        8
176
     1
 66
     7
176
     1
 43
1.0
176
     1
 76
     1
176
     1
 77
     6
176
     1
 78
     2
176
     1
 67
     7
176
     1
 79
     5
176
     1
170
     0
176
     1
171
     0
176
     1
290
     0
176
     1
 93
        1
176
     1
 44
0.0
176
     1
173
     0
176
     1
  0
VISUALSTYLE
  5
33
102
{ACAD_REACTORS
330
2A
102
}
330
2A
100
AcDbVisualStyle
  2
Realistic
 70
     8
177
     2
291
     0
 71
     2
176
     1
 72
     2
176
     1
 73
     0
176
     1
 90
        0
176
     1
 40
-0.6
176
     1
 41
-30.0
176
     1
 62
     5
 63
     7
421
 16777215
176
     1
 74
     1
176
     1
 91
        0
176
     1
 64
     7
176
     1
 65
   257
176
     1
 75
     1
176
     1
175
     1
176
     1
 42
1.0
176
     1
 92
        8
176
     1
 66
     8
424
  7895160
176
     1
 43
1.0
176
     1
 76
     1
176
     1
 77
     6
176
     1
 78
     2
176
     1
 67
     7
176
     1
 79
     5
176
     1
170
     0
176
     1
171
     0
176
     1
290
     0
176
     1
 93
       13
176
     1
 44
0.0
176
     1
173
     0
176
     1
  0
VISUALSTYLE
  5
37
102
{ACAD_REACTORS
330
2A
102
}
330
2A
100
AcDbVisualStyle
  2
Thicken
 70
    13
177
     2
291
     1
 71
     2
176
     1
 72
     2
176
     1
 73
     0
176
     1
 90
        0
176
     1
 40
-0.6
176
     1
 41
-30.0
176
     1
 62
     5
 63
     7
421
 16777215
176
     1
 74
     1
176
     1
 91
        4
176
     1
 64
     7
176
     1
 65
   257
176
     1
 75
     1
176
     1
175
     1
176
     1
 42
1.0
176
     1
 92
       12
176
     1
 66
     7
176
     1
 43
1.0
176
     1
 76
     1
176
     1
 77
     6
176
     1
 78
     2
176
     1
 67
     7
176
     1
 79
     5
176
     1
170
     0
176
     1
171
     0
176
     1
290
     0
176
     1
 93
        1
176
     1
 44
0.0
176
     1
173
     0
176
     1
  0
ENDSEC
  0
EOF
