  0
SECTION
  2
HEADER
  9
$ACADVER
  1
AC1024
  9
$ACADMAINTVER
 70
     6
  9
$DWGCODEPAGE
  3
UNDEFINED
  9
$INSBASE
 10
0.0
 20
0.0
 30
0.0
  9
$EXTMIN
 10
1.000000000000000E+20
 20
1.000000000000000E+20
 30
1.000000000000000E+20
  9
$EXTMAX
 10
-1.000000000000000E+20
 20
-1.000000000000000E+20
 30
-1.000000000000000E+20
  9
$LIMMIN
 10
0.0
 20
0.0
  9
$LIMMAX
 10
12.0
 20
9.0
  9
$ORTHOMODE
 70
     0
  9
$REGENMODE
 70
     1
  9
$FILLMODE
 70
     1
  9
$QTEXTMODE
 70
     0
  9
$MIRRTEXT
 70
     1
  9
$LTSCALE
 40
1.0
  9
$ATTMODE
 70
     1
  9
$TEXTSIZE
 40
0.2
  9
$TRACEWID
 40
0.05
  9
$TEXTSTYLE
  7
Standard
  9
$CLAYER
  8
0
  9
$CELTYPE
  6
ByLayer
  9
$CECOLOR
 62
   256
  9
$CELTSCALE
 40
1.0
  9
$DISPSILH
 70
     0
  9
$DIMSCALE
 40
1.0
  9
$DIMASZ
 40
0.18
  9
$DIMEXO
 40
0.0625
  9
$DIMDLI
 40
0.38
  9
$DIMRND
 40
0.0
  9
$DIMDLE
 40
0.0
  9
$DIMEXE
 40
0.18
  9
$DIMTP
 40
0.0
  9
$DIMTM
 40
0.0
  9
$DIMTXT
 40
0.18
  9
$DIMCEN
 40
0.09
  9
$DIMTSZ
 40
0.0
  9
$DIMTOL
 70
     0
  9
$DIMLIM
 70
     0
  9
$DIMTIH
 70
     1
  9
$DIMTOH
 70
     1
  9
$DIMSE1
 70
     0
  9
$DIMSE2
 70
     0
  9
$DIMTAD
 70
     0
  9
$DIMZIN
 70
     0
  9
$DIMBLK
  1

  9
$DIMASO
 70
     1
  9
$DIMSHO
 70
     1
  9
$DIMPOST
  1

  9
$DIMAPOST
  1

  9
$DIMALT
 70
     0
  9
$DIMALTD
 70
     2
  9
$DIMALTF
 40
25.4
  9
$DIMLFAC
 40
1.0
  9
$DIMTOFL
 70
     0
  9
$DIMTVP
 40
0.0
  9
$DIMTIX
 70
     0
  9
$DIMSOXD
 70
     0
  9
$DIMSAH
 70
     0
  9
$DIMBLK1
  1

  9
$DIMBLK2
  1

  9
$DIMSTYLE
  2
Standard
  9
$DIMCLRD
 70
     0
  9
$DIMCLRE
 70
     0
  9
$DIMCLRT
 70
     0
  9
$DIMTFAC
 40
1.0
  9
$DIMGAP
 40
0.09
  9
$DIMJUST
 70
     0
  9
$DIMSD1
 70
     0
  9
$DIMSD2
 70
     0
  9
$DIMTOLJ
 70
     1
  9
$DIMTZIN
 70
     0
  9
$DIMALTZ
 70
     0
  9
$DIMALTTZ
 70
     0
  9
$DIMUPT
 70
     0
  9
$DIMDEC
 70
     4
  9
$DIMTDEC
 70
     4
  9
$DIMALTU
 70
     2
  9
$DIMALTTD
 70
     2
  9
$DIMTXSTY
  7
Standard
  9
$DIMAUNIT
 70
     0
  9
$DIMADEC
 70
     0
  9
$DIMALTRND
 40
0.0
  9
$DIMAZIN
 70
     0
  9
$DIMDSEP
 70
    46
  9
$DIMATFIT
 70
     3
  9
$DIMFRAC
 70
     0
  9
$DIMLDRBLK
  1

  9
$DIMLUNIT
 70
     2
  9
$DIMLWD
 70
    -2
  9
$DIMLWE
 70
    -2
  9
$DIMTMOVE
 70
     0
  9
$DIMFXL
 40
1.0
  9
$DIMFXLON
 70
     0
  9
$DIMJOGANG
 40
0.7853981633974483
  9
$DIMTFILL
 70
     0
  9
$DIMTFILLCLR
 70
     0
  9
$DIMARCSYM
 70
     0
  9
$DIMLTYPE
  6

  9
$DIMLTEX1
  6

  9
$DIMLTEX2
  6

  9
$DIMTXTDIRECTION
 70
     0
  9
$LUNITS
 70
     2
  9
$LUPREC
 70
     4
  9
$SKETCHINC
 40
0.1
  9
$FILLETRAD
 40
0.5
  9
$AUNITS
 70
     0
  9
$AUPREC
 70
     0
  9
$MENU
  1
.
  9
$ELEVATION
 40
0.0
  9
$PELEVATION
 40
0.0
  9
$THICKNESS
 40
0.0
  9
$LIMCHECK
 70
     0
  9
$CHAMFERA
 40
0.5
  9
$CHAMFERB
 40
0.5
  9
$CHAMFERC
 40
1.0
  9
$CHAMFERD
 40
0.0
  9
$SKPOLY
 70
     0
  9
$TDCREATE
 40
2457917.617488426
  9
$TDUCREATE
 40
2457917.242488426
  9
$TDUPDATE
 40
2457917.617488426
  9
$TDUUPDATE
 40
2457917.242488426
  9
$TDINDWG
 40
0.0000000116
  9
$TDUSRTIMER
 40
0.0000000116
  9
$USRTIMER
 70
     1
  9
$ANGBASE
 50
0.0
  9
$ANGDIR
 70
     0
  9
$PDMODE
 70
     0
  9
$PDSIZE
 40
0.0
  9
$PLINEWID
 40
0.0
  9
$SPLFRAME
 70
     0
  9
$SPLINETYPE
 70
     6
  9
$SPLINESEGS
 70
     8
  9
$HANDSEED
  5
113
  9
$SURFTAB1
 70
     6
  9
$SURFTAB2
 70
     6
  9
$SURFTYPE
 70
     6
  9
$SURFU
 70
     6
  9
$SURFV
 70
     6
  9
$UCSBASE
  2

  9
$UCSNAME
  2

  9
$UCSORG
 10
0.0
 20
0.0
 30
0.0
  9
$UCSXDIR
 10
1.0
 20
0.0
 30
0.0
  9
$UCSYDIR
 10
0.0
 20
1.0
 30
0.0
  9
$UCSORTHOREF
  2

  9
$UCSORTHOVIEW
 70
     0
  9
$UCSORGTOP
 10
0.0
 20
0.0
 30
0.0
  9
$UCSORGBOTTOM
 10
0.0
 20
0.0
 30
0.0
  9
$UCSORGLEFT
 10
0.0
 20
0.0
 30
0.0
  9
$UCSORGRIGHT
 10
0.0
 20
0.0
 30
0.0
  9
$UCSORGFRONT
 10
0.0
 20
0.0
 30
0.0
  9
$UCSORGBACK
 10
0.0
 20
0.0
 30
0.0
  9
$PUCSBASE
  2

  9
$PUCSNAME
  2

  9
$PUCSORG
 10
0.0
 20
0.0
 30
0.0
  9
$PUCSXDIR
 10
1.0
 20
0.0
 30
0.0
  9
$PUCSYDIR
 10
0.0
 20
1.0
 30
0.0
  9
$PUCSORTHOREF
  2

  9
$PUCSORTHOVIEW
 70
     0
  9
$PUCSORGTOP
 10
0.0
 20
0.0
 30
0.0
  9
$PUCSORGBOTTOM
 10
0.0
 20
0.0
 30
0.0
  9
$PUCSORGLEFT
 10
0.0
 20
0.0
 30
0.0
  9
$PUCSORGRIGHT
 10
0.0
 20
0.0
 30
0.0
  9
$PUCSORGFRONT
 10
0.0
 20
0.0
 30
0.0
  9
$PUCSORGBACK
 10
0.0
 20
0.0
 30
0.0
  9
$USERI1
 70
     0
  9
$USERI2
 70
     0
  9
$USERI3
 70
     0
  9
$USERI4
 70
     0
  9
$USERI5
 70
     0
  9
$USERR1
 40
0.0
  9
$USERR2
 40
0.0
  9
$USERR3
 40
0.0
  9
$USERR4
 40
0.0
  9
$USERR5
 40
0.0
  9
$WORLDVIEW
 70
     1
  9
$SHADEDGE
 70
     3
  9
$SHADEDIF
 70
    70
  9
$TILEMODE
 70
     1
  9
$MAXACTVP
 70
    64
  9
$PINSBASE
 10
0.0
 20
0.0
 30
0.0
  9
$PLIMCHECK
 70
     0
  9
$PEXTMIN
 10
1.000000000000000E+20
 20
1.000000000000000E+20
 30
1.000000000000000E+20
  9
$PEXTMAX
 10
-1.000000000000000E+20
 20
-1.000000000000000E+20
 30
-1.000000000000000E+20
  9
$PLIMMIN
 10
0.0
 20
0.0
  9
$PLIMMAX
 10
12.0
 20
9.0
  9
$UNITMODE
 70
     0
  9
$VISRETAIN
 70
     1
  9
$PLINEGEN
 70
     0
  9
$PSLTSCALE
 70
     1
  9
$TREEDEPTH
 70
  3020
  9
$CMLSTYLE
  2
Standard
  9
$CMLJUST
 70
     0
  9
$CMLSCALE
 40
1.0
  9
$PROXYGRAPHICS
 70
     1
  9
$MEASUREMENT
 70
     0
  9
$CELWEIGHT
370
    -1
  9
$ENDCAPS
280
     0
  9
$JOINSTYLE
280
     0
  9
$LWDISPLAY
290
     1
  9
$INSUNITS
 70
     1
  9
$HYPERLINKBASE
  1

  9
$STYLESHEET
  1

  9
$XEDIT
290
     1
  9
$CEPSNTYPE
380
     0
  9
$PSTYLEMODE
290
     1
  9
$FINGERPRINTGUID
  2
{CF2C156D-A233-4CF9-1DA5-97C8800B4C74}
  9
$VERSIONGUID
  2
{FAEB1C32-E019-11D5-929B-00C0DF256EC4}
  9
$EXTNAMES
290
     1
  9
$PSVPSCALE
 40
0.0
  9
$OLESTARTUP
290
     0
  9
$SORTENTS
280
   127
  9
$INDEXCTL
280
     0
  9
$HIDETEXT
280
     1
  9
$XCLIPFRAME
280
     2
  9
$HALOGAP
280
     0
  9
$OBSCOLOR
 70
   257
  9
$OBSLTYPE
280
     0
  9
$INTERSECTIONDISPLAY
280
     0
  9
$INTERSECTIONCOLOR
 70
   257
  9
$DIMASSOC
280
     2
  9
$PROJECTNAME
  1

  9
$CAMERADISPLAY
290
     0
  9
$LENSLENGTH
 40
50.0
  9
$CAMERAHEIGHT
 40
0.0
  9
$STEPSPERSEC
 40
2.0
  9
$STEPSIZE
 40
6.0
  9
$3DDWFPREC
 40
2.0
  9
$PSOLWIDTH
 40
0.25
  9
$PSOLHEIGHT
 40
4.0
  9
$LOFTANG1
 40
1.570796326794897
  9
$LOFTANG2
 40
1.570796326794897
  9
$LOFTMAG1
 40
0.0
  9
$LOFTMAG2
 40
0.0
  9
$LOFTPARAM
 70
     7
  9
$LOFTNORMALS
280
     1
  9
$LATITUDE
 40
37.795
  9
$LONGITUDE
 40
-122.394
  9
$NORTHDIRECTION
 40
0.0
  9
$TIMEZONE
 70
 -8000
  9
$LIGHTGLYPHDISPLAY
280
     1
  9
$TILEMODELIGHTSYNCH
280
     1
  9
$CMATERIAL
347
3C
  9
$SOLIDHIST
280
     1
  9
$SHOWHIST
280
     1
  9
$DWFFRAME
280
     2
  9
$DGNFRAME
280
     2
  9
$REALWORLDSCALE
290
     1
  9
$INTERFERECOLOR
 62
   256
  9
$CSHADOW
280
     0
  9
$SHADOWPLANELOCATION
 40
0.0
  0
ENDSEC
  0
SECTION
  2
CLASSES
  0
CLASS
  1
ACDBDICTIONARYWDFLT
  2
AcDbDictionaryWithDefault
  3
ObjectDBX Classes
 90
        0
 91
        4
280
     0
281
     0
  0
CLASS
  1
VISUALSTYLE
  2
AcDbVisualStyle
  3
ObjectDBX Classes
 90
     4095
 91
        4
280
     0
281
     0
  0
CLASS
  1
MATERIAL
  2
AcDbMaterial
  3
ObjectDBX Classes
 90
     1153
 91
        4
280
     0
281
     0
  0
CLASS
  1
SUN
  2
AcDbSun
  3
SCENEOE
 90
     1024
 91
        4
280
     0
281
     0
  0
ENDSEC
  0
SECTION
  2
TABLES
  0
TABLE
  2
VPORT
  5
8
330
0
100
AcDbSymbolTable
 70
     1
  0
VPORT
  5
29
330
8
100
AcDbSymbolTableRecord
100
AcDbViewportTableRecord
  2
*Active
 70
     0
 10
0.0
 20
0.0
 11
1.0
 21
1.0
 12
0.0
 22
0.0
 13
0.0
 23
0.0
 14
0.5
 24
0.5
 15
0.5
 25
0.5
 16
0.0
 26
0.0
 36
1.0
 17
91.00082462281999
 27
-128.4993055234307
 37
0.0
 40
256.9986110468615
 41
0.7081814508812795
 42
50.0
 43
0.0
 44
0.0
 50
0.0
 51
0.0
 71
     0
 72
   100
 73
     1
 74
     3
 75
     0
 76
     0
 77
     0
 78
     0
281
     0
 65
     1
110
0.0
120
0.0
130
0.0
111
1.0
121
0.0
131
0.0
112
0.0
122
1.0
132
0.0
 79
     0
146
0.0
 60
     3
 61
     5
292
     1
282
     1
141
0.0
142
0.0
 63
   250
361
3F
  0
ENDTAB
  0
TABLE
  2
LTYPE
  5
5
330
0
100
AcDbSymbolTable
 70
     1
  0
LTYPE
  5
14
330
5
100
AcDbSymbolTableRecord
100
AcDbLinetypeTableRecord
  2
ByBlock
 70
     0
  3

 72
    65
 73
     0
 40
0.0
  0
LTYPE
  5
15
330
5
100
AcDbSymbolTableRecord
100
AcDbLinetypeTableRecord
  2
ByLayer
 70
     0
  3

 72
    65
 73
     0
 40
0.0
  0
LTYPE
  5
16
330
5
100
AcDbSymbolTableRecord
100
AcDbLinetypeTableRecord
  2
Continuous
 70
     0
  3
Solid line
 72
    65
 73
     0
 40
0.0
  0
ENDTAB
  0
TABLE
  2
LAYER
  5
2
330
0
100
AcDbSymbolTable
 70
     2
  0
LAYER
  5
10
330
2
100
AcDbSymbolTableRecord
100
AcDbLayerTableRecord
  2
0
 70
     0
 62
     7
  6
Continuous
370
    -3
390
F
347
3E
  0
LAYER
  5
40
330
2
100
AcDbSymbolTableRecord
100
AcDbLayerTableRecord
  2
_U+30EC_U+30A4_U+30E4_U+30FC 1
 70
     0
 62
     7
  6
Continuous
370
    -3
390
F
347
3E
  0
ENDTAB
  0
TABLE
  2
STYLE
  5
3
330
0
100
AcDbSymbolTable
 70
     1
  0
STYLE
  5
11
330
3
100
AcDbSymbolTableRecord
100
AcDbTextStyleTableRecord
  2
Standard
 70
     0
 40
0.0
 41
1.0
 50
0.0
 71
     0
 42
0.2
  3
txt
  4

  0
ENDTAB
  0
TABLE
  2
VIEW
  5
6
330
0
100
AcDbSymbolTable
 70
     0
  0
ENDTAB
  0
TABLE
  2
UCS
  5
7
330
0
100
AcDbSymbolTable
 70
     0
  0
ENDTAB
  0
TABLE
  2
APPID
  5
9
330
0
100
AcDbSymbolTable
 70
     1
  0
APPID
  5
12
330
9
100
AcDbSymbolTableRecord
100
AcDbRegAppTableRecord
  2
ACAD
 70
     0
  0
ENDTAB
  0
TABLE
  2
DIMSTYLE
  5
A
330
0
100
AcDbSymbolTable
 70
     1
100
AcDbDimStyleTable
  0
DIMSTYLE
105
27
330
A
100
AcDbSymbolTableRecord
100
AcDbDimStyleTableRecord
  2
Standard
 70
     0
178
     0
340
11
  0
ENDTAB
  0
TABLE
  2
BLOCK_RECORD
  5
1
330
0
100
AcDbSymbolTable
 70
     5
  0
BLOCK_RECORD
  5
1F
330
1
100
AcDbSymbolTableRecord
100
AcDbBlockTableRecord
  2
*Model_Space
340
22
 70
     0
280
     1
281
     0
  0
BLOCK_RECORD
  5
1B
330
1
100
AcDbSymbolTableRecord
100
AcDbBlockTableRecord
  2
*Paper_Space
340
1E
 70
     0
280
     1
281
     0
  0
BLOCK_RECORD
  5
23
330
1
100
AcDbSymbolTableRecord
100
AcDbBlockTableRecord
  2
*Paper_Space0
340
26
 70
     0
280
     1
281
     0
  0
BLOCK_RECORD
  5
76
330
1
100
AcDbSymbolTableRecord
100
AcDbBlockTableRecord
  2
block 2
340
0
102
{BLKREFS
331
77
102
}
 70
     0
280
     1
281
     0
  0
BLOCK_RECORD
  5
99
330
1
100
AcDbSymbolTableRecord
100
AcDbBlockTableRecord
  2
block 3
340
0
102
{BLKREFS
331
9A
102
}
 70
     0
280
     1
281
     0
  0
BLOCK_RECORD
  5
BC
330
1
100
AcDbSymbolTableRecord
100
AcDbBlockTableRecord
  2
block 4
340
0
102
{BLKREFS
331
BD
102
}
 70
     0
280
     1
281
     0
  0
BLOCK_RECORD
  5
DF
330
1
100
AcDbSymbolTableRecord
100
AcDbBlockTableRecord
  2
block 5
340
0
102
{BLKREFS
331
E0
102
}
 70
     0
280
     1
281
     0
  0
ENDTAB
  0
ENDSEC
  0
SECTION
  2
BLOCKS
  0
BLOCK
  5
20
330
1F
100
AcDbEntity
  8
0
100
AcDbBlockBegin
  2
*Model_Space
 70
     0
 10
0.0
 20
0.0
 30
0.0
  3
*Model_Space
  1

  0
ENDBLK
  5
21
330
1F
100
AcDbEntity
  8
0
100
AcDbBlockEnd
  0
BLOCK
  5
1C
330
1B
100
AcDbEntity
 67
     1
  8
0
100
AcDbBlockBegin
  2
*Paper_Space
 70
     0
 10
0.0
 20
0.0
 30
0.0
  3
*Paper_Space
  1

  0
ENDBLK
  5
1D
330
1B
100
AcDbEntity
 67
     1
  8
0
100
AcDbBlockEnd
  0
BLOCK
  5
24
330
23
100
AcDbEntity
  8
0
100
AcDbBlockBegin
  2
*Paper_Space0
 70
     0
 10
0.0
 20
0.0
 30
0.0
  3
*Paper_Space0
  1

  0
ENDBLK
  5
25
330
23
100
AcDbEntity
  8
0
100
AcDbBlockEnd
  0
BLOCK
  5
78
330
76
100
AcDbEntity
  8
0
100
AcDbBlockBegin
  2
block 2
 70
     0
 10
0.0
 20
0.0
 30
0.0
  3
block 2
  1

  0
SPLINE
  5
7A
330
76
100
AcDbEntity
  8
_U+30EC_U+30A4_U+30E4_U+30FC 1
370
     0
100
AcDbSpline
210
0.0
220
0.0
230
1.0
 70
    11
 71
     3
 72
    62
 73
    58
 74
     0
 42
0.0000000001
 43
0.0000000001
 12
1.0
 22
0.0
 32
0.0
 13
1.0
 23
0.0
 33
0.0
 40
0.0
 40
0.0
 40
0.0
 40
0.0
 40
1.0
 40
1.0
 40
1.0
 40
2.0
 40
2.0
 40
2.0
 40
3.0
 40
3.0
 40
3.0
 40
4.0
 40
4.0
 40
4.0
 40
5.0
 40
5.0
 40
5.0
 40
6.0
 40
6.0
 40
6.0
 40
7.0
 40
7.0
 40
7.0
 40
8.0
 40
8.0
 40
8.0
 40
9.0
 40
9.0
 40
9.0
 40
10.0
 40
10.0
 40
10.0
 40
11.0
 40
11.0
 40
11.0
 40
12.0
 40
12.0
 40
12.0
 40
13.0
 40
13.0
 40
13.0
 40
14.0
 40
14.0
 40
14.0
 40
15.0
 40
15.0
 40
15.0
 40
16.0
 40
16.0
 40
16.0
 40
17.0
 40
17.0
 40
17.0
 40
18.0
 40
18.0
 40
18.0
 40
19.0
 40
19.0
 40
19.0
 40
19.0
 10
86.98538816184741
 20
-120.5862657033604
 30
0.0
 10
86.98538816184741
 20
-120.6815225935275
 30
0.0
 10
86.96420082461312
 20
-120.8994248829696
 30
0.0
 10
86.77799341363537
 20
-121.0241373395356
 30
0.0
 10
86.66585555559048
 20
-121.0982068924685
 30
0.0
 10
86.56646455084103
 20
-121.1025132618251
 30
0.0
 10
86.48188745667814
 20
-121.1066473764074
 30
0.0
 10
86.48188745667814
 20
-121.1066473764074
 30
0.0
 10
86.48188745667814
 20
-120.8866780296742
 30
0.0
 10
86.48188745667814
 20
-120.8866780296742
 30
0.0
 10
86.55595700961102
 20
-120.884610972383
 30
0.0
 10
86.7907402669308
 20
-120.8739311763787
 30
0.0
 10
86.7907402669308
 20
-120.5903998179427
 30
0.0
 10
86.7907402669308
 20
-120.4529405080812
 30
0.0
 10
86.72097708335448
 20
-120.3006672876332
 30
0.0
 10
86.49239499790815
 20
-120.3006672876332
 30
0.0
 10
86.37612302528098
 20
-120.3006672876332
 30
0.0
 10
86.32737492416469
 20
-120.3387355927452
 30
0.0
 10
86.2956800457004
 20
-120.3704304712095
 30
0.0
 10
86.22161049276752
 20
-120.4445000241424
 30
0.0
 10
86.20903589424636
 20
-120.5609442515438
 30
0.0
 10
86.20903589424636
 20
-120.6158935245335
 30
0.0
 10
86.20903589424636
 20
-120.6348415497024
 30
0.0
 10
86.21110295153751
 20
-120.6708427975233
 30
0.0
 10
86.21523706611981
 20
-120.6984035614053
 30
0.0
 10
86.21523706611981
 20
-120.6984035614053
 30
0.0
 10
86.02058917120318
 20
-120.6984035614053
 30
0.0
 10
86.02058917120318
 20
-120.6984035614053
 30
0.0
 10
86.0269625978509
 20
-120.6603352562933
 30
0.0
 10
86.02920190991631
 20
-120.6179605818247
 30
0.0
 10
86.02920190991631
 20
-120.611587155177
 30
0.0
 10
86.02920190991631
 20
-120.5461303409572
 30
0.0
 10
86.00801457268203
 20
-120.3471760766841
 30
0.0
 10
85.77099200329684
 20
-120.3471760766841
 30
0.0
 10
85.59339733103221
 20
-120.3471760766841
 30
0.0
 10
85.5382758032682
 20
-120.4784342146721
 30
0.0
 10
85.5382758032682
 20
-120.5883327606515
 30
0.0
 10
85.5382758032682
 20
-120.8527438391445
 30
0.0
 10
85.77099200329684
 20
-120.8611843230833
 30
0.0
 10
85.84299449893857
 20
-120.8654906924399
 30
0.0
 10
85.84299449893857
 20
-120.8654906924399
 30
0.0
 10
85.84299449893857
 20
-121.0685790712954
 30
0.0
 10
85.84299449893857
 20
-121.0685790712954
 30
0.0
 10
85.71810978759825
 20
-121.0601385873565
 30
0.0
 10
85.34156085106045
 20
-121.0325778234745
 30
0.0
 10
85.34156085106045
 20
-120.5757581621304
 30
0.0
 10
85.34156085106045
 20
-120.3514824460406
 30
0.0
 10
85.46851261969191
 20
-120.1103257620731
 30
0.0
 10
85.76461857664913
 20
-120.1103257620731
 30
0.0
 10
85.95082598762689
 20
-120.1103257620731
 30
0.0
 10
86.03333602449861
 20
-120.205410397466
 30
0.0
 10
86.09465872413607
 20
-120.3049736569897
 30
0.0
 10
86.12221948801806
 20
-120.243478702578
 30
0.0
 10
86.20266246759864
 20
-120.0615776609568
 30
0.0
 10
86.479820399387
 20
-120.0615776609568
 30
0.0
 10
86.81830103081279
 20
-120.0615776609568
 30
0.0
 10
86.98538816184741
 20
-120.309107771572
 30
0.0
 10
86.98538816184741
 20
-120.5862657033604
 30
0.0
  0
HATCH
  5
7B
330
76
100
AcDbEntity
  8
_U+30EC_U+30A4_U+30E4_U+30FC 1
 62
   179
420
  2234388
100
AcDbHatch
 10
0.0
 20
0.0
 30
0.0
210
0.0
220
0.0
230
1.0
  2
SOLID
 70
     1
 71
     0
 91
        1
 92
        1
 93
        1
 72
     4
 94
        3
 73
     0
 74
     1
 95
       62
 96
       58
 40
0.0
 40
0.0
 40
0.0
 40
0.0
 40
1.0
 40
1.0
 40
1.0
 40
2.0
 40
2.0
 40
2.0
 40
3.0
 40
3.0
 40
3.0
 40
4.0
 40
4.0
 40
4.0
 40
5.0
 40
5.0
 40
5.0
 40
6.0
 40
6.0
 40
6.0
 40
7.0
 40
7.0
 40
7.0
 40
8.0
 40
8.0
 40
8.0
 40
9.0
 40
9.0
 40
9.0
 40
10.0
 40
10.0
 40
10.0
 40
11.0
 40
11.0
 40
11.0
 40
12.0
 40
12.0
 40
12.0
 40
13.0
 40
13.0
 40
13.0
 40
14.0
 40
14.0
 40
14.0
 40
15.0
 40
15.0
 40
15.0
 40
16.0
 40
16.0
 40
16.0
 40
17.0
 40
17.0
 40
17.0
 40
18.0
 40
18.0
 40
18.0
 40
19.0
 40
19.0
 40
19.0
 40
19.0
 10
86.98538816184741
 20
-120.5862657033604
 10
86.98538816184741
 20
-120.6815225935275
 10
86.96420082461312
 20
-120.8994248829696
 10
86.77799341363537
 20
-121.0241373395356
 10
86.66585555559048
 20
-121.0982068924685
 10
86.56646455084103
 20
-121.1025132618251
 10
86.48188745667814
 20
-121.1066473764074
 10
86.48188745667814
 20
-121.1066473764074
 10
86.48188745667814
 20
-120.8866780296742
 10
86.48188745667814
 20
-120.8866780296742
 10
86.55595700961102
 20
-120.884610972383
 10
86.7907402669308
 20
-120.8739311763787
 10
86.7907402669308
 20
-120.5903998179427
 10
86.7907402669308
 20
-120.4529405080812
 10
86.72097708335448
 20
-120.3006672876332
 10
86.49239499790815
 20
-120.3006672876332
 10
86.37612302528098
 20
-120.3006672876332
 10
86.32737492416469
 20
-120.3387355927452
 10
86.2956800457004
 20
-120.3704304712095
 10
86.22161049276752
 20
-120.4445000241424
 10
86.20903589424636
 20
-120.5609442515438
 10
86.20903589424636
 20
-120.6158935245335
 10
86.20903589424636
 20
-120.6348415497024
 10
86.21110295153751
 20
-120.6708427975233
 10
86.21523706611981
 20
-120.6984035614053
 10
86.21523706611981
 20
-120.6984035614053
 10
86.02058917120318
 20
-120.6984035614053
 10
86.02058917120318
 20
-120.6984035614053
 10
86.0269625978509
 20
-120.6603352562933
 10
86.02920190991631
 20
-120.6179605818247
 10
86.02920190991631
 20
-120.611587155177
 10
86.02920190991631
 20
-120.5461303409572
 10
86.00801457268203
 20
-120.3471760766841
 10
85.77099200329684
 20
-120.3471760766841
 10
85.59339733103221
 20
-120.3471760766841
 10
85.5382758032682
 20
-120.4784342146721
 10
85.5382758032682
 20
-120.5883327606515
 10
85.5382758032682
 20
-120.8527438391445
 10
85.77099200329684
 20
-120.8611843230833
 10
85.84299449893857
 20
-120.8654906924399
 10
85.84299449893857
 20
-120.8654906924399
 10
85.84299449893857
 20
-121.0685790712954
 10
85.84299449893857
 20
-121.0685790712954
 10
85.71810978759825
 20
-121.0601385873565
 10
85.34156085106045
 20
-121.0325778234745
 10
85.34156085106045
 20
-120.5757581621304
 10
85.34156085106045
 20
-120.3514824460406
 10
85.46851261969191
 20
-120.1103257620731
 10
85.76461857664913
 20
-120.1103257620731
 10
85.95082598762689
 20
-120.1103257620731
 10
86.03333602449861
 20
-120.205410397466
 10
86.09465872413607
 20
-120.3049736569897
 10
86.12221948801806
 20
-120.243478702578
 10
86.20266246759864
 20
-120.0615776609568
 10
86.479820399387
 20
-120.0615776609568
 10
86.81830103081279
 20
-120.0615776609568
 10
86.98538816184741
 20
-120.309107771572
 10
86.98538816184741
 20
-120.5862657033604
 97
        0
 97
        0
 75
     2
 76
     1
 98
        0
  0
SPLINE
  5
7C
330
76
100
AcDbEntity
  8
_U+30EC_U+30A4_U+30E4_U+30FC 1
370
     0
100
AcDbSpline
210
0.0
220
0.0
230
1.0
 70
    11
 71
     3
 72
    29
 73
    25
 74
     0
 42
0.0000000001
 43
0.0000000001
 12
1.0
 22
0.0
 32
0.0
 13
1.0
 23
0.0
 33
0.0
 40
0.0
 40
0.0
 40
0.0
 40
0.0
 40
1.0
 40
1.0
 40
1.0
 40
2.0
 40
2.0
 40
2.0
 40
3.0
 40
3.0
 40
3.0
 40
4.0
 40
4.0
 40
4.0
 40
5.0
 40
5.0
 40
5.0
 40
6.0
 40
6.0
 40
6.0
 40
7.0
 40
7.0
 40
7.0
 40
8.0
 40
8.0
 40
8.0
 40
8.0
 10
86.75680607640108
 20
-119.0032443278881
 30
0.0
 10
86.96626788190427
 20
-119.1110758165764
 30
0.0
 10
86.98538816184741
 20
-119.2845363742587
 30
0.0
 10
86.98538816184741
 20
-119.4009806016602
 30
0.0
 10
86.98538816184741
 20
-119.5616943060471
 30
0.0
 10
86.93887937279653
 20
-119.7034599852651
 30
0.0
 10
86.75680607640108
 20
-119.7987168754323
 30
0.0
 10
86.56215818148446
 20
-119.902241994764
 30
0.0
 10
86.32530786687354
 20
-119.9213622747072
 30
0.0
 10
86.16235485042122
 20
-119.9213622747072
 30
0.0
 10
86.01852211391204
 20
-119.9213622747072
 30
0.0
 10
85.76685788871454
 20
-119.9044813068294
 30
0.0
 10
85.56790362444136
 20
-119.7987168754323
 30
0.0
 10
85.36481524558589
 20
-119.6907131319697
 30
0.0
 10
85.34156085106045
 20
-119.5299994275828
 30
0.0
 10
85.34156085106045
 20
-119.4009806016602
 30
0.0
 10
85.34156085106045
 20
-119.2423339545644
 30
0.0
 10
85.38600258282017
 20
-119.0985012180552
 30
0.0
 10
85.56790362444136
 20
-119.0032443278881
 30
0.0
 10
85.76048446206683
 20
-118.9038533231386
 30
0.0
 10
85.98889429273889
 20
-118.8805989286132
 30
0.0
 10
86.16235485042122
 20
-118.8805989286132
 30
0.0
 10
86.3337483508124
 20
-118.8805989286132
 30
0.0
 10
86.56439749354988
 20
-118.9016140110732
 30
0.0
 10
86.75680607640108
 20
-119.0032443278881
 30
0.0
  0
SPLINE
  5
7D
330
76
100
AcDbEntity
  8
_U+30EC_U+30A4_U+30E4_U+30FC 1
370
     0
100
AcDbSpline
210
0.0
220
0.0
230
1.0
 70
    11
 71
     3
 72
    17
 73
    13
 74
     0
 42
0.0000000001
 43
0.0000000001
 12
1.0
 22
0.0
 32
0.0
 13
1.0
 23
0.0
 33
0.0
 40
0.0
 40
0.0
 40
0.0
 40
0.0
 40
1.0
 40
1.0
 40
1.0
 40
2.0
 40
2.0
 40
2.0
 40
3.0
 40
3.0
 40
3.0
 40
4.0
 40
4.0
 40
4.0
 40
4.0
 10
85.5341416886859
 20
-119.4009806016602
 30
0.0
 10
85.5341416886859
 20
-119.6505777695665
 30
0.0
 10
85.81767304712197
 20
-119.6970865586174
 30
0.0
 10
86.16235485042122
 20
-119.6970865586174
 30
0.0
 10
86.48188745667814
 20
-119.6970865586174
 30
0.0
 10
86.7907402669308
 20
-119.6610853107965
 30
0.0
 10
86.7907402669308
 20
-119.4009806016602
 30
0.0
 10
86.7907402669308
 20
-119.153450491045
 30
0.0
 10
86.50927596578587
 20
-119.1047023899287
 30
0.0
 10
86.16235485042122
 20
-119.1047023899287
 30
0.0
 10
85.84299449893857
 20
-119.1047023899287
 30
0.0
 10
85.5341416886859
 20
-119.1427706950407
 30
0.0
 10
85.5341416886859
 20
-119.4009806016602
 30
0.0
  0
HATCH
  5
7E
330
76
100
AcDbEntity
  8
_U+30EC_U+30A4_U+30E4_U+30FC 1
 62
   179
420
  2234388
100
AcDbHatch
 10
0.0
 20
0.0
 30
0.0
210
0.0
220
0.0
230
1.0
  2
SOLID
 70
     1
 71
     0
 91
        2
 92
        1
 93
        1
 72
     4
 94
        3
 73
     0
 74
     1
 95
       29
 96
       25
 40
0.0
 40
0.0
 40
0.0
 40
0.0
 40
1.0
 40
1.0
 40
1.0
 40
2.0
 40
2.0
 40
2.0
 40
3.0
 40
3.0
 40
3.0
 40
4.0
 40
4.0
 40
4.0
 40
5.0
 40
5.0
 40
5.0
 40
6.0
 40
6.0
 40
6.0
 40
7.0
 40
7.0
 40
7.0
 40
8.0
 40
8.0
 40
8.0
 40
8.0
 10
86.75680607640108
 20
-119.0032443278881
 10
86.96626788190427
 20
-119.1110758165764
 10
86.98538816184741
 20
-119.2845363742587
 10
86.98538816184741
 20
-119.4009806016602
 10
86.98538816184741
 20
-119.5616943060471
 10
86.93887937279653
 20
-119.7034599852651
 10
86.75680607640108
 20
-119.7987168754323
 10
86.56215818148446
 20
-119.902241994764
 10
86.32530786687354
 20
-119.9213622747072
 10
86.16235485042122
 20
-119.9213622747072
 10
86.01852211391204
 20
-119.9213622747072
 10
85.76685788871454
 20
-119.9044813068294
 10
85.56790362444136
 20
-119.7987168754323
 10
85.36481524558589
 20
-119.6907131319697
 10
85.34156085106045
 20
-119.5299994275828
 10
85.34156085106045
 20
-119.4009806016602
 10
85.34156085106045
 20
-119.2423339545644
 10
85.38600258282017
 20
-119.0985012180552
 10
85.56790362444136
 20
-119.0032443278881
 10
85.76048446206683
 20
-118.9038533231386
 10
85.98889429273889
 20
-118.8805989286132
 10
86.16235485042122
 20
-118.8805989286132
 10
86.3337483508124
 20
-118.8805989286132
 10
86.56439749354988
 20
-118.9016140110732
 10
86.75680607640108
 20
-119.0032443278881
 97
        0
 97
        0
 92
        1
 93
        1
 72
     4
 94
        3
 73
     0
 74
     1
 95
       17
 96
       13
 40
0.0
 40
0.0
 40
0.0
 40
0.0
 40
1.0
 40
1.0
 40
1.0
 40
2.0
 40
2.0
 40
2.0
 40
3.0
 40
3.0
 40
3.0
 40
4.0
 40
4.0
 40
4.0
 40
4.0
 10
85.5341416886859
 20
-119.4009806016602
 10
85.5341416886859
 20
-119.6505777695665
 10
85.81767304712197
 20
-119.6970865586174
 10
86.16235485042122
 20
-119.6970865586174
 10
86.48188745667814
 20
-119.6970865586174
 10
86.7907402669308
 20
-119.6610853107965
 10
86.7907402669308
 20
-119.4009806016602
 10
86.7907402669308
 20
-119.153450491045
 10
86.50927596578587
 20
-119.1047023899287
 10
86.16235485042122
 20
-119.1047023899287
 10
85.84299449893857
 20
-119.1047023899287
 10
85.5341416886859
 20
-119.1427706950407
 10
85.5341416886859
 20
-119.4009806016602
 97
        0
 97
        0
 75
     2
 76
     1
 98
        0
  0
POLYLINE
  5
7F
330
76
100
AcDbEntity
  8
_U+30EC_U+30A4_U+30E4_U+30FC 1
370
     0
100
AcDb2dPolyline
 66
     1
 10
0.0
 20
0.0
 30
0.0
  0
VERTEX
  5
80
330
7F
100
AcDbEntity
  8
_U+30EC_U+30A4_U+30E4_U+30FC 1
370
     0
100
AcDbVertex
100
AcDb2dVertex
 10
86.93457300343997
 20
-117.3821546473038
 30
0.0
  0
VERTEX
  5
81
330
7F
100
AcDbEntity
  8
_U+30EC_U+30A4_U+30E4_U+30FC 1
370
     0
100
AcDbVertex
100
AcDb2dVertex
 10
85.866248893464
 20
-117.3821546473038
 30
0.0
  0
VERTEX
  5
82
330
7F
100
AcDbEntity
  8
_U+30EC_U+30A4_U+30E4_U+30FC 1
370
     0
100
AcDbVertex
100
AcDb2dVertex
 10
85.70329587701168
 20
-117.3757812206561
 30
0.0
  0
VERTEX
  5
83
330
7F
100
AcDbEntity
  8
_U+30EC_U+30A4_U+30E4_U+30FC 1
370
     0
100
AcDbVertex
100
AcDb2dVertex
 10
85.85780840952513
 20
-117.4117824684769
 30
0.0
  0
VERTEX
  5
84
330
7F
100
AcDbEntity
  8
_U+30EC_U+30A4_U+30E4_U+30FC 1
370
     0
100
AcDbVertex
100
AcDb2dVertex
 10
86.93457300343997
 20
-117.7566365265504
 30
0.0
  0
VERTEX
  5
85
330
7F
100
AcDbEntity
  8
_U+30EC_U+30A4_U+30E4_U+30FC 1
370
     0
100
AcDbVertex
100
AcDb2dVertex
 10
86.93457300343997
 20
-118.0274210316911
 30
0.0
  0
VERTEX
  5
86
330
7F
100
AcDbEntity
  8
_U+30EC_U+30A4_U+30E4_U+30FC 1
370
     0
100
AcDbVertex
100
AcDb2dVertex
 10
85.85780840952513
 20
-118.3700357776992
 30
0.0
  0
VERTEX
  5
87
330
7F
100
AcDbEntity
  8
_U+30EC_U+30A4_U+30E4_U+30FC 1
370
     0
100
AcDbVertex
100
AcDb2dVertex
 10
85.70329587701168
 20
-118.40603702552
 30
0.0
  0
VERTEX
  5
88
330
7F
100
AcDbEntity
  8
_U+30EC_U+30A4_U+30E4_U+30FC 1
370
     0
100
AcDbVertex
100
AcDb2dVertex
 10
85.866248893464
 20
-118.4017306561635
 30
0.0
  0
VERTEX
  5
89
330
7F
100
AcDbEntity
  8
_U+30EC_U+30A4_U+30E4_U+30FC 1
370
     0
100
AcDbVertex
100
AcDb2dVertex
 10
86.93457300343997
 20
-118.4017306561635
 30
0.0
  0
VERTEX
  5
8A
330
7F
100
AcDbEntity
  8
_U+30EC_U+30A4_U+30E4_U+30FC 1
370
     0
100
AcDbVertex
100
AcDb2dVertex
 10
86.93457300343997
 20
-118.6196329456055
 30
0.0
  0
VERTEX
  5
8B
330
7F
100
AcDbEntity
  8
_U+30EC_U+30A4_U+30E4_U+30FC 1
370
     0
100
AcDbVertex
100
AcDb2dVertex
 10
85.39030895217674
 20
-118.6196329456055
 30
0.0
  0
VERTEX
  5
8C
330
7F
100
AcDbEntity
  8
_U+30EC_U+30A4_U+30E4_U+30FC 1
370
     0
100
AcDbVertex
100
AcDb2dVertex
 10
85.39030895217674
 20
-118.3002725941229
 30
0.0
  0
VERTEX
  5
8D
330
7F
100
AcDbEntity
  8
_U+30EC_U+30A4_U+30E4_U+30FC 1
370
     0
100
AcDbVertex
100
AcDb2dVertex
 10
86.53890378695903
 20
-117.9300970842328
 30
0.0
  0
VERTEX
  5
8E
330
7F
100
AcDbEntity
  8
_U+30EC_U+30A4_U+30E4_U+30FC 1
370
     0
100
AcDbVertex
100
AcDb2dVertex
 10
86.68066946617706
 20
-117.8920287791207
 30
0.0
  0
VERTEX
  5
8F
330
7F
100
AcDbEntity
  8
_U+30EC_U+30A4_U+30E4_U+30FC 1
370
     0
100
AcDbVertex
100
AcDb2dVertex
 10
86.53890378695903
 20
-117.8539604740087
 30
0.0
  0
VERTEX
  5
90
330
7F
100
AcDbEntity
  8
_U+30EC_U+30A4_U+30E4_U+30FC 1
370
     0
100
AcDbVertex
100
AcDb2dVertex
 10
85.39030895217674
 20
-117.4815456520532
 30
0.0
  0
VERTEX
  5
91
330
7F
100
AcDbEntity
  8
_U+30EC_U+30A4_U+30E4_U+30FC 1
370
     0
100
AcDbVertex
100
AcDb2dVertex
 10
85.39030895217674
 20
-117.1642523578617
 30
0.0
  0
VERTEX
  5
92
330
7F
100
AcDbEntity
  8
_U+30EC_U+30A4_U+30E4_U+30FC 1
370
     0
100
AcDbVertex
100
AcDb2dVertex
 10
86.93457300343997
 20
-117.1642523578617
 30
0.0
  0
VERTEX
  5
93
330
7F
100
AcDbEntity
  8
_U+30EC_U+30A4_U+30E4_U+30FC 1
370
     0
100
AcDbVertex
100
AcDb2dVertex
 10
86.93457300343997
 20
-117.3821546473038
 30
0.0
  0
SEQEND
  5
94
330
7F
100
AcDbEntity
  8
_U+30EC_U+30A4_U+30E4_U+30FC 1
370
     0
  0
HATCH
  5
95
330
76
100
AcDbEntity
  8
_U+30EC_U+30A4_U+30E4_U+30FC 1
 62
   179
420
  2234388
100
AcDbHatch
 10
0.0
 20
0.0
 30
0.0
210
0.0
220
0.0
230
1.0
  2
SOLID
 70
     1
 71
     0
 91
        1
 92
        1
 93
       19
 72
     1
 10
86.93457300343997
 20
-117.3821546473038
 11
85.866248893464
 21
-117.3821546473038
 72
     1
 10
85.866248893464
 20
-117.3821546473038
 11
85.70329587701168
 21
-117.3757812206561
 72
     1
 10
85.70329587701168
 20
-117.3757812206561
 11
85.85780840952513
 21
-117.4117824684769
 72
     1
 10
85.85780840952513
 20
-117.4117824684769
 11
86.93457300343997
 21
-117.7566365265504
 72
     1
 10
86.93457300343997
 20
-117.7566365265504
 11
86.93457300343997
 21
-118.0274210316911
 72
     1
 10
86.93457300343997
 20
-118.0274210316911
 11
85.85780840952513
 21
-118.3700357776992
 72
     1
 10
85.85780840952513
 20
-118.3700357776992
 11
85.70329587701168
 21
-118.40603702552
 72
     1
 10
85.70329587701168
 20
-118.40603702552
 11
85.866248893464
 21
-118.4017306561635
 72
     1
 10
85.866248893464
 20
-118.4017306561635
 11
86.93457300343997
 21
-118.4017306561635
 72
     1
 10
86.93457300343997
 20
-118.4017306561635
 11
86.93457300343997
 21
-118.6196329456055
 72
     1
 10
86.93457300343997
 20
-118.6196329456055
 11
85.39030895217674
 21
-118.6196329456055
 72
     1
 10
85.39030895217674
 20
-118.6196329456055
 11
85.39030895217674
 21
-118.3002725941229
 72
     1
 10
85.39030895217674
 20
-118.3002725941229
 11
86.53890378695903
 21
-117.9300970842328
 72
     1
 10
86.53890378695903
 20
-117.9300970842328
 11
86.68066946617706
 21
-117.8920287791207
 72
     1
 10
86.68066946617706
 20
-117.8920287791207
 11
86.53890378695903
 21
-117.8539604740087
 72
     1
 10
86.53890378695903
 20
-117.8539604740087
 11
85.39030895217674
 21
-117.4815456520532
 72
     1
 10
85.39030895217674
 20
-117.4815456520532
 11
85.39030895217674
 21
-117.1642523578617
 72
     1
 10
85.39030895217674
 20
-117.1642523578617
 11
86.93457300343997
 21
-117.1642523578617
 72
     1
 10
86.93457300343997
 20
-117.1642523578617
 11
86.93457300343997
 21
-117.3821546473038
 97
        0
 75
     2
 76
     1
 98
        0
  0
SPLINE
  5
96
330
76
100
AcDbEntity
  8
_U+30EC_U+30A4_U+30E4_U+30FC 1
370
     0
100
AcDbSpline
210
0.0
220
0.0
230
1.0
 70
    11
 71
     3
 72
    44
 73
    40
 74
     0
 42
0.0000000001
 43
0.0000000001
 12
1.0
 22
0.0
 32
0.0
 13
1.0
 23
0.0
 33
0.0
 40
0.0
 40
0.0
 40
0.0
 40
0.0
 40
1.0
 40
1.0
 40
1.0
 40
2.0
 40
2.0
 40
2.0
 40
3.0
 40
3.0
 40
3.0
 40
4.0
 40
4.0
 40
4.0
 40
5.0
 40
5.0
 40
5.0
 40
6.0
 40
6.0
 40
6.0
 40
7.0
 40
7.0
 40
7.0
 40
8.0
 40
8.0
 40
8.0
 40
9.0
 40
9.0
 40
9.0
 40
10.0
 40
10.0
 40
10.0
 40
11.0
 40
11.0
 40
11.0
 40
12.0
 40
12.0
 40
12.0
 40
13.0
 40
13.0
 40
13.0
 40
13.0
 10
86.93457300343997
 20
-115.868379691085
 30
0.0
 10
86.89013127168025
 20
-115.8918063403847
 30
0.0
 10
86.83724905598166
 20
-115.9128214228447
 30
0.0
 10
86.60659991324418
 20
-115.9150607349101
 30
0.0
 10
86.36337617198555
 20
-115.9191948494924
 30
0.0
 10
86.29361298840924
 20
-115.9784504918387
 30
0.0
 10
86.29361298840924
 20
-116.1562174188776
 30
0.0
 10
86.29361298840924
 20
-116.1562174188776
 30
0.0
 10
86.29361298840924
 20
-116.5644612338797
 30
0.0
 10
86.29361298840924
 20
-116.5644612338797
 30
0.0
 10
86.29361298840924
 20
-116.5644612338797
 30
0.0
 10
86.93457300343997
 20
-116.5644612338797
 30
0.0
 10
86.93457300343997
 20
-116.5644612338797
 30
0.0
 10
86.93457300343997
 20
-116.5644612338797
 30
0.0
 10
86.93457300343997
 20
-116.7992444911995
 30
0.0
 10
86.93457300343997
 20
-116.7992444911995
 30
0.0
 10
86.93457300343997
 20
-116.7992444911995
 30
0.0
 10
85.39030895217674
 20
-116.7992444911995
 30
0.0
 10
85.39030895217674
 20
-116.7992444911995
 30
0.0
 10
85.39030895217674
 20
-116.7992444911995
 30
0.0
 10
85.39030895217674
 20
-116.1245225404133
 30
0.0
 10
85.39030895217674
 20
-116.1245225404133
 30
0.0
 10
85.39030895217674
 20
-115.8177367874518
 30
0.0
 10
85.56153019779364
 20
-115.6504774016429
 30
0.0
 10
85.81767304712197
 20
-115.6504774016429
 30
0.0
 10
85.86831595075515
 20
-115.6504774016429
 30
0.0
 10
85.95082598762689
 20
-115.6590901403561
 30
0.0
 10
86.03126896720747
 20
-115.7035318721158
 30
0.0
 10
86.13496634131349
 20
-115.7626152596878
 30
0.0
 10
86.15391436648235
 20
-115.8282443286818
 30
0.0
 10
86.17079533436008
 20
-115.8895670283193
 30
0.0
 10
86.21317000882865
 20
-115.7521077184578
 30
0.0
 10
86.26191810994494
 20
-115.6844115921727
 30
0.0
 10
86.57697209207105
 20
-115.6801052228161
 30
0.0
 10
86.84775659721167
 20
-115.6759711082338
 30
0.0
 10
86.87962373045023
 20
-115.6399698604129
 30
0.0
 10
86.93457300343997
 20
-115.5722737341278
 30
0.0
 10
86.93457300343997
 20
-115.5722737341278
 30
0.0
 10
86.93457300343997
 20
-115.868379691085
 30
0.0
 10
86.93457300343997
 20
-115.868379691085
 30
0.0
  0
SPLINE
  5
97
330
76
100
AcDbEntity
  8
_U+30EC_U+30A4_U+30E4_U+30FC 1
370
     0
100
AcDbSpline
210
0.0
220
0.0
230
1.0
 70
    11
 71
     3
 72
    20
 73
    16
 74
     0
 42
0.0000000001
 43
0.0000000001
 12
1.0
 22
0.0
 32
0.0
 13
1.0
 23
0.0
 33
0.0
 40
0.0
 40
0.0
 40
0.0
 40
0.0
 40
1.0
 40
1.0
 40
1.0
 40
2.0
 40
2.0
 40
2.0
 40
3.0
 40
3.0
 40
3.0
 40
4.0
 40
4.0
 40
4.0
 40
5.0
 40
5.0
 40
5.0
 40
5.0
 10
85.60183781497108
 20
-116.1202161710568
 30
0.0
 10
85.60183781497108
 20
-116.1202161710568
 30
0.0
 10
85.60183781497108
 20
-116.5644612338797
 30
0.0
 10
85.60183781497108
 20
-116.5644612338797
 30
0.0
 10
85.60183781497108
 20
-116.5644612338797
 30
0.0
 10
86.0820841256149
 20
-116.5644612338797
 30
0.0
 10
86.0820841256149
 20
-116.5644612338797
 30
0.0
 10
86.0820841256149
 20
-116.5644612338797
 30
0.0
 10
86.0820841256149
 20
-116.1222832283479
 30
0.0
 10
86.0820841256149
 20
-116.1222832283479
 30
0.0
 10
86.0820841256149
 20
-116.0228922235984
 30
0.0
 10
86.00594751539087
 20
-115.8874999710281
 30
0.0
 10
85.8345540149997
 20
-115.8874999710281
 30
0.0
 10
85.75617809271027
 20
-115.8874999710281
 30
0.0
 10
85.60183781497108
 20
-115.9212619067836
 30
0.0
 10
85.60183781497108
 20
-116.1202161710568
 30
0.0
  0
HATCH
  5
98
330
76
100
AcDbEntity
  8
_U+30EC_U+30A4_U+30E4_U+30FC 1
 62
   179
420
  2234388
100
AcDbHatch
 10
0.0
 20
0.0
 30
0.0
210
0.0
220
0.0
230
1.0
  2
SOLID
 70
     1
 71
     0
 91
        2
 92
        1
 93
        1
 72
     4
 94
        3
 73
     0
 74
     1
 95
       44
 96
       40
 40
0.0
 40
0.0
 40
0.0
 40
0.0
 40
1.0
 40
1.0
 40
1.0
 40
2.0
 40
2.0
 40
2.0
 40
3.0
 40
3.0
 40
3.0
 40
4.0
 40
4.0
 40
4.0
 40
5.0
 40
5.0
 40
5.0
 40
6.0
 40
6.0
 40
6.0
 40
7.0
 40
7.0
 40
7.0
 40
8.0
 40
8.0
 40
8.0
 40
9.0
 40
9.0
 40
9.0
 40
10.0
 40
10.0
 40
10.0
 40
11.0
 40
11.0
 40
11.0
 40
12.0
 40
12.0
 40
12.0
 40
13.0
 40
13.0
 40
13.0
 40
13.0
 10
86.93457300343997
 20
-115.868379691085
 10
86.89013127168025
 20
-115.8918063403847
 10
86.83724905598166
 20
-115.9128214228447
 10
86.60659991324418
 20
-115.9150607349101
 10
86.36337617198555
 20
-115.9191948494924
 10
86.29361298840924
 20
-115.9784504918387
 10
86.29361298840924
 20
-116.1562174188776
 10
86.29361298840924
 20
-116.1562174188776
 10
86.29361298840924
 20
-116.5644612338797
 10
86.29361298840924
 20
-116.5644612338797
 10
86.29361298840924
 20
-116.5644612338797
 10
86.93457300343997
 20
-116.5644612338797
 10
86.93457300343997
 20
-116.5644612338797
 10
86.93457300343997
 20
-116.5644612338797
 10
86.93457300343997
 20
-116.7992444911995
 10
86.93457300343997
 20
-116.7992444911995
 10
86.93457300343997
 20
-116.7992444911995
 10
85.39030895217674
 20
-116.7992444911995
 10
85.39030895217674
 20
-116.7992444911995
 10
85.39030895217674
 20
-116.7992444911995
 10
85.39030895217674
 20
-116.1245225404133
 10
85.39030895217674
 20
-116.1245225404133
 10
85.39030895217674
 20
-115.8177367874518
 10
85.56153019779364
 20
-115.6504774016429
 10
85.81767304712197
 20
-115.6504774016429
 10
85.86831595075515
 20
-115.6504774016429
 10
85.95082598762689
 20
-115.6590901403561
 10
86.03126896720747
 20
-115.7035318721158
 10
86.13496634131349
 20
-115.7626152596878
 10
86.15391436648235
 20
-115.8282443286818
 10
86.17079533436008
 20
-115.8895670283193
 10
86.21317000882865
 20
-115.7521077184578
 10
86.26191810994494
 20
-115.6844115921727
 10
86.57697209207105
 20
-115.6801052228161
 10
86.84775659721167
 20
-115.6759711082338
 10
86.87962373045023
 20
-115.6399698604129
 10
86.93457300343997
 20
-115.5722737341278
 10
86.93457300343997
 20
-115.5722737341278
 10
86.93457300343997
 20
-115.868379691085
 10
86.93457300343997
 20
-115.868379691085
 97
        0
 97
        0
 92
        1
 93
        1
 72
     4
 94
        3
 73
     0
 74
     1
 95
       20
 96
       16
 40
0.0
 40
0.0
 40
0.0
 40
0.0
 40
1.0
 40
1.0
 40
1.0
 40
2.0
 40
2.0
 40
2.0
 40
3.0
 40
3.0
 40
3.0
 40
4.0
 40
4.0
 40
4.0
 40
5.0
 40
5.0
 40
5.0
 40
5.0
 10
85.60183781497108
 20
-116.1202161710568
 10
85.60183781497108
 20
-116.1202161710568
 10
85.60183781497108
 20
-116.5644612338797
 10
85.60183781497108
 20
-116.5644612338797
 10
85.60183781497108
 20
-116.5644612338797
 10
86.0820841256149
 20
-116.5644612338797
 10
86.0820841256149
 20
-116.5644612338797
 10
86.0820841256149
 20
-116.5644612338797
 10
86.0820841256149
 20
-116.1222832283479
 10
86.0820841256149
 20
-116.1222832283479
 10
86.0820841256149
 20
-116.0228922235984
 10
86.00594751539087
 20
-115.8874999710281
 10
85.8345540149997
 20
-115.8874999710281
 10
85.75617809271027
 20
-115.8874999710281
 10
85.60183781497108
 20
-115.9212619067836
 10
85.60183781497108
 20
-116.1202161710568
 97
        0
 97
        0
 75
     2
 76
     1
 98
        0
  0
ENDBLK
  5
79
330
76
100
AcDbEntity
  8
0
100
AcDbBlockEnd
  0
BLOCK
  5
9B
330
99
100
AcDbEntity
  8
0
100
AcDbBlockBegin
  2
block 3
 70
     0
 10
0.0
 20
0.0
 30
0.0
  3
block 3
  1

  0
SPLINE
  5
9D
330
99
100
AcDbEntity
  8
_U+30EC_U+30A4_U+30E4_U+30FC 1
370
     0
100
AcDbSpline
210
0.0
220
0.0
230
1.0
 70
    11
 71
     3
 72
    62
 73
    58
 74
     0
 42
0.0000000001
 43
0.0000000001
 12
1.0
 22
0.0
 32
0.0
 13
1.0
 23
0.0
 33
0.0
 40
0.0
 40
0.0
 40
0.0
 40
0.0
 40
1.0
 40
1.0
 40
1.0
 40
2.0
 40
2.0
 40
2.0
 40
3.0
 40
3.0
 40
3.0
 40
4.0
 40
4.0
 40
4.0
 40
5.0
 40
5.0
 40
5.0
 40
6.0
 40
6.0
 40
6.0
 40
7.0
 40
7.0
 40
7.0
 40
8.0
 40
8.0
 40
8.0
 40
9.0
 40
9.0
 40
9.0
 40
10.0
 40
10.0
 40
10.0
 40
11.0
 40
11.0
 40
11.0
 40
12.0
 40
12.0
 40
12.0
 40
13.0
 40
13.0
 40
13.0
 40
14.0
 40
14.0
 40
14.0
 40
15.0
 40
15.0
 40
15.0
 40
16.0
 40
16.0
 40
16.0
 40
17.0
 40
17.0
 40
17.0
 40
18.0
 40
18.0
 40
18.0
 40
19.0
 40
19.0
 40
19.0
 40
19.0
 10
99.95324433265058
 20
-129.2706624025782
 30
0.0
 10
99.87090655055312
 20
-129.2231200848817
 30
0.0
 10
99.6927951139657
 20
-129.0956515519275
 30
0.0
 10
99.67763669383059
 20
-128.8720648549348
 30
0.0
 10
99.66971297421452
 20
-128.73770613101
 30
0.0
 10
99.71553274416834
 20
-128.6498561961361
 30
0.0
 10
99.75411781360314
 20
-128.5744086050092
 30
0.0
 10
99.75411781360314
 20
-128.5744086050092
 30
0.0
 10
99.94497610348598
 20
-128.6843071509886
 30
0.0
 10
99.94497610348598
 20
-128.6843071509886
 30
0.0
 10
99.9094916199879
 20
-128.7494194556599
 30
0.0
 10
99.80131562175106
 20
-128.958192242066
 30
0.0
 10
100.0469509298494
 20
-129.1001301760583
 30
0.0
 10
100.166151233639
 20
-129.1686875762148
 30
0.0
 10
100.3328938551251
 20
-129.1841905058984
 30
0.0
 10
100.4469265156869
 20
-128.9864420250451
 30
0.0
 10
100.5051486293876
 20
-128.8858452368758
 30
0.0
 10
100.4965358906745
 20
-128.8245225372383
 30
0.0
 10
100.4851670755732
 20
-128.7811143341242
 30
0.0
 10
100.4579508212397
 20
-128.6801730364064
 30
0.0
 10
100.3632106953953
 20
-128.6109266171528
 30
0.0
 10
100.3156683776989
 20
-128.5833658532708
 30
0.0
 10
100.2991319193697
 20
-128.5740640954607
 30
0.0
 10
100.2670925313568
 20
-128.55787214668
 30
0.0
 10
100.2412543152175
 20
-128.5475368602242
 30
0.0
 10
100.2412543152175
 20
-128.5475368602242
 30
0.0
 10
100.3384060079015
 20
-128.3790716909955
 30
0.0
 10
100.3384060079015
 20
-128.3790716909955
 30
0.0
 10
100.3683783386232
 20
-128.4035318689408
 30
0.0
 10
100.4038628221213
 20
-128.426614008692
 30
0.0
 10
100.4093749748977
 20
-128.4297145946287
 30
0.0
 10
100.4658745408558
 20
-128.4624430017386
 30
0.0
 10
100.6488091111225
 20
-128.5437472551905
 30
0.0
 10
100.7673203958151
 20
-128.3384195642696
 30
0.0
 10
100.8562038593346
 20
-128.1844237960789
 30
0.0
 10
100.7704209817518
 20
-128.0714246641627
 30
0.0
 10
100.6749918368104
 20
-128.0163031363987
 30
0.0
 10
100.4458929870413
 20
-127.8840114697651
 30
0.0
 10
100.3222140591208
 20
-128.0814154410699
 30
0.0
 10
100.2825954610405
 20
-128.1417046120618
 30
0.0
 10
100.2825954610405
 20
-128.1417046120618
 30
0.0
 10
100.1068955912927
 20
-128.0400742952469
 30
0.0
 10
100.1068955912927
 20
-128.0400742952469
 30
0.0
 10
100.1764865200948
 20
-127.9360324115924
 30
0.0
 10
100.3887044019862
 20
-127.6239067606288
 30
0.0
 10
100.7842013636928
 20
-127.8523165913008
 30
0.0
 10
100.9785047490609
 20
-127.9642821945714
 30
0.0
 10
101.1238877785385
 20
-128.1951035920832
 30
0.0
 10
100.9757486726727
 20
-128.4514186961858
 30
0.0
 10
100.882731094571
 20
-128.6126491648955
 30
0.0
 10
100.7590521666505
 20
-128.6364203237437
 30
0.0
 10
100.6422634297005
 20
-128.6398654192289
 30
0.0
 10
100.6815375182324
 20
-128.6942979278959
 30
0.0
 10
100.7990152742794
 20
-128.8551838870571
 30
0.0
 10
100.6601779262239
 20
-129.0953070423789
 30
0.0
 10
100.4910237378981
 20
-129.3881401586252
 30
0.0
 10
100.1933674879725
 20
-129.4091552410852
 30
0.0
 10
99.95324433265058
 20
-129.2706624025782
 30
0.0
  0
HATCH
  5
9E
330
99
100
AcDbEntity
  8
_U+30EC_U+30A4_U+30E4_U+30FC 1
 62
   179
420
  2234388
100
AcDbHatch
 10
0.0
 20
0.0
 30
0.0
210
0.0
220
0.0
230
1.0
  2
SOLID
 70
     1
 71
     0
 91
        1
 92
        1
 93
        1
 72
     4
 94
        3
 73
     0
 74
     1
 95
       62
 96
       58
 40
0.0
 40
0.0
 40
0.0
 40
0.0
 40
1.0
 40
1.0
 40
1.0
 40
2.0
 40
2.0
 40
2.0
 40
3.0
 40
3.0
 40
3.0
 40
4.0
 40
4.0
 40
4.0
 40
5.0
 40
5.0
 40
5.0
 40
6.0
 40
6.0
 40
6.0
 40
7.0
 40
7.0
 40
7.0
 40
8.0
 40
8.0
 40
8.0
 40
9.0
 40
9.0
 40
9.0
 40
10.0
 40
10.0
 40
10.0
 40
11.0
 40
11.0
 40
11.0
 40
12.0
 40
12.0
 40
12.0
 40
13.0
 40
13.0
 40
13.0
 40
14.0
 40
14.0
 40
14.0
 40
15.0
 40
15.0
 40
15.0
 40
16.0
 40
16.0
 40
16.0
 40
17.0
 40
17.0
 40
17.0
 40
18.0
 40
18.0
 40
18.0
 40
19.0
 40
19.0
 40
19.0
 40
19.0
 10
99.95324433265058
 20
-129.2706624025782
 10
99.87090655055312
 20
-129.2231200848817
 10
99.6927951139657
 20
-129.0956515519275
 10
99.67763669383059
 20
-128.8720648549348
 10
99.66971297421452
 20
-128.73770613101
 10
99.71553274416834
 20
-128.6498561961361
 10
99.75411781360314
 20
-128.5744086050092
 10
99.75411781360314
 20
-128.5744086050092
 10
99.94497610348598
 20
-128.6843071509886
 10
99.94497610348598
 20
-128.6843071509886
 10
99.9094916199879
 20
-128.7494194556599
 10
99.80131562175106
 20
-128.958192242066
 10
100.0469509298494
 20
-129.1001301760583
 10
100.166151233639
 20
-129.1686875762148
 10
100.3328938551251
 20
-129.1841905058984
 10
100.4469265156869
 20
-128.9864420250451
 10
100.5051486293876
 20
-128.8858452368758
 10
100.4965358906745
 20
-128.8245225372383
 10
100.4851670755732
 20
-128.7811143341242
 10
100.4579508212397
 20
-128.6801730364064
 10
100.3632106953953
 20
-128.6109266171528
 10
100.3156683776989
 20
-128.5833658532708
 10
100.2991319193697
 20
-128.5740640954607
 10
100.2670925313568
 20
-128.55787214668
 10
100.2412543152175
 20
-128.5475368602242
 10
100.2412543152175
 20
-128.5475368602242
 10
100.3384060079015
 20
-128.3790716909955
 10
100.3384060079015
 20
-128.3790716909955
 10
100.3683783386232
 20
-128.4035318689408
 10
100.4038628221213
 20
-128.426614008692
 10
100.4093749748977
 20
-128.4297145946287
 10
100.4658745408558
 20
-128.4624430017386
 10
100.6488091111225
 20
-128.5437472551905
 10
100.7673203958151
 20
-128.3384195642696
 10
100.8562038593346
 20
-128.1844237960789
 10
100.7704209817518
 20
-128.0714246641627
 10
100.6749918368104
 20
-128.0163031363987
 10
100.4458929870413
 20
-127.8840114697651
 10
100.3222140591208
 20
-128.0814154410699
 10
100.2825954610405
 20
-128.1417046120618
 10
100.2825954610405
 20
-128.1417046120618
 10
100.1068955912927
 20
-128.0400742952469
 10
100.1068955912927
 20
-128.0400742952469
 10
100.1764865200948
 20
-127.9360324115924
 10
100.3887044019862
 20
-127.6239067606288
 10
100.7842013636928
 20
-127.8523165913008
 10
100.9785047490609
 20
-127.9642821945714
 10
101.1238877785385
 20
-128.1951035920832
 10
100.9757486726727
 20
-128.4514186961858
 10
100.882731094571
 20
-128.6126491648955
 10
100.7590521666505
 20
-128.6364203237437
 10
100.6422634297005
 20
-128.6398654192289
 10
100.6815375182324
 20
-128.6942979278959
 10
100.7990152742794
 20
-128.8551838870571
 10
100.6601779262239
 20
-129.0953070423789
 10
100.4910237378981
 20
-129.3881401586252
 10
100.1933674879725
 20
-129.4091552410852
 10
99.95324433265058
 20
-129.2706624025782
 97
        0
 97
        0
 75
     2
 76
     1
 98
        0
  0
SPLINE
  5
9F
330
99
100
AcDbEntity
  8
_U+30EC_U+30A4_U+30E4_U+30FC 1
370
     0
100
AcDbSpline
210
0.0
220
0.0
230
1.0
 70
    11
 71
     3
 72
    29
 73
    25
 74
     0
 42
0.0000000001
 43
0.0000000001
 12
1.0
 22
0.0
 32
0.0
 13
1.0
 23
0.0
 33
0.0
 40
0.0
 40
0.0
 40
0.0
 40
0.0
 40
1.0
 40
1.0
 40
1.0
 40
2.0
 40
2.0
 40
2.0
 40
3.0
 40
3.0
 40
3.0
 40
4.0
 40
4.0
 40
4.0
 40
5.0
 40
5.0
 40
5.0
 40
6.0
 40
6.0
 40
6.0
 40
7.0
 40
7.0
 40
7.0
 40
8.0
 40
8.0
 40
8.0
 40
8.0
 10
101.4384249963418
 20
-129.8642523546867
 30
0.0
 10
101.2403320059399
 20
-129.991720887641
 30
0.0
 10
101.0804795754243
 20
-129.9214409397419
 30
0.0
 10
100.979882787255
 20
-129.8632188260411
 30
0.0
 10
100.8407009296509
 20
-129.7829481012348
 30
0.0
 10
100.7411376701272
 20
-129.6716715170612
 30
0.0
 10
100.7497504088403
 20
-129.4666883356889
 30
0.0
 10
100.7573296189079
 20
-129.2462022246329
 30
0.0
 10
100.8589599357228
 20
-129.0312282663533
 30
0.0
 10
100.9406086987232
 20
-128.8903238610066
 30
0.0
 10
101.0122666848164
 20
-128.7659559139891
 30
0.0
 10
101.1528265806146
 20
-128.5564941084859
 30
0.0
 10
101.3440293800459
 20
-128.4366047855992
 30
0.0
 10
101.5390217845111
 20
-128.3149929149699
 30
0.0
 10
101.689916966765
 20
-128.3752820859617
 30
0.0
 10
101.8018825700356
 20
-128.4397053715359
 30
0.0
 10
101.9389973703486
 20
-128.5189425676967
 30
0.0
 10
102.0413167062605
 20
-128.6295301327732
 30
0.0
 10
102.0327039675474
 20
-128.8345133141455
 30
0.0
 10
102.0227131906402
 20
-129.0508653106192
 30
0.0
 10
101.9286620838928
 20
-129.2606716256709
 30
0.0
 10
101.8418456776645
 20
-129.4108777888278
 30
0.0
 10
101.7564073096303
 20
-129.5590168946936
 30
0.0
 10
101.6227376048027
 20
-129.7484971463823
 30
0.0
 10
101.4384249963418
 20
-129.8642523546867
 30
0.0
  0
SPLINE
  5
A0
330
99
100
AcDbEntity
  8
_U+30EC_U+30A4_U+30E4_U+30FC 1
370
     0
100
AcDbSpline
210
0.0
220
0.0
230
1.0
 70
    11
 71
     3
 72
    17
 73
    13
 74
     0
 42
0.0000000001
 43
0.0000000001
 12
1.0
 22
0.0
 32
0.0
 13
1.0
 23
0.0
 33
0.0
 40
0.0
 40
0.0
 40
0.0
 40
0.0
 40
1.0
 40
1.0
 40
1.0
 40
2.0
 40
2.0
 40
2.0
 40
3.0
 40
3.0
 40
3.0
 40
4.0
 40
4.0
 40
4.0
 40
4.0
 10
101.7054198964486
 20
-128.606447993022
 30
0.0
 10
101.489067899975
 20
-128.481735536456
 30
0.0
 10
101.3071668583538
 20
-128.7039441952546
 30
0.0
 10
101.1349120840913
 20
-129.0022894642772
 30
0.0
 10
100.9750596535757
 20
-129.2792751412913
 30
0.0
 10
100.8517252352037
 20
-129.56452904747
 30
0.0
 10
101.0770344799391
 20
-129.6947536568124
 30
0.0
 10
101.2913194191216
 20
-129.8184325847329
 30
0.0
 10
101.4742539893884
 20
-129.5989800023225
 30
0.0
 10
101.647886801845
 20
-129.2985676760087
 30
0.0
 10
101.807394722812
 20
-129.0219265085431
 30
0.0
 10
101.9290065934414
 20
-128.7356390737189
 30
0.0
 10
101.7054198964486
 20
-128.606447993022
 30
0.0
  0
HATCH
  5
A1
330
99
100
AcDbEntity
  8
_U+30EC_U+30A4_U+30E4_U+30FC 1
 62
   179
420
  2234388
100
AcDbHatch
 10
0.0
 20
0.0
 30
0.0
210
0.0
220
0.0
230
1.0
  2
SOLID
 70
     1
 71
     0
 91
        2
 92
        1
 93
        1
 72
     4
 94
        3
 73
     0
 74
     1
 95
       29
 96
       25
 40
0.0
 40
0.0
 40
0.0
 40
0.0
 40
1.0
 40
1.0
 40
1.0
 40
2.0
 40
2.0
 40
2.0
 40
3.0
 40
3.0
 40
3.0
 40
4.0
 40
4.0
 40
4.0
 40
5.0
 40
5.0
 40
5.0
 40
6.0
 40
6.0
 40
6.0
 40
7.0
 40
7.0
 40
7.0
 40
8.0
 40
8.0
 40
8.0
 40
8.0
 10
101.4384249963418
 20
-129.8642523546867
 10
101.2403320059399
 20
-129.991720887641
 10
101.0804795754243
 20
-129.9214409397419
 10
100.979882787255
 20
-129.8632188260411
 10
100.8407009296509
 20
-129.7829481012348
 10
100.7411376701272
 20
-129.6716715170612
 10
100.7497504088403
 20
-129.4666883356889
 10
100.7573296189079
 20
-129.2462022246329
 10
100.8589599357228
 20
-129.0312282663533
 10
100.9406086987232
 20
-128.8903238610066
 10
101.0122666848164
 20
-128.7659559139891
 10
101.1528265806146
 20
-128.5564941084859
 10
101.3440293800459
 20
-128.4366047855992
 10
101.5390217845111
 20
-128.3149929149699
 10
101.689916966765
 20
-128.3752820859617
 10
101.8018825700356
 20
-128.4397053715359
 10
101.9389973703486
 20
-128.5189425676967
 10
102.0413167062605
 20
-128.6295301327732
 10
102.0327039675474
 20
-128.8345133141455
 10
102.0227131906402
 20
-129.0508653106192
 10
101.9286620838928
 20
-129.2606716256709
 10
101.8418456776645
 20
-129.4108777888278
 10
101.7564073096303
 20
-129.5590168946936
 10
101.6227376048027
 20
-129.7484971463823
 10
101.4384249963418
 20
-129.8642523546867
 97
        0
 97
        0
 92
        1
 93
        1
 72
     4
 94
        3
 73
     0
 74
     1
 95
       17
 96
       13
 40
0.0
 40
0.0
 40
0.0
 40
0.0
 40
1.0
 40
1.0
 40
1.0
 40
2.0
 40
2.0
 40
2.0
 40
3.0
 40
3.0
 40
3.0
 40
4.0
 40
4.0
 40
4.0
 40
4.0
 10
101.7054198964486
 20
-128.606447993022
 10
101.489067899975
 20
-128.481735536456
 10
101.3071668583538
 20
-128.7039441952546
 10
101.1349120840913
 20
-129.0022894642772
 10
100.9750596535757
 20
-129.2792751412913
 10
100.8517252352037
 20
-129.56452904747
 10
101.0770344799391
 20
-129.6947536568124
 10
101.2913194191216
 20
-129.8184325847329
 10
101.4742539893884
 20
-129.5989800023225
 10
101.647886801845
 20
-129.2985676760087
 10
101.807394722812
 20
-129.0219265085431
 10
101.9290065934414
 20
-128.7356390737189
 10
101.7054198964486
 20
-128.606447993022
 97
        0
 97
        0
 75
     2
 76
     1
 98
        0
  0
POLYLINE
  5
A2
330
99
100
AcDbEntity
  8
_U+30EC_U+30A4_U+30E4_U+30FC 1
370
     0
100
AcDb2dPolyline
 66
     1
 10
0.0
 20
0.0
 30
0.0
  0
VERTEX
  5
A3
330
A2
100
AcDbEntity
  8
_U+30EC_U+30A4_U+30E4_U+30FC 1
370
     0
100
AcDbVertex
100
AcDb2dVertex
 10
102.7534179430616
 20
-130.8285345810081
 30
0.0
  0
VERTEX
  5
A4
330
A2
100
AcDbEntity
  8
_U+30EC_U+30A4_U+30E4_U+30FC 1
370
     0
100
AcDbVertex
100
AcDb2dVertex
 10
103.2874077432754
 20
-129.9035264432186
 30
0.0
  0
VERTEX
  5
A5
330
A2
100
AcDbEntity
  8
_U+30EC_U+30A4_U+30E4_U+30FC 1
370
     0
100
AcDbVertex
100
AcDb2dVertex
 10
103.3749131686007
 20
-129.7657226238086
 30
0.0
  0
VERTEX
  5
A6
330
A2
100
AcDbEntity
  8
_U+30EC_U+30A4_U+30E4_U+30FC 1
370
     0
100
AcDbVertex
100
AcDb2dVertex
 10
103.2663926608154
 20
-129.881477832113
 30
0.0
  0
VERTEX
  5
A7
330
A2
100
AcDbEntity
  8
_U+30EC_U+30A4_U+30E4_U+30FC 1
370
     0
100
AcDbVertex
100
AcDb2dVertex
 10
102.4292344578996
 20
-130.6414658961591
 30
0.0
  0
VERTEX
  5
A8
330
A2
100
AcDbEntity
  8
_U+30EC_U+30A4_U+30E4_U+30FC 1
370
     0
100
AcDbVertex
100
AcDb2dVertex
 10
102.1946234553541
 20
-130.5060736435888
 30
0.0
  0
VERTEX
  5
A9
330
A2
100
AcDbEntity
  8
_U+30EC_U+30A4_U+30E4_U+30FC 1
370
     0
100
AcDbVertex
100
AcDb2dVertex
 10
102.4364691584187
 20
-129.4022650501147
 30
0.0
  0
VERTEX
  5
AA
330
A2
100
AcDbEntity
  8
_U+30EC_U+30A4_U+30E4_U+30FC 1
370
     0
100
AcDbVertex
100
AcDb2dVertex
 10
102.482633437921
 20
-129.2503363392152
 30
0.0
  0
VERTEX
  5
AB
330
A2
100
AcDbEntity
  8
_U+30EC_U+30A4_U+30E4_U+30FC 1
370
     0
100
AcDbVertex
100
AcDb2dVertex
 10
102.4047742799544
 20
-129.3936523114016
 30
0.0
  0
VERTEX
  5
AC
330
A2
100
AcDbEntity
  8
_U+30EC_U+30A4_U+30E4_U+30FC 1
370
     0
100
AcDbVertex
100
AcDb2dVertex
 10
101.8704399701921
 20
-130.3190049587397
 30
0.0
  0
VERTEX
  5
AD
330
A2
100
AcDbEntity
  8
_U+30EC_U+30A4_U+30E4_U+30FC 1
370
     0
100
AcDbVertex
100
AcDb2dVertex
 10
101.681993247149
 20
-130.2097954318573
 30
0.0
  0
VERTEX
  5
AE
330
A2
100
AcDbEntity
  8
_U+30EC_U+30A4_U+30E4_U+30FC 1
370
     0
100
AcDbVertex
100
AcDb2dVertex
 10
102.4540391453934
 20
-128.8724093644833
 30
0.0
  0
VERTEX
  5
AF
330
A2
100
AcDbEntity
  8
_U+30EC_U+30A4_U+30E4_U+30FC 1
370
     0
100
AcDbVertex
100
AcDb2dVertex
 10
102.730680312859
 20
-129.0322617949989
 30
0.0
  0
VERTEX
  5
B0
330
A2
100
AcDbEntity
  8
_U+30EC_U+30A4_U+30E4_U+30FC 1
370
     0
100
AcDbVertex
100
AcDb2dVertex
 10
102.4767767755961
 20
-130.212206998697
 30
0.0
  0
VERTEX
  5
B1
330
A2
100
AcDbEntity
  8
_U+30EC_U+30A4_U+30E4_U+30FC 1
370
     0
100
AcDbVertex
100
AcDb2dVertex
 10
102.4388807252583
 20
-130.3538004231407
 30
0.0
  0
VERTEX
  5
B2
330
A2
100
AcDbEntity
  8
_U+30EC_U+30A4_U+30E4_U+30FC 1
370
     0
100
AcDbVertex
100
AcDb2dVertex
 10
102.5425780993644
 20
-130.2501030490347
 30
0.0
  0
VERTEX
  5
B3
330
A2
100
AcDbEntity
  8
_U+30EC_U+30A4_U+30E4_U+30FC 1
370
     0
100
AcDbVertex
100
AcDb2dVertex
 10
103.4396809637234
 20
-129.4415391386466
 30
0.0
  0
VERTEX
  5
B4
330
A2
100
AcDbEntity
  8
_U+30EC_U+30A4_U+30E4_U+30FC 1
370
     0
100
AcDbVertex
100
AcDb2dVertex
 10
103.7142550738978
 20
-129.6003580405166
 30
0.0
  0
VERTEX
  5
B5
330
A2
100
AcDbEntity
  8
_U+30EC_U+30A4_U+30E4_U+30FC 1
370
     0
100
AcDbVertex
100
AcDb2dVertex
 10
102.9422091756533
 20
-130.9377441078906
 30
0.0
  0
VERTEX
  5
B6
330
A2
100
AcDbEntity
  8
_U+30EC_U+30A4_U+30E4_U+30FC 1
370
     0
100
AcDbVertex
100
AcDb2dVertex
 10
102.7534179430616
 20
-130.8285345810081
 30
0.0
  0
SEQEND
  5
B7
330
A2
100
AcDbEntity
  8
_U+30EC_U+30A4_U+30E4_U+30FC 1
370
     0
  0
HATCH
  5
B8
330
99
100
AcDbEntity
  8
_U+30EC_U+30A4_U+30E4_U+30FC 1
 62
   179
420
  2234388
100
AcDbHatch
 10
0.0
 20
0.0
 30
0.0
210
0.0
220
0.0
230
1.0
  2
SOLID
 70
     1
 71
     0
 91
        1
 92
        1
 93
       19
 72
     1
 10
102.7534179430616
 20
-130.8285345810081
 11
103.2874077432754
 21
-129.9035264432186
 72
     1
 10
103.2874077432754
 20
-129.9035264432186
 11
103.3749131686007
 21
-129.7657226238086
 72
     1
 10
103.3749131686007
 20
-129.7657226238086
 11
103.2663926608154
 21
-129.881477832113
 72
     1
 10
103.2663926608154
 20
-129.881477832113
 11
102.4292344578996
 21
-130.6414658961591
 72
     1
 10
102.4292344578996
 20
-130.6414658961591
 11
102.1946234553541
 21
-130.5060736435888
 72
     1
 10
102.1946234553541
 20
-130.5060736435888
 11
102.4364691584187
 21
-129.4022650501147
 72
     1
 10
102.4364691584187
 20
-129.4022650501147
 11
102.482633437921
 21
-129.2503363392152
 72
     1
 10
102.482633437921
 20
-129.2503363392152
 11
102.4047742799544
 21
-129.3936523114016
 72
     1
 10
102.4047742799544
 20
-129.3936523114016
 11
101.8704399701921
 21
-130.3190049587397
 72
     1
 10
101.8704399701921
 20
-130.3190049587397
 11
101.681993247149
 21
-130.2097954318573
 72
     1
 10
101.681993247149
 20
-130.2097954318573
 11
102.4540391453934
 21
-128.8724093644833
 72
     1
 10
102.4540391453934
 20
-128.8724093644833
 11
102.730680312859
 21
-129.0322617949989
 72
     1
 10
102.730680312859
 20
-129.0322617949989
 11
102.4767767755961
 21
-130.212206998697
 72
     1
 10
102.4767767755961
 20
-130.212206998697
 11
102.4388807252583
 21
-130.3538004231407
 72
     1
 10
102.4388807252583
 20
-130.3538004231407
 11
102.5425780993644
 21
-130.2501030490347
 72
     1
 10
102.5425780993644
 20
-130.2501030490347
 11
103.4396809637234
 21
-129.4415391386466
 72
     1
 10
103.4396809637234
 20
-129.4415391386466
 11
103.7142550738978
 21
-129.6003580405166
 72
     1
 10
103.7142550738978
 20
-129.6003580405166
 11
102.9422091756533
 21
-130.9377441078906
 72
     1
 10
102.9422091756533
 20
-130.9377441078906
 11
102.7534179430616
 21
-130.8285345810081
 97
        0
 75
     2
 76
     1
 98
        0
  0
SPLINE
  5
B9
330
99
100
AcDbEntity
  8
_U+30EC_U+30A4_U+30E4_U+30FC 1
370
     0
100
AcDbSpline
210
0.0
220
0.0
230
1.0
 70
    11
 71
     3
 72
    44
 73
    40
 74
     0
 42
0.0000000001
 43
0.0000000001
 12
1.0
 22
0.0
 32
0.0
 13
1.0
 23
0.0
 33
0.0
 40
0.0
 40
0.0
 40
0.0
 40
0.0
 40
1.0
 40
1.0
 40
1.0
 40
2.0
 40
2.0
 40
2.0
 40
3.0
 40
3.0
 40
3.0
 40
4.0
 40
4.0
 40
4.0
 40
5.0
 40
5.0
 40
5.0
 40
6.0
 40
6.0
 40
6.0
 40
7.0
 40
7.0
 40
7.0
 40
8.0
 40
8.0
 40
8.0
 40
9.0
 40
9.0
 40
9.0
 40
10.0
 40
10.0
 40
10.0
 40
11.0
 40
11.0
 40
11.0
 40
12.0
 40
12.0
 40
12.0
 40
13.0
 40
13.0
 40
13.0
 40
13.0
 10
104.0646212847477
 20
-131.5854220591175
 30
0.0
 10
104.0663438324904
 20
-131.5354681745814
 30
0.0
 10
104.074612061655
 20
-131.4789686086233
 30
0.0
 10
104.1879557031197
 20
-131.2781195418333
 30
0.0
 10
104.3061224782637
 20
-131.0655571503933
 30
0.0
 10
104.2895860199345
 20
-130.9756401582283
 30
0.0
 10
104.1355902517439
 20
-130.8867566947089
 30
0.0
 10
104.1355902517439
 20
-130.8867566947089
 30
0.0
 10
103.7821234549573
 20
-130.6824625324336
 30
0.0
 10
103.7821234549573
 20
-130.6824625324336
 30
0.0
 10
103.7821234549573
 20
-130.6824625324336
 30
0.0
 10
103.461729574829
 20
-131.2374674151073
 30
0.0
 10
103.461729574829
 20
-131.2374674151073
 30
0.0
 10
103.461729574829
 20
-131.2374674151073
 30
0.0
 10
103.2584689411993
 20
-131.1199896590603
 30
0.0
 10
103.2584689411993
 20
-131.1199896590603
 30
0.0
 10
103.2584689411993
 20
-131.1199896590603
 30
0.0
 10
104.0305148394438
 20
-129.7826035916863
 30
0.0
 10
104.0305148394438
 20
-129.7826035916863
 30
0.0
 10
104.0305148394438
 20
-129.7826035916863
 30
0.0
 10
104.6148030337421
 20
-130.1198784396923
 30
0.0
 10
104.6148030337421
 20
-130.1198784396923
 30
0.0
 10
104.8804198956549
 20
-130.2735296983344
 30
0.0
 10
104.9396755380012
 20
-130.5053846244917
 30
0.0
 10
104.8115179859499
 20
-130.7272487737418
 30
0.0
 10
104.7863687889076
 20
-130.7710014864045
 30
0.0
 10
104.737448433017
 20
-130.8381808483668
 30
0.0
 10
104.6589002559533
 20
-130.8857231660633
 30
0.0
 10
104.5558919009444
 20
-130.9460123370552
 30
0.0
 10
104.4897460676276
 20
-130.929475878726
 30
0.0
 10
104.4280788584416
 20
-130.9136284394938
 30
0.0
 10
104.5259195702227
 20
-131.0190483613425
 30
0.0
 10
104.5600260155267
 20
-131.094840462018
 30
0.0
 10
104.4063747568845
 20
-131.3697590817409
 30
0.0
 10
104.2744275997995
 20
-131.6067816511261
 30
0.0
 10
104.2895860199345
 20
-131.6522569115314
 30
0.0
 10
104.3209363888503
 20
-131.7335611649833
 30
0.0
 10
104.3209363888503
 20
-131.7335611649833
 30
0.0
 10
104.0646212847477
 20
-131.5854220591175
 30
0.0
 10
104.0646212847477
 20
-131.5854220591175
 30
0.0
  0
SPLINE
  5
BA
330
99
100
AcDbEntity
  8
_U+30EC_U+30A4_U+30E4_U+30FC 1
370
     0
100
AcDbSpline
210
0.0
220
0.0
230
1.0
 70
    11
 71
     3
 72
    20
 73
    16
 74
     0
 42
0.0000000001
 43
0.0000000001
 12
1.0
 22
0.0
 32
0.0
 13
1.0
 23
0.0
 33
0.0
 40
0.0
 40
0.0
 40
0.0
 40
0.0
 40
1.0
 40
1.0
 40
1.0
 40
2.0
 40
2.0
 40
2.0
 40
3.0
 40
3.0
 40
3.0
 40
4.0
 40
4.0
 40
4.0
 40
5.0
 40
5.0
 40
5.0
 40
5.0
 10
104.5128282073787
 20
-130.3055690863472
 30
0.0
 10
104.5128282073787
 20
-130.3055690863472
 30
0.0
 10
104.1280110416763
 20
-130.0833604275486
 30
0.0
 10
104.1280110416763
 20
-130.0833604275486
 30
0.0
 10
104.1280110416763
 20
-130.0833604275486
 30
0.0
 10
103.8878878863544
 20
-130.4991834526183
 30
0.0
 10
103.8878878863544
 20
-130.4991834526183
 30
0.0
 10
103.8878878863544
 20
-130.4991834526183
 30
0.0
 10
104.2709825043142
 20
-130.7203585827713
 30
0.0
 10
104.2709825043142
 20
-130.7203585827713
 30
0.0
 10
104.3567653818969
 20
-130.7699679577589
 30
0.0
 10
104.5121391882817
 20
-130.7716905055015
 30
0.0
 10
104.5979220658644
 20
-130.6235513996358
 30
0.0
 10
104.6371961543963
 20
-130.5553385090278
 30
0.0
 10
104.6850829816412
 20
-130.405132345871
 30
0.0
 10
104.5128282073787
 20
-130.3055690863472
 30
0.0
  0
HATCH
  5
BB
330
99
100
AcDbEntity
  8
_U+30EC_U+30A4_U+30E4_U+30FC 1
 62
   179
420
  2234388
100
AcDbHatch
 10
0.0
 20
0.0
 30
0.0
210
0.0
220
0.0
230
1.0
  2
SOLID
 70
     1
 71
     0
 91
        2
 92
        1
 93
        1
 72
     4
 94
        3
 73
     0
 74
     1
 95
       44
 96
       40
 40
0.0
 40
0.0
 40
0.0
 40
0.0
 40
1.0
 40
1.0
 40
1.0
 40
2.0
 40
2.0
 40
2.0
 40
3.0
 40
3.0
 40
3.0
 40
4.0
 40
4.0
 40
4.0
 40
5.0
 40
5.0
 40
5.0
 40
6.0
 40
6.0
 40
6.0
 40
7.0
 40
7.0
 40
7.0
 40
8.0
 40
8.0
 40
8.0
 40
9.0
 40
9.0
 40
9.0
 40
10.0
 40
10.0
 40
10.0
 40
11.0
 40
11.0
 40
11.0
 40
12.0
 40
12.0
 40
12.0
 40
13.0
 40
13.0
 40
13.0
 40
13.0
 10
104.0646212847477
 20
-131.5854220591175
 10
104.0663438324904
 20
-131.5354681745814
 10
104.074612061655
 20
-131.4789686086233
 10
104.1879557031197
 20
-131.2781195418333
 10
104.3061224782637
 20
-131.0655571503933
 10
104.2895860199345
 20
-130.9756401582283
 10
104.1355902517439
 20
-130.8867566947089
 10
104.1355902517439
 20
-130.8867566947089
 10
103.7821234549573
 20
-130.6824625324336
 10
103.7821234549573
 20
-130.6824625324336
 10
103.7821234549573
 20
-130.6824625324336
 10
103.461729574829
 20
-131.2374674151073
 10
103.461729574829
 20
-131.2374674151073
 10
103.461729574829
 20
-131.2374674151073
 10
103.2584689411993
 20
-131.1199896590603
 10
103.2584689411993
 20
-131.1199896590603
 10
103.2584689411993
 20
-131.1199896590603
 10
104.0305148394438
 20
-129.7826035916863
 10
104.0305148394438
 20
-129.7826035916863
 10
104.0305148394438
 20
-129.7826035916863
 10
104.6148030337421
 20
-130.1198784396923
 10
104.6148030337421
 20
-130.1198784396923
 10
104.8804198956549
 20
-130.2735296983344
 10
104.9396755380012
 20
-130.5053846244917
 10
104.8115179859499
 20
-130.7272487737418
 10
104.7863687889076
 20
-130.7710014864045
 10
104.737448433017
 20
-130.8381808483668
 10
104.6589002559533
 20
-130.8857231660633
 10
104.5558919009444
 20
-130.9460123370552
 10
104.4897460676276
 20
-130.929475878726
 10
104.4280788584416
 20
-130.9136284394938
 10
104.5259195702227
 20
-131.0190483613425
 10
104.5600260155267
 20
-131.094840462018
 10
104.4063747568845
 20
-131.3697590817409
 10
104.2744275997995
 20
-131.6067816511261
 10
104.2895860199345
 20
-131.6522569115314
 10
104.3209363888503
 20
-131.7335611649833
 10
104.3209363888503
 20
-131.7335611649833
 10
104.0646212847477
 20
-131.5854220591175
 10
104.0646212847477
 20
-131.5854220591175
 97
        0
 97
        0
 92
        1
 93
        1
 72
     4
 94
        3
 73
     0
 74
     1
 95
       20
 96
       16
 40
0.0
 40
0.0
 40
0.0
 40
0.0
 40
1.0
 40
1.0
 40
1.0
 40
2.0
 40
2.0
 40
2.0
 40
3.0
 40
3.0
 40
3.0
 40
4.0
 40
4.0
 40
4.0
 40
5.0
 40
5.0
 40
5.0
 40
5.0
 10
104.5128282073787
 20
-130.3055690863472
 10
104.5128282073787
 20
-130.3055690863472
 10
104.1280110416763
 20
-130.0833604275486
 10
104.1280110416763
 20
-130.0833604275486
 10
104.1280110416763
 20
-130.0833604275486
 10
103.8878878863544
 20
-130.4991834526183
 10
103.8878878863544
 20
-130.4991834526183
 10
103.8878878863544
 20
-130.4991834526183
 10
104.2709825043142
 20
-130.7203585827713
 10
104.2709825043142
 20
-130.7203585827713
 10
104.3567653818969
 20
-130.7699679577589
 10
104.5121391882817
 20
-130.7716905055015
 10
104.5979220658644
 20
-130.6235513996358
 10
104.6371961543963
 20
-130.5553385090278
 10
104.6850829816412
 20
-130.405132345871
 10
104.5128282073787
 20
-130.3055690863472
 97
        0
 97
        0
 75
     2
 76
     1
 98
        0
  0
ENDBLK
  5
9C
330
99
100
AcDbEntity
  8
0
100
AcDbBlockEnd
  0
BLOCK
  5
BE
330
BC
100
AcDbEntity
  8
0
100
AcDbBlockBegin
  2
block 4
 70
     0
 10
0.0
 20
0.0
 30
0.0
  3
block 4
  1

  0
SPLINE
  5
C0
330
BC
100
AcDbEntity
  8
_U+30EC_U+30A4_U+30E4_U+30FC 1
370
     0
100
AcDbSpline
210
0.0
220
0.0
230
1.0
 70
    11
 71
     3
 72
    62
 73
    58
 74
     0
 42
0.0000000001
 43
0.0000000001
 12
1.0
 22
0.0
 32
0.0
 13
1.0
 23
0.0
 33
0.0
 40
0.0
 40
0.0
 40
0.0
 40
0.0
 40
1.0
 40
1.0
 40
1.0
 40
2.0
 40
2.0
 40
2.0
 40
3.0
 40
3.0
 40
3.0
 40
4.0
 40
4.0
 40
4.0
 40
5.0
 40
5.0
 40
5.0
 40
6.0
 40
6.0
 40
6.0
 40
7.0
 40
7.0
 40
7.0
 40
8.0
 40
8.0
 40
8.0
 40
9.0
 40
9.0
 40
9.0
 40
10.0
 40
10.0
 40
10.0
 40
11.0
 40
11.0
 40
11.0
 40
12.0
 40
12.0
 40
12.0
 40
13.0
 40
13.0
 40
13.0
 40
14.0
 40
14.0
 40
14.0
 40
15.0
 40
15.0
 40
15.0
 40
16.0
 40
16.0
 40
16.0
 40
17.0
 40
17.0
 40
17.0
 40
18.0
 40
18.0
 40
18.0
 40
19.0
 40
19.0
 40
19.0
 40
19.0
 10
76.39326983767252
 20
-132.3622910910414
 30
0.0
 10
76.30989852692947
 20
-132.4084553705437
 30
0.0
 10
76.1090494601394
 20
-132.4956162863205
 30
0.0
 10
75.90992294109196
 20
-132.3932969504086
 30
0.0
 10
75.79072263730232
 20
-132.3312852316741
 30
0.0
 10
75.73870169547504
 20
-132.2461913731885
 30
0.0
 10
75.69425996371533
 20
-132.1745333870953
 30
0.0
 10
75.69425996371533
 20
-132.1745333870953
 30
0.0
 10
75.88649629179227
 20
-132.0677354270525
 30
0.0
 10
75.88649629179227
 20
-132.0677354270525
 30
0.0
 10
75.9240478325815
 20
-132.1314696935297
 30
0.0
 10
76.0470377414049
 20
-132.3316297412227
 30
0.0
 10
76.2950846163429
 20
-132.1941704313612
 30
0.0
 10
76.41566295832665
 20
-132.1276800884959
 30
0.0
 10
76.51488170830184
 20
-131.9926323454741
 30
0.0
 10
76.40394963367679
 20
-131.7928168073296
 30
0.0
 10
76.3474500677187
 20
-131.6911864905147
 30
0.0
 10
76.2909505017606
 20
-131.6667263125694
 30
0.0
 10
76.24754229864645
 20
-131.6543239688225
 30
0.0
 10
76.14694551047715
 20
-131.625729676295
 30
0.0
 10
76.03911402178883
 20
-131.6712049367003
 30
0.0
 10
75.99122719454387
 20
-131.6977321719367
 30
0.0
 10
75.97434622666614
 20
-131.7070339297469
 30
0.0
 10
75.94402938639594
 20
-131.7263264644643
 30
0.0
 10
75.92198077529034
 20
-131.743207432342
 30
0.0
 10
75.92198077529034
 20
-131.743207432342
 30
0.0
 10
75.8275851589945
 20
-131.5730197153706
 30
0.0
 10
75.8275851589945
 20
-131.5730197153706
 30
0.0
 10
75.86375866158961
 20
-131.5599283525267
 30
0.0
 10
75.90199922147589
 20
-131.5413248369063
 30
0.0
 10
75.9075113742523
 20
-131.5385687605181
 30
0.0
 10
75.96469995930744
 20
-131.5065293725053
 30
0.0
 10
76.12834199485681
 20
-131.3918076928465
 30
0.0
 10
76.01362031519798
 20
-131.1844129446345
 30
0.0
 10
75.92749292806674
 20
-131.0290391382497
 30
0.0
 10
75.78589950362297
 20
-131.0445420679333
 30
0.0
 10
75.6897813395845
 20
-131.0975965384062
 30
0.0
 10
75.45861543252424
 20
-131.2257540904575
 30
0.0
 10
75.56403535437288
 20
-131.433493348218
 30
0.0
 10
75.59504121374013
 20
-131.4986056528892
 30
0.0
 10
75.59504121374013
 20
-131.4986056528892
 30
0.0
 10
75.41761879624977
 20
-131.5971353837674
 30
0.0
 10
75.41761879624977
 20
-131.5971353837674
 30
0.0
 10
75.3642198162284
 20
-131.4837917423027
 30
0.0
 10
75.20608993345543
 20
-131.1410047415203
 30
0.0
 10
75.60537650019589
 20
-130.9198296113673
 30
0.0
 10
75.80174694285512
 20
-130.8109645940334
 30
0.0
 10
76.07425399573839
 20
-130.8047634221599
 30
0.0
 10
76.2179144774733
 20
-131.0638346026507
 30
0.0
 10
76.30817597918684
 20
-131.226787619103
 30
0.0
 10
76.2647677760727
 20
-131.3449543942471
 30
0.0
 10
76.20757919101756
 20
-131.4469292206105
 30
0.0
 10
76.2744140434314
 20
-131.4414170678341
 30
0.0
 10
76.4728515433818
 20
-131.4235025713108
 30
0.0
 10
76.60721026730653
 20
-131.6660372934724
 30
0.0
 10
76.77119681240443
 20
-131.9619709956553
 30
0.0
 10
76.63546005028559
 20
-132.2279323671166
 30
0.0
 10
76.39326983767252
 20
-132.3622910910414
 30
0.0
  0
HATCH
  5
C1
330
BC
100
AcDbEntity
  8
_U+30EC_U+30A4_U+30E4_U+30FC 1
 62
   179
420
  2234388
100
AcDbHatch
 10
0.0
 20
0.0
 30
0.0
210
0.0
220
0.0
230
1.0
  2
SOLID
 70
     1
 71
     0
 91
        1
 92
        1
 93
        1
 72
     4
 94
        3
 73
     0
 74
     1
 95
       62
 96
       58
 40
0.0
 40
0.0
 40
0.0
 40
0.0
 40
1.0
 40
1.0
 40
1.0
 40
2.0
 40
2.0
 40
2.0
 40
3.0
 40
3.0
 40
3.0
 40
4.0
 40
4.0
 40
4.0
 40
5.0
 40
5.0
 40
5.0
 40
6.0
 40
6.0
 40
6.0
 40
7.0
 40
7.0
 40
7.0
 40
8.0
 40
8.0
 40
8.0
 40
9.0
 40
9.0
 40
9.0
 40
10.0
 40
10.0
 40
10.0
 40
11.0
 40
11.0
 40
11.0
 40
12.0
 40
12.0
 40
12.0
 40
13.0
 40
13.0
 40
13.0
 40
14.0
 40
14.0
 40
14.0
 40
15.0
 40
15.0
 40
15.0
 40
16.0
 40
16.0
 40
16.0
 40
17.0
 40
17.0
 40
17.0
 40
18.0
 40
18.0
 40
18.0
 40
19.0
 40
19.0
 40
19.0
 40
19.0
 10
76.39326983767252
 20
-132.3622910910414
 10
76.30989852692947
 20
-132.4084553705437
 10
76.1090494601394
 20
-132.4956162863205
 10
75.90992294109196
 20
-132.3932969504086
 10
75.79072263730232
 20
-132.3312852316741
 10
75.73870169547504
 20
-132.2461913731885
 10
75.69425996371533
 20
-132.1745333870953
 10
75.69425996371533
 20
-132.1745333870953
 10
75.88649629179227
 20
-132.0677354270525
 10
75.88649629179227
 20
-132.0677354270525
 10
75.9240478325815
 20
-132.1314696935297
 10
76.0470377414049
 20
-132.3316297412227
 10
76.2950846163429
 20
-132.1941704313612
 10
76.41566295832665
 20
-132.1276800884959
 10
76.51488170830184
 20
-131.9926323454741
 10
76.40394963367679
 20
-131.7928168073296
 10
76.3474500677187
 20
-131.6911864905147
 10
76.2909505017606
 20
-131.6667263125694
 10
76.24754229864645
 20
-131.6543239688225
 10
76.14694551047715
 20
-131.625729676295
 10
76.03911402178883
 20
-131.6712049367003
 10
75.99122719454387
 20
-131.6977321719367
 10
75.97434622666614
 20
-131.7070339297469
 10
75.94402938639594
 20
-131.7263264644643
 10
75.92198077529034
 20
-131.743207432342
 10
75.92198077529034
 20
-131.743207432342
 10
75.8275851589945
 20
-131.5730197153706
 10
75.8275851589945
 20
-131.5730197153706
 10
75.86375866158961
 20
-131.5599283525267
 10
75.90199922147589
 20
-131.5413248369063
 10
75.9075113742523
 20
-131.5385687605181
 10
75.96469995930744
 20
-131.5065293725053
 10
76.12834199485681
 20
-131.3918076928465
 10
76.01362031519798
 20
-131.1844129446345
 10
75.92749292806674
 20
-131.0290391382497
 10
75.78589950362297
 20
-131.0445420679333
 10
75.6897813395845
 20
-131.0975965384062
 10
75.45861543252424
 20
-131.2257540904575
 10
75.56403535437288
 20
-131.433493348218
 10
75.59504121374013
 20
-131.4986056528892
 10
75.59504121374013
 20
-131.4986056528892
 10
75.41761879624977
 20
-131.5971353837674
 10
75.41761879624977
 20
-131.5971353837674
 10
75.3642198162284
 20
-131.4837917423027
 10
75.20608993345543
 20
-131.1410047415203
 10
75.60537650019589
 20
-130.9198296113673
 10
75.80174694285512
 20
-130.8109645940334
 10
76.07425399573839
 20
-130.8047634221599
 10
76.2179144774733
 20
-131.0638346026507
 10
76.30817597918684
 20
-131.226787619103
 10
76.2647677760727
 20
-131.3449543942471
 10
76.20757919101756
 20
-131.4469292206105
 10
76.2744140434314
 20
-131.4414170678341
 10
76.4728515433818
 20
-131.4235025713108
 10
76.60721026730653
 20
-131.6660372934724
 10
76.77119681240443
 20
-131.9619709956553
 10
76.63546005028559
 20
-132.2279323671166
 10
76.39326983767252
 20
-132.3622910910414
 97
        0
 97
        0
 75
     2
 76
     1
 98
        0
  0
SPLINE
  5
C2
330
BC
100
AcDbEntity
  8
_U+30EC_U+30A4_U+30E4_U+30FC 1
370
     0
100
AcDbSpline
210
0.0
220
0.0
230
1.0
 70
    11
 71
     3
 72
    29
 73
    25
 74
     0
 42
0.0000000001
 43
0.0000000001
 12
1.0
 22
0.0
 32
0.0
 13
1.0
 23
0.0
 33
0.0
 40
0.0
 40
0.0
 40
0.0
 40
0.0
 40
1.0
 40
1.0
 40
1.0
 40
2.0
 40
2.0
 40
2.0
 40
3.0
 40
3.0
 40
3.0
 40
4.0
 40
4.0
 40
4.0
 40
5.0
 40
5.0
 40
5.0
 40
6.0
 40
6.0
 40
6.0
 40
7.0
 40
7.0
 40
7.0
 40
8.0
 40
8.0
 40
8.0
 40
8.0
 10
77.66692163856938
 20
-131.3952527883318
 30
0.0
 10
77.67415633908841
 20
-131.6305528099743
 30
0.0
 10
77.53187389554759
 20
-131.7314941076921
 30
0.0
 10
77.4298990691842
 20
-131.7876491641017
 30
0.0
 10
77.289339173386
 20
-131.8658528316169
 30
0.0
 10
77.14257810571436
 20
-131.8937581050474
 30
0.0
 10
76.97135686009744
 20
-131.7807589731312
 30
0.0
 10
76.78635523253952
 20
-131.660525140696
 30
0.0
 10
76.65475258500298
 20
-131.4627766598426
 30
0.0
 10
76.57585989839076
 20
-131.3201497067533
 30
0.0
 10
76.50592446004019
 20
-131.1944037215417
 30
0.0
 10
76.39878199044892
 20
-130.9659938908696
 30
0.0
 10
76.39499238541515
 20
-130.7406846461343
 30
0.0
 10
76.39085827083285
 20
-130.5108967772681
 30
0.0
 10
76.5200493515297
 20
-130.4127115559385
 30
0.0
 10
76.6330484834459
 20
-130.3500108181069
 30
0.0
 10
76.77188583150148
 20
-130.2731851887859
 30
0.0
 10
76.91899140872164
 20
-130.2421793294186
 30
0.0
 10
77.09055716388708
 20
-130.3551784613348
 30
0.0
 10
77.27073565776566
 20
-130.47541229377
 30
0.0
 10
77.40199379575367
 20
-130.6638590168132
 30
0.0
 10
77.48605412559377
 20
-130.8157877277127
 30
0.0
 10
77.56908092678829
 20
-130.9653048717726
 30
0.0
 10
77.66278752398708
 20
-131.177522753664
 30
0.0
 10
77.66692163856938
 20
-131.3952527883318
 30
0.0
  0
SPLINE
  5
C3
330
BC
100
AcDbEntity
  8
_U+30EC_U+30A4_U+30E4_U+30FC 1
370
     0
100
AcDbSpline
210
0.0
220
0.0
230
1.0
 70
    11
 71
     3
 72
    17
 73
    13
 74
     0
 42
0.0000000001
 43
0.0000000001
 12
1.0
 22
0.0
 32
0.0
 13
1.0
 23
0.0
 33
0.0
 40
0.0
 40
0.0
 40
0.0
 40
0.0
 40
1.0
 40
1.0
 40
1.0
 40
2.0
 40
2.0
 40
2.0
 40
3.0
 40
3.0
 40
3.0
 40
4.0
 40
4.0
 40
4.0
 40
4.0
 10
76.72641057109618
 20
-130.5184759873357
 30
0.0
 10
76.50799151733133
 20
-130.6393988388679
 30
0.0
 10
76.60479870046686
 20
-130.9101833440086
 30
0.0
 10
76.77188583150148
 20
-131.2112846894194
 30
0.0
 10
76.92691512833773
 20
-131.4910264428217
 30
0.0
 10
77.10812715086186
 20
-131.7435519418905
 30
0.0
 10
77.33550345288835
 20
-131.6174614471304
 30
0.0
 10
77.55185544936204
 20
-131.4975721242437
 30
0.0
 10
77.45814885216325
 20
-131.2278211477486
 30
0.0
 10
77.29002819248305
 20
-130.9243082354981
 30
0.0
 10
77.13534340519533
 20
-130.6449109916443
 30
0.0
 10
76.95206432538005
 20
-130.3934190212211
 30
0.0
 10
76.72641057109618
 20
-130.5184759873357
 30
0.0
  0
HATCH
  5
C4
330
BC
100
AcDbEntity
  8
_U+30EC_U+30A4_U+30E4_U+30FC 1
 62
   179
420
  2234388
100
AcDbHatch
 10
0.0
 20
0.0
 30
0.0
210
0.0
220
0.0
230
1.0
  2
SOLID
 70
     1
 71
     0
 91
        2
 92
        1
 93
        1
 72
     4
 94
        3
 73
     0
 74
     1
 95
       29
 96
       25
 40
0.0
 40
0.0
 40
0.0
 40
0.0
 40
1.0
 40
1.0
 40
1.0
 40
2.0
 40
2.0
 40
2.0
 40
3.0
 40
3.0
 40
3.0
 40
4.0
 40
4.0
 40
4.0
 40
5.0
 40
5.0
 40
5.0
 40
6.0
 40
6.0
 40
6.0
 40
7.0
 40
7.0
 40
7.0
 40
8.0
 40
8.0
 40
8.0
 40
8.0
 10
77.66692163856938
 20
-131.3952527883318
 10
77.67415633908841
 20
-131.6305528099743
 10
77.53187389554759
 20
-131.7314941076921
 10
77.4298990691842
 20
-131.7876491641017
 10
77.289339173386
 20
-131.8658528316169
 10
77.14257810571436
 20
-131.8937581050474
 10
76.97135686009744
 20
-131.7807589731312
 10
76.78635523253952
 20
-131.660525140696
 10
76.65475258500298
 20
-131.4627766598426
 10
76.57585989839076
 20
-131.3201497067533
 10
76.50592446004019
 20
-131.1944037215417
 10
76.39878199044892
 20
-130.9659938908696
 10
76.39499238541515
 20
-130.7406846461343
 10
76.39085827083285
 20
-130.5108967772681
 10
76.5200493515297
 20
-130.4127115559385
 10
76.6330484834459
 20
-130.3500108181069
 10
76.77188583150148
 20
-130.2731851887859
 10
76.91899140872164
 20
-130.2421793294186
 10
77.09055716388708
 20
-130.3551784613348
 10
77.27073565776566
 20
-130.47541229377
 10
77.40199379575367
 20
-130.6638590168132
 10
77.48605412559377
 20
-130.8157877277127
 10
77.56908092678829
 20
-130.9653048717726
 10
77.66278752398708
 20
-131.177522753664
 10
77.66692163856938
 20
-131.3952527883318
 97
        0
 97
        0
 92
        1
 93
        1
 72
     4
 94
        3
 73
     0
 74
     1
 95
       17
 96
       13
 40
0.0
 40
0.0
 40
0.0
 40
0.0
 40
1.0
 40
1.0
 40
1.0
 40
2.0
 40
2.0
 40
2.0
 40
3.0
 40
3.0
 40
3.0
 40
4.0
 40
4.0
 40
4.0
 40
4.0
 10
76.72641057109618
 20
-130.5184759873357
 10
76.50799151733133
 20
-130.6393988388679
 10
76.60479870046686
 20
-130.9101833440086
 10
76.77188583150148
 20
-131.2112846894194
 10
76.92691512833773
 20
-131.4910264428217
 10
77.10812715086186
 20
-131.7435519418905
 10
77.33550345288835
 20
-131.6174614471304
 10
77.55185544936204
 20
-131.4975721242437
 10
77.45814885216325
 20
-131.2278211477486
 10
77.29002819248305
 20
-130.9243082354981
 10
77.13534340519533
 20
-130.6449109916443
 10
76.95206432538005
 20
-130.3934190212211
 10
76.72641057109618
 20
-130.5184759873357
 97
        0
 97
        0
 75
     2
 76
     1
 98
        0
  0
POLYLINE
  5
C5
330
BC
100
AcDbEntity
  8
_U+30EC_U+30A4_U+30E4_U+30FC 1
370
     0
100
AcDb2dPolyline
 66
     1
 10
0.0
 20
0.0
 30
0.0
  0
VERTEX
  5
C6
330
C5
100
AcDbEntity
  8
_U+30EC_U+30A4_U+30E4_U+30FC 1
370
     0
100
AcDbVertex
100
AcDb2dVertex
 10
79.17105032742947
 20
-130.7644558049825
 30
0.0
  0
VERTEX
  5
C7
330
C5
100
AcDbEntity
  8
_U+30EC_U+30A4_U+30E4_U+30FC 1
370
     0
100
AcDbVertex
100
AcDb2dVertex
 10
78.65290796644788
 20
-129.8301459093827
 30
0.0
  0
VERTEX
  5
C8
330
C5
100
AcDbEntity
  8
_U+30EC_U+30A4_U+30E4_U+30FC 1
370
     0
100
AcDbVertex
100
AcDb2dVertex
 10
78.57952743261207
 20
-129.6844183703567
 30
0.0
  0
VERTEX
  5
C9
330
C5
100
AcDbEntity
  8
_U+30EC_U+30A4_U+30E4_U+30FC 1
370
     0
100
AcDbVertex
100
AcDb2dVertex
 10
78.62293563572621
 20
-129.8373806099018
 30
0.0
  0
VERTEX
  5
CA
330
C5
100
AcDbEntity
  8
_U+30EC_U+30A4_U+30E4_U+30FC 1
370
     0
100
AcDbVertex
100
AcDb2dVertex
 10
78.8434217467822
 20
-130.9460123370552
 30
0.0
  0
VERTEX
  5
CB
330
C5
100
AcDbEntity
  8
_U+30EC_U+30A4_U+30E4_U+30FC 1
370
     0
100
AcDbVertex
100
AcDb2dVertex
 10
78.60674368694553
 20
-131.0776149845917
 30
0.0
  0
VERTEX
  5
CC
330
C5
100
AcDbEntity
  8
_U+30EC_U+30A4_U+30E4_U+30FC 1
370
     0
100
AcDbVertex
100
AcDb2dVertex
 10
77.78508841371345
 20
-130.3017794813134
 30
0.0
  0
VERTEX
  5
CD
330
C5
100
AcDbEntity
  8
_U+30EC_U+30A4_U+30E4_U+30FC 1
370
     0
100
AcDbVertex
100
AcDb2dVertex
 10
77.67863496321924
 20
-130.1839572157179
 30
0.0
  0
VERTEX
  5
CE
330
C5
100
AcDbEntity
  8
_U+30EC_U+30A4_U+30E4_U+30FC 1
370
     0
100
AcDbVertex
100
AcDb2dVertex
 10
77.76131725486523
 20
-130.3245171115161
 30
0.0
  0
VERTEX
  5
CF
330
C5
100
AcDbEntity
  8
_U+30EC_U+30A4_U+30E4_U+30FC 1
370
     0
100
AcDbVertex
100
AcDb2dVertex
 10
78.2794596158468
 20
-131.2588270071159
 30
0.0
  0
VERTEX
  5
D0
330
C5
100
AcDbEntity
  8
_U+30EC_U+30A4_U+30E4_U+30FC 1
370
     0
100
AcDbVertex
100
AcDb2dVertex
 10
78.08860132596396
 20
-131.364591438513
 30
0.0
  0
VERTEX
  5
D1
330
C5
100
AcDbEntity
  8
_U+30EC_U+30A4_U+30E4_U+30FC 1
370
     0
100
AcDbVertex
100
AcDb2dVertex
 10
77.33998207701917
 20
-130.0137694987466
 30
0.0
  0
VERTEX
  5
D2
330
C5
100
AcDbEntity
  8
_U+30EC_U+30A4_U+30E4_U+30FC 1
370
     0
100
AcDbVertex
100
AcDb2dVertex
 10
77.61937932087294
 20
-129.8590847114588
 30
0.0
  0
VERTEX
  5
D3
330
C5
100
AcDbEntity
  8
_U+30EC_U+30A4_U+30E4_U+30FC 1
370
     0
100
AcDbVertex
100
AcDb2dVertex
 10
78.4999457269028
 20
-130.6841850801762
 30
0.0
  0
VERTEX
  5
D4
330
C5
100
AcDbEntity
  8
_U+30EC_U+30A4_U+30E4_U+30FC 1
370
     0
100
AcDbVertex
100
AcDb2dVertex
 10
78.6019205532662
 20
-130.7896050020248
 30
0.0
  0
VERTEX
  5
D5
330
C5
100
AcDbEntity
  8
_U+30EC_U+30A4_U+30E4_U+30FC 1
370
     0
100
AcDbVertex
100
AcDb2dVertex
 10
78.56643606976812
 20
-130.647322558484
 30
0.0
  0
VERTEX
  5
D6
330
C5
100
AcDbEntity
  8
_U+30EC_U+30A4_U+30E4_U+30FC 1
370
     0
100
AcDbVertex
100
AcDb2dVertex
 10
78.33527016270786
 20
-129.4622097115581
 30
0.0
  0
VERTEX
  5
D7
330
C5
100
AcDbEntity
  8
_U+30EC_U+30A4_U+30E4_U+30FC 1
370
     0
100
AcDbVertex
100
AcDb2dVertex
 10
78.61294485881899
 20
-129.3082139433674
 30
0.0
  0
VERTEX
  5
D8
330
C5
100
AcDbEntity
  8
_U+30EC_U+30A4_U+30E4_U+30FC 1
370
     0
100
AcDbVertex
100
AcDb2dVertex
 10
79.36156410776378
 20
-130.6590358831339
 30
0.0
  0
VERTEX
  5
D9
330
C5
100
AcDbEntity
  8
_U+30EC_U+30A4_U+30E4_U+30FC 1
370
     0
100
AcDbVertex
100
AcDb2dVertex
 10
79.17105032742947
 20
-130.7644558049825
 30
0.0
  0
SEQEND
  5
DA
330
C5
100
AcDbEntity
  8
_U+30EC_U+30A4_U+30E4_U+30FC 1
370
     0
  0
HATCH
  5
DB
330
BC
100
AcDbEntity
  8
_U+30EC_U+30A4_U+30E4_U+30FC 1
 62
   179
420
  2234388
100
AcDbHatch
 10
0.0
 20
0.0
 30
0.0
210
0.0
220
0.0
230
1.0
  2
SOLID
 70
     1
 71
     0
 91
        1
 92
        1
 93
       19
 72
     1
 10
79.17105032742947
 20
-130.7644558049825
 11
78.65290796644788
 21
-129.8301459093827
 72
     1
 10
78.65290796644788
 20
-129.8301459093827
 11
78.57952743261207
 21
-129.6844183703567
 72
     1
 10
78.57952743261207
 20
-129.6844183703567
 11
78.62293563572621
 21
-129.8373806099018
 72
     1
 10
78.62293563572621
 20
-129.8373806099018
 11
78.8434217467822
 21
-130.9460123370552
 72
     1
 10
78.8434217467822
 20
-130.9460123370552
 11
78.60674368694553
 21
-131.0776149845917
 72
     1
 10
78.60674368694553
 20
-131.0776149845917
 11
77.78508841371345
 21
-130.3017794813134
 72
     1
 10
77.78508841371345
 20
-130.3017794813134
 11
77.67863496321924
 21
-130.1839572157179
 72
     1
 10
77.67863496321924
 20
-130.1839572157179
 11
77.76131725486523
 21
-130.3245171115161
 72
     1
 10
77.76131725486523
 20
-130.3245171115161
 11
78.2794596158468
 21
-131.2588270071159
 72
     1
 10
78.2794596158468
 20
-131.2588270071159
 11
78.08860132596396
 21
-131.364591438513
 72
     1
 10
78.08860132596396
 20
-131.364591438513
 11
77.33998207701917
 21
-130.0137694987466
 72
     1
 10
77.33998207701917
 20
-130.0137694987466
 11
77.61937932087294
 21
-129.8590847114588
 72
     1
 10
77.61937932087294
 20
-129.8590847114588
 11
78.4999457269028
 21
-130.6841850801762
 72
     1
 10
78.4999457269028
 20
-130.6841850801762
 11
78.6019205532662
 21
-130.7896050020248
 72
     1
 10
78.6019205532662
 20
-130.7896050020248
 11
78.56643606976812
 21
-130.647322558484
 72
     1
 10
78.56643606976812
 20
-130.647322558484
 11
78.33527016270786
 21
-129.4622097115581
 72
     1
 10
78.33527016270786
 20
-129.4622097115581
 11
78.61294485881899
 21
-129.3082139433674
 72
     1
 10
78.61294485881899
 20
-129.3082139433674
 11
79.36156410776378
 21
-130.6590358831339
 72
     1
 10
79.36156410776378
 20
-130.6590358831339
 11
79.17105032742947
 21
-130.7644558049825
 97
        0
 75
     2
 76
     1
 98
        0
  0
SPLINE
  5
DC
330
BC
100
AcDbEntity
  8
_U+30EC_U+30A4_U+30E4_U+30FC 1
370
     0
100
AcDbSpline
210
0.0
220
0.0
230
1.0
 70
    11
 71
     3
 72
    44
 73
    40
 74
     0
 42
0.0000000001
 43
0.0000000001
 12
1.0
 22
0.0
 32
0.0
 13
1.0
 23
0.0
 33
0.0
 40
0.0
 40
0.0
 40
0.0
 40
0.0
 40
1.0
 40
1.0
 40
1.0
 40
2.0
 40
2.0
 40
2.0
 40
3.0
 40
3.0
 40
3.0
 40
4.0
 40
4.0
 40
4.0
 40
5.0
 40
5.0
 40
5.0
 40
6.0
 40
6.0
 40
6.0
 40
7.0
 40
7.0
 40
7.0
 40
8.0
 40
8.0
 40
8.0
 40
9.0
 40
9.0
 40
9.0
 40
10.0
 40
10.0
 40
10.0
 40
11.0
 40
11.0
 40
11.0
 40
12.0
 40
12.0
 40
12.0
 40
13.0
 40
13.0
 40
13.0
 40
13.0
 10
80.49500052241098
 20
-130.0306504666243
 30
0.0
 10
80.45297035749093
 20
-130.0030897027423
 30
0.0
 10
80.40887313527973
 20
-129.9669162001472
 30
0.0
 10
80.29518498426648
 20
-129.7664116429056
 30
0.0
 10
80.17357311363716
 20
-129.5555717992083
 30
0.0
 10
80.08813474560297
 20
-129.5235324111955
 30
0.0
 10
79.93241642966967
 20
-129.6096597983268
 30
0.0
 10
79.93241642966967
 20
-129.6096597983268
 30
0.0
 10
79.57550453739779
 20
-129.8077527887286
 30
0.0
 10
79.57550453739779
 20
-129.8077527887286
 30
0.0
 10
79.57550453739779
 20
-129.8077527887286
 30
0.0
 10
79.88625215016732
 20
-130.3682698241788
 30
0.0
 10
79.88625215016732
 20
-130.3682698241788
 30
0.0
 10
79.88625215016732
 20
-130.3682698241788
 30
0.0
 10
79.68092445924644
 20
-130.481957975192
 30
0.0
 10
79.68092445924644
 20
-130.481957975192
 30
0.0
 10
79.68092445924644
 20
-130.481957975192
 30
0.0
 10
78.93196070075312
 20
-129.1311360354256
 30
0.0
 10
78.93196070075312
 20
-129.1311360354256
 30
0.0
 10
78.93196070075312
 20
-129.1311360354256
 30
0.0
 10
79.52210555737642
 20
-128.8041964738754
 30
0.0
 10
79.52210555737642
 20
-128.8041964738754
 30
0.0
 10
79.79047849567739
 20
-128.6553683489126
 30
0.0
 10
80.01992185499502
 20
-128.7242702586175
 30
0.0
 10
80.14394529246401
 20
-128.9482014651588
 30
0.0
 10
80.16874997995781
 20
-128.9926431969185
 30
0.0
 10
80.20113387751917
 20
-129.0687798071425
 30
0.0
 10
80.20113387751917
 20
-129.1607638565987
 30
0.0
 10
80.19975583932506
 20
-129.2799641603883
 30
0.0
 10
80.15152450253157
 20
-129.3281954971818
 30
0.0
 10
80.10604924212628
 20
-129.3729817384901
 30
0.0
 10
80.24695364747299
 20
-129.3433539173169
 30
0.0
 10
80.32963593911899
 20
-129.3533446942242
 30
0.0
 10
80.48638778369785
 20
-129.6265407662045
 30
0.0
 10
80.62109101717112
 20
-129.8614962782985
 30
0.0
 10
80.66828882531904
 20
-129.8718315647543
 30
0.0
 10
80.75372719335324
 20
-129.8869899848894
 30
0.0
 10
80.75372719335324
 20
-129.8869899848894
 30
0.0
 10
80.49500052241098
 20
-130.0306504666243
 30
0.0
 10
80.49500052241098
 20
-130.0306504666243
 30
0.0
  0
SPLINE
  5
DD
330
BC
100
AcDbEntity
  8
_U+30EC_U+30A4_U+30E4_U+30FC 1
370
     0
100
AcDbSpline
210
0.0
220
0.0
230
1.0
 70
    11
 71
     3
 72
    20
 73
    16
 74
     0
 42
0.0000000001
 43
0.0000000001
 12
1.0
 22
0.0
 32
0.0
 13
1.0
 23
0.0
 33
0.0
 40
0.0
 40
0.0
 40
0.0
 40
0.0
 40
1.0
 40
1.0
 40
1.0
 40
2.0
 40
2.0
 40
2.0
 40
3.0
 40
3.0
 40
3.0
 40
4.0
 40
4.0
 40
4.0
 40
5.0
 40
5.0
 40
5.0
 40
5.0
 10
79.62855900787063
 20
-128.9871310441421
 30
0.0
 10
79.62855900787063
 20
-128.9871310441421
 30
0.0
 10
79.23995223713446
 20
-129.2024495119702
 30
0.0
 10
79.23995223713446
 20
-129.2024495119702
 30
0.0
 10
79.23995223713446
 20
-129.2024495119702
 30
0.0
 10
79.47284069193735
 20
-129.6227511611707
 30
0.0
 10
79.47284069193735
 20
-129.6227511611707
 30
0.0
 10
79.47284069193735
 20
-129.6227511611707
 30
0.0
 10
79.85972491493091
 20
-129.4081217124397
 30
0.0
 10
79.85972491493091
 20
-129.4081217124397
 30
0.0
 10
79.9465413211592
 20
-129.3598903756461
 30
0.0
 10
80.02819008415962
 20
-129.2275987090125
 30
0.0
 10
79.94481877341657
 20
-129.0780815649527
 30
0.0
 10
79.90692272307882
 20
-129.0091796552477
 30
0.0
 10
79.80253632987576
 20
-128.8906683705551
 30
0.0
 10
79.62855900787063
 20
-128.9871310441421
 30
0.0
  0
HATCH
  5
DE
330
BC
100
AcDbEntity
  8
_U+30EC_U+30A4_U+30E4_U+30FC 1
 62
   179
420
  2234388
100
AcDbHatch
 10
0.0
 20
0.0
 30
0.0
210
0.0
220
0.0
230
1.0
  2
SOLID
 70
     1
 71
     0
 91
        2
 92
        1
 93
        1
 72
     4
 94
        3
 73
     0
 74
     1
 95
       44
 96
       40
 40
0.0
 40
0.0
 40
0.0
 40
0.0
 40
1.0
 40
1.0
 40
1.0
 40
2.0
 40
2.0
 40
2.0
 40
3.0
 40
3.0
 40
3.0
 40
4.0
 40
4.0
 40
4.0
 40
5.0
 40
5.0
 40
5.0
 40
6.0
 40
6.0
 40
6.0
 40
7.0
 40
7.0
 40
7.0
 40
8.0
 40
8.0
 40
8.0
 40
9.0
 40
9.0
 40
9.0
 40
10.0
 40
10.0
 40
10.0
 40
11.0
 40
11.0
 40
11.0
 40
12.0
 40
12.0
 40
12.0
 40
13.0
 40
13.0
 40
13.0
 40
13.0
 10
80.49500052241098
 20
-130.0306504666243
 10
80.45297035749093
 20
-130.0030897027423
 10
80.40887313527973
 20
-129.9669162001472
 10
80.29518498426648
 20
-129.7664116429056
 10
80.17357311363716
 20
-129.5555717992083
 10
80.08813474560297
 20
-129.5235324111955
 10
79.93241642966967
 20
-129.6096597983268
 10
79.93241642966967
 20
-129.6096597983268
 10
79.57550453739779
 20
-129.8077527887286
 10
79.57550453739779
 20
-129.8077527887286
 10
79.57550453739779
 20
-129.8077527887286
 10
79.88625215016732
 20
-130.3682698241788
 10
79.88625215016732
 20
-130.3682698241788
 10
79.88625215016732
 20
-130.3682698241788
 10
79.68092445924644
 20
-130.481957975192
 10
79.68092445924644
 20
-130.481957975192
 10
79.68092445924644
 20
-130.481957975192
 10
78.93196070075312
 20
-129.1311360354256
 10
78.93196070075312
 20
-129.1311360354256
 10
78.93196070075312
 20
-129.1311360354256
 10
79.52210555737642
 20
-128.8041964738754
 10
79.52210555737642
 20
-128.8041964738754
 10
79.79047849567739
 20
-128.6553683489126
 10
80.01992185499502
 20
-128.7242702586175
 10
80.14394529246401
 20
-128.9482014651588
 10
80.16874997995781
 20
-128.9926431969185
 10
80.20113387751917
 20
-129.0687798071425
 10
80.20113387751917
 20
-129.1607638565987
 10
80.19975583932506
 20
-129.2799641603883
 10
80.15152450253157
 20
-129.3281954971818
 10
80.10604924212628
 20
-129.3729817384901
 10
80.24695364747299
 20
-129.3433539173169
 10
80.32963593911899
 20
-129.3533446942242
 10
80.48638778369785
 20
-129.6265407662045
 10
80.62109101717112
 20
-129.8614962782985
 10
80.66828882531904
 20
-129.8718315647543
 10
80.75372719335324
 20
-129.8869899848894
 10
80.75372719335324
 20
-129.8869899848894
 10
80.49500052241098
 20
-130.0306504666243
 10
80.49500052241098
 20
-130.0306504666243
 97
        0
 97
        0
 92
        1
 93
        1
 72
     4
 94
        3
 73
     0
 74
     1
 95
       20
 96
       16
 40
0.0
 40
0.0
 40
0.0
 40
0.0
 40
1.0
 40
1.0
 40
1.0
 40
2.0
 40
2.0
 40
2.0
 40
3.0
 40
3.0
 40
3.0
 40
4.0
 40
4.0
 40
4.0
 40
5.0
 40
5.0
 40
5.0
 40
5.0
 10
79.62855900787063
 20
-128.9871310441421
 10
79.62855900787063
 20
-128.9871310441421
 10
79.23995223713446
 20
-129.2024495119702
 10
79.23995223713446
 20
-129.2024495119702
 10
79.23995223713446
 20
-129.2024495119702
 10
79.47284069193735
 20
-129.6227511611707
 10
79.47284069193735
 20
-129.6227511611707
 10
79.47284069193735
 20
-129.6227511611707
 10
79.85972491493091
 20
-129.4081217124397
 10
79.85972491493091
 20
-129.4081217124397
 10
79.9465413211592
 20
-129.3598903756461
 10
80.02819008415962
 20
-129.2275987090125
 10
79.94481877341657
 20
-129.0780815649527
 10
79.90692272307882
 20
-129.0091796552477
 10
79.80253632987576
 20
-128.8906683705551
 10
79.62855900787063
 20
-128.9871310441421
 97
        0
 97
        0
 75
     2
 76
     1
 98
        0
  0
ENDBLK
  5
BF
330
BC
100
AcDbEntity
  8
0
100
AcDbBlockEnd
  0
BLOCK
  5
E1
330
DF
100
AcDbEntity
  8
0
100
AcDbBlockBegin
  2
block 5
 70
     0
 10
0.0
 20
0.0
 30
0.0
  3
block 5
  1

  0
SPLINE
  5
E3
330
DF
100
AcDbEntity
  8
_U+30EC_U+30A4_U+30E4_U+30FC 1
370
     0
100
AcDbSpline
210
0.0
220
0.0
230
1.0
 70
    11
 71
     3
 72
    44
 73
    40
 74
     0
 42
0.0000000001
 43
0.0000000001
 12
1.0
 22
0.0
 32
0.0
 13
1.0
 23
0.0
 33
0.0
 40
0.0
 40
0.0
 40
0.0
 40
0.0
 40
1.0
 40
1.0
 40
1.0
 40
2.0
 40
2.0
 40
2.0
 40
3.0
 40
3.0
 40
3.0
 40
4.0
 40
4.0
 40
4.0
 40
5.0
 40
5.0
 40
5.0
 40
6.0
 40
6.0
 40
6.0
 40
7.0
 40
7.0
 40
7.0
 40
8.0
 40
8.0
 40
8.0
 40
9.0
 40
9.0
 40
9.0
 40
10.0
 40
10.0
 40
10.0
 40
11.0
 40
11.0
 40
11.0
 40
12.0
 40
12.0
 40
12.0
 40
13.0
 40
13.0
 40
13.0
 40
13.0
 10
87.87921818549547
 20
-140.9836425428791
 30
0.0
 10
87.78275551190848
 20
-141.2351345133023
 30
0.0
 10
87.74520397111925
 20
-141.3481336452185
 30
0.0
 10
87.78241100235995
 20
-141.4948947128902
 30
0.0
 10
87.78241100235995
 20
-141.4948947128902
 30
0.0
 10
88.43560110636332
 20
-141.0711479682044
 30
0.0
 10
88.43560110636332
 20
-141.0711479682044
 30
0.0
 10
88.43560110636332
 20
-141.0711479682044
 30
0.0
 10
88.54722220008541
 20
-141.2434027424669
 30
0.0
 10
88.54722220008541
 20
-141.2434027424669
 30
0.0
 10
88.54722220008541
 20
-141.2434027424669
 30
0.0
 10
87.68525930967591
 20
-141.80323075882
 30
0.0
 10
87.68525930967591
 20
-141.80323075882
 30
0.0
 10
87.51679414044719
 20
-141.4859374646285
 30
0.0
 10
87.52919648419409
 20
-141.3846516573622
 30
0.0
 10
87.68973793380674
 20
-140.9247314100813
 30
0.0
 10
87.79619138430095
 20
-140.6184624214426
 30
0.0
 10
87.81410588082426
 20
-140.5261338624379
 30
0.0
 10
87.73934730879434
 20
-140.4110676732306
 30
0.0
 10
87.67492402322016
 20
-140.3115044137068
 30
0.0
 10
87.54297686613509
 20
-140.2405354467107
 30
0.0
 10
87.37795679239163
 20
-140.347677916302
 30
0.0
 10
87.15953773862678
 20
-140.4896158502943
 30
0.0
 10
87.27804902331938
 20
-140.6873643311476
 30
0.0
 10
87.33799368476272
 20
-140.7876166097684
 30
0.0
 10
87.33799368476272
 20
-140.7876166097684
 30
0.0
 10
87.14989147126809
 20
-140.9095729899462
 30
0.0
 10
87.14989147126809
 20
-140.9095729899462
 30
0.0
 10
87.0878797525336
 20
-140.7982964057726
 30
0.0
 10
87.03551430115779
 20
-140.6983886367004
 30
0.0
 10
87.03895939664304
 20
-140.5554171740625
 30
0.0
 10
87.04343802077386
 20
-140.3607692791459
 30
0.0
 10
87.18089733063533
 20
-140.2312336889005
 30
0.0
 10
87.27873804241644
 20
-140.1678439319719
 30
0.0
 10
87.51093747812227
 20
-140.0166042401695
 30
0.0
 10
87.78516707874816
 20
-140.058289895541
 30
0.0
 10
87.93399520371095
 20
-140.2870442357616
 30
0.0
 10
88.05801864117994
 20
-140.4785915447415
 30
0.0
 10
88.01495494761433
 20
-140.6253526124131
 30
0.0
 10
87.87921818549547
 20
-140.9836425428791
 30
0.0
  0
HATCH
  5
E4
330
DF
100
AcDbEntity
  8
_U+30EC_U+30A4_U+30E4_U+30FC 1
 62
   179
420
  2234388
100
AcDbHatch
 10
0.0
 20
0.0
 30
0.0
210
0.0
220
0.0
230
1.0
  2
SOLID
 70
     1
 71
     0
 91
        1
 92
        1
 93
        1
 72
     4
 94
        3
 73
     0
 74
     1
 95
       44
 96
       40
 40
0.0
 40
0.0
 40
0.0
 40
0.0
 40
1.0
 40
1.0
 40
1.0
 40
2.0
 40
2.0
 40
2.0
 40
3.0
 40
3.0
 40
3.0
 40
4.0
 40
4.0
 40
4.0
 40
5.0
 40
5.0
 40
5.0
 40
6.0
 40
6.0
 40
6.0
 40
7.0
 40
7.0
 40
7.0
 40
8.0
 40
8.0
 40
8.0
 40
9.0
 40
9.0
 40
9.0
 40
10.0
 40
10.0
 40
10.0
 40
11.0
 40
11.0
 40
11.0
 40
12.0
 40
12.0
 40
12.0
 40
13.0
 40
13.0
 40
13.0
 40
13.0
 10
87.87921818549547
 20
-140.9836425428791
 10
87.78275551190848
 20
-141.2351345133023
 10
87.74520397111925
 20
-141.3481336452185
 10
87.78241100235995
 20
-141.4948947128902
 10
87.78241100235995
 20
-141.4948947128902
 10
88.43560110636332
 20
-141.0711479682044
 10
88.43560110636332
 20
-141.0711479682044
 10
88.43560110636332
 20
-141.0711479682044
 10
88.54722220008541
 20
-141.2434027424669
 10
88.54722220008541
 20
-141.2434027424669
 10
88.54722220008541
 20
-141.2434027424669
 10
87.68525930967591
 20
-141.80323075882
 10
87.68525930967591
 20
-141.80323075882
 10
87.51679414044719
 20
-141.4859374646285
 10
87.52919648419409
 20
-141.3846516573622
 10
87.68973793380674
 20
-140.9247314100813
 10
87.79619138430095
 20
-140.6184624214426
 10
87.81410588082426
 20
-140.5261338624379
 10
87.73934730879434
 20
-140.4110676732306
 10
87.67492402322016
 20
-140.3115044137068
 10
87.54297686613509
 20
-140.2405354467107
 10
87.37795679239163
 20
-140.347677916302
 10
87.15953773862678
 20
-140.4896158502943
 10
87.27804902331938
 20
-140.6873643311476
 10
87.33799368476272
 20
-140.7876166097684
 10
87.33799368476272
 20
-140.7876166097684
 10
87.14989147126809
 20
-140.9095729899462
 10
87.14989147126809
 20
-140.9095729899462
 10
87.0878797525336
 20
-140.7982964057726
 10
87.03551430115779
 20
-140.6983886367004
 10
87.03895939664304
 20
-140.5554171740625
 10
87.04343802077386
 20
-140.3607692791459
 10
87.18089733063533
 20
-140.2312336889005
 10
87.27873804241644
 20
-140.1678439319719
 10
87.51093747812227
 20
-140.0166042401695
 10
87.78516707874816
 20
-140.058289895541
 10
87.93399520371095
 20
-140.2870442357616
 10
88.05801864117994
 20
-140.4785915447415
 10
88.01495494761433
 20
-140.6253526124131
 10
87.87921818549547
 20
-140.9836425428791
 97
        0
 97
        0
 75
     2
 76
     1
 98
        0
  0
SPLINE
  5
E5
330
DF
100
AcDbEntity
  8
_U+30EC_U+30A4_U+30E4_U+30FC 1
370
     0
100
AcDbSpline
210
0.0
220
0.0
230
1.0
 70
    11
 71
     3
 72
    29
 73
    25
 74
     0
 42
0.0000000001
 43
0.0000000001
 12
1.0
 22
0.0
 32
0.0
 13
1.0
 23
0.0
 33
0.0
 40
0.0
 40
0.0
 40
0.0
 40
0.0
 40
1.0
 40
1.0
 40
1.0
 40
2.0
 40
2.0
 40
2.0
 40
3.0
 40
3.0
 40
3.0
 40
4.0
 40
4.0
 40
4.0
 40
5.0
 40
5.0
 40
5.0
 40
6.0
 40
6.0
 40
6.0
 40
7.0
 40
7.0
 40
7.0
 40
8.0
 40
8.0
 40
8.0
 40
8.0
 10
89.34166121898403
 20
-140.5151095568851
 30
0.0
 10
89.36508786828374
 20
-140.7497205594306
 30
0.0
 10
89.23004012526194
 20
-140.8603081245072
 30
0.0
 10
89.13254392302937
 20
-140.9236978814357
 30
0.0
 10
88.9978406895561
 20
-141.0112033067611
 30
0.0
 10
88.85349118872413
 20
-141.0494438666474
 30
0.0
 10
88.67469073303967
 20
-140.9485025689295
 30
0.0
 10
88.48176538586567
 20
-140.8417046088868
 30
0.0
 10
88.33672686593665
 20
-140.6536023953922
 30
0.0
 10
88.2478434024172
 20
-140.5168321046278
 30
0.0
 10
88.16963973490203
 20
-140.396253762644
 30
0.0
 10
88.04664982607862
 20
-140.1761121611365
 30
0.0
 10
88.0270127818127
 20
-139.9514919354982
 30
0.0
 10
88.00703122799824
 20
-139.7223930857291
 30
0.0
 10
88.12898760817609
 20
-139.6152506161379
 30
0.0
 10
88.23716360641293
 20
-139.5449706682388
 30
0.0
 10
88.37014429214358
 20
-139.4588432811075
 30
0.0
 10
88.5151828120726
 20
-139.4175021352845
 30
0.0
 10
88.69398326775706
 20
-139.5180989234538
 30
0.0
 10
88.88242999080023
 20
-139.6255859025936
 30
0.0
 10
89.02609047253515
 20
-139.8047308678266
 30
0.0
 10
89.12048608883099
 20
-139.9501138973041
 30
0.0
 10
89.21419268602979
 20
-140.0937743790391
 30
0.0
 10
89.32202417471811
 20
-140.2987575604114
 30
0.0
 10
89.34166121898403
 20
-140.5151095568851
 30
0.0
  0
SPLINE
  5
E6
330
DF
100
AcDbEntity
  8
_U+30EC_U+30A4_U+30E4_U+30FC 1
370
     0
100
AcDbSpline
210
0.0
220
0.0
230
1.0
 70
    11
 71
     3
 72
    17
 73
    13
 74
     0
 42
0.0000000001
 43
0.0000000001
 12
1.0
 22
0.0
 32
0.0
 13
1.0
 23
0.0
 33
0.0
 40
0.0
 40
0.0
 40
0.0
 40
0.0
 40
1.0
 40
1.0
 40
1.0
 40
2.0
 40
2.0
 40
2.0
 40
3.0
 40
3.0
 40
3.0
 40
4.0
 40
4.0
 40
4.0
 40
4.0
 10
88.34189450916453
 20
-139.706545646497
 30
0.0
 10
88.13277721320986
 20
-139.8426269181643
 30
0.0
 10
88.24818791196573
 20
-140.1058322132374
 30
0.0
 10
88.43560110636332
 20
-140.3945312149014
 30
0.0
 10
88.60992293791696
 20
-140.6625596436538
 30
0.0
 10
88.80836043786736
 20
-140.9023382894272
 30
0.0
 10
89.02643498208367
 20
-140.7604003554349
 30
0.0
 10
89.23417423984424
 20
-140.6256971219617
 30
0.0
 10
89.12186412702509
 20
-140.3628363364371
 30
0.0
 10
88.93272838488488
 20
-140.072070277482
 30
0.0
 10
88.75875106287977
 20
-139.8040418487296
 30
0.0
 10
88.55859101518675
 20
-139.5656412411503
 30
0.0
 10
88.34189450916453
 20
-139.706545646497
 30
0.0
  0
HATCH
  5
E7
330
DF
100
AcDbEntity
  8
_U+30EC_U+30A4_U+30E4_U+30FC 1
 62
   179
420
  2234388
100
AcDbHatch
 10
0.0
 20
0.0
 30
0.0
210
0.0
220
0.0
230
1.0
  2
SOLID
 70
     1
 71
     0
 91
        2
 92
        1
 93
        1
 72
     4
 94
        3
 73
     0
 74
     1
 95
       29
 96
       25
 40
0.0
 40
0.0
 40
0.0
 40
0.0
 40
1.0
 40
1.0
 40
1.0
 40
2.0
 40
2.0
 40
2.0
 40
3.0
 40
3.0
 40
3.0
 40
4.0
 40
4.0
 40
4.0
 40
5.0
 40
5.0
 40
5.0
 40
6.0
 40
6.0
 40
6.0
 40
7.0
 40
7.0
 40
7.0
 40
8.0
 40
8.0
 40
8.0
 40
8.0
 10
89.34166121898403
 20
-140.5151095568851
 10
89.36508786828374
 20
-140.7497205594306
 10
89.23004012526194
 20
-140.8603081245072
 10
89.13254392302937
 20
-140.9236978814357
 10
88.9978406895561
 20
-141.0112033067611
 10
88.85349118872413
 20
-141.0494438666474
 10
88.67469073303967
 20
-140.9485025689295
 10
88.48176538586567
 20
-140.8417046088868
 10
88.33672686593665
 20
-140.6536023953922
 10
88.2478434024172
 20
-140.5168321046278
 10
88.16963973490203
 20
-140.396253762644
 10
88.04664982607862
 20
-140.1761121611365
 10
88.0270127818127
 20
-139.9514919354982
 10
88.00703122799824
 20
-139.7223930857291
 10
88.12898760817609
 20
-139.6152506161379
 10
88.23716360641293
 20
-139.5449706682388
 10
88.37014429214358
 20
-139.4588432811075
 10
88.5151828120726
 20
-139.4175021352845
 10
88.69398326775706
 20
-139.5180989234538
 10
88.88242999080023
 20
-139.6255859025936
 10
89.02609047253515
 20
-139.8047308678266
 10
89.12048608883099
 20
-139.9501138973041
 10
89.21419268602979
 20
-140.0937743790391
 10
89.32202417471811
 20
-140.2987575604114
 10
89.34166121898403
 20
-140.5151095568851
 97
        0
 97
        0
 92
        1
 93
        1
 72
     4
 94
        3
 73
     0
 74
     1
 95
       17
 96
       13
 40
0.0
 40
0.0
 40
0.0
 40
0.0
 40
1.0
 40
1.0
 40
1.0
 40
2.0
 40
2.0
 40
2.0
 40
3.0
 40
3.0
 40
3.0
 40
4.0
 40
4.0
 40
4.0
 40
4.0
 10
88.34189450916453
 20
-139.706545646497
 10
88.13277721320986
 20
-139.8426269181643
 10
88.24818791196573
 20
-140.1058322132374
 10
88.43560110636332
 20
-140.3945312149014
 10
88.60992293791696
 20
-140.6625596436538
 10
88.80836043786736
 20
-140.9023382894272
 10
89.02643498208367
 20
-140.7604003554349
 10
89.23417423984424
 20
-140.6256971219617
 10
89.12186412702509
 20
-140.3628363364371
 10
88.93272838488488
 20
-140.072070277482
 10
88.75875106287977
 20
-139.8040418487296
 10
88.55859101518675
 20
-139.5656412411503
 10
88.34189450916453
 20
-139.706545646497
 97
        0
 97
        0
 75
     2
 76
     1
 98
        0
  0
SPLINE
  5
E8
330
DF
100
AcDbEntity
  8
_U+30EC_U+30A4_U+30E4_U+30FC 1
370
     0
100
AcDbSpline
210
0.0
220
0.0
230
1.0
 70
    11
 71
     3
 72
    29
 73
    25
 74
     0
 42
0.0000000001
 43
0.0000000001
 12
1.0
 22
0.0
 32
0.0
 13
1.0
 23
0.0
 33
0.0
 40
0.0
 40
0.0
 40
0.0
 40
0.0
 40
1.0
 40
1.0
 40
1.0
 40
2.0
 40
2.0
 40
2.0
 40
3.0
 40
3.0
 40
3.0
 40
4.0
 40
4.0
 40
4.0
 40
5.0
 40
5.0
 40
5.0
 40
6.0
 40
6.0
 40
6.0
 40
7.0
 40
7.0
 40
7.0
 40
8.0
 40
8.0
 40
8.0
 40
8.0
 10
90.32868107550811
 20
-139.8743217966286
 30
0.0
 10
90.35245223435633
 20
-140.1085882896256
 30
0.0
 10
90.21740449133455
 20
-140.2195203642507
 30
0.0
 10
90.11956377955345
 20
-140.2829101211793
 30
0.0
 10
89.98486054608018
 20
-140.3704155465046
 30
0.0
 10
89.8405110452482
 20
-140.4083115968424
 30
0.0
 10
89.66136608001521
 20
-140.3077148086731
 30
0.0
 10
89.46844073284123
 20
-140.2009168486303
 30
0.0
 10
89.32374672246074
 20
-140.0124701255872
 30
0.0
 10
89.23486325894129
 20
-139.8756998348227
 30
0.0
 10
89.1563150818776
 20
-139.755121492839
 30
0.0
 10
89.03366968260269
 20
-139.5349798913315
 30
0.0
 10
89.01403263833677
 20
-139.3107041752418
 30
0.0
 10
88.9937065749738
 20
-139.0812608159241
 30
0.0
 10
89.11600746470017
 20
-138.9744628558814
 30
0.0
 10
89.22418346293702
 20
-138.9041829079823
 30
0.0
 10
89.35716414866766
 20
-138.8177110113025
 30
0.0
 10
89.50220266859668
 20
-138.7767143750281
 30
0.0
 10
89.68134763382967
 20
-138.8773111631973
 30
0.0
 10
89.8694498473243
 20
-138.9847981423371
 30
0.0
 10
90.01345483860776
 20
-139.1639431075701
 30
0.0
 10
90.1078504549036
 20
-139.3093261370477
 30
0.0
 10
90.20086803300535
 20
-139.4529866187826
 30
0.0
 10
90.30904403124218
 20
-139.6579698001549
 30
0.0
 10
90.32868107550811
 20
-139.8743217966286
 30
0.0
  0
SPLINE
  5
E9
330
DF
100
AcDbEntity
  8
_U+30EC_U+30A4_U+30E4_U+30FC 1
370
     0
100
AcDbSpline
210
0.0
220
0.0
230
1.0
 70
    11
 71
     3
 72
    17
 73
    13
 74
     0
 42
0.0000000001
 43
0.0000000001
 12
1.0
 22
0.0
 32
0.0
 13
1.0
 23
0.0
 33
0.0
 40
0.0
 40
0.0
 40
0.0
 40
0.0
 40
1.0
 40
1.0
 40
1.0
 40
2.0
 40
2.0
 40
2.0
 40
3.0
 40
3.0
 40
3.0
 40
4.0
 40
4.0
 40
4.0
 40
4.0
 10
89.32925887523713
 20
-139.065413376692
 30
0.0
 10
89.11979706973395
 20
-139.2014946483594
 30
0.0
 10
89.23520776848981
 20
-139.4646999434324
 30
0.0
 10
89.42296547243593
 20
-139.7537434546449
 30
0.0
 10
89.59694279444105
 20
-140.0217718833973
 30
0.0
 10
89.79538029439144
 20
-140.2612060196222
 30
0.0
 10
90.01345483860776
 20
-140.1196125951784
 30
0.0
 10
90.2208495868198
 20
-139.9845648521566
 30
0.0
 10
90.10853947400065
 20
-139.7220485761806
 30
0.0
 10
89.91974824140895
 20
-139.4312825172255
 30
0.0
 10
89.74611542895236
 20
-139.1632540884731
 30
0.0
 10
89.54561087171082
 20
-138.9248534808938
 30
0.0
 10
89.32925887523713
 20
-139.065413376692
 30
0.0
  0
HATCH
  5
EA
330
DF
100
AcDbEntity
  8
_U+30EC_U+30A4_U+30E4_U+30FC 1
 62
   179
420
  2234388
100
AcDbHatch
 10
0.0
 20
0.0
 30
0.0
210
0.0
220
0.0
230
1.0
  2
SOLID
 70
     1
 71
     0
 91
        2
 92
        1
 93
        1
 72
     4
 94
        3
 73
     0
 74
     1
 95
       29
 96
       25
 40
0.0
 40
0.0
 40
0.0
 40
0.0
 40
1.0
 40
1.0
 40
1.0
 40
2.0
 40
2.0
 40
2.0
 40
3.0
 40
3.0
 40
3.0
 40
4.0
 40
4.0
 40
4.0
 40
5.0
 40
5.0
 40
5.0
 40
6.0
 40
6.0
 40
6.0
 40
7.0
 40
7.0
 40
7.0
 40
8.0
 40
8.0
 40
8.0
 40
8.0
 10
90.32868107550811
 20
-139.8743217966286
 10
90.35245223435633
 20
-140.1085882896256
 10
90.21740449133455
 20
-140.2195203642507
 10
90.11956377955345
 20
-140.2829101211793
 10
89.98486054608018
 20
-140.3704155465046
 10
89.8405110452482
 20
-140.4083115968424
 10
89.66136608001521
 20
-140.3077148086731
 10
89.46844073284123
 20
-140.2009168486303
 10
89.32374672246074
 20
-140.0124701255872
 10
89.23486325894129
 20
-139.8756998348227
 10
89.1563150818776
 20
-139.755121492839
 10
89.03366968260269
 20
-139.5349798913315
 10
89.01403263833677
 20
-139.3107041752418
 10
88.9937065749738
 20
-139.0812608159241
 10
89.11600746470017
 20
-138.9744628558814
 10
89.22418346293702
 20
-138.9041829079823
 10
89.35716414866766
 20
-138.8177110113025
 10
89.50220266859668
 20
-138.7767143750281
 10
89.68134763382967
 20
-138.8773111631973
 10
89.8694498473243
 20
-138.9847981423371
 10
90.01345483860776
 20
-139.1639431075701
 10
90.1078504549036
 20
-139.3093261370477
 10
90.20086803300535
 20
-139.4529866187826
 10
90.30904403124218
 20
-139.6579698001549
 10
90.32868107550811
 20
-139.8743217966286
 97
        0
 97
        0
 92
        1
 93
        1
 72
     4
 94
        3
 73
     0
 74
     1
 95
       17
 96
       13
 40
0.0
 40
0.0
 40
0.0
 40
0.0
 40
1.0
 40
1.0
 40
1.0
 40
2.0
 40
2.0
 40
2.0
 40
3.0
 40
3.0
 40
3.0
 40
4.0
 40
4.0
 40
4.0
 40
4.0
 10
89.32925887523713
 20
-139.065413376692
 10
89.11979706973395
 20
-139.2014946483594
 10
89.23520776848981
 20
-139.4646999434324
 10
89.42296547243593
 20
-139.7537434546449
 10
89.59694279444105
 20
-140.0217718833973
 10
89.79538029439144
 20
-140.2612060196222
 10
90.01345483860776
 20
-140.1196125951784
 10
90.2208495868198
 20
-139.9845648521566
 10
90.10853947400065
 20
-139.7220485761806
 10
89.91974824140895
 20
-139.4312825172255
 10
89.74611542895236
 20
-139.1632540884731
 10
89.54561087171082
 20
-138.9248534808938
 10
89.32925887523713
 20
-139.065413376692
 97
        0
 97
        0
 75
     2
 76
     1
 98
        0
  0
ENDBLK
  5
E2
330
DF
100
AcDbEntity
  8
0
100
AcDbBlockEnd
  0
ENDSEC
  0
SECTION
  2
ENTITIES
  0
SPLINE
  5
41
330
1F
100
AcDbEntity
  8
_U+30EC_U+30A4_U+30E4_U+30FC 1
 62
     7
420
 16777215
370
     9
100
AcDbSpline
210
0.0
220
0.0
230
1.0
 70
    11
 71
     3
 72
    20
 73
    16
 74
     0
 42
0.0000000001
 43
0.0000000001
 12
1.0
 22
0.0
 32
0.0
 13
1.0
 23
0.0
 33
0.0
 40
0.0
 40
0.0
 40
0.0
 40
0.0
 40
1.0
 40
1.0
 40
1.0
 40
2.0
 40
2.0
 40
2.0
 40
3.0
 40
3.0
 40
3.0
 40
4.0
 40
4.0
 40
4.0
 40
5.0
 40
5.0
 40
5.0
 40
5.0
 10
88.98388828538744
 20
-111.6763916387476
 30
0.0
 10
89.13029105943016
 20
-111.8227944164888
 30
0.0
 10
90.85283434881777
 20
-112.6127696940691
 30
0.0
 10
92.81293818770024
 20
-111.6763916387476
 30
0.0
 10
92.81293818770024
 20
-113.6077088604869
 30
0.0
 10
92.81293818770024
 20
-128.1584163568493
 30
0.0
 10
92.81293818770024
 20
-128.1584163568493
 30
0.0
 10
92.81293818770024
 20
-128.1584163568493
 30
0.0
 10
90.79360296143999
 20
-129.2324130232477
 30
0.0
 10
90.79360296143999
 20
-129.2324130232477
 30
0.0
 10
90.79360296143999
 20
-129.2324130232477
 30
0.0
 10
88.98388828538744
 20
-128.1584163568493
 30
0.0
 10
88.98388828538744
 20
-128.1584163568493
 30
0.0
 10
88.98388828538744
 20
-128.1584163568493
 30
0.0
 10
88.98388828538744
 20
-111.6763916387476
 30
0.0
 10
88.98388828538744
 20
-111.6763916387476
 30
0.0
  0
SPLINE
  5
42
330
1F
100
AcDbEntity
  8
_U+30EC_U+30A4_U+30E4_U+30FC 1
 62
     7
420
 16777215
370
     9
100
AcDbSpline
210
0.0
220
0.0
230
1.0
 70
    11
 71
     3
 72
    20
 73
    16
 74
     0
 42
0.0000000001
 43
0.0000000001
 12
1.0
 22
0.0
 32
0.0
 13
1.0
 23
0.0
 33
0.0
 40
0.0
 40
0.0
 40
0.0
 40
0.0
 40
1.0
 40
1.0
 40
1.0
 40
2.0
 40
2.0
 40
2.0
 40
3.0
 40
3.0
 40
3.0
 40
4.0
 40
4.0
 40
4.0
 40
5.0
 40
5.0
 40
5.0
 40
5.0
 10
88.98388828538744
 20
-128.1584163568493
 30
0.0
 10
88.98388828538744
 20
-128.1584163568493
 30
0.0
 10
90.79360296143999
 20
-129.2324130232477
 30
0.0
 10
90.79360296143999
 20
-129.2324130232477
 30
0.0
 10
90.79360296143999
 20
-129.2324130232477
 30
0.0
 10
90.79360296143999
 20
-131.2670941338498
 30
0.0
 10
90.79360296143999
 20
-131.2670941338498
 30
0.0
 10
90.79360296143999
 20
-131.2670941338498
 30
0.0
 10
77.12999081002778
 20
-139.4430013540284
 30
0.0
 10
76.66181943308294
 20
-139.6772457984139
 30
0.0
 10
75.90355889687221
 20
-140.0496732983211
 30
0.0
 10
74.1675747744942
 20
-137.1798966323719
 30
0.0
 10
74.75530253727779
 20
-136.5408396880873
 30
0.0
 10
75.09224058423735
 20
-136.1746210770672
 30
0.0
 10
88.98388828538744
 20
-128.1584163568493
 30
0.0
 10
88.98388828538744
 20
-128.1584163568493
 30
0.0
  0
SPLINE
  5
43
330
1F
100
AcDbEntity
  8
_U+30EC_U+30A4_U+30E4_U+30FC 1
 62
     7
420
 16777215
370
     9
100
AcDbSpline
210
0.0
220
0.0
230
1.0
 70
    11
 71
     3
 72
    20
 73
    16
 74
     0
 42
0.0000000001
 43
0.0000000001
 12
1.0
 22
0.0
 32
0.0
 13
1.0
 23
0.0
 33
0.0
 40
0.0
 40
0.0
 40
0.0
 40
0.0
 40
1.0
 40
1.0
 40
1.0
 40
2.0
 40
2.0
 40
2.0
 40
3.0
 40
3.0
 40
3.0
 40
4.0
 40
4.0
 40
4.0
 40
5.0
 40
5.0
 40
5.0
 40
5.0
 10
106.8007178308422
 20
-136.2869455214836
 30
0.0
 10
107.548289200659
 20
-136.7806227435825
 30
0.0
 10
106.0986221956977
 20
-139.8863724650284
 30
0.0
 10
104.942425656029
 20
-139.5932141317683
 30
0.0
 10
104.6840512181762
 20
-139.4550663540254
 30
0.0
 10
90.79360296143999
 20
-131.2670941338498
 30
0.0
 10
90.79360296143999
 20
-131.2670941338498
 30
0.0
 10
90.79360296143999
 20
-131.2670941338498
 30
0.0
 10
90.79360296143999
 20
-129.2324130232477
 30
0.0
 10
90.79360296143999
 20
-129.2324130232477
 30
0.0
 10
90.79360296143999
 20
-129.2324130232477
 30
0.0
 10
92.81293818770024
 20
-128.1584163568493
 30
0.0
 10
92.81293818770024
 20
-128.1584163568493
 30
0.0
 10
92.81293818770024
 20
-128.1584163568493
 30
0.0
 10
106.8007178308422
 20
-136.2869455214836
 30
0.0
 10
106.8007178308422
 20
-136.2869455214836
 30
0.0
  0
POLYLINE
  5
44
330
1F
100
AcDbEntity
  8
_U+30EC_U+30A4_U+30E4_U+30FC 1
 62
     7
420
 16777215
370
     9
100
AcDb2dPolyline
 66
     1
 10
0.0
 20
0.0
 30
0.0
  0
VERTEX
  5
45
330
44
100
AcDbEntity
  8
_U+30EC_U+30A4_U+30E4_U+30FC 1
 62
     7
420
 16777215
370
     9
100
AcDbVertex
100
AcDb2dVertex
 10
92.81293818770024
 20
-128.1584163568493
 30
0.0
  0
VERTEX
  5
46
330
44
100
AcDbEntity
  8
_U+30EC_U+30A4_U+30E4_U+30FC 1
 62
     7
420
 16777215
370
     9
100
AcDbVertex
100
AcDb2dVertex
 10
93.30008900860531
 20
-127.5631038569981
 30
0.0
  0
VERTEX
  5
47
330
44
100
AcDbEntity
  8
_U+30EC_U+30A4_U+30E4_U+30FC 1
 62
     7
420
 16777215
370
     9
100
AcDbVertex
100
AcDb2dVertex
 10
93.30008900860531
 20
-111.9967844164452
 30
0.0
  0
VERTEX
  5
48
330
44
100
AcDbEntity
  8
_U+30EC_U+30A4_U+30E4_U+30FC 1
 62
     7
420
 16777215
370
     9
100
AcDbVertex
100
AcDb2dVertex
 10
92.81293818770024
 20
-111.6763916387476
 30
0.0
  0
VERTEX
  5
49
330
44
100
AcDbEntity
  8
_U+30EC_U+30A4_U+30E4_U+30FC 1
 62
     7
420
 16777215
370
     9
100
AcDbVertex
100
AcDb2dVertex
 10
92.81293818770024
 20
-128.1584163568493
 30
0.0
  0
SEQEND
  5
4A
330
44
100
AcDbEntity
  8
_U+30EC_U+30A4_U+30E4_U+30FC 1
 62
     7
420
 16777215
370
     9
  0
POLYLINE
  5
4B
330
1F
100
AcDbEntity
  8
_U+30EC_U+30A4_U+30E4_U+30FC 1
 62
     7
420
 16777215
370
     9
100
AcDb2dPolyline
 66
     1
 10
0.0
 20
0.0
 30
0.0
  0
VERTEX
  5
4C
330
4B
100
AcDbEntity
  8
_U+30EC_U+30A4_U+30E4_U+30FC 1
 62
     7
420
 16777215
370
     9
100
AcDbVertex
100
AcDb2dVertex
 10
88.98388828538744
 20
-128.1584163568493
 30
0.0
  0
VERTEX
  5
4D
330
4B
100
AcDbEntity
  8
_U+30EC_U+30A4_U+30E4_U+30FC 1
 62
     7
420
 16777215
370
     9
100
AcDbVertex
100
AcDb2dVertex
 10
88.49709024225113
 20
-127.5631038569981
 30
0.0
  0
VERTEX
  5
4E
330
4B
100
AcDbEntity
  8
_U+30EC_U+30A4_U+30E4_U+30FC 1
 62
     7
420
 16777215
370
     9
100
AcDbVertex
100
AcDb2dVertex
 10
88.49709024225113
 20
-111.9967844164452
 30
0.0
  0
VERTEX
  5
4F
330
4B
100
AcDbEntity
  8
_U+30EC_U+30A4_U+30E4_U+30FC 1
 62
     7
420
 16777215
370
     9
100
AcDbVertex
100
AcDb2dVertex
 10
88.98388828538744
 20
-111.6763916387476
 30
0.0
  0
VERTEX
  5
50
330
4B
100
AcDbEntity
  8
_U+30EC_U+30A4_U+30E4_U+30FC 1
 62
     7
420
 16777215
370
     9
100
AcDbVertex
100
AcDb2dVertex
 10
88.98388828538744
 20
-128.1584163568493
 30
0.0
  0
SEQEND
  5
51
330
4B
100
AcDbEntity
  8
_U+30EC_U+30A4_U+30E4_U+30FC 1
 62
     7
420
 16777215
370
     9
  0
POLYLINE
  5
52
330
1F
100
AcDbEntity
  8
_U+30EC_U+30A4_U+30E4_U+30FC 1
 62
     7
420
 16777215
370
     9
100
AcDb2dPolyline
 66
     1
 10
0.0
 20
0.0
 30
0.0
  0
VERTEX
  5
53
330
52
100
AcDbEntity
  8
_U+30EC_U+30A4_U+30E4_U+30FC 1
 62
     7
420
 16777215
370
     9
100
AcDbVertex
100
AcDb2dVertex
 10
93.30008900860531
 20
-127.5631038569981
 30
0.0
  0
VERTEX
  5
54
330
52
100
AcDbEntity
  8
_U+30EC_U+30A4_U+30E4_U+30FC 1
 62
     7
420
 16777215
370
     9
100
AcDbVertex
100
AcDb2dVertex
 10
94.13793620945228
 20
-126.8489405238432
 30
0.0
  0
VERTEX
  5
55
330
52
100
AcDbEntity
  8
_U+30EC_U+30A4_U+30E4_U+30FC 1
 62
     7
420
 16777215
370
     9
100
AcDbVertex
100
AcDb2dVertex
 10
94.13793620945228
 20
-111.6763916387476
 30
0.0
  0
VERTEX
  5
56
330
52
100
AcDbEntity
  8
_U+30EC_U+30A4_U+30E4_U+30FC 1
 62
     7
420
 16777215
370
     9
100
AcDbVertex
100
AcDb2dVertex
 10
93.30008900860531
 20
-111.9967844164452
 30
0.0
  0
VERTEX
  5
57
330
52
100
AcDbEntity
  8
_U+30EC_U+30A4_U+30E4_U+30FC 1
 62
     7
420
 16777215
370
     9
100
AcDbVertex
100
AcDb2dVertex
 10
93.30008900860531
 20
-127.5631038569981
 30
0.0
  0
SEQEND
  5
58
330
52
100
AcDbEntity
  8
_U+30EC_U+30A4_U+30E4_U+30FC 1
 62
     7
420
 16777215
370
     9
  0
POLYLINE
  5
59
330
1F
100
AcDbEntity
  8
_U+30EC_U+30A4_U+30E4_U+30FC 1
 62
     7
420
 16777215
370
     9
100
AcDb2dPolyline
 66
     1
 10
0.0
 20
0.0
 30
0.0
  0
VERTEX
  5
5A
330
59
100
AcDbEntity
  8
_U+30EC_U+30A4_U+30E4_U+30FC 1
 62
     7
420
 16777215
370
     9
100
AcDbVertex
100
AcDb2dVertex
 10
88.49709024225113
 20
-127.5631038569981
 30
0.0
  0
VERTEX
  5
5B
330
59
100
AcDbEntity
  8
_U+30EC_U+30A4_U+30E4_U+30FC 1
 62
     7
420
 16777215
370
     9
100
AcDbVertex
100
AcDb2dVertex
 10
87.65924304140417
 20
-126.8489405238432
 30
0.0
  0
VERTEX
  5
5C
330
59
100
AcDbEntity
  8
_U+30EC_U+30A4_U+30E4_U+30FC 1
 62
     7
420
 16777215
370
     9
100
AcDbVertex
100
AcDb2dVertex
 10
87.65924304140417
 20
-111.6763916387476
 30
0.0
  0
VERTEX
  5
5D
330
59
100
AcDbEntity
  8
_U+30EC_U+30A4_U+30E4_U+30FC 1
 62
     7
420
 16777215
370
     9
100
AcDbVertex
100
AcDb2dVertex
 10
88.49709024225113
 20
-111.9967844164452
 30
0.0
  0
VERTEX
  5
5E
330
59
100
AcDbEntity
  8
_U+30EC_U+30A4_U+30E4_U+30FC 1
 62
     7
420
 16777215
370
     9
100
AcDbVertex
100
AcDb2dVertex
 10
88.49709024225113
 20
-127.5631038569981
 30
0.0
  0
SEQEND
  5
5F
330
59
100
AcDbEntity
  8
_U+30EC_U+30A4_U+30E4_U+30FC 1
 62
     7
420
 16777215
370
     9
  0
POLYLINE
  5
60
330
1F
100
AcDbEntity
  8
_U+30EC_U+30A4_U+30E4_U+30FC 1
 62
     7
420
 16777215
370
     9
100
AcDb2dPolyline
 66
     1
 10
0.0
 20
0.0
 30
0.0
  0
VERTEX
  5
61
330
60
100
AcDbEntity
  8
_U+30EC_U+30A4_U+30E4_U+30FC 1
 62
     7
420
 16777215
370
     9
100
AcDbVertex
100
AcDb2dVertex
 10
92.81293818770024
 20
-128.1584163568493
 30
0.0
  0
VERTEX
  5
62
330
60
100
AcDbEntity
  8
_U+30EC_U+30A4_U+30E4_U+30FC 1
 62
     7
420
 16777215
370
     9
100
AcDbVertex
100
AcDb2dVertex
 10
93.30008900860531
 20
-127.5631038569981
 30
0.0
  0
VERTEX
  5
63
330
60
100
AcDbEntity
  8
_U+30EC_U+30A4_U+30E4_U+30FC 1
 62
     7
420
 16777215
370
     9
100
AcDbVertex
100
AcDb2dVertex
 10
107.4332483702606
 20
-135.8973024660256
 30
0.0
  0
VERTEX
  5
64
330
60
100
AcDbEntity
  8
_U+30EC_U+30A4_U+30E4_U+30FC 1
 62
     7
420
 16777215
370
     9
100
AcDbVertex
100
AcDb2dVertex
 10
106.8909610843882
 20
-136.3754927436837
 30
0.0
  0
VERTEX
  5
65
330
60
100
AcDbEntity
  8
_U+30EC_U+30A4_U+30E4_U+30FC 1
 62
     7
420
 16777215
370
     9
100
AcDbVertex
100
AcDb2dVertex
 10
92.81293818770024
 20
-128.1584163568493
 30
0.0
  0
SEQEND
  5
66
330
60
100
AcDbEntity
  8
_U+30EC_U+30A4_U+30E4_U+30FC 1
 62
     7
420
 16777215
370
     9
  0
POLYLINE
  5
67
330
1F
100
AcDbEntity
  8
_U+30EC_U+30A4_U+30E4_U+30FC 1
 62
     7
420
 16777215
370
     9
100
AcDb2dPolyline
 66
     1
 10
0.0
 20
0.0
 30
0.0
  0
VERTEX
  5
68
330
67
100
AcDbEntity
  8
_U+30EC_U+30A4_U+30E4_U+30FC 1
 62
     7
420
 16777215
370
     9
100
AcDbVertex
100
AcDb2dVertex
 10
93.30008900860531
 20
-127.5631038569981
 30
0.0
  0
VERTEX
  5
69
330
67
100
AcDbEntity
  8
_U+30EC_U+30A4_U+30E4_U+30FC 1
 62
     7
420
 16777215
370
     9
100
AcDbVertex
100
AcDb2dVertex
 10
94.13793620945228
 20
-126.8489405238432
 30
0.0
  0
VERTEX
  5
6A
330
67
100
AcDbEntity
  8
_U+30EC_U+30A4_U+30E4_U+30FC 1
 62
     7
420
 16777215
370
     9
100
AcDbVertex
100
AcDb2dVertex
 10
107.4332483702606
 20
-134.5082399663729
 30
0.0
  0
VERTEX
  5
6B
330
67
100
AcDbEntity
  8
_U+30EC_U+30A4_U+30E4_U+30FC 1
 62
     7
420
 16777215
370
     9
100
AcDbVertex
100
AcDb2dVertex
 10
107.4332483702606
 20
-135.8973024660256
 30
0.0
  0
VERTEX
  5
6C
330
67
100
AcDbEntity
  8
_U+30EC_U+30A4_U+30E4_U+30FC 1
 62
     7
420
 16777215
370
     9
100
AcDbVertex
100
AcDb2dVertex
 10
93.30008900860531
 20
-127.5631038569981
 30
0.0
  0
SEQEND
  5
6D
330
67
100
AcDbEntity
  8
_U+30EC_U+30A4_U+30E4_U+30FC 1
 62
     7
420
 16777215
370
     9
  0
SPLINE
  5
6E
330
1F
100
AcDbEntity
  8
_U+30EC_U+30A4_U+30E4_U+30FC 1
 62
     7
420
 16777215
370
     9
100
AcDbSpline
210
0.0
220
0.0
230
1.0
 70
    11
 71
     3
 72
    17
 73
    13
 74
     0
 42
0.0000000001
 43
0.0000000001
 12
1.0
 22
0.0
 32
0.0
 13
1.0
 23
0.0
 33
0.0
 40
0.0
 40
0.0
 40
0.0
 40
0.0
 40
1.0
 40
1.0
 40
1.0
 40
2.0
 40
2.0
 40
2.0
 40
3.0
 40
3.0
 40
3.0
 40
4.0
 40
4.0
 40
4.0
 40
4.0
 10
88.98388828538744
 20
-128.1584163568493
 30
0.0
 10
88.98388828538744
 20
-128.1584163568493
 30
0.0
 10
88.49709024225113
 20
-127.5631038569981
 30
0.0
 10
88.49709024225113
 20
-127.5631038569981
 30
0.0
 10
88.49709024225113
 20
-127.5631038569981
 30
0.0
 10
74.29573893789112
 20
-136.0165060771071
 30
0.0
 10
74.29573893789112
 20
-136.0165060771071
 30
0.0
 10
74.29573893789112
 20
-136.0165060771071
 30
0.0
 10
74.75459698174024
 20
-136.4481649658878
 30
0.0
 10
74.81040831463062
 20
-136.4963896880983
 30
0.0
 10
75.54354918383461
 20
-135.9638010771202
 30
0.0
 10
88.98388828538744
 20
-128.1584163568493
 30
0.0
 10
88.98388828538744
 20
-128.1584163568493
 30
0.0
  0
POLYLINE
  5
6F
330
1F
100
AcDbEntity
  8
_U+30EC_U+30A4_U+30E4_U+30FC 1
 62
     7
420
 16777215
370
     9
100
AcDb2dPolyline
 66
     1
 10
0.0
 20
0.0
 30
0.0
  0
VERTEX
  5
70
330
6F
100
AcDbEntity
  8
_U+30EC_U+30A4_U+30E4_U+30FC 1
 62
     7
420
 16777215
370
     9
100
AcDbVertex
100
AcDb2dVertex
 10
88.49709024225113
 20
-127.5631038569981
 30
0.0
  0
VERTEX
  5
71
330
6F
100
AcDbEntity
  8
_U+30EC_U+30A4_U+30E4_U+30FC 1
 62
     7
420
 16777215
370
     9
100
AcDbVertex
100
AcDb2dVertex
 10
87.65924304140417
 20
-126.8489405238432
 30
0.0
  0
VERTEX
  5
72
330
6F
100
AcDbEntity
  8
_U+30EC_U+30A4_U+30E4_U+30FC 1
 62
     7
420
 16777215
370
     9
100
AcDbVertex
100
AcDb2dVertex
 10
74.29573893789112
 20
-134.6274435774544
 30
0.0
  0
VERTEX
  5
73
330
6F
100
AcDbEntity
  8
_U+30EC_U+30A4_U+30E4_U+30FC 1
 62
     7
420
 16777215
370
     9
100
AcDbVertex
100
AcDb2dVertex
 10
74.29573893789112
 20
-136.0165060771071
 30
0.0
  0
VERTEX
  5
74
330
6F
100
AcDbEntity
  8
_U+30EC_U+30A4_U+30E4_U+30FC 1
 62
     7
420
 16777215
370
     9
100
AcDbVertex
100
AcDb2dVertex
 10
88.49709024225113
 20
-127.5631038569981
 30
0.0
  0
SEQEND
  5
75
330
6F
100
AcDbEntity
  8
_U+30EC_U+30A4_U+30E4_U+30FC 1
 62
     7
420
 16777215
370
     9
  0
INSERT
  5
77
330
1F
100
AcDbEntity
  8
_U+30EC_U+30A4_U+30E4_U+30FC 1
100
AcDbBlockReference
  2
block 2
 10
0.0
 20
0.0
 30
0.0
  0
INSERT
  5
9A
330
1F
100
AcDbEntity
  8
_U+30EC_U+30A4_U+30E4_U+30FC 1
100
AcDbBlockReference
  2
block 3
 10
0.0
 20
0.0
 30
0.0
  0
INSERT
  5
BD
330
1F
100
AcDbEntity
  8
_U+30EC_U+30A4_U+30E4_U+30FC 1
100
AcDbBlockReference
  2
block 4
 10
0.0
 20
0.0
 30
0.0
  0
INSERT
  5
E0
330
1F
100
AcDbEntity
  8
_U+30EC_U+30A4_U+30E4_U+30FC 1
100
AcDbBlockReference
  2
block 5
 10
0.0
 20
0.0
 30
0.0
  0
POLYLINE
  5
EB
330
1F
100
AcDbEntity
  8
_U+30EC_U+30A4_U+30E4_U+30FC 1
 62
   179
420
  2234388
370
     9
100
AcDb2dPolyline
 66
     1
 10
0.0
 20
0.0
 30
0.0
  0
VERTEX
  5
EC
330
EB
100
AcDbEntity
  8
_U+30EC_U+30A4_U+30E4_U+30FC 1
 62
   179
420
  2234388
370
     9
100
AcDbVertex
100
AcDb2dVertex
 10
93.2339431769595
 20
-135.2547882995197
 30
0.0
  0
VERTEX
  5
ED
330
EB
100
AcDbEntity
  8
_U+30EC_U+30A4_U+30E4_U+30FC 1
 62
   179
420
  2234388
370
     9
100
AcDbVertex
100
AcDb2dVertex
 10
80.43590655902017
 20
-143.5089063530114
 30
0.0
  0
SEQEND
  5
EE
330
EB
100
AcDbEntity
  8
_U+30EC_U+30A4_U+30E4_U+30FC 1
 62
   179
420
  2234388
370
     9
  0
POLYLINE
  5
EF
330
1F
100
AcDbEntity
  8
_U+30EC_U+30A4_U+30E4_U+30FC 1
 62
   179
420
  2234388
370
     9
100
AcDb2dPolyline
 66
     1
 10
0.0
 20
0.0
 30
0.0
  0
VERTEX
  5
F0
330
EF
100
AcDbEntity
  8
_U+30EC_U+30A4_U+30E4_U+30FC 1
 62
   179
420
  2234388
370
     9
100
AcDbVertex
100
AcDb2dVertex
 10
78.18800661636888
 20
-141.8087291312148
 30
0.0
  0
VERTEX
  5
F1
330
EF
100
AcDbEntity
  8
_U+30EC_U+30A4_U+30E4_U+30FC 1
 62
   179
420
  2234388
370
     9
100
AcDbVertex
100
AcDb2dVertex
 10
83.33634164583268
 20
-145.4812163525183
 30
0.0
  0
SEQEND
  5
F2
330
EF
100
AcDbEntity
  8
_U+30EC_U+30A4_U+30E4_U+30FC 1
 62
   179
420
  2234388
370
     9
  0
POLYLINE
  5
F3
330
1F
100
AcDbEntity
  8
_U+30EC_U+30A4_U+30E4_U+30FC 1
 62
     7
420
 16777215
370
     9
100
AcDb2dPolyline
 66
     1
 10
0.0
 20
0.0
 30
0.0
  0
VERTEX
  5
F4
330
F3
100
AcDbEntity
  8
_U+30EC_U+30A4_U+30E4_U+30FC 1
 62
     7
420
 16777215
370
     9
100
AcDbVertex
100
AcDb2dVertex
 10
90.79360296143999
 20
-131.2670941338498
 30
0.0
  0
VERTEX
  5
F5
330
F3
100
AcDbEntity
  8
_U+30EC_U+30A4_U+30E4_U+30FC 1
 62
     7
420
 16777215
370
     9
100
AcDbVertex
100
AcDb2dVertex
 10
90.79360296143999
 20
-132.1056469114181
 30
0.0
  0
VERTEX
  5
F6
330
F3
100
AcDbEntity
  8
_U+30EC_U+30A4_U+30E4_U+30FC 1
 62
     7
420
 16777215
370
     9
100
AcDbVertex
100
AcDb2dVertex
 10
76.67974054373684
 20
-140.4213952426727
 30
0.0
  0
VERTEX
  5
F7
330
F3
100
AcDbEntity
  8
_U+30EC_U+30A4_U+30E4_U+30FC 1
 62
     7
420
 16777215
370
     9
100
AcDbVertex
100
AcDb2dVertex
 10
76.67974054373684
 20
-139.6772457984139
 30
0.0
  0
VERTEX
  5
F8
330
F3
100
AcDbEntity
  8
_U+30EC_U+30A4_U+30E4_U+30FC 1
 62
     7
420
 16777215
370
     9
100
AcDbVertex
100
AcDb2dVertex
 10
90.79360296143999
 20
-131.2670941338498
 30
0.0
  0
SEQEND
  5
F9
330
F3
100
AcDbEntity
  8
_U+30EC_U+30A4_U+30E4_U+30FC 1
 62
     7
420
 16777215
370
     9
  0
POLYLINE
  5
FA
330
1F
100
AcDbEntity
  8
_U+30EC_U+30A4_U+30E4_U+30FC 1
 62
     7
420
 16777215
370
     9
100
AcDb2dPolyline
 66
     1
 10
0.0
 20
0.0
 30
0.0
  0
VERTEX
  5
FB
330
FA
100
AcDbEntity
  8
_U+30EC_U+30A4_U+30E4_U+30FC 1
 62
     7
420
 16777215
370
     9
100
AcDbVertex
100
AcDb2dVertex
 10
90.79360296143999
 20
-132.1056469114181
 30
0.0
  0
VERTEX
  5
FC
330
FA
100
AcDbEntity
  8
_U+30EC_U+30A4_U+30E4_U+30FC 1
 62
     7
420
 16777215
370
     9
100
AcDbVertex
100
AcDb2dVertex
 10
90.79360296143999
 20
-133.5715091332736
 30
0.0
  0
VERTEX
  5
FD
330
FA
100
AcDbEntity
  8
_U+30EC_U+30A4_U+30E4_U+30FC 1
 62
     7
420
 16777215
370
     9
100
AcDbVertex
100
AcDb2dVertex
 10
78.1232366180213
 20
-141.1121341313885
 30
0.0
  0
VERTEX
  5
FE
330
FA
100
AcDbEntity
  8
_U+30EC_U+30A4_U+30E4_U+30FC 1
 62
     7
420
 16777215
370
     9
100
AcDbVertex
100
AcDb2dVertex
 10
76.67974054373684
 20
-140.4213952426727
 30
0.0
  0
VERTEX
  5
FF
330
FA
100
AcDbEntity
  8
_U+30EC_U+30A4_U+30E4_U+30FC 1
 62
     7
420
 16777215
370
     9
100
AcDbVertex
100
AcDb2dVertex
 10
90.79360296143999
 20
-132.1056469114181
 30
0.0
  0
SEQEND
  5
100
330
FA
100
AcDbEntity
  8
_U+30EC_U+30A4_U+30E4_U+30FC 1
 62
     7
420
 16777215
370
     9
  0
POLYLINE
  5
101
330
1F
100
AcDbEntity
  8
_U+30EC_U+30A4_U+30E4_U+30FC 1
 62
     7
420
 16777215
370
     9
100
AcDb2dPolyline
 66
     1
 10
0.0
 20
0.0
 30
0.0
  0
VERTEX
  5
102
330
101
100
AcDbEntity
  8
_U+30EC_U+30A4_U+30E4_U+30FC 1
 62
     7
420
 16777215
370
     9
100
AcDbVertex
100
AcDb2dVertex
 10
90.79360296143999
 20
-131.2670941338498
 30
0.0
  0
VERTEX
  5
103
330
101
100
AcDbEntity
  8
_U+30EC_U+30A4_U+30E4_U+30FC 1
 62
     7
420
 16777215
370
     9
100
AcDbVertex
100
AcDb2dVertex
 10
90.79360296143999
 20
-132.1056469114181
 30
0.0
  0
VERTEX
  5
104
330
101
100
AcDbEntity
  8
_U+30EC_U+30A4_U+30E4_U+30FC 1
 62
     7
420
 16777215
370
     9
100
AcDbVertex
100
AcDb2dVertex
 10
104.942425656029
 20
-140.337328298249
 30
0.0
  0
VERTEX
  5
105
330
101
100
AcDbEntity
  8
_U+30EC_U+30A4_U+30E4_U+30FC 1
 62
     7
420
 16777215
370
     9
100
AcDbVertex
100
AcDb2dVertex
 10
104.942425656029
 20
-139.5932141317683
 30
0.0
  0
VERTEX
  5
106
330
101
100
AcDbEntity
  8
_U+30EC_U+30A4_U+30E4_U+30FC 1
 62
     7
420
 16777215
370
     9
100
AcDbVertex
100
AcDb2dVertex
 10
90.79360296143999
 20
-131.2670941338498
 30
0.0
  0
SEQEND
  5
107
330
101
100
AcDbEntity
  8
_U+30EC_U+30A4_U+30E4_U+30FC 1
 62
     7
420
 16777215
370
     9
  0
POLYLINE
  5
108
330
1F
100
AcDbEntity
  8
_U+30EC_U+30A4_U+30E4_U+30FC 1
 62
     7
420
 16777215
370
     9
100
AcDb2dPolyline
 66
     1
 10
0.0
 20
0.0
 30
0.0
  0
VERTEX
  5
109
330
108
100
AcDbEntity
  8
_U+30EC_U+30A4_U+30E4_U+30FC 1
 62
     7
420
 16777215
370
     9
100
AcDbVertex
100
AcDb2dVertex
 10
90.79360296143999
 20
-132.1056469114181
 30
0.0
  0
VERTEX
  5
10A
330
108
100
AcDbEntity
  8
_U+30EC_U+30A4_U+30E4_U+30FC 1
 62
     7
420
 16777215
370
     9
100
AcDbVertex
100
AcDb2dVertex
 10
90.79360296143999
 20
-133.5715091332736
 30
0.0
  0
VERTEX
  5
10B
330
108
100
AcDbEntity
  8
_U+30EC_U+30A4_U+30E4_U+30FC 1
 62
     7
420
 16777215
370
     9
100
AcDbVertex
100
AcDb2dVertex
 10
103.4989295817445
 20
-141.0280671869654
 30
0.0
  0
VERTEX
  5
10C
330
108
100
AcDbEntity
  8
_U+30EC_U+30A4_U+30E4_U+30FC 1
 62
     7
420
 16777215
370
     9
100
AcDbVertex
100
AcDb2dVertex
 10
104.942425656029
 20
-140.337328298249
 30
0.0
  0
VERTEX
  5
10D
330
108
100
AcDbEntity
  8
_U+30EC_U+30A4_U+30E4_U+30FC 1
 62
     7
420
 16777215
370
     9
100
AcDbVertex
100
AcDb2dVertex
 10
90.79360296143999
 20
-132.1056469114181
 30
0.0
  0
SEQEND
  5
10E
330
108
100
AcDbEntity
  8
_U+30EC_U+30A4_U+30E4_U+30FC 1
 62
     7
420
 16777215
370
     9
  0
SPLINE
  5
10F
330
1F
100
AcDbEntity
  8
_U+30EC_U+30A4_U+30E4_U+30FC 1
 62
   179
420
  2234388
370
     9
100
AcDbSpline
210
0.0
220
0.0
230
1.0
 70
    11
 71
     3
 72
    17
 73
    13
 74
     0
 42
0.0000000001
 43
0.0000000001
 12
1.0
 22
0.0
 32
0.0
 13
1.0
 23
0.0
 33
0.0
 40
0.0
 40
0.0
 40
0.0
 40
0.0
 40
1.0
 40
1.0
 40
1.0
 40
2.0
 40
2.0
 40
2.0
 40
3.0
 40
3.0
 40
3.0
 40
4.0
 40
4.0
 40
4.0
 40
4.0
 10
80.49947711295391
 20
-143.563339964109
 30
0.0
 10
80.55461627821386
 20
-143.563339964109
 30
0.0
 10
80.59938377707175
 20
-143.5185371863423
 30
0.0
 10
80.59938377707175
 20
-143.4634332974674
 30
0.0
 10
80.59938377707175
 20
-143.4082941308143
 30
0.0
 10
80.55461627821386
 20
-143.3635266308257
 30
0.0
 10
80.49947711295391
 20
-143.3635266308257
 30
0.0
 10
80.44437322547084
 20
-143.3635266308257
 30
0.0
 10
80.39957044883607
 20
-143.4082941308143
 30
0.0
 10
80.39957044883607
 20
-143.4634332974674
 30
0.0
 10
80.39957044883607
 20
-143.5185371863423
 30
0.0
 10
80.44437322547084
 20
-143.563339964109
 30
0.0
 10
80.49947711295391
 20
-143.563339964109
 30
0.0
  0
HATCH
  5
110
330
1F
100
AcDbEntity
  8
_U+30EC_U+30A4_U+30E4_U+30FC 1
 62
   179
420
  2234388
100
AcDbHatch
 10
0.0
 20
0.0
 30
0.0
210
0.0
220
0.0
230
1.0
  2
SOLID
 70
     1
 71
     0
 91
        1
 92
        1
 93
        1
 72
     4
 94
        3
 73
     0
 74
     1
 95
       17
 96
       13
 40
0.0
 40
0.0
 40
0.0
 40
0.0
 40
1.0
 40
1.0
 40
1.0
 40
2.0
 40
2.0
 40
2.0
 40
3.0
 40
3.0
 40
3.0
 40
4.0
 40
4.0
 40
4.0
 40
4.0
 10
80.49947711295391
 20
-143.563339964109
 10
80.55461627821386
 20
-143.563339964109
 10
80.59938377707175
 20
-143.5185371863423
 10
80.59938377707175
 20
-143.4634332974674
 10
80.59938377707175
 20
-143.4082941308143
 10
80.55461627821386
 20
-143.3635266308257
 10
80.49947711295391
 20
-143.3635266308257
 10
80.44437322547084
 20
-143.3635266308257
 10
80.39957044883607
 20
-143.4082941308143
 10
80.39957044883607
 20
-143.4634332974674
 10
80.39957044883607
 20
-143.5185371863423
 10
80.44437322547084
 20
-143.563339964109
 10
80.49947711295391
 20
-143.563339964109
 97
        0
 97
        0
 75
     2
 76
     1
 98
        0
  0
ENDSEC
  0
SECTION
  2
OBJECTS
  0
DICTIONARY
  5
C
330
0
100
AcDbDictionary
281
     1
  3
ACAD_GROUP
350
D
  3
ACAD_LAYOUT
350
1A
  3
ACAD_MATERIAL
350
3B
  3
ACAD_MLEADERSTYLE
350
112
  3
ACAD_MLINESTYLE
350
17
  3
ACAD_PLOTSETTINGS
350
19
  3
ACAD_PLOTSTYLENAME
350
E
  3
ACAD_TABLESTYLE
350
111
  3
ACAD_VISUALSTYLE
350
2A
  0
SUN
  5
3F
330
29
100
AcDbSun
 90
        1
290
     0
 63
     7
421
 16777215
 40
1.0
291
     1
 91
  2455826
 92
 54000000
292
     0
 70
     2
 71
   256
280
     1
  0
DICTIONARY
  5
D
102
{ACAD_REACTORS
330
C
102
}
330
C
100
AcDbDictionary
281
     1
  0
DICTIONARY
  5
1A
102
{ACAD_REACTORS
330
C
102
}
330
C
100
AcDbDictionary
281
     1
  3
Layout1
350
1E
  3
Layout2
350
26
  3
Model
350
22
  0
DICTIONARY
  5
3B
102
{ACAD_REACTORS
330
C
102
}
330
C
100
AcDbDictionary
281
     1
  3
ByBlock
350
3D
  3
ByLayer
350
3C
  3
Global
350
3E
  0
DICTIONARY
  5
112
102
{ACAD_REACTORS
330
C
102
}
330
C
100
AcDbDictionary
281
     1
  0
DICTIONARY
  5
17
102
{ACAD_REACTORS
330
C
102
}
330
C
100
AcDbDictionary
281
     1
  3
Standard
350
18
  0
DICTIONARY
  5
19
102
{ACAD_REACTORS
330
C
102
}
330
C
100
AcDbDictionary
281
     1
  0
ACDBDICTIONARYWDFLT
  5
E
102
{ACAD_REACTORS
330
C
102
}
330
C
100
AcDbDictionary
281
     1
  3
Normal
350
F
100
AcDbDictionaryWithDefault
340
F
  0
DICTIONARY
  5
111
102
{ACAD_REACTORS
330
C
102
}
330
C
100
AcDbDictionary
281
     1
  0
DICTIONARY
  5
2A
102
{ACAD_REACTORS
330
C
102
}
330
C
100
AcDbDictionary
281
     1
  3
2dWireframe
350
2F
  3
3D Hidden
350
31
  3
3dWireframe
350
30
  3
Basic
350
32
  3
Brighten
350
36
  3
ColorChange
350
3A
  3
Conceptual
350
34
  3
Dim
350
35
  3
Facepattern
350
39
  3
Flat
350
2B
  3
FlatWithEdges
350
2C
  3
Gouraud
350
2D
  3
GouraudWithEdges
350
2E
  3
Linepattern
350
38
  3
Realistic
350
33
  3
Thicken
350
37
  0
LAYOUT
  5
1E
102
{ACAD_REACTORS
330
1A
102
}
330
1A
100
AcDbPlotSettings
  1

  2
none_device
  4

  6

 40
0.0
 41
0.0
 42
0.0
 43
0.0
 44
0.0
 45
0.0
 46
0.0
 47
0.0
 48
0.0
 49
0.0
140
0.0
141
0.0
142
1.0
143
1.0
 70
   688
 72
     0
 73
     0
 74
     5
  7

 75
    16
 76
     0
 77
     2
 78
   300
147
1.0
148
0.0
149
0.0
100
AcDbLayout
  1
Layout1
 70
     1
 71
     1
 10
0.0
 20
0.0
 11
12.0
 21
9.0
 12
0.0
 22
0.0
 32
0.0
 14
1.000000000000000E+20
 24
1.000000000000000E+20
 34
1.000000000000000E+20
 15
-1.000000000000000E+20
 25
-1.000000000000000E+20
 35
-1.000000000000000E+20
146
0.0
 13
0.0
 23
0.0
 33
0.0
 16
1.0
 26
0.0
 36
0.0
 17
0.0
 27
1.0
 37
0.0
 76
     0
330
1B
  0
LAYOUT
  5
26
102
{ACAD_REACTORS
330
1A
102
}
330
1A
100
AcDbPlotSettings
  1

  2
none_device
  4

  6

 40
0.0
 41
0.0
 42
0.0
 43
0.0
 44
0.0
 45
0.0
 46
0.0
 47
0.0
 48
0.0
 49
0.0
140
0.0
141
0.0
142
1.0
143
1.0
 70
   688
 72
     0
 73
     0
 74
     5
  7

 75
    16
 76
     0
 77
     2
 78
   300
147
1.0
148
0.0
149
0.0
100
AcDbLayout
  1
Layout2
 70
     1
 71
     2
 10
0.0
 20
0.0
 11
0.0
 21
0.0
 12
0.0
 22
0.0
 32
0.0
 14
0.0
 24
0.0
 34
0.0
 15
0.0
 25
0.0
 35
0.0
146
0.0
 13
0.0
 23
0.0
 33
0.0
 16
1.0
 26
0.0
 36
0.0
 17
0.0
 27
1.0
 37
0.0
 76
     0
330
23
  0
LAYOUT
  5
22
102
{ACAD_REACTORS
330
1A
102
}
330
1A
100
AcDbPlotSettings
  1

  2
none_device
  4

  6

 40
0.0
 41
0.0
 42
0.0
 43
0.0
 44
0.0
 45
0.0
 46
0.0
 47
0.0
 48
0.0
 49
0.0
140
0.0
141
0.0
142
1.0
143
1.0
 70
  1712
 72
     0
 73
     0
 74
     0
  7

 75
     0
 76
     0
 77
     2
 78
   300
147
1.0
148
0.0
149
0.0
100
AcDbLayout
  1
Model
 70
     1
 71
     0
 10
0.0
 20
0.0
 11
12.0
 21
9.0
 12
0.0
 22
0.0
 32
0.0
 14
1.000000000000000E+20
 24
1.000000000000000E+20
 34
1.000000000000000E+20
 15
-1.000000000000000E+20
 25
-1.000000000000000E+20
 35
-1.000000000000000E+20
146
0.0
 13
0.0
 23
0.0
 33
0.0
 16
1.0
 26
0.0
 36
0.0
 17
0.0
 27
1.0
 37
0.0
 76
     0
330
1F
331
29
  0
MATERIAL
  5
3D
102
{ACAD_REACTORS
330
3B
102
}
330
3B
100
AcDbMaterial
  1
ByBlock
 72
     1
 94
      127
  0
MATERIAL
  5
3C
102
{ACAD_REACTORS
330
3B
102
}
330
3B
100
AcDbMaterial
  1
ByLayer
 72
     1
 94
      127
  0
MATERIAL
  5
3E
102
{ACAD_REACTORS
330
3B
102
}
330
3B
100
AcDbMaterial
  1
Global
 72
     1
 94
      127
  0
MLINESTYLE
  5
18
102
{ACAD_REACTORS
330
17
102
}
330
17
100
AcDbMlineStyle
  2
Standard
 70
     0
  3

 62
   256
 51
90.0
 52
90.0
 71
     2
 49
0.5
 62
   256
  6
BYLAYER
 49
-0.5
 62
   256
  6
BYLAYER
  0
ACDBPLACEHOLDER
  5
F
102
{ACAD_REACTORS
330
E
102
}
330
E
  0
VISUALSTYLE
  5
2F
102
{ACAD_REACTORS
330
2A
102
}
330
2A
100
AcDbVisualStyle
  2
2dWireframe
 70
     4
177
     2
291
     0
 71
     0
176
     1
 72
     2
176
     1
 73
     0
176
     1
 90
        0
176
     1
 40
-0.6
176
     1
 41
-30.0
176
     1
 62
     5
 63
     7
421
 16777215
176
     1
 74
     1
176
     1
 91
        4
176
     1
 64
     7
176
     1
 65
   257
176
     1
 75
     1
176
     1
175
     1
176
     1
 42
1.0
176
     1
 92
        0
176
     1
 66
   257
176
     1
 43
1.0
176
     1
 76
     1
176
     1
 77
     6
176
     1
 78
     2
176
     1
 67
     7
176
     1
 79
     5
176
     1
170
     0
176
     1
171
     0
176
     1
290
     0
176
     1
 93
        1
176
     1
 44
0.0
176
     1
173
     0
176
     1
  0
VISUALSTYLE
  5
31
102
{ACAD_REACTORS
330
2A
102
}
330
2A
100
AcDbVisualStyle
  2
3D Hidden
 70
     6
177
     2
291
     0
 71
     1
176
     1
 72
     2
176
     1
 73
     2
176
     1
 90
        0
176
     1
 40
-0.6
176
     1
 41
-30.0
176
     1
 62
     5
 63
     7
421
 16777215
176
     1
 74
     2
176
     1
 91
        2
176
     1
 64
     7
176
     1
 65
   257
176
     1
 75
     2
176
     1
175
     1
176
     1
 42
40.0
176
     1
 92
        0
176
     1
 66
   257
176
     1
 43
1.0
176
     1
 76
     1
176
     1
 77
     6
176
     1
 78
     2
176
     1
 67
     7
176
     1
 79
     3
176
     1
170
     0
176
     1
171
     0
176
     1
290
     0
176
     1
 93
        1
176
     1
 44
0.0
176
     1
173
     0
176
     1
  0
VISUALSTYLE
  5
30
102
{ACAD_REACTORS
330
2A
102
}
330
2A
100
AcDbVisualStyle
  2
3dWireframe
 70
     5
177
     2
291
     0
 71
     0
176
     1
 72
     2
176
     1
 73
     0
176
     1
 90
        0
176
     1
 40
-0.6
176
     1
 41
-30.0
176
     1
 62
     5
 63
     7
421
 16777215
176
     1
 74
     1
176
     1
 91
        4
176
     1
 64
     7
176
     1
 65
   257
176
     1
 75
     1
176
     1
175
     1
176
     1
 42
1.0
176
     1
 92
        0
176
     1
 66
   257
176
     1
 43
1.0
176
     1
 76
     1
176
     1
 77
     6
176
     1
 78
     2
176
     1
 67
     7
176
     1
 79
     5
176
     1
170
     0
176
     1
171
     0
176
     1
290
     0
176
     1
 93
        1
176
     1
 44
0.0
176
     1
173
     0
176
     1
  0
VISUALSTYLE
  5
32
102
{ACAD_REACTORS
330
2A
102
}
330
2A
100
AcDbVisualStyle
  2
Basic
 70
     7
177
     2
291
     1
 71
     1
176
     1
 72
     0
176
     1
 73
     1
176
     1
 90
        0
176
     1
 40
-0.6
176
     1
 41
-30.0
176
     1
 62
     5
 63
     7
421
 16777215
176
     1
 74
     0
176
     1
 91
        4
176
     1
 64
     7
176
     1
 65
   257
176
     1
 75
     1
176
     1
175
     1
176
     1
 42
1.0
176
     1
 92
        8
176
     1
 66
     7
176
     1
 43
1.0
176
     1
 76
     1
176
     1
 77
     6
176
     1
 78
     2
176
     1
 67
     7
176
     1
 79
     5
176
     1
170
     0
176
     1
171
     0
176
     1
290
     0
176
     1
 93
        1
176
     1
 44
0.0
176
     1
173
     0
176
     1
  0
VISUALSTYLE
  5
36
102
{ACAD_REACTORS
330
2A
102
}
330
2A
100
AcDbVisualStyle
  2
Brighten
 70
    12
177
     2
291
     1
 71
     2
176
     1
 72
     2
176
     1
 73
     0
176
     1
 90
        0
176
     1
 40
-0.6
176
     1
 41
-30.0
176
     1
 62
     5
 63
     7
421
 16777215
176
     1
 74
     1
176
     1
 91
        4
176
     1
 64
     7
176
     1
 65
   257
176
     1
 75
     1
176
     1
175
     1
176
     1
 42
1.0
176
     1
 92
        8
176
     1
 66
     7
176
     1
 43
1.0
176
     1
 76
     1
176
     1
 77
     6
176
     1
 78
     2
176
     1
 67
     7
176
     1
 79
     5
176
     1
170
     0
176
     1
171
     0
176
     1
290
     0
176
     1
 93
        1
176
     1
 44
50.0
176
     1
173
     0
176
     1
  0
VISUALSTYLE
  5
3A
102
{ACAD_REACTORS
330
2A
102
}
330
2A
100
AcDbVisualStyle
  2
ColorChange
 70
    16
177
     2
291
     1
 71
     2
176
     1
 72
     2
176
     1
 73
     3
176
     1
 90
        0
176
     1
 40
-0.6
176
     1
 41
-30.0
176
     1
 62
     5
 63
     8
421
  8421504
176
     1
 74
     1
176
     1
 91
        4
176
     1
 64
     7
176
     1
 65
   257
176
     1
 75
     1
176
     1
175
     1
176
     1
 42
1.0
176
     1
 92
        8
176
     1
 66
     8
424
  8421504
176
     1
 43
1.0
176
     1
 76
     1
176
     1
 77
     6
176
     1
 78
     2
176
     1
 67
     7
176
     1
 79
     5
176
     1
170
     0
176
     1
171
     0
176
     1
290
     0
176
     1
 93
        1
176
     1
 44
0.0
176
     1
173
     0
176
     1
  0
VISUALSTYLE
  5
34
102
{ACAD_REACTORS
330
2A
102
}
330
2A
100
AcDbVisualStyle
  2
Conceptual
 70
     9
177
     2
291
     0
 71
     3
176
     1
 72
     2
176
     1
 73
     0
176
     1
 90
        0
176
     1
 40
-0.6
176
     1
 41
-30.0
176
     1
 62
     5
 63
     7
421
 16777215
176
     1
 74
     2
176
     1
 91
        2
176
     1
 64
     7
176
     1
 65
   257
176
     1
 75
     1
176
     1
175
     1
176
     1
 42
40.0
176
     1
 92
        8
176
     1
 66
     7
176
     1
 43
1.0
176
     1
 76
     1
176
     1
 77
     6
176
     1
 78
     2
176
     1
 67
     7
176
     1
 79
     3
176
     1
170
     0
176
     1
171
     0
176
     1
290
     0
176
     1
 93
        1
176
     1
 44
0.0
176
     1
173
     0
176
     1
  0
VISUALSTYLE
  5
35
102
{ACAD_REACTORS
330
2A
102
}
330
2A
100
AcDbVisualStyle
  2
Dim
 70
    11
177
     2
291
     1
 71
     2
176
     1
 72
     2
176
     1
 73
     0
176
     1
 90
        0
176
     1
 40
-0.6
176
     1
 41
-30.0
176
     1
 62
     5
 63
     7
421
 16777215
176
     1
 74
     1
176
     1
 91
        4
176
     1
 64
     7
176
     1
 65
   257
176
     1
 75
     1
176
     1
175
     1
176
     1
 42
1.0
176
     1
 92
        8
176
     1
 66
     7
176
     1
 43
1.0
176
     1
 76
     1
176
     1
 77
     6
176
     1
 78
     2
176
     1
 67
     7
176
     1
 79
     5
176
     1
170
     0
176
     1
171
     0
176
     1
290
     0
176
     1
 93
        1
176
     1
 44
-50.0
176
     1
173
     0
176
     1
  0
VISUALSTYLE
  5
39
102
{ACAD_REACTORS
330
2A
102
}
330
2A
100
AcDbVisualStyle
  2
Facepattern
 70
    15
177
     2
291
     1
 71
     2
176
     1
 72
     2
176
     1
 73
     0
176
     1
 90
        0
176
     1
 40
-0.6
176
     1
 41
-30.0
176
     1
 62
     5
 63
     7
421
 16777215
176
     1
 74
     1
176
     1
 91
        4
176
     1
 64
     7
176
     1
 65
   257
176
     1
 75
     1
176
     1
175
     1
176
     1
 42
1.0
176
     1
 92
        8
176
     1
 66
     7
176
     1
 43
1.0
176
     1
 76
     1
176
     1
 77
     6
176
     1
 78
     2
176
     1
 67
     7
176
     1
 79
     5
176
     1
170
     0
176
     1
171
     0
176
     1
290
     0
176
     1
 93
        1
176
     1
 44
0.0
176
     1
173
     0
176
     1
  0
VISUALSTYLE
  5
2B
102
{ACAD_REACTORS
330
2A
102
}
330
2A
100
AcDbVisualStyle
  2
Flat
 70
     0
177
     2
291
     1
 71
     2
176
     1
 72
     1
176
     1
 73
     1
176
     1
 90
        2
176
     1
 40
-0.6
176
     1
 41
30.0
176
     1
 62
     5
 63
     7
421
 16777215
176
     1
 74
     0
176
     1
 91
        4
176
     1
 64
     7
176
     1
 65
   257
176
     1
 75
     1
176
     1
175
     1
176
     1
 42
1.0
176
     1
 92
        8
176
     1
 66
     7
176
     1
 43
1.0
176
     1
 76
     1
176
     1
 77
     6
176
     1
 78
     2
176
     1
 67
     7
176
     1
 79
     5
176
     1
170
     0
176
     1
171
     0
176
     1
290
     0
176
     1
 93
       13
176
     1
 44
0.0
176
     1
173
     0
176
     1
  0
VISUALSTYLE
  5
2C
102
{ACAD_REACTORS
330
2A
102
}
330
2A
100
AcDbVisualStyle
  2
FlatWithEdges
 70
     1
177
     2
291
     1
 71
     2
176
     1
 72
     1
176
     1
 73
     1
176
     1
 90
        2
176
     1
 40
-0.6
176
     1
 41
30.0
176
     1
 62
     5
 63
     7
421
 16777215
176
     1
 74
     1
176
     1
 91
        4
176
     1
 64
     7
176
     1
 65
   257
176
     1
 75
     1
176
     1
175
     1
176
     1
 42
1.0
176
     1
 92
        0
176
     1
 66
   257
176
     1
 43
1.0
176
     1
 76
     1
176
     1
 77
     6
176
     1
 78
     2
176
     1
 67
     7
176
     1
 79
     5
176
     1
170
     0
176
     1
171
     0
176
     1
290
     0
176
     1
 93
       13
176
     1
 44
0.0
176
     1
173
     0
176
     1
  0
VISUALSTYLE
  5
2D
102
{ACAD_REACTORS
330
2A
102
}
330
2A
100
AcDbVisualStyle
  2
Gouraud
 70
     2
177
     2
291
     1
 71
     2
176
     1
 72
     2
176
     1
 73
     1
176
     1
 90
        2
176
     1
 40
-0.6
176
     1
 41
30.0
176
     1
 62
     5
 63
     7
421
 16777215
176
     1
 74
     0
176
     1
 91
        4
176
     1
 64
     7
176
     1
 65
   257
176
     1
 75
     1
176
     1
175
     1
176
     1
 42
1.0
176
     1
 92
        0
176
     1
 66
     7
176
     1
 43
1.0
176
     1
 76
     1
176
     1
 77
     6
176
     1
 78
     2
176
     1
 67
     7
176
     1
 79
     5
176
     1
170
     0
176
     1
171
     0
176
     1
290
     0
176
     1
 93
       13
176
     1
 44
0.0
176
     1
173
     0
176
     1
  0
VISUALSTYLE
  5
2E
102
{ACAD_REACTORS
330
2A
102
}
330
2A
100
AcDbVisualStyle
  2
GouraudWithEdges
 70
     3
177
     2
291
     1
 71
     2
176
     1
 72
     2
176
     1
 73
     1
176
     1
 90
        2
176
     1
 40
-0.6
176
     1
 41
30.0
176
     1
 62
     5
 63
     7
421
 16777215
176
     1
 74
     1
176
     1
 91
        4
176
     1
 64
     7
176
     1
 65
   257
176
     1
 75
     1
176
     1
175
     1
176
     1
 42
1.0
176
     1
 92
        0
176
     1
 66
   257
176
     1
 43
1.0
176
     1
 76
     1
176
     1
 77
     6
176
     1
 78
     2
176
     1
 67
     7
176
     1
 79
     5
176
     1
170
     0
176
     1
171
     0
176
     1
290
     0
176
     1
 93
       13
176
     1
 44
0.0
176
     1
173
     0
176
     1
  0
VISUALSTYLE
  5
38
102
{ACAD_REACTORS
330
2A
102
}
330
2A
100
AcDbVisualStyle
  2
Linepattern
 70
    14
177
     2
291
     1
 71
     2
176
     1
 72
     2
176
     1
 73
     0
176
     1
 90
        0
176
     1
 40
-0.6
176
     1
 41
-30.0
176
     1
 62
     5
 63
     7
421
 16777215
176
     1
 74
     1
176
     1
 91
        4
176
     1
 64
     7
176
     1
 65
   257
176
     1
 75
     7
176
     1
175
     7
176
     1
 42
1.0
176
     1
 92
        8
176
     1
 66
     7
176
     1
 43
1.0
176
     1
 76
     1
176
     1
 77
     6
176
     1
 78
     2
176
     1
 67
     7
176
     1
 79
     5
176
     1
170
     0
176
     1
171
     0
176
     1
290
     0
176
     1
 93
        1
176
     1
 44
0.0
176
     1
173
     0
176
     1
  0
VISUALSTYLE
  5
33
102
{ACAD_REACTORS
330
2A
102
}
330
2A
100
AcDbVisualStyle
  2
Realistic
 70
     8
177
     2
291
     0
 71
     2
176
     1
 72
     2
176
     1
 73
     0
176
     1
 90
        0
176
     1
 40
-0.6
176
     1
 41
-30.0
176
     1
 62
     5
 63
     7
421
 16777215
176
     1
 74
     1
176
     1
 91
        0
176
     1
 64
     7
176
     1
 65
   257
176
     1
 75
     1
176
     1
175
     1
176
     1
 42
1.0
176
     1
 92
        8
176
     1
 66
     8
424
  7895160
176
     1
 43
1.0
176
     1
 76
     1
176
     1
 77
     6
176
     1
 78
     2
176
     1
 67
     7
176
     1
 79
     5
176
     1
170
     0
176
     1
171
     0
176
     1
290
     0
176
     1
 93
       13
176
     1
 44
0.0
176
     1
173
     0
176
     1
  0
VISUALSTYLE
  5
37
102
{ACAD_REACTORS
330
2A
102
}
330
2A
100
AcDbVisualStyle
  2
Thicken
 70
    13
177
     2
291
     1
 71
     2
176
     1
 72
     2
176
     1
 73
     0
176
     1
 90
        0
176
     1
 40
-0.6
176
     1
 41
-30.0
176
     1
 62
     5
 63
     7
421
 16777215
176
     1
 74
     1
176
     1
 91
        4
176
     1
 64
     7
176
     1
 65
   257
176
     1
 75
     1
176
     1
175
     1
176
     1
 42
1.0
176
     1
 92
       12
176
     1
 66
     7
176
     1
 43
1.0
176
     1
 76
     1
176
     1
 77
     6
176
     1
 78
     2
176
     1
 67
     7
176
     1
 79
     5
176
     1
170
     0
176
     1
171
     0
176
     1
290
     0
176
     1
 93
        1
176
     1
 44
0.0
176
     1
173
     0
176
     1
  0
ENDSEC
  0
EOF
