  0
SECTION
  2
HEADER
  9
$ACADVER
  1
AC1024
  9
$ACADMAINTVER
 70
     6
  9
$DWGCODEPAGE
  3
UNDEFINED
  9
$INSBASE
 10
0.0
 20
0.0
 30
0.0
  9
$EXTMIN
 10
1.000000000000000E+20
 20
1.000000000000000E+20
 30
1.000000000000000E+20
  9
$EXTMAX
 10
-1.000000000000000E+20
 20
-1.000000000000000E+20
 30
-1.000000000000000E+20
  9
$LIMMIN
 10
0.0
 20
0.0
  9
$LIMMAX
 10
12.0
 20
9.0
  9
$ORTHOMODE
 70
     0
  9
$REGENMODE
 70
     1
  9
$FILLMODE
 70
     1
  9
$QTEXTMODE
 70
     0
  9
$MIRRTEXT
 70
     1
  9
$LTSCALE
 40
1.0
  9
$ATTMODE
 70
     1
  9
$TEXTSIZE
 40
0.2
  9
$TRACEWID
 40
0.05
  9
$TEXTSTYLE
  7
Standard
  9
$CLAYER
  8
0
  9
$CELTYPE
  6
ByLayer
  9
$CECOLOR
 62
   256
  9
$CELTSCALE
 40
1.0
  9
$DISPSILH
 70
     0
  9
$DIMSCALE
 40
1.0
  9
$DIMASZ
 40
0.18
  9
$DIMEXO
 40
0.0625
  9
$DIMDLI
 40
0.38
  9
$DIMRND
 40
0.0
  9
$DIMDLE
 40
0.0
  9
$DIMEXE
 40
0.18
  9
$DIMTP
 40
0.0
  9
$DIMTM
 40
0.0
  9
$DIMTXT
 40
0.18
  9
$DIMCEN
 40
0.09
  9
$DIMTSZ
 40
0.0
  9
$DIMTOL
 70
     0
  9
$DIMLIM
 70
     0
  9
$DIMTIH
 70
     1
  9
$DIMTOH
 70
     1
  9
$DIMSE1
 70
     0
  9
$DIMSE2
 70
     0
  9
$DIMTAD
 70
     0
  9
$DIMZIN
 70
     0
  9
$DIMBLK
  1

  9
$DIMASO
 70
     1
  9
$DIMSHO
 70
     1
  9
$DIMPOST
  1

  9
$DIMAPOST
  1

  9
$DIMALT
 70
     0
  9
$DIMALTD
 70
     2
  9
$DIMALTF
 40
25.4
  9
$DIMLFAC
 40
1.0
  9
$DIMTOFL
 70
     0
  9
$DIMTVP
 40
0.0
  9
$DIMTIX
 70
     0
  9
$DIMSOXD
 70
     0
  9
$DIMSAH
 70
     0
  9
$DIMBLK1
  1

  9
$DIMBLK2
  1

  9
$DIMSTYLE
  2
Standard
  9
$DIMCLRD
 70
     0
  9
$DIMCLRE
 70
     0
  9
$DIMCLRT
 70
     0
  9
$DIMTFAC
 40
1.0
  9
$DIMGAP
 40
0.09
  9
$DIMJUST
 70
     0
  9
$DIMSD1
 70
     0
  9
$DIMSD2
 70
     0
  9
$DIMTOLJ
 70
     1
  9
$DIMTZIN
 70
     0
  9
$DIMALTZ
 70
     0
  9
$DIMALTTZ
 70
     0
  9
$DIMUPT
 70
     0
  9
$DIMDEC
 70
     4
  9
$DIMTDEC
 70
     4
  9
$DIMALTU
 70
     2
  9
$DIMALTTD
 70
     2
  9
$DIMTXSTY
  7
Standard
  9
$DIMAUNIT
 70
     0
  9
$DIMADEC
 70
     0
  9
$DIMALTRND
 40
0.0
  9
$DIMAZIN
 70
     0
  9
$DIMDSEP
 70
    46
  9
$DIMATFIT
 70
     3
  9
$DIMFRAC
 70
     0
  9
$DIMLDRBLK
  1

  9
$DIMLUNIT
 70
     2
  9
$DIMLWD
 70
    -2
  9
$DIMLWE
 70
    -2
  9
$DIMTMOVE
 70
     0
  9
$DIMFXL
 40
1.0
  9
$DIMFXLON
 70
     0
  9
$DIMJOGANG
 40
0.7853981633974483
  9
$DIMTFILL
 70
     0
  9
$DIMTFILLCLR
 70
     0
  9
$DIMARCSYM
 70
     0
  9
$DIMLTYPE
  6

  9
$DIMLTEX1
  6

  9
$DIMLTEX2
  6

  9
$DIMTXTDIRECTION
 70
     0
  9
$LUNITS
 70
     2
  9
$LUPREC
 70
     4
  9
$SKETCHINC
 40
0.1
  9
$FILLETRAD
 40
0.5
  9
$AUNITS
 70
     0
  9
$AUPREC
 70
     0
  9
$MENU
  1
.
  9
$ELEVATION
 40
0.0
  9
$PELEVATION
 40
0.0
  9
$THICKNESS
 40
0.0
  9
$LIMCHECK
 70
     0
  9
$CHAMFERA
 40
0.5
  9
$CHAMFERB
 40
0.5
  9
$CHAMFERC
 40
1.0
  9
$CHAMFERD
 40
0.0
  9
$SKPOLY
 70
     0
  9
$TDCREATE
 40
2457917.617465266
  9
$TDUCREATE
 40
2457917.242465278
  9
$TDUPDATE
 40
2457917.617465266
  9
$TDUUPDATE
 40
2457917.242465278
  9
$TDINDWG
 40
0.0000000116
  9
$TDUSRTIMER
 40
0.0000000116
  9
$USRTIMER
 70
     1
  9
$ANGBASE
 50
0.0
  9
$ANGDIR
 70
     0
  9
$PDMODE
 70
     0
  9
$PDSIZE
 40
0.0
  9
$PLINEWID
 40
0.0
  9
$SPLFRAME
 70
     0
  9
$SPLINETYPE
 70
     6
  9
$SPLINESEGS
 70
     8
  9
$HANDSEED
  5
144
  9
$SURFTAB1
 70
     6
  9
$SURFTAB2
 70
     6
  9
$SURFTYPE
 70
     6
  9
$SURFU
 70
     6
  9
$SURFV
 70
     6
  9
$UCSBASE
  2

  9
$UCSNAME
  2

  9
$UCSORG
 10
0.0
 20
0.0
 30
0.0
  9
$UCSXDIR
 10
1.0
 20
0.0
 30
0.0
  9
$UCSYDIR
 10
0.0
 20
1.0
 30
0.0
  9
$UCSORTHOREF
  2

  9
$UCSORTHOVIEW
 70
     0
  9
$UCSORGTOP
 10
0.0
 20
0.0
 30
0.0
  9
$UCSORGBOTTOM
 10
0.0
 20
0.0
 30
0.0
  9
$UCSORGLEFT
 10
0.0
 20
0.0
 30
0.0
  9
$UCSORGRIGHT
 10
0.0
 20
0.0
 30
0.0
  9
$UCSORGFRONT
 10
0.0
 20
0.0
 30
0.0
  9
$UCSORGBACK
 10
0.0
 20
0.0
 30
0.0
  9
$PUCSBASE
  2

  9
$PUCSNAME
  2

  9
$PUCSORG
 10
0.0
 20
0.0
 30
0.0
  9
$PUCSXDIR
 10
1.0
 20
0.0
 30
0.0
  9
$PUCSYDIR
 10
0.0
 20
1.0
 30
0.0
  9
$PUCSORTHOREF
  2

  9
$PUCSORTHOVIEW
 70
     0
  9
$PUCSORGTOP
 10
0.0
 20
0.0
 30
0.0
  9
$PUCSORGBOTTOM
 10
0.0
 20
0.0
 30
0.0
  9
$PUCSORGLEFT
 10
0.0
 20
0.0
 30
0.0
  9
$PUCSORGRIGHT
 10
0.0
 20
0.0
 30
0.0
  9
$PUCSORGFRONT
 10
0.0
 20
0.0
 30
0.0
  9
$PUCSORGBACK
 10
0.0
 20
0.0
 30
0.0
  9
$USERI1
 70
     0
  9
$USERI2
 70
     0
  9
$USERI3
 70
     0
  9
$USERI4
 70
     0
  9
$USERI5
 70
     0
  9
$USERR1
 40
0.0
  9
$USERR2
 40
0.0
  9
$USERR3
 40
0.0
  9
$USERR4
 40
0.0
  9
$USERR5
 40
0.0
  9
$WORLDVIEW
 70
     1
  9
$SHADEDGE
 70
     3
  9
$SHADEDIF
 70
    70
  9
$TILEMODE
 70
     1
  9
$MAXACTVP
 70
    64
  9
$PINSBASE
 10
0.0
 20
0.0
 30
0.0
  9
$PLIMCHECK
 70
     0
  9
$PEXTMIN
 10
1.000000000000000E+20
 20
1.000000000000000E+20
 30
1.000000000000000E+20
  9
$PEXTMAX
 10
-1.000000000000000E+20
 20
-1.000000000000000E+20
 30
-1.000000000000000E+20
  9
$PLIMMIN
 10
0.0
 20
0.0
  9
$PLIMMAX
 10
12.0
 20
9.0
  9
$UNITMODE
 70
     0
  9
$VISRETAIN
 70
     1
  9
$PLINEGEN
 70
     0
  9
$PSLTSCALE
 70
     1
  9
$TREEDEPTH
 70
  3020
  9
$CMLSTYLE
  2
Standard
  9
$CMLJUST
 70
     0
  9
$CMLSCALE
 40
1.0
  9
$PROXYGRAPHICS
 70
     1
  9
$MEASUREMENT
 70
     0
  9
$CELWEIGHT
370
    -1
  9
$ENDCAPS
280
     0
  9
$JOINSTYLE
280
     0
  9
$LWDISPLAY
290
     1
  9
$INSUNITS
 70
     1
  9
$HYPERLINKBASE
  1

  9
$STYLESHEET
  1

  9
$XEDIT
290
     1
  9
$CEPSNTYPE
380
     0
  9
$PSTYLEMODE
290
     1
  9
$FINGERPRINTGUID
  2
{D94AF4DC-3494-9AFB-A23D-35AB6478E37D}
  9
$VERSIONGUID
  2
{FAEB1C32-E019-11D5-929B-00C0DF256EC4}
  9
$EXTNAMES
290
     1
  9
$PSVPSCALE
 40
0.0
  9
$OLESTARTUP
290
     0
  9
$SORTENTS
280
   127
  9
$INDEXCTL
280
     0
  9
$HIDETEXT
280
     1
  9
$XCLIPFRAME
280
     2
  9
$HALOGAP
280
     0
  9
$OBSCOLOR
 70
   257
  9
$OBSLTYPE
280
     0
  9
$INTERSECTIONDISPLAY
280
     0
  9
$INTERSECTIONCOLOR
 70
   257
  9
$DIMASSOC
280
     2
  9
$PROJECTNAME
  1

  9
$CAMERADISPLAY
290
     0
  9
$LENSLENGTH
 40
50.0
  9
$CAMERAHEIGHT
 40
0.0
  9
$STEPSPERSEC
 40
2.0
  9
$STEPSIZE
 40
6.0
  9
$3DDWFPREC
 40
2.0
  9
$PSOLWIDTH
 40
0.25
  9
$PSOLHEIGHT
 40
4.0
  9
$LOFTANG1
 40
1.570796326794897
  9
$LOFTANG2
 40
1.570796326794897
  9
$LOFTMAG1
 40
0.0
  9
$LOFTMAG2
 40
0.0
  9
$LOFTPARAM
 70
     7
  9
$LOFTNORMALS
280
     1
  9
$LATITUDE
 40
37.795
  9
$LONGITUDE
 40
-122.394
  9
$NORTHDIRECTION
 40
0.0
  9
$TIMEZONE
 70
 -8000
  9
$LIGHTGLYPHDISPLAY
280
     1
  9
$TILEMODELIGHTSYNCH
280
     1
  9
$CMATERIAL
347
3C
  9
$SOLIDHIST
280
     1
  9
$SHOWHIST
280
     1
  9
$DWFFRAME
280
     2
  9
$DGNFRAME
280
     2
  9
$REALWORLDSCALE
290
     1
  9
$INTERFERECOLOR
 62
   256
  9
$CSHADOW
280
     0
  9
$SHADOWPLANELOCATION
 40
0.0
  0
ENDSEC
  0
SECTION
  2
CLASSES
  0
CLASS
  1
ACDBDICTIONARYWDFLT
  2
AcDbDictionaryWithDefault
  3
ObjectDBX Classes
 90
        0
 91
        4
280
     0
281
     0
  0
CLASS
  1
VISUALSTYLE
  2
AcDbVisualStyle
  3
ObjectDBX Classes
 90
     4095
 91
        4
280
     0
281
     0
  0
CLASS
  1
MATERIAL
  2
AcDbMaterial
  3
ObjectDBX Classes
 90
     1153
 91
        4
280
     0
281
     0
  0
CLASS
  1
SUN
  2
AcDbSun
  3
SCENEOE
 90
     1024
 91
        4
280
     0
281
     0
  0
ENDSEC
  0
SECTION
  2
TABLES
  0
TABLE
  2
VPORT
  5
8
330
0
100
AcDbSymbolTable
 70
     1
  0
VPORT
  5
29
330
8
100
AcDbSymbolTableRecord
100
AcDbViewportTableRecord
  2
*Active
 70
     0
 10
0.0
 20
0.0
 11
1.0
 21
1.0
 12
0.0
 22
0.0
 13
0.0
 23
0.0
 14
0.5
 24
0.5
 15
0.5
 25
0.5
 16
0.0
 26
0.0
 36
1.0
 17
91.00082462281999
 27
-128.4993055234307
 37
0.0
 40
256.9986110468615
 41
0.7081814508812795
 42
50.0
 43
0.0
 44
0.0
 50
0.0
 51
0.0
 71
     0
 72
   100
 73
     1
 74
     3
 75
     0
 76
     0
 77
     0
 78
     0
281
     0
 65
     1
110
0.0
120
0.0
130
0.0
111
1.0
121
0.0
131
0.0
112
0.0
122
1.0
132
0.0
 79
     0
146
0.0
 60
     3
 61
     5
292
     1
282
     1
141
0.0
142
0.0
 63
   250
361
3F
  0
ENDTAB
  0
TABLE
  2
LTYPE
  5
5
330
0
100
AcDbSymbolTable
 70
     1
  0
LTYPE
  5
14
330
5
100
AcDbSymbolTableRecord
100
AcDbLinetypeTableRecord
  2
ByBlock
 70
     0
  3

 72
    65
 73
     0
 40
0.0
  0
LTYPE
  5
15
330
5
100
AcDbSymbolTableRecord
100
AcDbLinetypeTableRecord
  2
ByLayer
 70
     0
  3

 72
    65
 73
     0
 40
0.0
  0
LTYPE
  5
16
330
5
100
AcDbSymbolTableRecord
100
AcDbLinetypeTableRecord
  2
Continuous
 70
     0
  3
Solid line
 72
    65
 73
     0
 40
0.0
  0
ENDTAB
  0
TABLE
  2
LAYER
  5
2
330
0
100
AcDbSymbolTable
 70
     2
  0
LAYER
  5
10
330
2
100
AcDbSymbolTableRecord
100
AcDbLayerTableRecord
  2
0
 70
     0
 62
     7
  6
Continuous
370
    -3
390
F
347
3E
  0
LAYER
  5
40
330
2
100
AcDbSymbolTableRecord
100
AcDbLayerTableRecord
  2
_U+30EC_U+30A4_U+30E4_U+30FC 1
 70
     0
 62
     7
  6
Continuous
370
    -3
390
F
347
3E
  0
ENDTAB
  0
TABLE
  2
STYLE
  5
3
330
0
100
AcDbSymbolTable
 70
     1
  0
STYLE
  5
11
330
3
100
AcDbSymbolTableRecord
100
AcDbTextStyleTableRecord
  2
Standard
 70
     0
 40
0.0
 41
1.0
 50
0.0
 71
     0
 42
0.2
  3
txt
  4

  0
ENDTAB
  0
TABLE
  2
VIEW
  5
6
330
0
100
AcDbSymbolTable
 70
     0
  0
ENDTAB
  0
TABLE
  2
UCS
  5
7
330
0
100
AcDbSymbolTable
 70
     0
  0
ENDTAB
  0
TABLE
  2
APPID
  5
9
330
0
100
AcDbSymbolTable
 70
     1
  0
APPID
  5
12
330
9
100
AcDbSymbolTableRecord
100
AcDbRegAppTableRecord
  2
ACAD
 70
     0
  0
ENDTAB
  0
TABLE
  2
DIMSTYLE
  5
A
330
0
100
AcDbSymbolTable
 70
     1
100
AcDbDimStyleTable
  0
DIMSTYLE
105
27
330
A
100
AcDbSymbolTableRecord
100
AcDbDimStyleTableRecord
  2
Standard
 70
     0
178
     0
340
11
  0
ENDTAB
  0
TABLE
  2
BLOCK_RECORD
  5
1
330
0
100
AcDbSymbolTable
 70
    11
  0
BLOCK_RECORD
  5
1F
330
1
100
AcDbSymbolTableRecord
100
AcDbBlockTableRecord
  2
*Model_Space
340
22
 70
     0
280
     1
281
     0
  0
BLOCK_RECORD
  5
1B
330
1
100
AcDbSymbolTableRecord
100
AcDbBlockTableRecord
  2
*Paper_Space
340
1E
 70
     0
280
     1
281
     0
  0
BLOCK_RECORD
  5
23
330
1
100
AcDbSymbolTableRecord
100
AcDbBlockTableRecord
  2
*Paper_Space0
340
26
 70
     0
280
     1
281
     0
  0
BLOCK_RECORD
  5
4D
330
1
100
AcDbSymbolTableRecord
100
AcDbBlockTableRecord
  2
block 2
340
0
102
{BLKREFS
331
4E
102
}
 70
     0
280
     1
281
     0
  0
BLOCK_RECORD
  5
7A
330
1
100
AcDbSymbolTableRecord
100
AcDbBlockTableRecord
  2
block 3
340
0
102
{BLKREFS
331
7B
102
}
 70
     0
280
     1
281
     0
  0
BLOCK_RECORD
  5
9A
330
1
100
AcDbSymbolTableRecord
100
AcDbBlockTableRecord
  2
block 4
340
0
102
{BLKREFS
331
9B
102
}
 70
     0
280
     1
281
     0
  0
BLOCK_RECORD
  5
AE
330
1
100
AcDbSymbolTableRecord
100
AcDbBlockTableRecord
  2
block 5
340
0
102
{BLKREFS
331
AF
102
}
 70
     0
280
     1
281
     0
  0
BLOCK_RECORD
  5
B7
330
1
100
AcDbSymbolTableRecord
100
AcDbBlockTableRecord
  2
block 6
340
0
102
{BLKREFS
331
B8
102
}
 70
     0
280
     1
281
     0
  0
BLOCK_RECORD
  5
C7
330
1
100
AcDbSymbolTableRecord
100
AcDbBlockTableRecord
  2
block 7
340
0
102
{BLKREFS
331
C8
102
}
 70
     0
280
     1
281
     0
  0
BLOCK_RECORD
  5
E9
330
1
100
AcDbSymbolTableRecord
100
AcDbBlockTableRecord
  2
block 8
340
0
102
{BLKREFS
331
EA
102
}
 70
     0
280
     1
281
     0
  0
BLOCK_RECORD
  5
F1
330
1
100
AcDbSymbolTableRecord
100
AcDbBlockTableRecord
  2
block 9
340
0
102
{BLKREFS
331
F2
102
}
 70
     0
280
     1
281
     0
  0
BLOCK_RECORD
  5
115
330
1
100
AcDbSymbolTableRecord
100
AcDbBlockTableRecord
  2
block 10
340
0
102
{BLKREFS
331
116
102
}
 70
     0
280
     1
281
     0
  0
BLOCK_RECORD
  5
12E
330
1
100
AcDbSymbolTableRecord
100
AcDbBlockTableRecord
  2
block 11
340
0
102
{BLKREFS
331
12F
102
}
 70
     0
280
     1
281
     0
  0
ENDTAB
  0
ENDSEC
  0
SECTION
  2
BLOCKS
  0
BLOCK
  5
20
330
1F
100
AcDbEntity
  8
0
100
AcDbBlockBegin
  2
*Model_Space
 70
     0
 10
0.0
 20
0.0
 30
0.0
  3
*Model_Space
  1

  0
ENDBLK
  5
21
330
1F
100
AcDbEntity
  8
0
100
AcDbBlockEnd
  0
BLOCK
  5
1C
330
1B
100
AcDbEntity
 67
     1
  8
0
100
AcDbBlockBegin
  2
*Paper_Space
 70
     0
 10
0.0
 20
0.0
 30
0.0
  3
*Paper_Space
  1

  0
ENDBLK
  5
1D
330
1B
100
AcDbEntity
 67
     1
  8
0
100
AcDbBlockEnd
  0
BLOCK
  5
24
330
23
100
AcDbEntity
  8
0
100
AcDbBlockBegin
  2
*Paper_Space0
 70
     0
 10
0.0
 20
0.0
 30
0.0
  3
*Paper_Space0
  1

  0
ENDBLK
  5
25
330
23
100
AcDbEntity
  8
0
100
AcDbBlockEnd
  0
BLOCK
  5
4F
330
4D
100
AcDbEntity
  8
0
100
AcDbBlockBegin
  2
block 2
 70
     0
 10
0.0
 20
0.0
 30
0.0
  3
block 2
  1

  0
SPLINE
  5
51
330
4D
100
AcDbEntity
  8
_U+30EC_U+30A4_U+30E4_U+30FC 1
370
     0
100
AcDbSpline
210
0.0
220
0.0
230
1.0
 70
    11
 71
     3
 72
    26
 73
    22
 74
     0
 42
0.0000000001
 43
0.0000000001
 12
1.0
 22
0.0
 32
0.0
 13
1.0
 23
0.0
 33
0.0
 40
0.0
 40
0.0
 40
0.0
 40
0.0
 40
1.0
 40
1.0
 40
1.0
 40
2.0
 40
2.0
 40
2.0
 40
3.0
 40
3.0
 40
3.0
 40
4.0
 40
4.0
 40
4.0
 40
5.0
 40
5.0
 40
5.0
 40
6.0
 40
6.0
 40
6.0
 40
7.0
 40
7.0
 40
7.0
 40
7.0
 10
79.75843910766456
 20
-116.0289211406976
 30
0.0
 10
79.75843910766456
 20
-116.0289211406976
 30
0.0
 10
78.65411374986772
 20
-116.0289211406976
 30
0.0
 10
78.65411374986772
 20
-116.0289211406976
 30
0.0
 10
78.65411374986772
 20
-116.0289211406976
 30
0.0
 10
78.65411374986772
 20
-116.3589612881846
 30
0.0
 10
78.65411374986772
 20
-116.3589612881846
 30
0.0
 10
78.65411374986772
 20
-116.3589612881846
 30
0.0
 10
78.50597464400198
 20
-116.3589612881846
 30
0.0
 10
78.50597464400198
 20
-116.3589612881846
 30
0.0
 10
78.49133298818967
 20
-116.0268540834065
 30
0.0
 10
78.32837997173735
 20
-115.9803452943556
 30
0.0
 10
78.21417505640132
 20
-115.9507174731825
 30
0.0
 10
78.21417505640132
 20
-115.9507174731825
 30
0.0
 10
78.21417505640132
 20
-115.8046454246079
 30
0.0
 10
78.21417505640132
 20
-115.8046454246079
 30
0.0
 10
78.21417505640132
 20
-115.8046454246079
 30
0.0
 10
79.75843910766456
 20
-115.8046454246079
 30
0.0
 10
79.75843910766456
 20
-115.8046454246079
 30
0.0
 10
79.75843910766456
 20
-115.8046454246079
 30
0.0
 10
79.75843910766456
 20
-116.0289211406976
 30
0.0
 10
79.75843910766456
 20
-116.0289211406976
 30
0.0
  0
HATCH
  5
52
330
4D
100
AcDbEntity
  8
_U+30EC_U+30A4_U+30E4_U+30FC 1
 62
   179
420
  2234388
100
AcDbHatch
 10
0.0
 20
0.0
 30
0.0
210
0.0
220
0.0
230
1.0
  2
SOLID
 70
     1
 71
     0
 91
        1
 92
        1
 93
        1
 72
     4
 94
        3
 73
     0
 74
     1
 95
       26
 96
       22
 40
0.0
 40
0.0
 40
0.0
 40
0.0
 40
1.0
 40
1.0
 40
1.0
 40
2.0
 40
2.0
 40
2.0
 40
3.0
 40
3.0
 40
3.0
 40
4.0
 40
4.0
 40
4.0
 40
5.0
 40
5.0
 40
5.0
 40
6.0
 40
6.0
 40
6.0
 40
7.0
 40
7.0
 40
7.0
 40
7.0
 10
79.75843910766456
 20
-116.0289211406976
 10
79.75843910766456
 20
-116.0289211406976
 10
78.65411374986772
 20
-116.0289211406976
 10
78.65411374986772
 20
-116.0289211406976
 10
78.65411374986772
 20
-116.0289211406976
 10
78.65411374986772
 20
-116.3589612881846
 10
78.65411374986772
 20
-116.3589612881846
 10
78.65411374986772
 20
-116.3589612881846
 10
78.50597464400198
 20
-116.3589612881846
 10
78.50597464400198
 20
-116.3589612881846
 10
78.49133298818967
 20
-116.0268540834065
 10
78.32837997173735
 20
-115.9803452943556
 10
78.21417505640132
 20
-115.9507174731825
 10
78.21417505640132
 20
-115.9507174731825
 10
78.21417505640132
 20
-115.8046454246079
 10
78.21417505640132
 20
-115.8046454246079
 10
78.21417505640132
 20
-115.8046454246079
 10
79.75843910766456
 20
-115.8046454246079
 10
79.75843910766456
 20
-115.8046454246079
 10
79.75843910766456
 20
-115.8046454246079
 10
79.75843910766456
 20
-116.0289211406976
 10
79.75843910766456
 20
-116.0289211406976
 97
        0
 97
        0
 75
     2
 76
     1
 98
        0
  0
POLYLINE
  5
53
330
4D
100
AcDbEntity
  8
_U+30EC_U+30A4_U+30E4_U+30FC 1
370
     0
100
AcDb2dPolyline
 66
     1
 10
0.0
 20
0.0
 30
0.0
  0
VERTEX
  5
54
330
53
100
AcDbEntity
  8
_U+30EC_U+30A4_U+30E4_U+30FC 1
370
     0
100
AcDbVertex
100
AcDb2dVertex
 10
79.4115179922999
 20
-114.4713934718162
 30
0.0
  0
VERTEX
  5
55
330
53
100
AcDbEntity
  8
_U+30EC_U+30A4_U+30E4_U+30FC 1
370
     0
100
AcDbVertex
100
AcDb2dVertex
 10
79.75843910766456
 20
-114.4713934718162
 30
0.0
  0
VERTEX
  5
56
330
53
100
AcDbEntity
  8
_U+30EC_U+30A4_U+30E4_U+30FC 1
370
     0
100
AcDbVertex
100
AcDb2dVertex
 10
79.75843910766456
 20
-114.6892957612582
 30
0.0
  0
VERTEX
  5
57
330
53
100
AcDbEntity
  8
_U+30EC_U+30A4_U+30E4_U+30FC 1
370
     0
100
AcDbVertex
100
AcDb2dVertex
 10
79.4115179922999
 20
-114.6892957612582
 30
0.0
  0
VERTEX
  5
58
330
53
100
AcDbEntity
  8
_U+30EC_U+30A4_U+30E4_U+30FC 1
370
     0
100
AcDbVertex
100
AcDb2dVertex
 10
79.4115179922999
 20
-115.3450696868755
 30
0.0
  0
VERTEX
  5
59
330
53
100
AcDbEntity
  8
_U+30EC_U+30A4_U+30E4_U+30FC 1
370
     0
100
AcDbVertex
100
AcDb2dVertex
 10
79.18724227621014
 20
-115.3450696868755
 30
0.0
  0
VERTEX
  5
5A
330
53
100
AcDbEntity
  8
_U+30EC_U+30A4_U+30E4_U+30FC 1
370
     0
100
AcDbVertex
100
AcDb2dVertex
 10
78.21417505640132
 20
-114.6660413667328
 30
0.0
  0
VERTEX
  5
5B
330
53
100
AcDbEntity
  8
_U+30EC_U+30A4_U+30E4_U+30FC 1
370
     0
100
AcDbVertex
100
AcDb2dVertex
 10
78.21417505640132
 20
-114.4713934718162
 30
0.0
  0
VERTEX
  5
5C
330
53
100
AcDbEntity
  8
_U+30EC_U+30A4_U+30E4_U+30FC 1
370
     0
100
AcDbVertex
100
AcDb2dVertex
 10
79.21256372802672
 20
-114.4713934718162
 30
0.0
  0
VERTEX
  5
5D
330
53
100
AcDbEntity
  8
_U+30EC_U+30A4_U+30E4_U+30FC 1
370
     0
100
AcDbVertex
100
AcDb2dVertex
 10
79.21256372802672
 20
-114.2639987236041
 30
0.0
  0
VERTEX
  5
5E
330
53
100
AcDbEntity
  8
_U+30EC_U+30A4_U+30E4_U+30FC 1
370
     0
100
AcDbVertex
100
AcDb2dVertex
 10
79.4115179922999
 20
-114.2639987236041
 30
0.0
  0
VERTEX
  5
5F
330
53
100
AcDbEntity
  8
_U+30EC_U+30A4_U+30E4_U+30FC 1
370
     0
100
AcDbVertex
100
AcDb2dVertex
 10
79.4115179922999
 20
-114.4713934718162
 30
0.0
  0
SEQEND
  5
60
330
53
100
AcDbEntity
  8
_U+30EC_U+30A4_U+30E4_U+30FC 1
370
     0
  0
POLYLINE
  5
61
330
4D
100
AcDbEntity
  8
_U+30EC_U+30A4_U+30E4_U+30FC 1
370
     0
100
AcDb2dPolyline
 66
     1
 10
0.0
 20
0.0
 30
0.0
  0
VERTEX
  5
62
330
61
100
AcDbEntity
  8
_U+30EC_U+30A4_U+30E4_U+30FC 1
370
     0
100
AcDbVertex
100
AcDb2dVertex
 10
78.55678980240941
 20
-114.6892957612582
 30
0.0
  0
VERTEX
  5
63
330
61
100
AcDbEntity
  8
_U+30EC_U+30A4_U+30E4_U+30FC 1
370
     0
100
AcDbVertex
100
AcDb2dVertex
 10
79.21256372802672
 20
-115.1461154226024
 30
0.0
  0
VERTEX
  5
64
330
61
100
AcDbEntity
  8
_U+30EC_U+30A4_U+30E4_U+30FC 1
370
     0
100
AcDbVertex
100
AcDb2dVertex
 10
79.21256372802672
 20
-114.6892957612582
 30
0.0
  0
VERTEX
  5
65
330
61
100
AcDbEntity
  8
_U+30EC_U+30A4_U+30E4_U+30FC 1
370
     0
100
AcDbVertex
100
AcDb2dVertex
 10
78.55678980240941
 20
-114.6892957612582
 30
0.0
  0
SEQEND
  5
66
330
61
100
AcDbEntity
  8
_U+30EC_U+30A4_U+30E4_U+30FC 1
370
     0
  0
HATCH
  5
67
330
4D
100
AcDbEntity
  8
_U+30EC_U+30A4_U+30E4_U+30FC 1
 62
   179
420
  2234388
100
AcDbHatch
 10
0.0
 20
0.0
 30
0.0
210
0.0
220
0.0
230
1.0
  2
SOLID
 70
     1
 71
     0
 91
        2
 92
        1
 93
       11
 72
     1
 10
79.4115179922999
 20
-114.4713934718162
 11
79.75843910766456
 21
-114.4713934718162
 72
     1
 10
79.75843910766456
 20
-114.4713934718162
 11
79.75843910766456
 21
-114.6892957612582
 72
     1
 10
79.75843910766456
 20
-114.6892957612582
 11
79.4115179922999
 21
-114.6892957612582
 72
     1
 10
79.4115179922999
 20
-114.6892957612582
 11
79.4115179922999
 21
-115.3450696868755
 72
     1
 10
79.4115179922999
 20
-115.3450696868755
 11
79.18724227621014
 21
-115.3450696868755
 72
     1
 10
79.18724227621014
 20
-115.3450696868755
 11
78.21417505640132
 21
-114.6660413667328
 72
     1
 10
78.21417505640132
 20
-114.6660413667328
 11
78.21417505640132
 21
-114.4713934718162
 72
     1
 10
78.21417505640132
 20
-114.4713934718162
 11
79.21256372802672
 21
-114.4713934718162
 72
     1
 10
79.21256372802672
 20
-114.4713934718162
 11
79.21256372802672
 21
-114.2639987236041
 72
     1
 10
79.21256372802672
 20
-114.2639987236041
 11
79.4115179922999
 21
-114.2639987236041
 72
     1
 10
79.4115179922999
 20
-114.2639987236041
 11
79.4115179922999
 21
-114.4713934718162
 97
        0
 92
        1
 93
        3
 72
     1
 10
78.55678980240941
 20
-114.6892957612582
 11
79.21256372802672
 21
-115.1461154226024
 72
     1
 10
79.21256372802672
 20
-115.1461154226024
 11
79.21256372802672
 21
-114.6892957612582
 72
     1
 10
79.21256372802672
 20
-114.6892957612582
 11
78.55678980240941
 21
-114.6892957612582
 97
        0
 75
     2
 76
     1
 98
        0
  0
ENDBLK
  5
50
330
4D
100
AcDbEntity
  8
0
100
AcDbBlockEnd
  0
BLOCK
  5
7C
330
7A
100
AcDbEntity
  8
0
100
AcDbBlockBegin
  2
block 3
 70
     0
 10
0.0
 20
0.0
 30
0.0
  3
block 3
  1

  0
SPLINE
  5
7E
330
7A
100
AcDbEntity
  8
_U+30EC_U+30A4_U+30E4_U+30FC 1
370
     0
100
AcDbSpline
210
0.0
220
0.0
230
1.0
 70
    11
 71
     3
 72
    26
 73
    22
 74
     0
 42
0.0000000001
 43
0.0000000001
 12
1.0
 22
0.0
 32
0.0
 13
1.0
 23
0.0
 33
0.0
 40
0.0
 40
0.0
 40
0.0
 40
0.0
 40
1.0
 40
1.0
 40
1.0
 40
2.0
 40
2.0
 40
2.0
 40
3.0
 40
3.0
 40
3.0
 40
4.0
 40
4.0
 40
4.0
 40
5.0
 40
5.0
 40
5.0
 40
6.0
 40
6.0
 40
6.0
 40
7.0
 40
7.0
 40
7.0
 40
7.0
 10
111.2021701110883
 20
-157.4660128729599
 30
0.0
 10
111.2021701110883
 20
-157.4660128729599
 30
0.0
 10
110.0976724985173
 20
-157.4660128729599
 30
0.0
 10
110.0976724985173
 20
-157.4660128729599
 30
0.0
 10
110.0976724985173
 20
-157.4660128729599
 30
0.0
 10
110.0976724985173
 20
-157.7960530204468
 30
0.0
 10
110.0976724985173
 20
-157.7960530204468
 30
0.0
 10
110.0976724985173
 20
-157.7960530204468
 30
0.0
 10
109.9495333926515
 20
-157.7960530204468
 30
0.0
 10
109.9495333926515
 20
-157.7960530204468
 30
0.0
 10
109.9350639916135
 20
-157.4639458156688
 30
0.0
 10
109.7717664656126
 20
-157.4174370266179
 30
0.0
 10
109.6577338050509
 20
-157.3878092054447
 30
0.0
 10
109.6577338050509
 20
-157.3878092054447
 30
0.0
 10
109.6577338050509
 20
-157.2417371568701
 30
0.0
 10
109.6577338050509
 20
-157.2417371568701
 30
0.0
 10
109.6577338050509
 20
-157.2417371568701
 30
0.0
 10
111.2021701110883
 20
-157.2417371568701
 30
0.0
 10
111.2021701110883
 20
-157.2417371568701
 30
0.0
 10
111.2021701110883
 20
-157.2417371568701
 30
0.0
 10
111.2021701110883
 20
-157.4660128729599
 30
0.0
 10
111.2021701110883
 20
-157.4660128729599
 30
0.0
  0
HATCH
  5
7F
330
7A
100
AcDbEntity
  8
_U+30EC_U+30A4_U+30E4_U+30FC 1
 62
   179
420
  2234388
100
AcDbHatch
 10
0.0
 20
0.0
 30
0.0
210
0.0
220
0.0
230
1.0
  2
SOLID
 70
     1
 71
     0
 91
        1
 92
        1
 93
        1
 72
     4
 94
        3
 73
     0
 74
     1
 95
       26
 96
       22
 40
0.0
 40
0.0
 40
0.0
 40
0.0
 40
1.0
 40
1.0
 40
1.0
 40
2.0
 40
2.0
 40
2.0
 40
3.0
 40
3.0
 40
3.0
 40
4.0
 40
4.0
 40
4.0
 40
5.0
 40
5.0
 40
5.0
 40
6.0
 40
6.0
 40
6.0
 40
7.0
 40
7.0
 40
7.0
 40
7.0
 10
111.2021701110883
 20
-157.4660128729599
 10
111.2021701110883
 20
-157.4660128729599
 10
110.0976724985173
 20
-157.4660128729599
 10
110.0976724985173
 20
-157.4660128729599
 10
110.0976724985173
 20
-157.4660128729599
 10
110.0976724985173
 20
-157.7960530204468
 10
110.0976724985173
 20
-157.7960530204468
 10
110.0976724985173
 20
-157.7960530204468
 10
109.9495333926515
 20
-157.7960530204468
 10
109.9495333926515
 20
-157.7960530204468
 10
109.9350639916135
 20
-157.4639458156688
 10
109.7717664656126
 20
-157.4174370266179
 10
109.6577338050509
 20
-157.3878092054447
 10
109.6577338050509
 20
-157.3878092054447
 10
109.6577338050509
 20
-157.2417371568701
 10
109.6577338050509
 20
-157.2417371568701
 10
109.6577338050509
 20
-157.2417371568701
 10
111.2021701110883
 20
-157.2417371568701
 10
111.2021701110883
 20
-157.2417371568701
 10
111.2021701110883
 20
-157.2417371568701
 10
111.2021701110883
 20
-157.4660128729599
 10
111.2021701110883
 20
-157.4660128729599
 97
        0
 97
        0
 75
     2
 76
     1
 98
        0
  0
POLYLINE
  5
80
330
7A
100
AcDbEntity
  8
_U+30EC_U+30A4_U+30E4_U+30FC 1
370
     0
100
AcDb2dPolyline
 66
     1
 10
0.0
 20
0.0
 30
0.0
  0
VERTEX
  5
81
330
80
100
AcDbEntity
  8
_U+30EC_U+30A4_U+30E4_U+30FC 1
370
     0
100
AcDbVertex
100
AcDb2dVertex
 10
111.2021701110883
 20
-156.6805311023229
 30
0.0
  0
VERTEX
  5
82
330
80
100
AcDbEntity
  8
_U+30EC_U+30A4_U+30E4_U+30FC 1
370
     0
100
AcDbVertex
100
AcDb2dVertex
 10
110.9503336311166
 20
-156.6805311023229
 30
0.0
  0
VERTEX
  5
83
330
80
100
AcDbEntity
  8
_U+30EC_U+30A4_U+30E4_U+30FC 1
370
     0
100
AcDbVertex
100
AcDb2dVertex
 10
110.9503336311166
 20
-156.4286946223512
 30
0.0
  0
VERTEX
  5
84
330
80
100
AcDbEntity
  8
_U+30EC_U+30A4_U+30E4_U+30FC 1
370
     0
100
AcDbVertex
100
AcDb2dVertex
 10
111.2021701110883
 20
-156.4286946223512
 30
0.0
  0
VERTEX
  5
85
330
80
100
AcDbEntity
  8
_U+30EC_U+30A4_U+30E4_U+30FC 1
370
     0
100
AcDbVertex
100
AcDb2dVertex
 10
111.2021701110883
 20
-156.6805311023229
 30
0.0
  0
SEQEND
  5
86
330
80
100
AcDbEntity
  8
_U+30EC_U+30A4_U+30E4_U+30FC 1
370
     0
  0
HATCH
  5
87
330
7A
100
AcDbEntity
  8
_U+30EC_U+30A4_U+30E4_U+30FC 1
 62
   179
420
  2234388
100
AcDbHatch
 10
0.0
 20
0.0
 30
0.0
210
0.0
220
0.0
230
1.0
  2
SOLID
 70
     1
 71
     0
 91
        1
 92
        1
 93
        4
 72
     1
 10
111.2021701110883
 20
-156.6805311023229
 11
110.9503336311166
 21
-156.6805311023229
 72
     1
 10
110.9503336311166
 20
-156.6805311023229
 11
110.9503336311166
 21
-156.4286946223512
 72
     1
 10
110.9503336311166
 20
-156.4286946223512
 11
111.2021701110883
 21
-156.4286946223512
 72
     1
 10
111.2021701110883
 20
-156.4286946223512
 11
111.2021701110883
 21
-156.6805311023229
 97
        0
 75
     2
 76
     1
 98
        0
  0
SPLINE
  5
88
330
7A
100
AcDbEntity
  8
_U+30EC_U+30A4_U+30E4_U+30FC 1
370
     0
100
AcDbSpline
210
0.0
220
0.0
230
1.0
 70
    11
 71
     3
 72
    53
 73
    49
 74
     0
 42
0.0000000001
 43
0.0000000001
 12
1.0
 22
0.0
 32
0.0
 13
1.0
 23
0.0
 33
0.0
 40
0.0
 40
0.0
 40
0.0
 40
0.0
 40
1.0
 40
1.0
 40
1.0
 40
2.0
 40
2.0
 40
2.0
 40
3.0
 40
3.0
 40
3.0
 40
4.0
 40
4.0
 40
4.0
 40
5.0
 40
5.0
 40
5.0
 40
6.0
 40
6.0
 40
6.0
 40
7.0
 40
7.0
 40
7.0
 40
8.0
 40
8.0
 40
8.0
 40
9.0
 40
9.0
 40
9.0
 40
10.0
 40
10.0
 40
10.0
 40
11.0
 40
11.0
 40
11.0
 40
12.0
 40
12.0
 40
12.0
 40
13.0
 40
13.0
 40
13.0
 40
14.0
 40
14.0
 40
14.0
 40
15.0
 40
15.0
 40
15.0
 40
16.0
 40
16.0
 40
16.0
 40
16.0
 10
111.2528130147215
 20
-155.7114257423221
 30
0.0
 10
111.2528130147215
 20
-155.7896294098373
 30
0.0
 10
111.2359320468438
 20
-155.8912597266522
 30
0.0
 10
111.1725422899152
 20
-155.9925455339185
 30
0.0
 10
111.0622992343872
 20
-156.1661783463751
 30
0.0
 10
110.9313856059477
 20
-156.1875379383837
 30
0.0
 10
110.8232096077109
 20
-156.206141454004
 30
0.0
 10
110.8232096077109
 20
-156.206141454004
 30
0.0
 10
110.8232096077109
 20
-155.9842773047539
 30
0.0
 10
110.8232096077109
 20
-155.9842773047539
 30
0.0
 10
111.0223361267583
 20
-155.9291557769899
 30
0.0
 10
111.0519639479315
 20
-155.8023762631327
 30
0.0
 10
111.0519639479315
 20
-155.709358685031
 30
0.0
 10
111.0519639479315
 20
-155.5694878083299
 30
0.0
 10
110.9524006884077
 20
-155.4172145878818
 30
0.0
 10
110.7198567431534
 20
-155.4172145878818
 30
0.0
 10
110.4635416390508
 20
-155.4172145878818
 30
0.0
 10
110.3939507102487
 20
-155.5970485722119
 30
0.0
 10
110.3939507102487
 20
-155.7176269141956
 30
0.0
 10
110.3939507102487
 20
-155.7493217926599
 30
0.0
 10
110.3939507102487
 20
-155.8912597266522
 30
0.0
 10
110.5227972813971
 20
-155.9801431901716
 30
0.0
 10
110.5227972813971
 20
-155.9801431901716
 30
0.0
 10
110.5038492562282
 20
-156.1554985503709
 30
0.0
 10
110.5038492562282
 20
-156.1554985503709
 30
0.0
 10
110.5038492562282
 20
-156.1554985503709
 30
0.0
 10
109.6577338050509
 20
-156.0349202083871
 30
0.0
 10
109.6577338050509
 20
-156.0349202083871
 30
0.0
 10
109.6577338050509
 20
-156.0349202083871
 30
0.0
 10
109.6577338050509
 20
-155.2566731382692
 30
0.0
 10
109.6577338050509
 20
-155.2566731382692
 30
0.0
 10
109.6577338050509
 20
-155.2566731382692
 30
0.0
 10
109.8523816999675
 20
-155.2566731382692
 30
0.0
 10
109.8523816999675
 20
-155.2566731382692
 30
0.0
 10
109.8523816999675
 20
-155.2566731382692
 30
0.0
 10
109.8523816999675
 20
-155.8719671919348
 30
0.0
 10
109.8523816999675
 20
-155.8719671919348
 30
0.0
 10
109.8523816999675
 20
-155.8719671919348
 30
0.0
 10
110.2754394255561
 20
-155.9374240061545
 30
0.0
 10
110.2754394255561
 20
-155.9374240061545
 30
0.0
 10
110.2416774898007
 20
-155.8761013065171
 30
0.0
 10
110.2013698726233
 20
-155.7937635244196
 30
0.0
 10
110.2013698726233
 20
-155.6755967492755
 30
0.0
 10
110.2013698726233
 20
-155.4213487024641
 30
0.0
 10
110.3877495383753
 20
-155.1843261330789
 30
0.0
 10
110.700564208436
 20
-155.1843261330789
 30
0.0
 10
111.018202012176
 20
-155.1843261330789
 30
0.0
 10
111.2528130147215
 20
-155.4089463587172
 30
0.0
 10
111.2528130147215
 20
-155.7114257423221
 30
0.0
  0
HATCH
  5
89
330
7A
100
AcDbEntity
  8
_U+30EC_U+30A4_U+30E4_U+30FC 1
 62
   179
420
  2234388
100
AcDbHatch
 10
0.0
 20
0.0
 30
0.0
210
0.0
220
0.0
230
1.0
  2
SOLID
 70
     1
 71
     0
 91
        1
 92
        1
 93
        1
 72
     4
 94
        3
 73
     0
 74
     1
 95
       53
 96
       49
 40
0.0
 40
0.0
 40
0.0
 40
0.0
 40
1.0
 40
1.0
 40
1.0
 40
2.0
 40
2.0
 40
2.0
 40
3.0
 40
3.0
 40
3.0
 40
4.0
 40
4.0
 40
4.0
 40
5.0
 40
5.0
 40
5.0
 40
6.0
 40
6.0
 40
6.0
 40
7.0
 40
7.0
 40
7.0
 40
8.0
 40
8.0
 40
8.0
 40
9.0
 40
9.0
 40
9.0
 40
10.0
 40
10.0
 40
10.0
 40
11.0
 40
11.0
 40
11.0
 40
12.0
 40
12.0
 40
12.0
 40
13.0
 40
13.0
 40
13.0
 40
14.0
 40
14.0
 40
14.0
 40
15.0
 40
15.0
 40
15.0
 40
16.0
 40
16.0
 40
16.0
 40
16.0
 10
111.2528130147215
 20
-155.7114257423221
 10
111.2528130147215
 20
-155.7896294098373
 10
111.2359320468438
 20
-155.8912597266522
 10
111.1725422899152
 20
-155.9925455339185
 10
111.0622992343872
 20
-156.1661783463751
 10
110.9313856059477
 20
-156.1875379383837
 10
110.8232096077109
 20
-156.206141454004
 10
110.8232096077109
 20
-156.206141454004
 10
110.8232096077109
 20
-155.9842773047539
 10
110.8232096077109
 20
-155.9842773047539
 10
111.0223361267583
 20
-155.9291557769899
 10
111.0519639479315
 20
-155.8023762631327
 10
111.0519639479315
 20
-155.709358685031
 10
111.0519639479315
 20
-155.5694878083299
 10
110.9524006884077
 20
-155.4172145878818
 10
110.7198567431534
 20
-155.4172145878818
 10
110.4635416390508
 20
-155.4172145878818
 10
110.3939507102487
 20
-155.5970485722119
 10
110.3939507102487
 20
-155.7176269141956
 10
110.3939507102487
 20
-155.7493217926599
 10
110.3939507102487
 20
-155.8912597266522
 10
110.5227972813971
 20
-155.9801431901716
 10
110.5227972813971
 20
-155.9801431901716
 10
110.5038492562282
 20
-156.1554985503709
 10
110.5038492562282
 20
-156.1554985503709
 10
110.5038492562282
 20
-156.1554985503709
 10
109.6577338050509
 20
-156.0349202083871
 10
109.6577338050509
 20
-156.0349202083871
 10
109.6577338050509
 20
-156.0349202083871
 10
109.6577338050509
 20
-155.2566731382692
 10
109.6577338050509
 20
-155.2566731382692
 10
109.6577338050509
 20
-155.2566731382692
 10
109.8523816999675
 20
-155.2566731382692
 10
109.8523816999675
 20
-155.2566731382692
 10
109.8523816999675
 20
-155.2566731382692
 10
109.8523816999675
 20
-155.8719671919348
 10
109.8523816999675
 20
-155.8719671919348
 10
109.8523816999675
 20
-155.8719671919348
 10
110.2754394255561
 20
-155.9374240061545
 10
110.2754394255561
 20
-155.9374240061545
 10
110.2416774898007
 20
-155.8761013065171
 10
110.2013698726233
 20
-155.7937635244196
 10
110.2013698726233
 20
-155.6755967492755
 10
110.2013698726233
 20
-155.4213487024641
 10
110.3877495383753
 20
-155.1843261330789
 10
110.700564208436
 20
-155.1843261330789
 10
111.018202012176
 20
-155.1843261330789
 10
111.2528130147215
 20
-155.4089463587172
 10
111.2528130147215
 20
-155.7114257423221
 97
        0
 97
        0
 75
     2
 76
     1
 98
        0
  0
ENDBLK
  5
7D
330
7A
100
AcDbEntity
  8
0
100
AcDbBlockEnd
  0
BLOCK
  5
9C
330
9A
100
AcDbEntity
  8
0
100
AcDbBlockBegin
  2
block 4
 70
     0
 10
0.0
 20
0.0
 30
0.0
  3
block 4
  1

  0
SPLINE
  5
9E
330
9A
100
AcDbEntity
  8
_U+30EC_U+30A4_U+30E4_U+30FC 1
370
     0
100
AcDbSpline
210
0.0
220
0.0
230
1.0
 70
    11
 71
     3
 72
    26
 73
    22
 74
     0
 42
0.0000000001
 43
0.0000000001
 12
1.0
 22
0.0
 32
0.0
 13
1.0
 23
0.0
 33
0.0
 40
0.0
 40
0.0
 40
0.0
 40
0.0
 40
1.0
 40
1.0
 40
1.0
 40
2.0
 40
2.0
 40
2.0
 40
3.0
 40
3.0
 40
3.0
 40
4.0
 40
4.0
 40
4.0
 40
5.0
 40
5.0
 40
5.0
 40
6.0
 40
6.0
 40
6.0
 40
7.0
 40
7.0
 40
7.0
 40
7.0
 10
73.18950329116443
 20
-103.6903116602753
 30
0.0
 10
73.18950329116443
 20
-103.6903116602753
 30
0.0
 10
72.95265297655351
 20
-103.6903116602753
 30
0.0
 10
72.95265297655351
 20
-103.6903116602753
 30
0.0
 10
72.97797442837009
 20
-103.3814588500227
 30
0.0
 10
73.17055526599556
 20
-102.8631442342669
 30
0.0
 10
73.57673202370651
 20
-102.3575764718064
 30
0.0
 10
73.57673202370651
 20
-102.3575764718064
 30
0.0
 10
72.73888480169376
 20
-102.3575764718064
 30
0.0
 10
72.73888480169376
 20
-102.3575764718064
 30
0.0
 10
72.73888480169376
 20
-102.3575764718064
 30
0.0
 10
72.73888480169376
 20
-102.1460476090121
 30
0.0
 10
72.73888480169376
 20
-102.1460476090121
 30
0.0
 10
72.73888480169376
 20
-102.1460476090121
 30
0.0
 10
73.81358233831745
 20
-102.1460476090121
 30
0.0
 10
73.81358233831745
 20
-102.1460476090121
 30
0.0
 10
73.81358233831745
 20
-102.1460476090121
 30
0.0
 10
73.81358233831745
 20
-102.3575764718064
 30
0.0
 10
73.81358233831745
 20
-102.3575764718064
 30
0.0
 10
73.48991561747822
 20
-102.647309002116
 30
0.0
 10
73.22343748169415
 20
-103.2396931708047
 30
0.0
 10
73.18950329116443
 20
-103.6903116602753
 30
0.0
  0
HATCH
  5
9F
330
9A
100
AcDbEntity
  8
_U+30EC_U+30A4_U+30E4_U+30FC 1
 62
   179
420
  2234388
100
AcDbHatch
 10
0.0
 20
0.0
 30
0.0
210
0.0
220
0.0
230
1.0
  2
SOLID
 70
     1
 71
     0
 91
        1
 92
        1
 93
        1
 72
     4
 94
        3
 73
     0
 74
     1
 95
       26
 96
       22
 40
0.0
 40
0.0
 40
0.0
 40
0.0
 40
1.0
 40
1.0
 40
1.0
 40
2.0
 40
2.0
 40
2.0
 40
3.0
 40
3.0
 40
3.0
 40
4.0
 40
4.0
 40
4.0
 40
5.0
 40
5.0
 40
5.0
 40
6.0
 40
6.0
 40
6.0
 40
7.0
 40
7.0
 40
7.0
 40
7.0
 10
73.18950329116443
 20
-103.6903116602753
 10
73.18950329116443
 20
-103.6903116602753
 10
72.95265297655351
 20
-103.6903116602753
 10
72.95265297655351
 20
-103.6903116602753
 10
72.97797442837009
 20
-103.3814588500227
 10
73.17055526599556
 20
-102.8631442342669
 10
73.57673202370651
 20
-102.3575764718064
 10
73.57673202370651
 20
-102.3575764718064
 10
72.73888480169376
 20
-102.3575764718064
 10
72.73888480169376
 20
-102.3575764718064
 10
72.73888480169376
 20
-102.3575764718064
 10
72.73888480169376
 20
-102.1460476090121
 10
72.73888480169376
 20
-102.1460476090121
 10
72.73888480169376
 20
-102.1460476090121
 10
73.81358233831745
 20
-102.1460476090121
 10
73.81358233831745
 20
-102.1460476090121
 10
73.81358233831745
 20
-102.1460476090121
 10
73.81358233831745
 20
-102.3575764718064
 10
73.81358233831745
 20
-102.3575764718064
 10
73.48991561747822
 20
-102.647309002116
 10
73.22343748169415
 20
-103.2396931708047
 10
73.18950329116443
 20
-103.6903116602753
 97
        0
 97
        0
 75
     2
 76
     1
 98
        0
  0
ENDBLK
  5
9D
330
9A
100
AcDbEntity
  8
0
100
AcDbBlockEnd
  0
BLOCK
  5
B0
330
AE
100
AcDbEntity
  8
0
100
AcDbBlockBegin
  2
block 5
 70
     0
 10
0.0
 20
0.0
 30
0.0
  3
block 5
  1

  0
SPLINE
  5
B2
330
AE
100
AcDbEntity
  8
_U+30EC_U+30A4_U+30E4_U+30FC 1
370
     0
100
AcDbSpline
210
0.0
220
0.0
230
1.0
 70
    11
 71
     3
 72
    62
 73
    58
 74
     0
 42
0.0000000001
 43
0.0000000001
 12
1.0
 22
0.0
 32
0.0
 13
1.0
 23
0.0
 33
0.0
 40
0.0
 40
0.0
 40
0.0
 40
0.0
 40
1.0
 40
1.0
 40
1.0
 40
2.0
 40
2.0
 40
2.0
 40
3.0
 40
3.0
 40
3.0
 40
4.0
 40
4.0
 40
4.0
 40
5.0
 40
5.0
 40
5.0
 40
6.0
 40
6.0
 40
6.0
 40
7.0
 40
7.0
 40
7.0
 40
8.0
 40
8.0
 40
8.0
 40
9.0
 40
9.0
 40
9.0
 40
10.0
 40
10.0
 40
10.0
 40
11.0
 40
11.0
 40
11.0
 40
12.0
 40
12.0
 40
12.0
 40
13.0
 40
13.0
 40
13.0
 40
14.0
 40
14.0
 40
14.0
 40
15.0
 40
15.0
 40
15.0
 40
16.0
 40
16.0
 40
16.0
 40
17.0
 40
17.0
 40
17.0
 40
18.0
 40
18.0
 40
18.0
 40
19.0
 40
19.0
 40
19.0
 40
19.0
 10
91.18203122720449
 20
-100.5094549987442
 30
0.0
 10
91.08677433703734
 20
-100.5094549987442
 30
0.0
 10
90.86887204759529
 20
-100.4882676615099
 30
0.0
 10
90.74415959102924
 20
-100.3020602505321
 30
0.0
 10
90.67009003809638
 20
-100.1899223924872
 30
0.0
 10
90.6657836687398
 20
-100.0905313877378
 30
0.0
 10
90.6616495541575
 20
-100.0059542935749
 30
0.0
 10
90.6616495541575
 20
-100.0059542935749
 30
0.0
 10
90.88161890089071
 20
-100.0059542935749
 30
0.0
 10
90.88161890089071
 20
-100.0059542935749
 30
0.0
 10
90.88368595818186
 20
-100.0800238465078
 30
0.0
 10
90.89436575418614
 20
-100.3148071038275
 30
0.0
 10
91.17789711262219
 20
-100.3148071038275
 30
0.0
 10
91.31535642248366
 20
-100.3148071038275
 30
0.0
 10
91.46762964293171
 20
-100.2450439202512
 30
0.0
 10
91.46762964293171
 20
-100.0164618348049
 30
0.0
 10
91.46762964293171
 20
-99.90018986217774
 30
0.0
 10
91.42938908304544
 20
-99.85144176106145
 30
0.0
 10
91.39769420458114
 20
-99.81974688259714
 30
0.0
 10
91.32379690642253
 20
-99.74567732966428
 30
0.0
 10
91.20735267902108
 20
-99.73310273114312
 30
0.0
 10
91.15240340603135
 20
-99.73310273114312
 30
0.0
 10
91.13345538086247
 20
-99.73310273114312
 30
0.0
 10
91.09745413304161
 20
-99.73516978843426
 30
0.0
 10
91.06989336915962
 20
-99.73930390301656
 30
0.0
 10
91.06989336915962
 20
-99.73930390301656
 30
0.0
 10
91.06989336915962
 20
-99.54465600809995
 30
0.0
 10
91.06989336915962
 20
-99.54465600809995
 30
0.0
 10
91.10796167427162
 20
-99.55102943474766
 30
0.0
 10
91.1503363487402
 20
-99.55326874681307
 30
0.0
 10
91.15670977538791
 20
-99.55326874681307
 30
0.0
 10
91.22216658960765
 20
-99.55326874681307
 30
0.0
 10
91.42112085388084
 20
-99.5320814095788
 30
0.0
 10
91.42112085388084
 20
-99.2950588401936
 30
0.0
 10
91.42112085388084
 20
-99.11746416792897
 30
0.0
 10
91.28986271589281
 20
-99.06234264016497
 30
0.0
 10
91.17996416991335
 20
-99.06234264016497
 30
0.0
 10
90.91555309142042
 20
-99.06234264016497
 30
0.0
 10
90.90711260748157
 20
-99.2950588401936
 30
0.0
 10
90.902806238125
 20
-99.36706133583532
 30
0.0
 10
90.902806238125
 20
-99.36706133583532
 30
0.0
 10
90.69971785926951
 20
-99.36706133583532
 30
0.0
 10
90.69971785926951
 20
-99.36706133583532
 30
0.0
 10
90.70815834320838
 20
-99.24217662449502
 30
0.0
 10
90.73571910709038
 20
-98.86562768795721
 30
0.0
 10
91.1925387684345
 20
-98.86562768795721
 30
0.0
 10
91.41698673929854
 20
-98.86562768795721
 30
0.0
 10
91.65814342326603
 20
-98.99257945658867
 30
0.0
 10
91.65814342326603
 20
-99.28868541354589
 30
0.0
 10
91.65814342326603
 20
-99.47489282452364
 30
0.0
 10
91.56305878787313
 20
-99.55740286139537
 30
0.0
 10
91.46315101880089
 20
-99.61872556103282
 30
0.0
 10
91.52481822798686
 20
-99.64628632491483
 30
0.0
 10
91.70671926960804
 20
-99.72672930449541
 30
0.0
 10
91.70671926960804
 20
-100.0038872362838
 30
0.0
 10
91.70671926960804
 20
-100.3423678677096
 30
0.0
 10
91.45901690421859
 20
-100.5094549987442
 30
0.0
 10
91.18203122720449
 20
-100.5094549987442
 30
0.0
  0
HATCH
  5
B3
330
AE
100
AcDbEntity
  8
_U+30EC_U+30A4_U+30E4_U+30FC 1
 62
   179
420
  2234388
100
AcDbHatch
 10
0.0
 20
0.0
 30
0.0
210
0.0
220
0.0
230
1.0
  2
SOLID
 70
     1
 71
     0
 91
        1
 92
        1
 93
        1
 72
     4
 94
        3
 73
     0
 74
     1
 95
       62
 96
       58
 40
0.0
 40
0.0
 40
0.0
 40
0.0
 40
1.0
 40
1.0
 40
1.0
 40
2.0
 40
2.0
 40
2.0
 40
3.0
 40
3.0
 40
3.0
 40
4.0
 40
4.0
 40
4.0
 40
5.0
 40
5.0
 40
5.0
 40
6.0
 40
6.0
 40
6.0
 40
7.0
 40
7.0
 40
7.0
 40
8.0
 40
8.0
 40
8.0
 40
9.0
 40
9.0
 40
9.0
 40
10.0
 40
10.0
 40
10.0
 40
11.0
 40
11.0
 40
11.0
 40
12.0
 40
12.0
 40
12.0
 40
13.0
 40
13.0
 40
13.0
 40
14.0
 40
14.0
 40
14.0
 40
15.0
 40
15.0
 40
15.0
 40
16.0
 40
16.0
 40
16.0
 40
17.0
 40
17.0
 40
17.0
 40
18.0
 40
18.0
 40
18.0
 40
19.0
 40
19.0
 40
19.0
 40
19.0
 10
91.18203122720449
 20
-100.5094549987442
 10
91.08677433703734
 20
-100.5094549987442
 10
90.86887204759529
 20
-100.4882676615099
 10
90.74415959102924
 20
-100.3020602505321
 10
90.67009003809638
 20
-100.1899223924872
 10
90.6657836687398
 20
-100.0905313877378
 10
90.6616495541575
 20
-100.0059542935749
 10
90.6616495541575
 20
-100.0059542935749
 10
90.88161890089071
 20
-100.0059542935749
 10
90.88161890089071
 20
-100.0059542935749
 10
90.88368595818186
 20
-100.0800238465078
 10
90.89436575418614
 20
-100.3148071038275
 10
91.17789711262219
 20
-100.3148071038275
 10
91.31535642248366
 20
-100.3148071038275
 10
91.46762964293171
 20
-100.2450439202512
 10
91.46762964293171
 20
-100.0164618348049
 10
91.46762964293171
 20
-99.90018986217774
 10
91.42938908304544
 20
-99.85144176106145
 10
91.39769420458114
 20
-99.81974688259714
 10
91.32379690642253
 20
-99.74567732966428
 10
91.20735267902108
 20
-99.73310273114312
 10
91.15240340603135
 20
-99.73310273114312
 10
91.13345538086247
 20
-99.73310273114312
 10
91.09745413304161
 20
-99.73516978843426
 10
91.06989336915962
 20
-99.73930390301656
 10
91.06989336915962
 20
-99.73930390301656
 10
91.06989336915962
 20
-99.54465600809995
 10
91.06989336915962
 20
-99.54465600809995
 10
91.10796167427162
 20
-99.55102943474766
 10
91.1503363487402
 20
-99.55326874681307
 10
91.15670977538791
 20
-99.55326874681307
 10
91.22216658960765
 20
-99.55326874681307
 10
91.42112085388084
 20
-99.5320814095788
 10
91.42112085388084
 20
-99.2950588401936
 10
91.42112085388084
 20
-99.11746416792897
 10
91.28986271589281
 20
-99.06234264016497
 10
91.17996416991335
 20
-99.06234264016497
 10
90.91555309142042
 20
-99.06234264016497
 10
90.90711260748157
 20
-99.2950588401936
 10
90.902806238125
 20
-99.36706133583532
 10
90.902806238125
 20
-99.36706133583532
 10
90.69971785926951
 20
-99.36706133583532
 10
90.69971785926951
 20
-99.36706133583532
 10
90.70815834320838
 20
-99.24217662449502
 10
90.73571910709038
 20
-98.86562768795721
 10
91.1925387684345
 20
-98.86562768795721
 10
91.41698673929854
 20
-98.86562768795721
 10
91.65814342326603
 20
-98.99257945658867
 10
91.65814342326603
 20
-99.28868541354589
 10
91.65814342326603
 20
-99.47489282452364
 10
91.56305878787313
 20
-99.55740286139537
 10
91.46315101880089
 20
-99.61872556103282
 10
91.52481822798686
 20
-99.64628632491483
 10
91.70671926960804
 20
-99.72672930449541
 10
91.70671926960804
 20
-100.0038872362838
 10
91.70671926960804
 20
-100.3423678677096
 10
91.45901690421859
 20
-100.5094549987442
 10
91.18203122720449
 20
-100.5094549987442
 97
        0
 97
        0
 75
     2
 76
     1
 98
        0
  0
SPLINE
  5
B4
330
AE
100
AcDbEntity
  8
_U+30EC_U+30A4_U+30E4_U+30FC 1
370
     0
100
AcDbSpline
210
0.0
220
0.0
230
1.0
 70
    11
 71
     3
 72
    29
 73
    25
 74
     0
 42
0.0000000001
 43
0.0000000001
 12
1.0
 22
0.0
 32
0.0
 13
1.0
 23
0.0
 33
0.0
 40
0.0
 40
0.0
 40
0.0
 40
0.0
 40
1.0
 40
1.0
 40
1.0
 40
2.0
 40
2.0
 40
2.0
 40
3.0
 40
3.0
 40
3.0
 40
4.0
 40
4.0
 40
4.0
 40
5.0
 40
5.0
 40
5.0
 40
6.0
 40
6.0
 40
6.0
 40
7.0
 40
7.0
 40
7.0
 40
8.0
 40
8.0
 40
8.0
 40
8.0
 10
92.7650526026768
 20
-100.2808729132978
 30
0.0
 10
92.65722111398847
 20
-100.490334718801
 30
0.0
 10
92.48358830153188
 20
-100.5094549987442
 30
0.0
 10
92.36714407413044
 20
-100.5094549987442
 30
0.0
 10
92.2066026245178
 20
-100.5094549987442
 30
0.0
 10
92.0646646905255
 20
-100.4629462096933
 30
0.0
 10
91.96958005513261
 20
-100.2808729132978
 30
0.0
 10
91.86622719057512
 20
-100.0862250183812
 30
0.0
 10
91.84693465585771
 20
-99.8493747037703
 30
0.0
 10
91.84693465585771
 20
-99.68642168731799
 30
0.0
 10
91.84693465585771
 20
-99.5425889508088
 30
0.0
 10
91.86381562373543
 20
-99.2909247256113
 30
0.0
 10
91.96958005513261
 20
-99.09197046133812
 30
0.0
 10
92.07775605336946
 20
-98.88888208248264
 30
0.0
 10
92.23829750298209
 20
-98.86562768795721
 30
0.0
 10
92.36714407413044
 20
-98.86562768795721
 30
0.0
 10
92.52596297600046
 20
-98.86562768795721
 30
0.0
 10
92.66962345773537
 20
-98.91006941971693
 30
0.0
 10
92.7650526026768
 20
-99.09197046133812
 30
0.0
 10
92.86461586220052
 20
-99.28455129896359
 30
0.0
 10
92.88769800195169
 20
-99.51296112963566
 30
0.0
 10
92.88769800195169
 20
-99.68642168731799
 30
0.0
 10
92.88769800195169
 20
-99.85781518770916
 30
0.0
 10
92.86668291949167
 20
-100.0884643304466
 30
0.0
 10
92.7650526026768
 20
-100.2808729132978
 30
0.0
  0
SPLINE
  5
B5
330
AE
100
AcDbEntity
  8
_U+30EC_U+30A4_U+30E4_U+30FC 1
370
     0
100
AcDbSpline
210
0.0
220
0.0
230
1.0
 70
    11
 71
     3
 72
    17
 73
    13
 74
     0
 42
0.0000000001
 43
0.0000000001
 12
1.0
 22
0.0
 32
0.0
 13
1.0
 23
0.0
 33
0.0
 40
0.0
 40
0.0
 40
0.0
 40
0.0
 40
1.0
 40
1.0
 40
1.0
 40
2.0
 40
2.0
 40
2.0
 40
3.0
 40
3.0
 40
3.0
 40
4.0
 40
4.0
 40
4.0
 40
4.0
 10
92.36714407413044
 20
-99.05820852558267
 30
0.0
 10
92.11771916099835
 20
-99.05820852558267
 30
0.0
 10
92.07121037194747
 20
-99.34173988401874
 30
0.0
 10
92.07121037194747
 20
-99.68642168731799
 30
0.0
 10
92.07121037194747
 20
-100.0059542935749
 30
0.0
 10
92.1073838745426
 20
-100.3148071038275
 30
0.0
 10
92.36714407413044
 20
-100.3148071038275
 30
0.0
 10
92.61484643951991
 20
-100.3148071038275
 30
0.0
 10
92.66342228586193
 20
-100.0333428026826
 30
0.0
 10
92.66342228586193
 20
-99.68642168731799
 30
0.0
 10
92.66342228586193
 20
-99.36706133583532
 30
0.0
 10
92.62552623552418
 20
-99.05820852558267
 30
0.0
 10
92.36714407413044
 20
-99.05820852558267
 30
0.0
  0
HATCH
  5
B6
330
AE
100
AcDbEntity
  8
_U+30EC_U+30A4_U+30E4_U+30FC 1
 62
   179
420
  2234388
100
AcDbHatch
 10
0.0
 20
0.0
 30
0.0
210
0.0
220
0.0
230
1.0
  2
SOLID
 70
     1
 71
     0
 91
        2
 92
        1
 93
        1
 72
     4
 94
        3
 73
     0
 74
     1
 95
       29
 96
       25
 40
0.0
 40
0.0
 40
0.0
 40
0.0
 40
1.0
 40
1.0
 40
1.0
 40
2.0
 40
2.0
 40
2.0
 40
3.0
 40
3.0
 40
3.0
 40
4.0
 40
4.0
 40
4.0
 40
5.0
 40
5.0
 40
5.0
 40
6.0
 40
6.0
 40
6.0
 40
7.0
 40
7.0
 40
7.0
 40
8.0
 40
8.0
 40
8.0
 40
8.0
 10
92.7650526026768
 20
-100.2808729132978
 10
92.65722111398847
 20
-100.490334718801
 10
92.48358830153188
 20
-100.5094549987442
 10
92.36714407413044
 20
-100.5094549987442
 10
92.2066026245178
 20
-100.5094549987442
 10
92.0646646905255
 20
-100.4629462096933
 10
91.96958005513261
 20
-100.2808729132978
 10
91.86622719057512
 20
-100.0862250183812
 10
91.84693465585771
 20
-99.8493747037703
 10
91.84693465585771
 20
-99.68642168731799
 10
91.84693465585771
 20
-99.5425889508088
 10
91.86381562373543
 20
-99.2909247256113
 10
91.96958005513261
 20
-99.09197046133812
 10
92.07775605336946
 20
-98.88888208248264
 10
92.23829750298209
 20
-98.86562768795721
 10
92.36714407413044
 20
-98.86562768795721
 10
92.52596297600046
 20
-98.86562768795721
 10
92.66962345773537
 20
-98.91006941971693
 10
92.7650526026768
 20
-99.09197046133812
 10
92.86461586220052
 20
-99.28455129896359
 10
92.88769800195169
 20
-99.51296112963566
 10
92.88769800195169
 20
-99.68642168731799
 10
92.88769800195169
 20
-99.85781518770916
 10
92.86668291949167
 20
-100.0884643304466
 10
92.7650526026768
 20
-100.2808729132978
 97
        0
 97
        0
 92
        1
 93
        1
 72
     4
 94
        3
 73
     0
 74
     1
 95
       17
 96
       13
 40
0.0
 40
0.0
 40
0.0
 40
0.0
 40
1.0
 40
1.0
 40
1.0
 40
2.0
 40
2.0
 40
2.0
 40
3.0
 40
3.0
 40
3.0
 40
4.0
 40
4.0
 40
4.0
 40
4.0
 10
92.36714407413044
 20
-99.05820852558267
 10
92.11771916099835
 20
-99.05820852558267
 10
92.07121037194747
 20
-99.34173988401874
 10
92.07121037194747
 20
-99.68642168731799
 10
92.07121037194747
 20
-100.0059542935749
 10
92.1073838745426
 20
-100.3148071038275
 10
92.36714407413044
 20
-100.3148071038275
 10
92.61484643951991
 20
-100.3148071038275
 10
92.66342228586193
 20
-100.0333428026826
 10
92.66342228586193
 20
-99.68642168731799
 10
92.66342228586193
 20
-99.36706133583532
 10
92.62552623552418
 20
-99.05820852558267
 10
92.36714407413044
 20
-99.05820852558267
 97
        0
 97
        0
 75
     2
 76
     1
 98
        0
  0
ENDBLK
  5
B1
330
AE
100
AcDbEntity
  8
0
100
AcDbBlockEnd
  0
BLOCK
  5
B9
330
B7
100
AcDbEntity
  8
0
100
AcDbBlockBegin
  2
block 6
 70
     0
 10
0.0
 20
0.0
 30
0.0
  3
block 6
  1

  0
SPLINE
  5
BB
330
B7
100
AcDbEntity
  8
_U+30EC_U+30A4_U+30E4_U+30FC 1
370
     0
100
AcDbSpline
210
0.0
220
0.0
230
1.0
 70
    11
 71
     3
 72
    26
 73
    22
 74
     0
 42
0.0000000001
 43
0.0000000001
 12
1.0
 22
0.0
 32
0.0
 13
1.0
 23
0.0
 33
0.0
 40
0.0
 40
0.0
 40
0.0
 40
0.0
 40
1.0
 40
1.0
 40
1.0
 40
2.0
 40
2.0
 40
2.0
 40
3.0
 40
3.0
 40
3.0
 40
4.0
 40
4.0
 40
4.0
 40
5.0
 40
5.0
 40
5.0
 40
6.0
 40
6.0
 40
6.0
 40
7.0
 40
7.0
 40
7.0
 40
7.0
 10
109.8565158145498
 20
-100.4586398403367
 30
0.0
 10
109.8565158145498
 20
-100.4586398403367
 30
0.0
 10
109.8565158145498
 20
-99.35431448253989
 30
0.0
 10
109.8565158145498
 20
-99.35431448253989
 30
0.0
 10
109.8565158145498
 20
-99.35431448253989
 30
0.0
 10
109.5264756670628
 20
-99.35431448253989
 30
0.0
 10
109.5264756670628
 20
-99.35431448253989
 30
0.0
 10
109.5264756670628
 20
-99.35431448253989
 30
0.0
 10
109.5264756670628
 20
-99.20634763144842
 30
0.0
 10
109.5264756670628
 20
-99.20634763144842
 30
0.0
 10
109.8585828718409
 20
-99.19153372086184
 30
0.0
 10
109.9047471513433
 20
-99.02858070440952
 30
0.0
 10
109.9343749725164
 20
-98.91437578907349
 30
0.0
 10
109.9343749725164
 20
-98.91437578907349
 30
0.0
 10
110.080447021091
 20
-98.91437578907349
 30
0.0
 10
110.080447021091
 20
-98.91437578907349
 30
0.0
 10
110.080447021091
 20
-98.91437578907349
 30
0.0
 10
110.080447021091
 20
-100.4586398403367
 30
0.0
 10
110.080447021091
 20
-100.4586398403367
 30
0.0
 10
110.080447021091
 20
-100.4586398403367
 30
0.0
 10
109.8565158145498
 20
-100.4586398403367
 30
0.0
 10
109.8565158145498
 20
-100.4586398403367
 30
0.0
  0
HATCH
  5
BC
330
B7
100
AcDbEntity
  8
_U+30EC_U+30A4_U+30E4_U+30FC 1
 62
   179
420
  2234388
100
AcDbHatch
 10
0.0
 20
0.0
 30
0.0
210
0.0
220
0.0
230
1.0
  2
SOLID
 70
     1
 71
     0
 91
        1
 92
        1
 93
        1
 72
     4
 94
        3
 73
     0
 74
     1
 95
       26
 96
       22
 40
0.0
 40
0.0
 40
0.0
 40
0.0
 40
1.0
 40
1.0
 40
1.0
 40
2.0
 40
2.0
 40
2.0
 40
3.0
 40
3.0
 40
3.0
 40
4.0
 40
4.0
 40
4.0
 40
5.0
 40
5.0
 40
5.0
 40
6.0
 40
6.0
 40
6.0
 40
7.0
 40
7.0
 40
7.0
 40
7.0
 10
109.8565158145498
 20
-100.4586398403367
 10
109.8565158145498
 20
-100.4586398403367
 10
109.8565158145498
 20
-99.35431448253989
 10
109.8565158145498
 20
-99.35431448253989
 10
109.8565158145498
 20
-99.35431448253989
 10
109.5264756670628
 20
-99.35431448253989
 10
109.5264756670628
 20
-99.35431448253989
 10
109.5264756670628
 20
-99.35431448253989
 10
109.5264756670628
 20
-99.20634763144842
 10
109.5264756670628
 20
-99.20634763144842
 10
109.8585828718409
 20
-99.19153372086184
 10
109.9047471513433
 20
-99.02858070440952
 10
109.9343749725164
 20
-98.91437578907349
 10
109.9343749725164
 20
-98.91437578907349
 10
110.080447021091
 20
-98.91437578907349
 10
110.080447021091
 20
-98.91437578907349
 10
110.080447021091
 20
-98.91437578907349
 10
110.080447021091
 20
-100.4586398403367
 10
110.080447021091
 20
-100.4586398403367
 10
110.080447021091
 20
-100.4586398403367
 10
109.8565158145498
 20
-100.4586398403367
 10
109.8565158145498
 20
-100.4586398403367
 97
        0
 97
        0
 75
     2
 76
     1
 98
        0
  0
POLYLINE
  5
BD
330
B7
100
AcDbEntity
  8
_U+30EC_U+30A4_U+30E4_U+30FC 1
370
     0
100
AcDb2dPolyline
 66
     1
 10
0.0
 20
0.0
 30
0.0
  0
VERTEX
  5
BE
330
BD
100
AcDbEntity
  8
_U+30EC_U+30A4_U+30E4_U+30FC 1
370
     0
100
AcDbVertex
100
AcDb2dVertex
 10
110.6419975851867
 20
-100.4586398403367
 30
0.0
  0
VERTEX
  5
BF
330
BD
100
AcDbEntity
  8
_U+30EC_U+30A4_U+30E4_U+30FC 1
370
     0
100
AcDbVertex
100
AcDb2dVertex
 10
110.6419975851867
 20
-100.2069756151392
 30
0.0
  0
VERTEX
  5
C0
330
BD
100
AcDbEntity
  8
_U+30EC_U+30A4_U+30E4_U+30FC 1
370
     0
100
AcDbVertex
100
AcDb2dVertex
 10
110.89348955561
 20
-100.2069756151392
 30
0.0
  0
VERTEX
  5
C1
330
BD
100
AcDbEntity
  8
_U+30EC_U+30A4_U+30E4_U+30FC 1
370
     0
100
AcDbVertex
100
AcDb2dVertex
 10
110.89348955561
 20
-100.4586398403367
 30
0.0
  0
VERTEX
  5
C2
330
BD
100
AcDbEntity
  8
_U+30EC_U+30A4_U+30E4_U+30FC 1
370
     0
100
AcDbVertex
100
AcDb2dVertex
 10
110.6419975851867
 20
-100.4586398403367
 30
0.0
  0
SEQEND
  5
C3
330
BD
100
AcDbEntity
  8
_U+30EC_U+30A4_U+30E4_U+30FC 1
370
     0
  0
HATCH
  5
C4
330
B7
100
AcDbEntity
  8
_U+30EC_U+30A4_U+30E4_U+30FC 1
 62
   179
420
  2234388
100
AcDbHatch
 10
0.0
 20
0.0
 30
0.0
210
0.0
220
0.0
230
1.0
  2
SOLID
 70
     1
 71
     0
 91
        1
 92
        1
 93
        4
 72
     1
 10
110.6419975851867
 20
-100.4586398403367
 11
110.6419975851867
 21
-100.2069756151392
 72
     1
 10
110.6419975851867
 20
-100.2069756151392
 11
110.89348955561
 21
-100.2069756151392
 72
     1
 10
110.89348955561
 20
-100.2069756151392
 11
110.89348955561
 21
-100.4586398403367
 72
     1
 10
110.89348955561
 20
-100.4586398403367
 11
110.6419975851867
 21
-100.4586398403367
 97
        0
 75
     2
 76
     1
 98
        0
  0
SPLINE
  5
C5
330
B7
100
AcDbEntity
  8
_U+30EC_U+30A4_U+30E4_U+30FC 1
370
     0
100
AcDbSpline
210
0.0
220
0.0
230
1.0
 70
    11
 71
     3
 72
    53
 73
    49
 74
     0
 42
0.0000000001
 43
0.0000000001
 12
1.0
 22
0.0
 32
0.0
 13
1.0
 23
0.0
 33
0.0
 40
0.0
 40
0.0
 40
0.0
 40
0.0
 40
1.0
 40
1.0
 40
1.0
 40
2.0
 40
2.0
 40
2.0
 40
3.0
 40
3.0
 40
3.0
 40
4.0
 40
4.0
 40
4.0
 40
5.0
 40
5.0
 40
5.0
 40
6.0
 40
6.0
 40
6.0
 40
7.0
 40
7.0
 40
7.0
 40
8.0
 40
8.0
 40
8.0
 40
9.0
 40
9.0
 40
9.0
 40
10.0
 40
10.0
 40
10.0
 40
11.0
 40
11.0
 40
11.0
 40
12.0
 40
12.0
 40
12.0
 40
13.0
 40
13.0
 40
13.0
 40
14.0
 40
14.0
 40
14.0
 40
15.0
 40
15.0
 40
15.0
 40
16.0
 40
16.0
 40
16.0
 40
16.0
 10
111.6111029451875
 20
-100.5094549987442
 30
0.0
 10
111.5328992776723
 20
-100.5094549987442
 30
0.0
 10
111.4312689608575
 20
-100.4924017760922
 30
0.0
 10
111.3296386440426
 20
-100.4290120191636
 30
0.0
 10
111.156005831586
 20
-100.3189412184098
 30
0.0
 10
111.134990749126
 20
-100.1878553351961
 30
0.0
 10
111.1160427239571
 20
-100.0800238465078
 30
0.0
 10
111.1160427239571
 20
-100.0800238465078
 30
0.0
 10
111.3379068732072
 20
-100.0800238465078
 30
0.0
 10
111.3379068732072
 20
-100.0800238465078
 30
0.0
 10
111.3930284009712
 20
-100.2788058560067
 30
0.0
 10
111.5201524243769
 20
-100.3084336771798
 30
0.0
 10
111.6131700024787
 20
-100.3084336771798
 30
0.0
 10
111.7526963696313
 20
-100.3084336771798
 30
0.0
 10
111.9049695900793
 20
-100.2090426724304
 30
0.0
 10
111.9049695900793
 20
-99.97632647240175
 30
0.0
 10
111.9049695900793
 20
-99.7203558778477
 30
0.0
 10
111.7251356057493
 20
-99.65059269427138
 30
0.0
 10
111.6045572637655
 20
-99.65059269427138
 30
0.0
 10
111.5728623853012
 20
-99.65059269427138
 30
0.0
 10
111.4312689608575
 20
-99.65059269427138
 30
0.0
 10
111.342385497338
 20
-99.779611520194
 30
0.0
 10
111.342385497338
 20
-99.779611520194
 30
0.0
 10
111.1670301371388
 20
-99.76049124025086
 30
0.0
 10
111.1670301371388
 20
-99.76049124025086
 30
0.0
 10
111.1670301371388
 20
-99.76049124025086
 30
0.0
 10
111.2876084791226
 20
-98.91437578907349
 30
0.0
 10
111.2876084791226
 20
-98.91437578907349
 30
0.0
 10
111.2876084791226
 20
-98.91437578907349
 30
0.0
 10
112.0658555492405
 20
-98.91437578907349
 30
0.0
 10
112.0658555492405
 20
-98.91437578907349
 30
0.0
 10
112.0658555492405
 20
-98.91437578907349
 30
0.0
 10
112.0658555492405
 20
-99.10902368399012
 30
0.0
 10
112.0658555492405
 20
-99.10902368399012
 30
0.0
 10
112.0658555492405
 20
-99.10902368399012
 30
0.0
 10
111.4502169860263
 20
-99.10902368399012
 30
0.0
 10
111.4502169860263
 20
-99.10902368399012
 30
0.0
 10
111.4502169860263
 20
-99.10902368399012
 30
0.0
 10
111.3847601718066
 20
-99.5320814095788
 30
0.0
 10
111.3847601718066
 20
-99.5320814095788
 30
0.0
 10
111.446082871444
 20
-99.49814721904907
 30
0.0
 10
111.52876516309
 20
-99.45801185664592
 30
0.0
 10
111.6469319382341
 20
-99.45801185664592
 30
0.0
 10
111.900835475497
 20
-99.45801185664592
 30
0.0
 10
112.1378580448822
 20
-99.64421926762367
 30
0.0
 10
112.1378580448822
 20
-99.95720619245861
 30
0.0
 10
112.1378580448822
 20
-100.2746717414244
 30
0.0
 10
111.9135823287924
 20
-100.5094549987442
 30
0.0
 10
111.6111029451875
 20
-100.5094549987442
 30
0.0
  0
HATCH
  5
C6
330
B7
100
AcDbEntity
  8
_U+30EC_U+30A4_U+30E4_U+30FC 1
 62
   179
420
  2234388
100
AcDbHatch
 10
0.0
 20
0.0
 30
0.0
210
0.0
220
0.0
230
1.0
  2
SOLID
 70
     1
 71
     0
 91
        1
 92
        1
 93
        1
 72
     4
 94
        3
 73
     0
 74
     1
 95
       53
 96
       49
 40
0.0
 40
0.0
 40
0.0
 40
0.0
 40
1.0
 40
1.0
 40
1.0
 40
2.0
 40
2.0
 40
2.0
 40
3.0
 40
3.0
 40
3.0
 40
4.0
 40
4.0
 40
4.0
 40
5.0
 40
5.0
 40
5.0
 40
6.0
 40
6.0
 40
6.0
 40
7.0
 40
7.0
 40
7.0
 40
8.0
 40
8.0
 40
8.0
 40
9.0
 40
9.0
 40
9.0
 40
10.0
 40
10.0
 40
10.0
 40
11.0
 40
11.0
 40
11.0
 40
12.0
 40
12.0
 40
12.0
 40
13.0
 40
13.0
 40
13.0
 40
14.0
 40
14.0
 40
14.0
 40
15.0
 40
15.0
 40
15.0
 40
16.0
 40
16.0
 40
16.0
 40
16.0
 10
111.6111029451875
 20
-100.5094549987442
 10
111.5328992776723
 20
-100.5094549987442
 10
111.4312689608575
 20
-100.4924017760922
 10
111.3296386440426
 20
-100.4290120191636
 10
111.156005831586
 20
-100.3189412184098
 10
111.134990749126
 20
-100.1878553351961
 10
111.1160427239571
 20
-100.0800238465078
 10
111.1160427239571
 20
-100.0800238465078
 10
111.3379068732072
 20
-100.0800238465078
 10
111.3379068732072
 20
-100.0800238465078
 10
111.3930284009712
 20
-100.2788058560067
 10
111.5201524243769
 20
-100.3084336771798
 10
111.6131700024787
 20
-100.3084336771798
 10
111.7526963696313
 20
-100.3084336771798
 10
111.9049695900793
 20
-100.2090426724304
 10
111.9049695900793
 20
-99.97632647240175
 10
111.9049695900793
 20
-99.7203558778477
 10
111.7251356057493
 20
-99.65059269427138
 10
111.6045572637655
 20
-99.65059269427138
 10
111.5728623853012
 20
-99.65059269427138
 10
111.4312689608575
 20
-99.65059269427138
 10
111.342385497338
 20
-99.779611520194
 10
111.342385497338
 20
-99.779611520194
 10
111.1670301371388
 20
-99.76049124025086
 10
111.1670301371388
 20
-99.76049124025086
 10
111.1670301371388
 20
-99.76049124025086
 10
111.2876084791226
 20
-98.91437578907349
 10
111.2876084791226
 20
-98.91437578907349
 10
111.2876084791226
 20
-98.91437578907349
 10
112.0658555492405
 20
-98.91437578907349
 10
112.0658555492405
 20
-98.91437578907349
 10
112.0658555492405
 20
-98.91437578907349
 10
112.0658555492405
 20
-99.10902368399012
 10
112.0658555492405
 20
-99.10902368399012
 10
112.0658555492405
 20
-99.10902368399012
 10
111.4502169860263
 20
-99.10902368399012
 10
111.4502169860263
 20
-99.10902368399012
 10
111.4502169860263
 20
-99.10902368399012
 10
111.3847601718066
 20
-99.5320814095788
 10
111.3847601718066
 20
-99.5320814095788
 10
111.446082871444
 20
-99.49814721904907
 10
111.52876516309
 20
-99.45801185664592
 10
111.6469319382341
 20
-99.45801185664592
 10
111.900835475497
 20
-99.45801185664592
 10
112.1378580448822
 20
-99.64421926762367
 10
112.1378580448822
 20
-99.95720619245861
 10
112.1378580448822
 20
-100.2746717414244
 10
111.9135823287924
 20
-100.5094549987442
 10
111.6111029451875
 20
-100.5094549987442
 97
        0
 97
        0
 75
     2
 76
     1
 98
        0
  0
ENDBLK
  5
BA
330
B7
100
AcDbEntity
  8
0
100
AcDbBlockEnd
  0
BLOCK
  5
C9
330
C7
100
AcDbEntity
  8
0
100
AcDbBlockBegin
  2
block 7
 70
     0
 10
0.0
 20
0.0
 30
0.0
  3
block 7
  1

  0
SPLINE
  5
CB
330
C7
100
AcDbEntity
  8
_U+30EC_U+30A4_U+30E4_U+30FC 1
370
     0
100
AcDbSpline
210
0.0
220
0.0
230
1.0
 70
    11
 71
     3
 72
    26
 73
    22
 74
     0
 42
0.0000000001
 43
0.0000000001
 12
1.0
 22
0.0
 32
0.0
 13
1.0
 23
0.0
 33
0.0
 40
0.0
 40
0.0
 40
0.0
 40
0.0
 40
1.0
 40
1.0
 40
1.0
 40
2.0
 40
2.0
 40
2.0
 40
3.0
 40
3.0
 40
3.0
 40
4.0
 40
4.0
 40
4.0
 40
5.0
 40
5.0
 40
5.0
 40
6.0
 40
6.0
 40
6.0
 40
7.0
 40
7.0
 40
7.0
 40
7.0
 10
65.11230467122192
 20
-103.6901394055011
 30
0.0
 10
65.11230467122192
 20
-103.6901394055011
 30
0.0
 10
65.11230467122192
 20
-102.5858140477042
 30
0.0
 10
65.11230467122192
 20
-102.5858140477042
 30
0.0
 10
65.11230467122192
 20
-102.5858140477042
 30
0.0
 10
64.782264523735
 20
-102.5858140477042
 30
0.0
 10
64.782264523735
 20
-102.5858140477042
 30
0.0
 10
64.782264523735
 20
-102.5858140477042
 30
0.0
 10
64.782264523735
 20
-102.4378471966128
 30
0.0
 10
64.782264523735
 20
-102.4378471966128
 30
0.0
 10
65.11437172851308
 20
-102.4230332860262
 30
0.0
 10
65.16088051756395
 20
-102.2600802695739
 30
0.0
 10
65.1905083387371
 20
-102.1458753542378
 30
0.0
 10
65.1905083387371
 20
-102.1458753542378
 30
0.0
 10
65.33658038731168
 20
-102.1458753542378
 30
0.0
 10
65.33658038731168
 20
-102.1458753542378
 30
0.0
 10
65.33658038731168
 20
-102.1458753542378
 30
0.0
 10
65.33658038731168
 20
-103.6901394055011
 30
0.0
 10
65.33658038731168
 20
-103.6901394055011
 30
0.0
 10
65.33658038731168
 20
-103.6901394055011
 30
0.0
 10
65.11230467122192
 20
-103.6901394055011
 30
0.0
 10
65.11230467122192
 20
-103.6901394055011
 30
0.0
  0
HATCH
  5
CC
330
C7
100
AcDbEntity
  8
_U+30EC_U+30A4_U+30E4_U+30FC 1
 62
   179
420
  2234388
100
AcDbHatch
 10
0.0
 20
0.0
 30
0.0
210
0.0
220
0.0
230
1.0
  2
SOLID
 70
     1
 71
     0
 91
        1
 92
        1
 93
        1
 72
     4
 94
        3
 73
     0
 74
     1
 95
       26
 96
       22
 40
0.0
 40
0.0
 40
0.0
 40
0.0
 40
1.0
 40
1.0
 40
1.0
 40
2.0
 40
2.0
 40
2.0
 40
3.0
 40
3.0
 40
3.0
 40
4.0
 40
4.0
 40
4.0
 40
5.0
 40
5.0
 40
5.0
 40
6.0
 40
6.0
 40
6.0
 40
7.0
 40
7.0
 40
7.0
 40
7.0
 10
65.11230467122192
 20
-103.6901394055011
 10
65.11230467122192
 20
-103.6901394055011
 10
65.11230467122192
 20
-102.5858140477042
 10
65.11230467122192
 20
-102.5858140477042
 10
65.11230467122192
 20
-102.5858140477042
 10
64.782264523735
 20
-102.5858140477042
 10
64.782264523735
 20
-102.5858140477042
 10
64.782264523735
 20
-102.5858140477042
 10
64.782264523735
 20
-102.4378471966128
 10
64.782264523735
 20
-102.4378471966128
 10
65.11437172851308
 20
-102.4230332860262
 10
65.16088051756395
 20
-102.2600802695739
 10
65.1905083387371
 20
-102.1458753542378
 10
65.1905083387371
 20
-102.1458753542378
 10
65.33658038731168
 20
-102.1458753542378
 10
65.33658038731168
 20
-102.1458753542378
 10
65.33658038731168
 20
-102.1458753542378
 10
65.33658038731168
 20
-103.6901394055011
 10
65.33658038731168
 20
-103.6901394055011
 10
65.33658038731168
 20
-103.6901394055011
 10
65.11230467122192
 20
-103.6901394055011
 10
65.11230467122192
 20
-103.6901394055011
 97
        0
 97
        0
 75
     2
 76
     1
 98
        0
  0
POLYLINE
  5
CD
330
C7
100
AcDbEntity
  8
_U+30EC_U+30A4_U+30E4_U+30FC 1
370
     0
100
AcDb2dPolyline
 66
     1
 10
0.0
 20
0.0
 30
0.0
  0
VERTEX
  5
CE
330
CD
100
AcDbEntity
  8
_U+30EC_U+30A4_U+30E4_U+30FC 1
370
     0
100
AcDbVertex
100
AcDb2dVertex
 10
65.89778644185888
 20
-103.6901394055011
 30
0.0
  0
VERTEX
  5
CF
330
CD
100
AcDbEntity
  8
_U+30EC_U+30A4_U+30E4_U+30FC 1
370
     0
100
AcDbVertex
100
AcDb2dVertex
 10
65.89778644185888
 20
-103.4384751803036
 30
0.0
  0
VERTEX
  5
D0
330
CD
100
AcDbEntity
  8
_U+30EC_U+30A4_U+30E4_U+30FC 1
370
     0
100
AcDbVertex
100
AcDb2dVertex
 10
66.14945066705639
 20
-103.4384751803036
 30
0.0
  0
VERTEX
  5
D1
330
CD
100
AcDbEntity
  8
_U+30EC_U+30A4_U+30E4_U+30FC 1
370
     0
100
AcDbVertex
100
AcDb2dVertex
 10
66.14945066705639
 20
-103.6901394055011
 30
0.0
  0
VERTEX
  5
D2
330
CD
100
AcDbEntity
  8
_U+30EC_U+30A4_U+30E4_U+30FC 1
370
     0
100
AcDbVertex
100
AcDb2dVertex
 10
65.89778644185888
 20
-103.6901394055011
 30
0.0
  0
SEQEND
  5
D3
330
CD
100
AcDbEntity
  8
_U+30EC_U+30A4_U+30E4_U+30FC 1
370
     0
  0
HATCH
  5
D4
330
C7
100
AcDbEntity
  8
_U+30EC_U+30A4_U+30E4_U+30FC 1
 62
   179
420
  2234388
100
AcDbHatch
 10
0.0
 20
0.0
 30
0.0
210
0.0
220
0.0
230
1.0
  2
SOLID
 70
     1
 71
     0
 91
        1
 92
        1
 93
        4
 72
     1
 10
65.89778644185888
 20
-103.6901394055011
 11
65.89778644185888
 21
-103.4384751803036
 72
     1
 10
65.89778644185888
 20
-103.4384751803036
 11
66.14945066705639
 21
-103.4384751803036
 72
     1
 10
66.14945066705639
 20
-103.4384751803036
 11
66.14945066705639
 21
-103.6901394055011
 72
     1
 10
66.14945066705639
 20
-103.6901394055011
 11
65.89778644185888
 21
-103.6901394055011
 97
        0
 75
     2
 76
     1
 98
        0
  0
SPLINE
  5
D5
330
C7
100
AcDbEntity
  8
_U+30EC_U+30A4_U+30E4_U+30FC 1
370
     0
100
AcDbSpline
210
0.0
220
0.0
230
1.0
 70
    11
 71
     3
 72
    44
 73
    40
 74
     0
 42
0.0000000001
 43
0.0000000001
 12
1.0
 22
0.0
 32
0.0
 13
1.0
 23
0.0
 33
0.0
 40
0.0
 40
0.0
 40
0.0
 40
0.0
 40
1.0
 40
1.0
 40
1.0
 40
2.0
 40
2.0
 40
2.0
 40
3.0
 40
3.0
 40
3.0
 40
4.0
 40
4.0
 40
4.0
 40
5.0
 40
5.0
 40
5.0
 40
6.0
 40
6.0
 40
6.0
 40
7.0
 40
7.0
 40
7.0
 40
8.0
 40
8.0
 40
8.0
 40
9.0
 40
9.0
 40
9.0
 40
10.0
 40
10.0
 40
10.0
 40
11.0
 40
11.0
 40
11.0
 40
12.0
 40
12.0
 40
12.0
 40
13.0
 40
13.0
 40
13.0
 40
13.0
 10
66.97920191467881
 20
-103.1084350328166
 30
0.0
 10
66.76129962523676
 20
-103.2670816799124
 30
0.0
 10
66.66810979236075
 20
-103.3411512328453
 30
0.0
 10
66.61953394601873
 20
-103.4849839693545
 30
0.0
 10
66.61953394601873
 20
-103.4849839693545
 30
0.0
 10
67.39795327091093
 20
-103.4849839693545
 30
0.0
 10
67.39795327091093
 20
-103.4849839693545
 30
0.0
 10
67.39795327091093
 20
-103.4849839693545
 30
0.0
 10
67.39795327091093
 20
-103.6901394055011
 30
0.0
 10
67.39795327091093
 20
-103.6901394055011
 30
0.0
 10
67.39795327091093
 20
-103.6901394055011
 30
0.0
 10
66.36993677811238
 20
-103.6901394055011
 30
0.0
 10
66.36993677811238
 20
-103.6901394055011
 30
0.0
 10
66.40163165657668
 20
-103.3325384941322
 30
0.0
 10
66.46726072557068
 20
-103.254334826617
 30
0.0
 10
66.85225014604735
 20
-102.9559895575943
 30
0.0
 10
67.10822074060142
 20
-102.7572075480954
 30
0.0
 10
67.17367755482117
 20
-102.6895114218103
 30
0.0
 10
67.17367755482117
 20
-102.5520521119488
 30
0.0
 10
67.17367755482117
 20
-102.4335408272562
 30
0.0
 10
67.10184731395371
 20
-102.3024549440425
 30
0.0
 10
66.90513236174594
 20
-102.3024549440425
 30
0.0
 10
66.64485539783531
 20
-102.3024549440425
 30
0.0
 10
66.63641491389646
 20
-102.5329318320057
 30
0.0
 10
66.63210854453989
 20
-102.6493760594071
 30
0.0
 10
66.63210854453989
 20
-102.6493760594071
 30
0.0
 10
66.4080050832244
 20
-102.6493760594071
 30
0.0
 10
66.4080050832244
 20
-102.6493760594071
 30
0.0
 10
66.41644556716325
 20
-102.5224242907756
 30
0.0
 10
66.42695310839326
 20
-102.4102864327308
 30
0.0
 10
66.50739608797385
 20
-102.2917751480382
 30
0.0
 10
66.61729463395332
 20
-102.1310614436513
 30
0.0
 10
66.80350204493107
 20
-102.0971272531216
 30
0.0
 10
66.91994627233251
 20
-102.0971272531216
 30
0.0
 10
67.19710420412086
 20
-102.0971272531216
 30
0.0
 10
67.40432669755864
 20
-102.2812676068082
 30
0.0
 10
67.40432669755864
 20
-102.55411916924
 30
0.0
 10
67.40432669755864
 20
-102.782528999912
 30
0.0
 10
67.28805472493146
 20
-102.8820922594357
 30
0.0
 10
66.97920191467881
 20
-103.1084350328166
 30
0.0
  0
HATCH
  5
D6
330
C7
100
AcDbEntity
  8
_U+30EC_U+30A4_U+30E4_U+30FC 1
 62
   179
420
  2234388
100
AcDbHatch
 10
0.0
 20
0.0
 30
0.0
210
0.0
220
0.0
230
1.0
  2
SOLID
 70
     1
 71
     0
 91
        1
 92
        1
 93
        1
 72
     4
 94
        3
 73
     0
 74
     1
 95
       44
 96
       40
 40
0.0
 40
0.0
 40
0.0
 40
0.0
 40
1.0
 40
1.0
 40
1.0
 40
2.0
 40
2.0
 40
2.0
 40
3.0
 40
3.0
 40
3.0
 40
4.0
 40
4.0
 40
4.0
 40
5.0
 40
5.0
 40
5.0
 40
6.0
 40
6.0
 40
6.0
 40
7.0
 40
7.0
 40
7.0
 40
8.0
 40
8.0
 40
8.0
 40
9.0
 40
9.0
 40
9.0
 40
10.0
 40
10.0
 40
10.0
 40
11.0
 40
11.0
 40
11.0
 40
12.0
 40
12.0
 40
12.0
 40
13.0
 40
13.0
 40
13.0
 40
13.0
 10
66.97920191467881
 20
-103.1084350328166
 10
66.76129962523676
 20
-103.2670816799124
 10
66.66810979236075
 20
-103.3411512328453
 10
66.61953394601873
 20
-103.4849839693545
 10
66.61953394601873
 20
-103.4849839693545
 10
67.39795327091093
 20
-103.4849839693545
 10
67.39795327091093
 20
-103.4849839693545
 10
67.39795327091093
 20
-103.4849839693545
 10
67.39795327091093
 20
-103.6901394055011
 10
67.39795327091093
 20
-103.6901394055011
 10
67.39795327091093
 20
-103.6901394055011
 10
66.36993677811238
 20
-103.6901394055011
 10
66.36993677811238
 20
-103.6901394055011
 10
66.40163165657668
 20
-103.3325384941322
 10
66.46726072557068
 20
-103.254334826617
 10
66.85225014604735
 20
-102.9559895575943
 10
67.10822074060142
 20
-102.7572075480954
 10
67.17367755482117
 20
-102.6895114218103
 10
67.17367755482117
 20
-102.5520521119488
 10
67.17367755482117
 20
-102.4335408272562
 10
67.10184731395371
 20
-102.3024549440425
 10
66.90513236174594
 20
-102.3024549440425
 10
66.64485539783531
 20
-102.3024549440425
 10
66.63641491389646
 20
-102.5329318320057
 10
66.63210854453989
 20
-102.6493760594071
 10
66.63210854453989
 20
-102.6493760594071
 10
66.4080050832244
 20
-102.6493760594071
 10
66.4080050832244
 20
-102.6493760594071
 10
66.41644556716325
 20
-102.5224242907756
 10
66.42695310839326
 20
-102.4102864327308
 10
66.50739608797385
 20
-102.2917751480382
 10
66.61729463395332
 20
-102.1310614436513
 10
66.80350204493107
 20
-102.0971272531216
 10
66.91994627233251
 20
-102.0971272531216
 10
67.19710420412086
 20
-102.0971272531216
 10
67.40432669755864
 20
-102.2812676068082
 10
67.40432669755864
 20
-102.55411916924
 10
67.40432669755864
 20
-102.782528999912
 10
67.28805472493146
 20
-102.8820922594357
 10
66.97920191467881
 20
-103.1084350328166
 97
        0
 97
        0
 75
     2
 76
     1
 98
        0
  0
ENDBLK
  5
CA
330
C7
100
AcDbEntity
  8
0
100
AcDbBlockEnd
  0
BLOCK
  5
EB
330
E9
100
AcDbEntity
  8
0
100
AcDbBlockBegin
  2
block 8
 70
     0
 10
0.0
 20
0.0
 30
0.0
  3
block 8
  1

  0
SPLINE
  5
ED
330
E9
100
AcDbEntity
  8
_U+30EC_U+30A4_U+30E4_U+30FC 1
370
     0
100
AcDbSpline
210
0.0
220
0.0
230
1.0
 70
    11
 71
     3
 72
    26
 73
    22
 74
     0
 42
0.0000000001
 43
0.0000000001
 12
1.0
 22
0.0
 32
0.0
 13
1.0
 23
0.0
 33
0.0
 40
0.0
 40
0.0
 40
0.0
 40
0.0
 40
1.0
 40
1.0
 40
1.0
 40
2.0
 40
2.0
 40
2.0
 40
3.0
 40
3.0
 40
3.0
 40
4.0
 40
4.0
 40
4.0
 40
5.0
 40
5.0
 40
5.0
 40
6.0
 40
6.0
 40
6.0
 40
7.0
 40
7.0
 40
7.0
 40
7.0
 10
95.14113495885361
 20
-156.9678520657928
 30
0.0
 10
95.14113495885361
 20
-156.9678520657928
 30
0.0
 10
95.14113495885361
 20
-155.8636989627702
 30
0.0
 10
95.14113495885361
 20
-155.8636989627702
 30
0.0
 10
95.14113495885361
 20
-155.8636989627702
 30
0.0
 10
94.81109481136667
 20
-155.8636989627702
 30
0.0
 10
94.81109481136667
 20
-155.8636989627702
 30
0.0
 10
94.81109481136667
 20
-155.8636989627702
 30
0.0
 10
94.81109481136667
 20
-155.7155598569045
 30
0.0
 10
94.81109481136667
 20
-155.7155598569045
 30
0.0
 10
95.14320201614476
 20
-155.7007459463179
 30
0.0
 10
95.19005531474416
 20
-155.5377929298656
 30
0.0
 10
95.21968313591731
 20
-155.4234157597553
 30
0.0
 10
95.21968313591731
 20
-155.4234157597553
 30
0.0
 10
95.3657551844919
 20
-155.4234157597553
 30
0.0
 10
95.3657551844919
 20
-155.4234157597553
 30
0.0
 10
95.3657551844919
 20
-155.4234157597553
 30
0.0
 10
95.3657551844919
 20
-156.9678520657928
 30
0.0
 10
95.3657551844919
 20
-156.9678520657928
 30
0.0
 10
95.3657551844919
 20
-156.9678520657928
 30
0.0
 10
95.14113495885361
 20
-156.9678520657928
 30
0.0
 10
95.14113495885361
 20
-156.9678520657928
 30
0.0
  0
HATCH
  5
EE
330
E9
100
AcDbEntity
  8
_U+30EC_U+30A4_U+30E4_U+30FC 1
 62
   179
420
  2234388
100
AcDbHatch
 10
0.0
 20
0.0
 30
0.0
210
0.0
220
0.0
230
1.0
  2
SOLID
 70
     1
 71
     0
 91
        1
 92
        1
 93
        1
 72
     4
 94
        3
 73
     0
 74
     1
 95
       26
 96
       22
 40
0.0
 40
0.0
 40
0.0
 40
0.0
 40
1.0
 40
1.0
 40
1.0
 40
2.0
 40
2.0
 40
2.0
 40
3.0
 40
3.0
 40
3.0
 40
4.0
 40
4.0
 40
4.0
 40
5.0
 40
5.0
 40
5.0
 40
6.0
 40
6.0
 40
6.0
 40
7.0
 40
7.0
 40
7.0
 40
7.0
 10
95.14113495885361
 20
-156.9678520657928
 10
95.14113495885361
 20
-156.9678520657928
 10
95.14113495885361
 20
-155.8636989627702
 10
95.14113495885361
 20
-155.8636989627702
 10
95.14113495885361
 20
-155.8636989627702
 10
94.81109481136667
 20
-155.8636989627702
 10
94.81109481136667
 20
-155.8636989627702
 10
94.81109481136667
 20
-155.8636989627702
 10
94.81109481136667
 20
-155.7155598569045
 10
94.81109481136667
 20
-155.7155598569045
 10
95.14320201614476
 20
-155.7007459463179
 10
95.19005531474416
 20
-155.5377929298656
 10
95.21968313591731
 20
-155.4234157597553
 10
95.21968313591731
 20
-155.4234157597553
 10
95.3657551844919
 20
-155.4234157597553
 10
95.3657551844919
 20
-155.4234157597553
 10
95.3657551844919
 20
-155.4234157597553
 10
95.3657551844919
 20
-156.9678520657928
 10
95.3657551844919
 20
-156.9678520657928
 10
95.3657551844919
 20
-156.9678520657928
 10
95.14113495885361
 20
-156.9678520657928
 10
95.14113495885361
 20
-156.9678520657928
 97
        0
 97
        0
 75
     2
 76
     1
 98
        0
  0
SPLINE
  5
EF
330
E9
100
AcDbEntity
  8
_U+30EC_U+30A4_U+30E4_U+30FC 1
370
     0
100
AcDbSpline
210
0.0
220
0.0
230
1.0
 70
    11
 71
     3
 72
    53
 73
    49
 74
     0
 42
0.0000000001
 43
0.0000000001
 12
1.0
 22
0.0
 32
0.0
 13
1.0
 23
0.0
 33
0.0
 40
0.0
 40
0.0
 40
0.0
 40
0.0
 40
1.0
 40
1.0
 40
1.0
 40
2.0
 40
2.0
 40
2.0
 40
3.0
 40
3.0
 40
3.0
 40
4.0
 40
4.0
 40
4.0
 40
5.0
 40
5.0
 40
5.0
 40
6.0
 40
6.0
 40
6.0
 40
7.0
 40
7.0
 40
7.0
 40
8.0
 40
8.0
 40
8.0
 40
9.0
 40
9.0
 40
9.0
 40
10.0
 40
10.0
 40
10.0
 40
11.0
 40
11.0
 40
11.0
 40
12.0
 40
12.0
 40
12.0
 40
13.0
 40
13.0
 40
13.0
 40
14.0
 40
14.0
 40
14.0
 40
15.0
 40
15.0
 40
15.0
 40
16.0
 40
16.0
 40
16.0
 40
16.0
 10
96.3476073977881
 20
-157.0184949694259
 30
0.0
 10
96.26940373027293
 20
-157.0184949694259
 30
0.0
 10
96.16777341345806
 20
-157.0016140015482
 30
0.0
 10
96.06648760619171
 20
-156.9382242446196
 30
0.0
 10
95.89285479373513
 20
-156.8283256986402
 30
0.0
 10
95.87149520172657
 20
-156.6970675606521
 30
0.0
 10
95.85289168610623
 20
-156.5892360719638
 30
0.0
 10
95.85289168610623
 20
-156.5892360719638
 30
0.0
 10
96.07475583535631
 20
-156.5892360719638
 30
0.0
 10
96.07475583535631
 20
-156.5892360719638
 30
0.0
 10
96.12987736312031
 20
-156.7880180814627
 30
0.0
 10
96.2566568769775
 20
-156.8176459026359
 30
0.0
 10
96.34967445507925
 20
-156.8176459026359
 30
0.0
 10
96.48954533178039
 20
-156.8176459026359
 30
0.0
 10
96.64181855222844
 20
-156.7180826431122
 30
0.0
 10
96.64181855222844
 20
-156.4855386978578
 30
0.0
 10
96.64181855222844
 20
-156.2295681033037
 30
0.0
 10
96.4619845678984
 20
-156.1599771745017
 30
0.0
 10
96.34140622591465
 20
-156.1599771745017
 30
0.0
 10
96.30971134745036
 20
-156.1599771745017
 30
0.0
 10
96.16777341345806
 20
-156.1599771745017
 30
0.0
 10
96.07888994993861
 20
-156.28882374565
 30
0.0
 10
96.07888994993861
 20
-156.28882374565
 30
0.0
 10
95.9035345897394
 20
-156.2695312109326
 30
0.0
 10
95.9035345897394
 20
-156.2695312109326
 30
0.0
 10
95.9035345897394
 20
-156.2695312109326
 30
0.0
 10
96.02411293172314
 20
-155.4234157597553
 30
0.0
 10
96.02411293172314
 20
-155.4234157597553
 30
0.0
 10
96.02411293172314
 20
-155.4234157597553
 30
0.0
 10
96.80236000184108
 20
-155.4234157597553
 30
0.0
 10
96.80236000184108
 20
-155.4234157597553
 30
0.0
 10
96.80236000184108
 20
-155.4234157597553
 30
0.0
 10
96.80236000184108
 20
-155.6184081642204
 30
0.0
 10
96.80236000184108
 20
-155.6184081642204
 30
0.0
 10
96.80236000184108
 20
-155.6184081642204
 30
0.0
 10
96.18706594817546
 20
-155.6184081642204
 30
0.0
 10
96.18706594817546
 20
-155.6184081642204
 30
0.0
 10
96.18706594817546
 20
-155.6184081642204
 30
0.0
 10
96.12160913395572
 20
-156.0414658898091
 30
0.0
 10
96.12160913395572
 20
-156.0414658898091
 30
0.0
 10
96.18293183359316
 20
-156.0073594445051
 30
0.0
 10
96.26526961569063
 20
-155.9670518273277
 30
0.0
 10
96.3834363908347
 20
-155.9670518273277
 30
0.0
 10
96.63768443764614
 20
-155.9670518273277
 30
0.0
 10
96.87470700703133
 20
-156.1534314930797
 30
0.0
 10
96.87470700703133
 20
-156.4665906726889
 30
0.0
 10
96.87470700703133
 20
-156.7838839668804
 30
0.0
 10
96.65008678139304
 20
-157.0184949694259
 30
0.0
 10
96.3476073977881
 20
-157.0184949694259
 30
0.0
  0
HATCH
  5
F0
330
E9
100
AcDbEntity
  8
_U+30EC_U+30A4_U+30E4_U+30FC 1
 62
   179
420
  2234388
100
AcDbHatch
 10
0.0
 20
0.0
 30
0.0
210
0.0
220
0.0
230
1.0
  2
SOLID
 70
     1
 71
     0
 91
        1
 92
        1
 93
        1
 72
     4
 94
        3
 73
     0
 74
     1
 95
       53
 96
       49
 40
0.0
 40
0.0
 40
0.0
 40
0.0
 40
1.0
 40
1.0
 40
1.0
 40
2.0
 40
2.0
 40
2.0
 40
3.0
 40
3.0
 40
3.0
 40
4.0
 40
4.0
 40
4.0
 40
5.0
 40
5.0
 40
5.0
 40
6.0
 40
6.0
 40
6.0
 40
7.0
 40
7.0
 40
7.0
 40
8.0
 40
8.0
 40
8.0
 40
9.0
 40
9.0
 40
9.0
 40
10.0
 40
10.0
 40
10.0
 40
11.0
 40
11.0
 40
11.0
 40
12.0
 40
12.0
 40
12.0
 40
13.0
 40
13.0
 40
13.0
 40
14.0
 40
14.0
 40
14.0
 40
15.0
 40
15.0
 40
15.0
 40
16.0
 40
16.0
 40
16.0
 40
16.0
 10
96.3476073977881
 20
-157.0184949694259
 10
96.26940373027293
 20
-157.0184949694259
 10
96.16777341345806
 20
-157.0016140015482
 10
96.06648760619171
 20
-156.9382242446196
 10
95.89285479373513
 20
-156.8283256986402
 10
95.87149520172657
 20
-156.6970675606521
 10
95.85289168610623
 20
-156.5892360719638
 10
95.85289168610623
 20
-156.5892360719638
 10
96.07475583535631
 20
-156.5892360719638
 10
96.07475583535631
 20
-156.5892360719638
 10
96.12987736312031
 20
-156.7880180814627
 10
96.2566568769775
 20
-156.8176459026359
 10
96.34967445507925
 20
-156.8176459026359
 10
96.48954533178039
 20
-156.8176459026359
 10
96.64181855222844
 20
-156.7180826431122
 10
96.64181855222844
 20
-156.4855386978578
 10
96.64181855222844
 20
-156.2295681033037
 10
96.4619845678984
 20
-156.1599771745017
 10
96.34140622591465
 20
-156.1599771745017
 10
96.30971134745036
 20
-156.1599771745017
 10
96.16777341345806
 20
-156.1599771745017
 10
96.07888994993861
 20
-156.28882374565
 10
96.07888994993861
 20
-156.28882374565
 10
95.9035345897394
 20
-156.2695312109326
 10
95.9035345897394
 20
-156.2695312109326
 10
95.9035345897394
 20
-156.2695312109326
 10
96.02411293172314
 20
-155.4234157597553
 10
96.02411293172314
 20
-155.4234157597553
 10
96.02411293172314
 20
-155.4234157597553
 10
96.80236000184108
 20
-155.4234157597553
 10
96.80236000184108
 20
-155.4234157597553
 10
96.80236000184108
 20
-155.4234157597553
 10
96.80236000184108
 20
-155.6184081642204
 10
96.80236000184108
 20
-155.6184081642204
 10
96.80236000184108
 20
-155.6184081642204
 10
96.18706594817546
 20
-155.6184081642204
 10
96.18706594817546
 20
-155.6184081642204
 10
96.18706594817546
 20
-155.6184081642204
 10
96.12160913395572
 20
-156.0414658898091
 10
96.12160913395572
 20
-156.0414658898091
 10
96.18293183359316
 20
-156.0073594445051
 10
96.26526961569063
 20
-155.9670518273277
 10
96.3834363908347
 20
-155.9670518273277
 10
96.63768443764614
 20
-155.9670518273277
 10
96.87470700703133
 20
-156.1534314930797
 10
96.87470700703133
 20
-156.4665906726889
 10
96.87470700703133
 20
-156.7838839668804
 10
96.65008678139304
 20
-157.0184949694259
 10
96.3476073977881
 20
-157.0184949694259
 97
        0
 97
        0
 75
     2
 76
     1
 98
        0
  0
ENDBLK
  5
EC
330
E9
100
AcDbEntity
  8
0
100
AcDbBlockEnd
  0
BLOCK
  5
F3
330
F1
100
AcDbEntity
  8
0
100
AcDbBlockBegin
  2
block 9
 70
     0
 10
0.0
 20
0.0
 30
0.0
  3
block 9
  1

  0
SPLINE
  5
F5
330
F1
100
AcDbEntity
  8
_U+30EC_U+30A4_U+30E4_U+30FC 1
370
     0
100
AcDbSpline
210
0.0
220
0.0
230
1.0
 70
    11
 71
     3
 72
    53
 73
    49
 74
     0
 42
0.0000000001
 43
0.0000000001
 12
1.0
 22
0.0
 32
0.0
 13
1.0
 23
0.0
 33
0.0
 40
0.0
 40
0.0
 40
0.0
 40
0.0
 40
1.0
 40
1.0
 40
1.0
 40
2.0
 40
2.0
 40
2.0
 40
3.0
 40
3.0
 40
3.0
 40
4.0
 40
4.0
 40
4.0
 40
5.0
 40
5.0
 40
5.0
 40
6.0
 40
6.0
 40
6.0
 40
7.0
 40
7.0
 40
7.0
 40
8.0
 40
8.0
 40
8.0
 40
9.0
 40
9.0
 40
9.0
 40
10.0
 40
10.0
 40
10.0
 40
11.0
 40
11.0
 40
11.0
 40
12.0
 40
12.0
 40
12.0
 40
13.0
 40
13.0
 40
13.0
 40
14.0
 40
14.0
 40
14.0
 40
15.0
 40
15.0
 40
15.0
 40
16.0
 40
16.0
 40
16.0
 40
16.0
 10
105.7602972825877
 20
-157.0184949694259
 30
0.0
 10
105.681749105524
 20
-157.0184949694259
 30
0.0
 10
105.5804632982577
 20
-157.0016140015482
 30
0.0
 10
105.4788329814428
 20
-156.9382242446196
 30
0.0
 10
105.3055446785347
 20
-156.8283256986402
 30
0.0
 10
105.2841850865262
 20
-156.6970675606521
 30
0.0
 10
105.2652370613573
 20
-156.5892360719638
 30
0.0
 10
105.2652370613573
 20
-156.5892360719638
 30
0.0
 10
105.4874457201559
 20
-156.5892360719638
 30
0.0
 10
105.4874457201559
 20
-156.5892360719638
 30
0.0
 10
105.5425672479199
 20
-156.7880180814627
 30
0.0
 10
105.6693467617771
 20
-156.8176459026359
 30
0.0
 10
105.7623643398789
 20
-156.8176459026359
 30
0.0
 10
105.90223521658
 20
-156.8176459026359
 30
0.0
 10
106.054508437028
 20
-156.7180826431122
 30
0.0
 10
106.054508437028
 20
-156.4855386978578
 30
0.0
 10
106.054508437028
 20
-156.2295681033037
 30
0.0
 10
105.874674452698
 20
-156.1599771745017
 30
0.0
 10
105.7540961107143
 20
-156.1599771745017
 30
0.0
 10
105.72240123225
 20
-156.1599771745017
 30
0.0
 10
105.5804632982577
 20
-156.1599771745017
 30
0.0
 10
105.4915798347382
 20
-156.28882374565
 30
0.0
 10
105.4915798347382
 20
-156.28882374565
 30
0.0
 10
105.3158799649905
 20
-156.2695312109326
 30
0.0
 10
105.3158799649905
 20
-156.2695312109326
 30
0.0
 10
105.3158799649905
 20
-156.2695312109326
 30
0.0
 10
105.4364583069742
 20
-155.4234157597553
 30
0.0
 10
105.4364583069742
 20
-155.4234157597553
 30
0.0
 10
105.4364583069742
 20
-155.4234157597553
 30
0.0
 10
106.2150498866407
 20
-155.4234157597553
 30
0.0
 10
106.2150498866407
 20
-155.4234157597553
 30
0.0
 10
106.2150498866407
 20
-155.4234157597553
 30
0.0
 10
106.2150498866407
 20
-155.6184081642204
 30
0.0
 10
106.2150498866407
 20
-155.6184081642204
 30
0.0
 10
106.2150498866407
 20
-155.6184081642204
 30
0.0
 10
105.5994113234265
 20
-155.6184081642204
 30
0.0
 10
105.5994113234265
 20
-155.6184081642204
 30
0.0
 10
105.5994113234265
 20
-155.6184081642204
 30
0.0
 10
105.5339545092068
 20
-156.0414658898091
 30
0.0
 10
105.5339545092068
 20
-156.0414658898091
 30
0.0
 10
105.5952772088442
 20
-156.0073594445051
 30
0.0
 10
105.6776149909417
 20
-155.9670518273277
 30
0.0
 10
105.7961262756343
 20
-155.9670518273277
 30
0.0
 10
106.0500298128972
 20
-155.9670518273277
 30
0.0
 10
106.2870523822824
 20
-156.1534314930797
 30
0.0
 10
106.2870523822824
 20
-156.4665906726889
 30
0.0
 10
106.2870523822824
 20
-156.7838839668804
 30
0.0
 10
106.0627766661926
 20
-157.0184949694259
 30
0.0
 10
105.7602972825877
 20
-157.0184949694259
 30
0.0
  0
HATCH
  5
F6
330
F1
100
AcDbEntity
  8
_U+30EC_U+30A4_U+30E4_U+30FC 1
 62
   179
420
  2234388
100
AcDbHatch
 10
0.0
 20
0.0
 30
0.0
210
0.0
220
0.0
230
1.0
  2
SOLID
 70
     1
 71
     0
 91
        1
 92
        1
 93
        1
 72
     4
 94
        3
 73
     0
 74
     1
 95
       53
 96
       49
 40
0.0
 40
0.0
 40
0.0
 40
0.0
 40
1.0
 40
1.0
 40
1.0
 40
2.0
 40
2.0
 40
2.0
 40
3.0
 40
3.0
 40
3.0
 40
4.0
 40
4.0
 40
4.0
 40
5.0
 40
5.0
 40
5.0
 40
6.0
 40
6.0
 40
6.0
 40
7.0
 40
7.0
 40
7.0
 40
8.0
 40
8.0
 40
8.0
 40
9.0
 40
9.0
 40
9.0
 40
10.0
 40
10.0
 40
10.0
 40
11.0
 40
11.0
 40
11.0
 40
12.0
 40
12.0
 40
12.0
 40
13.0
 40
13.0
 40
13.0
 40
14.0
 40
14.0
 40
14.0
 40
15.0
 40
15.0
 40
15.0
 40
16.0
 40
16.0
 40
16.0
 40
16.0
 10
105.7602972825877
 20
-157.0184949694259
 10
105.681749105524
 20
-157.0184949694259
 10
105.5804632982577
 20
-157.0016140015482
 10
105.4788329814428
 20
-156.9382242446196
 10
105.3055446785347
 20
-156.8283256986402
 10
105.2841850865262
 20
-156.6970675606521
 10
105.2652370613573
 20
-156.5892360719638
 10
105.2652370613573
 20
-156.5892360719638
 10
105.4874457201559
 20
-156.5892360719638
 10
105.4874457201559
 20
-156.5892360719638
 10
105.5425672479199
 20
-156.7880180814627
 10
105.6693467617771
 20
-156.8176459026359
 10
105.7623643398789
 20
-156.8176459026359
 10
105.90223521658
 20
-156.8176459026359
 10
106.054508437028
 20
-156.7180826431122
 10
106.054508437028
 20
-156.4855386978578
 10
106.054508437028
 20
-156.2295681033037
 10
105.874674452698
 20
-156.1599771745017
 10
105.7540961107143
 20
-156.1599771745017
 10
105.72240123225
 20
-156.1599771745017
 10
105.5804632982577
 20
-156.1599771745017
 10
105.4915798347382
 20
-156.28882374565
 10
105.4915798347382
 20
-156.28882374565
 10
105.3158799649905
 20
-156.2695312109326
 10
105.3158799649905
 20
-156.2695312109326
 10
105.3158799649905
 20
-156.2695312109326
 10
105.4364583069742
 20
-155.4234157597553
 10
105.4364583069742
 20
-155.4234157597553
 10
105.4364583069742
 20
-155.4234157597553
 10
106.2150498866407
 20
-155.4234157597553
 10
106.2150498866407
 20
-155.4234157597553
 10
106.2150498866407
 20
-155.4234157597553
 10
106.2150498866407
 20
-155.6184081642204
 10
106.2150498866407
 20
-155.6184081642204
 10
106.2150498866407
 20
-155.6184081642204
 10
105.5994113234265
 20
-155.6184081642204
 10
105.5994113234265
 20
-155.6184081642204
 10
105.5994113234265
 20
-155.6184081642204
 10
105.5339545092068
 20
-156.0414658898091
 10
105.5339545092068
 20
-156.0414658898091
 10
105.5952772088442
 20
-156.0073594445051
 10
105.6776149909417
 20
-155.9670518273277
 10
105.7961262756343
 20
-155.9670518273277
 10
106.0500298128972
 20
-155.9670518273277
 10
106.2870523822824
 20
-156.1534314930797
 10
106.2870523822824
 20
-156.4665906726889
 10
106.2870523822824
 20
-156.7838839668804
 10
106.0627766661926
 20
-157.0184949694259
 10
105.7602972825877
 20
-157.0184949694259
 97
        0
 97
        0
 75
     2
 76
     1
 98
        0
  0
ENDBLK
  5
F4
330
F1
100
AcDbEntity
  8
0
100
AcDbBlockEnd
  0
BLOCK
  5
117
330
115
100
AcDbEntity
  8
0
100
AcDbBlockBegin
  2
block 10
 70
     0
 10
0.0
 20
0.0
 30
0.0
  3
block 10
  1

  0
SPLINE
  5
119
330
115
100
AcDbEntity
  8
_U+30EC_U+30A4_U+30E4_U+30FC 1
370
     0
100
AcDbSpline
210
0.0
220
0.0
230
1.0
 70
    11
 71
     3
 72
    44
 73
    40
 74
     0
 42
0.0000000001
 43
0.0000000001
 12
1.0
 22
0.0
 32
0.0
 13
1.0
 23
0.0
 33
0.0
 40
0.0
 40
0.0
 40
0.0
 40
0.0
 40
1.0
 40
1.0
 40
1.0
 40
2.0
 40
2.0
 40
2.0
 40
3.0
 40
3.0
 40
3.0
 40
4.0
 40
4.0
 40
4.0
 40
5.0
 40
5.0
 40
5.0
 40
6.0
 40
6.0
 40
6.0
 40
7.0
 40
7.0
 40
7.0
 40
8.0
 40
8.0
 40
8.0
 40
9.0
 40
9.0
 40
9.0
 40
10.0
 40
10.0
 40
10.0
 40
11.0
 40
11.0
 40
11.0
 40
12.0
 40
12.0
 40
12.0
 40
13.0
 40
13.0
 40
13.0
 40
13.0
 10
91.17014564778039
 20
-128.3325629019446
 30
0.0
 10
91.14671899848068
 20
-128.2881211701849
 30
0.0
 10
91.12570391602065
 20
-128.2352389544863
 30
0.0
 10
91.12346460395526
 20
-128.0045898117489
 30
0.0
 10
91.11933048937296
 20
-127.7613660704902
 30
0.0
 10
91.06007484702666
 20
-127.6916028869139
 30
0.0
 10
90.88230791998777
 20
-127.6916028869139
 30
0.0
 10
90.88230791998777
 20
-127.6916028869139
 30
0.0
 10
90.47406410498566
 20
-127.6916028869139
 30
0.0
 10
90.47406410498566
 20
-127.6916028869139
 30
0.0
 10
90.47406410498566
 20
-127.6916028869139
 30
0.0
 10
90.47406410498566
 20
-128.3325629019446
 30
0.0
 10
90.47406410498566
 20
-128.3325629019446
 30
0.0
 10
90.47406410498566
 20
-128.3325629019446
 30
0.0
 10
90.23928084766588
 20
-128.3325629019446
 30
0.0
 10
90.23928084766588
 20
-128.3325629019446
 30
0.0
 10
90.23928084766588
 20
-128.3325629019446
 30
0.0
 10
90.23928084766588
 20
-126.7882988506814
 30
0.0
 10
90.23928084766588
 20
-126.7882988506814
 30
0.0
 10
90.23928084766588
 20
-126.7882988506814
 30
0.0
 10
90.91417505322632
 20
-126.7882988506814
 30
0.0
 10
90.91417505322632
 20
-126.7882988506814
 30
0.0
 10
91.22078855141356
 20
-126.7882988506814
 30
0.0
 10
91.38804793722244
 20
-126.9595200962983
 30
0.0
 10
91.38804793722244
 20
-127.2156629456266
 30
0.0
 10
91.38804793722244
 20
-127.2663058492598
 30
0.0
 10
91.37943519850931
 20
-127.3488158861315
 30
0.0
 10
91.3349934667496
 20
-127.4292588657121
 30
0.0
 10
91.27591007917755
 20
-127.5329562398182
 30
0.0
 10
91.21028101018355
 20
-127.551904264987
 30
0.0
 10
91.14895831054609
 20
-127.5687852328648
 30
0.0
 10
91.28641762040756
 20
-127.6111599073333
 30
0.0
 10
91.35411374669273
 20
-127.6599080084496
 30
0.0
 10
91.35842011604929
 20
-127.9749619905757
 30
0.0
 10
91.36255423063159
 20
-128.2457464957164
 30
0.0
 10
91.39838322367818
 20
-128.2776136289549
 30
0.0
 10
91.46625160473761
 20
-128.3325629019446
 30
0.0
 10
91.46625160473761
 20
-128.3325629019446
 30
0.0
 10
91.17014564778039
 20
-128.3325629019446
 30
0.0
 10
91.17014564778039
 20
-128.3325629019446
 30
0.0
  0
SPLINE
  5
11A
330
115
100
AcDbEntity
  8
_U+30EC_U+30A4_U+30E4_U+30FC 1
370
     0
100
AcDbSpline
210
0.0
220
0.0
230
1.0
 70
    11
 71
     3
 72
    20
 73
    16
 74
     0
 42
0.0000000001
 43
0.0000000001
 12
1.0
 22
0.0
 32
0.0
 13
1.0
 23
0.0
 33
0.0
 40
0.0
 40
0.0
 40
0.0
 40
0.0
 40
1.0
 40
1.0
 40
1.0
 40
2.0
 40
2.0
 40
2.0
 40
3.0
 40
3.0
 40
3.0
 40
4.0
 40
4.0
 40
4.0
 40
5.0
 40
5.0
 40
5.0
 40
5.0
 10
90.91830916780862
 20
-126.9998277134757
 30
0.0
 10
90.91830916780862
 20
-126.9998277134757
 30
0.0
 10
90.47406410498566
 20
-126.9998277134757
 30
0.0
 10
90.47406410498566
 20
-126.9998277134757
 30
0.0
 10
90.47406410498566
 20
-126.9998277134757
 30
0.0
 10
90.47406410498566
 20
-127.4800740241196
 30
0.0
 10
90.47406410498566
 20
-127.4800740241196
 30
0.0
 10
90.47406410498566
 20
-127.4800740241196
 30
0.0
 10
90.91624211051747
 20
-127.4800740241196
 30
0.0
 10
90.91624211051747
 20
-127.4800740241196
 30
0.0
 10
91.01563311526692
 20
-127.4800740241196
 30
0.0
 10
91.15102536783725
 20
-127.4039374138955
 30
0.0
 10
91.15102536783725
 20
-127.2325439135044
 30
0.0
 10
91.15102536783725
 20
-127.1541679912149
 30
0.0
 10
91.11709117730754
 20
-126.9998277134757
 30
0.0
 10
90.91830916780862
 20
-126.9998277134757
 30
0.0
  0
HATCH
  5
11B
330
115
100
AcDbEntity
  8
_U+30EC_U+30A4_U+30E4_U+30FC 1
 62
   179
420
  2234388
100
AcDbHatch
 10
0.0
 20
0.0
 30
0.0
210
0.0
220
0.0
230
1.0
  2
SOLID
 70
     1
 71
     0
 91
        2
 92
        1
 93
        1
 72
     4
 94
        3
 73
     0
 74
     1
 95
       44
 96
       40
 40
0.0
 40
0.0
 40
0.0
 40
0.0
 40
1.0
 40
1.0
 40
1.0
 40
2.0
 40
2.0
 40
2.0
 40
3.0
 40
3.0
 40
3.0
 40
4.0
 40
4.0
 40
4.0
 40
5.0
 40
5.0
 40
5.0
 40
6.0
 40
6.0
 40
6.0
 40
7.0
 40
7.0
 40
7.0
 40
8.0
 40
8.0
 40
8.0
 40
9.0
 40
9.0
 40
9.0
 40
10.0
 40
10.0
 40
10.0
 40
11.0
 40
11.0
 40
11.0
 40
12.0
 40
12.0
 40
12.0
 40
13.0
 40
13.0
 40
13.0
 40
13.0
 10
91.17014564778039
 20
-128.3325629019446
 10
91.14671899848068
 20
-128.2881211701849
 10
91.12570391602065
 20
-128.2352389544863
 10
91.12346460395526
 20
-128.0045898117489
 10
91.11933048937296
 20
-127.7613660704902
 10
91.06007484702666
 20
-127.6916028869139
 10
90.88230791998777
 20
-127.6916028869139
 10
90.88230791998777
 20
-127.6916028869139
 10
90.47406410498566
 20
-127.6916028869139
 10
90.47406410498566
 20
-127.6916028869139
 10
90.47406410498566
 20
-127.6916028869139
 10
90.47406410498566
 20
-128.3325629019446
 10
90.47406410498566
 20
-128.3325629019446
 10
90.47406410498566
 20
-128.3325629019446
 10
90.23928084766588
 20
-128.3325629019446
 10
90.23928084766588
 20
-128.3325629019446
 10
90.23928084766588
 20
-128.3325629019446
 10
90.23928084766588
 20
-126.7882988506814
 10
90.23928084766588
 20
-126.7882988506814
 10
90.23928084766588
 20
-126.7882988506814
 10
90.91417505322632
 20
-126.7882988506814
 10
90.91417505322632
 20
-126.7882988506814
 10
91.22078855141356
 20
-126.7882988506814
 10
91.38804793722244
 20
-126.9595200962983
 10
91.38804793722244
 20
-127.2156629456266
 10
91.38804793722244
 20
-127.2663058492598
 10
91.37943519850931
 20
-127.3488158861315
 10
91.3349934667496
 20
-127.4292588657121
 10
91.27591007917755
 20
-127.5329562398182
 10
91.21028101018355
 20
-127.551904264987
 10
91.14895831054609
 20
-127.5687852328648
 10
91.28641762040756
 20
-127.6111599073333
 10
91.35411374669273
 20
-127.6599080084496
 10
91.35842011604929
 20
-127.9749619905757
 10
91.36255423063159
 20
-128.2457464957164
 10
91.39838322367818
 20
-128.2776136289549
 10
91.46625160473761
 20
-128.3325629019446
 10
91.46625160473761
 20
-128.3325629019446
 10
91.17014564778039
 20
-128.3325629019446
 10
91.17014564778039
 20
-128.3325629019446
 97
        0
 97
        0
 92
        1
 93
        1
 72
     4
 94
        3
 73
     0
 74
     1
 95
       20
 96
       16
 40
0.0
 40
0.0
 40
0.0
 40
0.0
 40
1.0
 40
1.0
 40
1.0
 40
2.0
 40
2.0
 40
2.0
 40
3.0
 40
3.0
 40
3.0
 40
4.0
 40
4.0
 40
4.0
 40
5.0
 40
5.0
 40
5.0
 40
5.0
 10
90.91830916780862
 20
-126.9998277134757
 10
90.91830916780862
 20
-126.9998277134757
 10
90.47406410498566
 20
-126.9998277134757
 10
90.47406410498566
 20
-126.9998277134757
 10
90.47406410498566
 20
-126.9998277134757
 10
90.47406410498566
 20
-127.4800740241196
 10
90.47406410498566
 20
-127.4800740241196
 10
90.47406410498566
 20
-127.4800740241196
 10
90.91624211051747
 20
-127.4800740241196
 10
90.91624211051747
 20
-127.4800740241196
 10
91.01563311526692
 20
-127.4800740241196
 10
91.15102536783725
 20
-127.4039374138955
 10
91.15102536783725
 20
-127.2325439135044
 10
91.15102536783725
 20
-127.1541679912149
 10
91.11709117730754
 20
-126.9998277134757
 10
90.91830916780862
 20
-126.9998277134757
 97
        0
 97
        0
 75
     2
 76
     1
 98
        0
  0
SPLINE
  5
11C
330
115
100
AcDbEntity
  8
_U+30EC_U+30A4_U+30E4_U+30FC 1
370
     0
100
AcDbSpline
210
0.0
220
0.0
230
1.0
 70
    11
 71
     3
 72
    62
 73
    58
 74
     0
 42
0.0000000001
 43
0.0000000001
 12
1.0
 22
0.0
 32
0.0
 13
1.0
 23
0.0
 33
0.0
 40
0.0
 40
0.0
 40
0.0
 40
0.0
 40
1.0
 40
1.0
 40
1.0
 40
2.0
 40
2.0
 40
2.0
 40
3.0
 40
3.0
 40
3.0
 40
4.0
 40
4.0
 40
4.0
 40
5.0
 40
5.0
 40
5.0
 40
6.0
 40
6.0
 40
6.0
 40
7.0
 40
7.0
 40
7.0
 40
8.0
 40
8.0
 40
8.0
 40
9.0
 40
9.0
 40
9.0
 40
10.0
 40
10.0
 40
10.0
 40
11.0
 40
11.0
 40
11.0
 40
12.0
 40
12.0
 40
12.0
 40
13.0
 40
13.0
 40
13.0
 40
14.0
 40
14.0
 40
14.0
 40
15.0
 40
15.0
 40
15.0
 40
16.0
 40
16.0
 40
16.0
 40
17.0
 40
17.0
 40
17.0
 40
18.0
 40
18.0
 40
18.0
 40
19.0
 40
19.0
 40
19.0
 40
19.0
 10
92.09739309763538
 20
-128.3833780603521
 30
0.0
 10
92.00196395269396
 20
-128.3833780603521
 30
0.0
 10
91.78423391802617
 20
-128.3621907231178
 30
0.0
 10
91.65952146146013
 20
-128.17598331214
 30
0.0
 10
91.58545190852725
 20
-128.0638454540951
 30
0.0
 10
91.58097328439642
 20
-127.9644544493457
 30
0.0
 10
91.57683916981412
 20
-127.8798773551828
 30
0.0
 10
91.57683916981412
 20
-127.8798773551828
 30
0.0
 10
91.79698077132159
 20
-127.8798773551828
 30
0.0
 10
91.79698077132159
 20
-127.8798773551828
 30
0.0
 10
91.79904782861274
 20
-127.9539469081157
 30
0.0
 10
91.80972762461701
 20
-128.1887301654355
 30
0.0
 10
92.09291447350455
 20
-128.1887301654355
 30
0.0
 10
92.23071829291455
 20
-128.1887301654355
 30
0.0
 10
92.38299151336258
 20
-128.1189669818592
 30
0.0
 10
92.38299151336258
 20
-127.8903848964128
 30
0.0
 10
92.38299151336258
 20
-127.7741129237857
 30
0.0
 10
92.34509546302485
 20
-127.7253648226694
 30
0.0
 10
92.31340058456054
 20
-127.6936699442051
 30
0.0
 10
92.23898652207914
 20
-127.6196003912722
 30
0.0
 10
92.1225422946777
 20
-127.607025792751
 30
0.0
 10
92.06776527646223
 20
-127.607025792751
 30
0.0
 10
92.04881725129336
 20
-127.607025792751
 30
0.0
 10
92.01298825824675
 20
-127.6090928500422
 30
0.0
 10
91.98542749436476
 20
-127.6132269646245
 30
0.0
 10
91.98542749436476
 20
-127.6132269646245
 30
0.0
 10
91.98542749436476
 20
-127.4185790697079
 30
0.0
 10
91.98542749436476
 20
-127.4185790697079
 30
0.0
 10
92.0233235447025
 20
-127.4249524963556
 30
0.0
 10
92.06569821917108
 20
-127.427191808421
 30
0.0
 10
92.07224390059305
 20
-127.427191808421
 30
0.0
 10
92.1377007148128
 20
-127.427191808421
 30
0.0
 10
92.33648272431172
 20
-127.4060044711867
 30
0.0
 10
92.33648272431172
 20
-127.1689819018015
 30
0.0
 10
92.33648272431172
 20
-126.9913872295369
 30
0.0
 10
92.2052245863237
 20
-126.9362657017729
 30
0.0
 10
92.09532604034423
 20
-126.9362657017729
 30
0.0
 10
91.83108721662556
 20
-126.9362657017729
 30
0.0
 10
91.82212996836391
 20
-127.1689819018015
 30
0.0
 10
91.81799585378161
 20
-127.2409843974432
 30
0.0
 10
91.81799585378161
 20
-127.2409843974432
 30
0.0
 10
91.6150797297004
 20
-127.2409843974432
 30
0.0
 10
91.6150797297004
 20
-127.2409843974432
 30
0.0
 10
91.62369246841352
 20
-127.1160996861029
 30
0.0
 10
91.65125323229553
 20
-126.7395507495651
 30
0.0
 10
92.10807289363966
 20
-126.7395507495651
 30
0.0
 10
92.3320041001809
 20
-126.7395507495651
 30
0.0
 10
92.57316078414839
 20
-126.8665025181966
 30
0.0
 10
92.57316078414839
 20
-127.1626084751538
 30
0.0
 10
92.57316078414839
 20
-127.3488158861315
 30
0.0
 10
92.47807614875549
 20
-127.4313259230033
 30
0.0
 10
92.37885739878028
 20
-127.4926486226407
 30
0.0
 10
92.44018009841774
 20
-127.5202093865227
 30
0.0
 10
92.62208114003893
 20
-127.6006523661033
 30
0.0
 10
92.62208114003893
 20
-127.8778102978917
 30
0.0
 10
92.62208114003893
 20
-128.2162909293175
 30
0.0
 10
92.37472328419798
 20
-128.3833780603521
 30
0.0
 10
92.09739309763538
 20
-128.3833780603521
 30
0.0
  0
HATCH
  5
11D
330
115
100
AcDbEntity
  8
_U+30EC_U+30A4_U+30E4_U+30FC 1
 62
   179
420
  2234388
100
AcDbHatch
 10
0.0
 20
0.0
 30
0.0
210
0.0
220
0.0
230
1.0
  2
SOLID
 70
     1
 71
     0
 91
        1
 92
        1
 93
        1
 72
     4
 94
        3
 73
     0
 74
     1
 95
       62
 96
       58
 40
0.0
 40
0.0
 40
0.0
 40
0.0
 40
1.0
 40
1.0
 40
1.0
 40
2.0
 40
2.0
 40
2.0
 40
3.0
 40
3.0
 40
3.0
 40
4.0
 40
4.0
 40
4.0
 40
5.0
 40
5.0
 40
5.0
 40
6.0
 40
6.0
 40
6.0
 40
7.0
 40
7.0
 40
7.0
 40
8.0
 40
8.0
 40
8.0
 40
9.0
 40
9.0
 40
9.0
 40
10.0
 40
10.0
 40
10.0
 40
11.0
 40
11.0
 40
11.0
 40
12.0
 40
12.0
 40
12.0
 40
13.0
 40
13.0
 40
13.0
 40
14.0
 40
14.0
 40
14.0
 40
15.0
 40
15.0
 40
15.0
 40
16.0
 40
16.0
 40
16.0
 40
17.0
 40
17.0
 40
17.0
 40
18.0
 40
18.0
 40
18.0
 40
19.0
 40
19.0
 40
19.0
 40
19.0
 10
92.09739309763538
 20
-128.3833780603521
 10
92.00196395269396
 20
-128.3833780603521
 10
91.78423391802617
 20
-128.3621907231178
 10
91.65952146146013
 20
-128.17598331214
 10
91.58545190852725
 20
-128.0638454540951
 10
91.58097328439642
 20
-127.9644544493457
 10
91.57683916981412
 20
-127.8798773551828
 10
91.57683916981412
 20
-127.8798773551828
 10
91.79698077132159
 20
-127.8798773551828
 10
91.79698077132159
 20
-127.8798773551828
 10
91.79904782861274
 20
-127.9539469081157
 10
91.80972762461701
 20
-128.1887301654355
 10
92.09291447350455
 20
-128.1887301654355
 10
92.23071829291455
 20
-128.1887301654355
 10
92.38299151336258
 20
-128.1189669818592
 10
92.38299151336258
 20
-127.8903848964128
 10
92.38299151336258
 20
-127.7741129237857
 10
92.34509546302485
 20
-127.7253648226694
 10
92.31340058456054
 20
-127.6936699442051
 10
92.23898652207914
 20
-127.6196003912722
 10
92.1225422946777
 20
-127.607025792751
 10
92.06776527646223
 20
-127.607025792751
 10
92.04881725129336
 20
-127.607025792751
 10
92.01298825824675
 20
-127.6090928500422
 10
91.98542749436476
 20
-127.6132269646245
 10
91.98542749436476
 20
-127.6132269646245
 10
91.98542749436476
 20
-127.4185790697079
 10
91.98542749436476
 20
-127.4185790697079
 10
92.0233235447025
 20
-127.4249524963556
 10
92.06569821917108
 20
-127.427191808421
 10
92.07224390059305
 20
-127.427191808421
 10
92.1377007148128
 20
-127.427191808421
 10
92.33648272431172
 20
-127.4060044711867
 10
92.33648272431172
 20
-127.1689819018015
 10
92.33648272431172
 20
-126.9913872295369
 10
92.2052245863237
 20
-126.9362657017729
 10
92.09532604034423
 20
-126.9362657017729
 10
91.83108721662556
 20
-126.9362657017729
 10
91.82212996836391
 20
-127.1689819018015
 10
91.81799585378161
 20
-127.2409843974432
 10
91.81799585378161
 20
-127.2409843974432
 10
91.6150797297004
 20
-127.2409843974432
 10
91.6150797297004
 20
-127.2409843974432
 10
91.62369246841352
 20
-127.1160996861029
 10
91.65125323229553
 20
-126.7395507495651
 10
92.10807289363966
 20
-126.7395507495651
 10
92.3320041001809
 20
-126.7395507495651
 10
92.57316078414839
 20
-126.8665025181966
 10
92.57316078414839
 20
-127.1626084751538
 10
92.57316078414839
 20
-127.3488158861315
 10
92.47807614875549
 20
-127.4313259230033
 10
92.37885739878028
 20
-127.4926486226407
 10
92.44018009841774
 20
-127.5202093865227
 10
92.62208114003893
 20
-127.6006523661033
 10
92.62208114003893
 20
-127.8778102978917
 10
92.62208114003893
 20
-128.2162909293175
 10
92.37472328419798
 20
-128.3833780603521
 10
92.09739309763538
 20
-128.3833780603521
 97
        0
 97
        0
 75
     2
 76
     1
 98
        0
  0
SPLINE
  5
11E
330
115
100
AcDbEntity
  8
_U+30EC_U+30A4_U+30E4_U+30FC 1
370
     0
100
AcDbSpline
210
0.0
220
0.0
230
1.0
 70
    11
 71
     3
 72
    29
 73
    25
 74
     0
 42
0.0000000001
 43
0.0000000001
 12
1.0
 22
0.0
 32
0.0
 13
1.0
 23
0.0
 33
0.0
 40
0.0
 40
0.0
 40
0.0
 40
0.0
 40
1.0
 40
1.0
 40
1.0
 40
2.0
 40
2.0
 40
2.0
 40
3.0
 40
3.0
 40
3.0
 40
4.0
 40
4.0
 40
4.0
 40
5.0
 40
5.0
 40
5.0
 40
6.0
 40
6.0
 40
6.0
 40
7.0
 40
7.0
 40
7.0
 40
8.0
 40
8.0
 40
8.0
 40
8.0
 10
93.68041447310767
 20
-128.1547959749057
 30
0.0
 10
93.57258298441936
 20
-128.3642577804089
 30
0.0
 10
93.3992946815113
 20
-128.3833780603521
 30
0.0
 10
93.28285045410985
 20
-128.3833780603521
 30
0.0
 10
93.12196449494868
 20
-128.3833780603521
 30
0.0
 10
92.98037107050492
 20
-128.3368692713012
 30
0.0
 10
92.8849419255635
 20
-128.1547959749057
 30
0.0
 10
92.78124455145748
 20
-127.9601480799891
 30
0.0
 10
92.7622965262886
 20
-127.7232977653782
 30
0.0
 10
92.7622965262886
 20
-127.5603447489259
 30
0.0
 10
92.7622965262886
 20
-127.4165120124167
 30
0.0
 10
92.77917749416632
 20
-127.1648477872192
 30
0.0
 10
92.8849419255635
 20
-126.965893522946
 30
0.0
 10
92.99277341425181
 20
-126.7628051440905
 30
0.0
 10
93.15365937341298
 20
-126.7395507495651
 30
0.0
 10
93.28285045410985
 20
-126.7395507495651
 30
0.0
 10
93.44132484643134
 20
-126.7395507495651
 30
0.0
 10
93.58532983771478
 20
-126.7839924813248
 30
0.0
 10
93.68041447310767
 20
-126.965893522946
 30
0.0
 10
93.77963322308287
 20
-127.1584743605715
 30
0.0
 10
93.80305987238258
 20
-127.3868841912436
 30
0.0
 10
93.80305987238258
 20
-127.5603447489259
 30
0.0
 10
93.80305987238258
 20
-127.7317382493171
 30
0.0
 10
93.78204478992255
 20
-127.9623873920546
 30
0.0
 10
93.68041447310767
 20
-128.1547959749057
 30
0.0
  0
SPLINE
  5
11F
330
115
100
AcDbEntity
  8
_U+30EC_U+30A4_U+30E4_U+30FC 1
370
     0
100
AcDbSpline
210
0.0
220
0.0
230
1.0
 70
    11
 71
     3
 72
    17
 73
    13
 74
     0
 42
0.0000000001
 43
0.0000000001
 12
1.0
 22
0.0
 32
0.0
 13
1.0
 23
0.0
 33
0.0
 40
0.0
 40
0.0
 40
0.0
 40
0.0
 40
1.0
 40
1.0
 40
1.0
 40
2.0
 40
2.0
 40
2.0
 40
3.0
 40
3.0
 40
3.0
 40
4.0
 40
4.0
 40
4.0
 40
4.0
 10
93.28285045410985
 20
-126.9321315871906
 30
0.0
 10
93.03308103142923
 20
-126.9321315871906
 30
0.0
 10
92.98657224237836
 20
-127.2156629456266
 30
0.0
 10
92.98657224237836
 20
-127.5603447489259
 30
0.0
 10
92.98657224237836
 20
-127.8798773551828
 30
0.0
 10
93.02240123542497
 20
-128.1887301654355
 30
0.0
 10
93.28285045410985
 20
-128.1887301654355
 30
0.0
 10
93.53020830995078
 20
-128.1887301654355
 30
0.0
 10
93.57912866584134
 20
-127.9072658642906
 30
0.0
 10
93.57912866584134
 20
-127.5603447489259
 30
0.0
 10
93.57912866584134
 20
-127.2409843974432
 30
0.0
 10
93.54054359640654
 20
-126.9321315871906
 30
0.0
 10
93.28285045410985
 20
-126.9321315871906
 30
0.0
  0
HATCH
  5
120
330
115
100
AcDbEntity
  8
_U+30EC_U+30A4_U+30E4_U+30FC 1
 62
   179
420
  2234388
100
AcDbHatch
 10
0.0
 20
0.0
 30
0.0
210
0.0
220
0.0
230
1.0
  2
SOLID
 70
     1
 71
     0
 91
        2
 92
        1
 93
        1
 72
     4
 94
        3
 73
     0
 74
     1
 95
       29
 96
       25
 40
0.0
 40
0.0
 40
0.0
 40
0.0
 40
1.0
 40
1.0
 40
1.0
 40
2.0
 40
2.0
 40
2.0
 40
3.0
 40
3.0
 40
3.0
 40
4.0
 40
4.0
 40
4.0
 40
5.0
 40
5.0
 40
5.0
 40
6.0
 40
6.0
 40
6.0
 40
7.0
 40
7.0
 40
7.0
 40
8.0
 40
8.0
 40
8.0
 40
8.0
 10
93.68041447310767
 20
-128.1547959749057
 10
93.57258298441936
 20
-128.3642577804089
 10
93.3992946815113
 20
-128.3833780603521
 10
93.28285045410985
 20
-128.3833780603521
 10
93.12196449494868
 20
-128.3833780603521
 10
92.98037107050492
 20
-128.3368692713012
 10
92.8849419255635
 20
-128.1547959749057
 10
92.78124455145748
 20
-127.9601480799891
 10
92.7622965262886
 20
-127.7232977653782
 10
92.7622965262886
 20
-127.5603447489259
 10
92.7622965262886
 20
-127.4165120124167
 10
92.77917749416632
 20
-127.1648477872192
 10
92.8849419255635
 20
-126.965893522946
 10
92.99277341425181
 20
-126.7628051440905
 10
93.15365937341298
 20
-126.7395507495651
 10
93.28285045410985
 20
-126.7395507495651
 10
93.44132484643134
 20
-126.7395507495651
 10
93.58532983771478
 20
-126.7839924813248
 10
93.68041447310767
 20
-126.965893522946
 10
93.77963322308287
 20
-127.1584743605715
 10
93.80305987238258
 20
-127.3868841912436
 10
93.80305987238258
 20
-127.5603447489259
 10
93.80305987238258
 20
-127.7317382493171
 10
93.78204478992255
 20
-127.9623873920546
 10
93.68041447310767
 20
-128.1547959749057
 97
        0
 97
        0
 92
        1
 93
        1
 72
     4
 94
        3
 73
     0
 74
     1
 95
       17
 96
       13
 40
0.0
 40
0.0
 40
0.0
 40
0.0
 40
1.0
 40
1.0
 40
1.0
 40
2.0
 40
2.0
 40
2.0
 40
3.0
 40
3.0
 40
3.0
 40
4.0
 40
4.0
 40
4.0
 40
4.0
 10
93.28285045410985
 20
-126.9321315871906
 10
93.03308103142923
 20
-126.9321315871906
 10
92.98657224237836
 20
-127.2156629456266
 10
92.98657224237836
 20
-127.5603447489259
 10
92.98657224237836
 20
-127.8798773551828
 10
93.02240123542497
 20
-128.1887301654355
 10
93.28285045410985
 20
-128.1887301654355
 10
93.53020830995078
 20
-128.1887301654355
 10
93.57912866584134
 20
-127.9072658642906
 10
93.57912866584134
 20
-127.5603447489259
 10
93.57912866584134
 20
-127.2409843974432
 10
93.54054359640654
 20
-126.9321315871906
 10
93.28285045410985
 20
-126.9321315871906
 97
        0
 97
        0
 75
     2
 76
     1
 98
        0
  0
ENDBLK
  5
118
330
115
100
AcDbEntity
  8
0
100
AcDbBlockEnd
  0
BLOCK
  5
130
330
12E
100
AcDbEntity
  8
0
100
AcDbBlockBegin
  2
block 11
 70
     0
 10
0.0
 20
0.0
 30
0.0
  3
block 11
  1

  0
SPLINE
  5
132
330
12E
100
AcDbEntity
  8
_U+30EC_U+30A4_U+30E4_U+30FC 1
370
     0
100
AcDbSpline
210
0.0
220
0.0
230
1.0
 70
    11
 71
     3
 72
    44
 73
    40
 74
     0
 42
0.0000000001
 43
0.0000000001
 12
1.0
 22
0.0
 32
0.0
 13
1.0
 23
0.0
 33
0.0
 40
0.0
 40
0.0
 40
0.0
 40
0.0
 40
1.0
 40
1.0
 40
1.0
 40
2.0
 40
2.0
 40
2.0
 40
3.0
 40
3.0
 40
3.0
 40
4.0
 40
4.0
 40
4.0
 40
5.0
 40
5.0
 40
5.0
 40
6.0
 40
6.0
 40
6.0
 40
7.0
 40
7.0
 40
7.0
 40
8.0
 40
8.0
 40
8.0
 40
9.0
 40
9.0
 40
9.0
 40
10.0
 40
10.0
 40
10.0
 40
11.0
 40
11.0
 40
11.0
 40
12.0
 40
12.0
 40
12.0
 40
13.0
 40
13.0
 40
13.0
 40
13.0
 10
113.527609563632
 20
-147.8321478580073
 30
0.0
 10
113.5041829143323
 20
-147.7877061262475
 30
0.0
 10
113.4828233223237
 20
-147.7346516557747
 30
0.0
 10
113.4807562650326
 20
-147.5041747678115
 30
0.0
 10
113.4766221504503
 20
-147.2609510265528
 30
0.0
 10
113.417366508104
 20
-147.1910155882022
 30
0.0
 10
113.2395995810651
 20
-147.1910155882022
 30
0.0
 10
113.2395995810651
 20
-147.1910155882022
 30
0.0
 10
112.831355766063
 20
-147.1910155882022
 30
0.0
 10
112.831355766063
 20
-147.1910155882022
 30
0.0
 10
112.831355766063
 20
-147.1910155882022
 30
0.0
 10
112.831355766063
 20
-147.8321478580073
 30
0.0
 10
112.831355766063
 20
-147.8321478580073
 30
0.0
 10
112.831355766063
 20
-147.8321478580073
 30
0.0
 10
112.5967447635175
 20
-147.8321478580073
 30
0.0
 10
112.5967447635175
 20
-147.8321478580073
 30
0.0
 10
112.5967447635175
 20
-147.8321478580073
 30
0.0
 10
112.5967447635175
 20
-146.2877115519697
 30
0.0
 10
112.5967447635175
 20
-146.2877115519697
 30
0.0
 10
112.5967447635175
 20
-146.2877115519697
 30
0.0
 10
113.2712944595294
 20
-146.2877115519697
 30
0.0
 10
113.2712944595294
 20
-146.2877115519697
 30
0.0
 10
113.5779079577166
 20
-146.2877115519697
 30
0.0
 10
113.7453395982998
 20
-146.4592773071352
 30
0.0
 10
113.7453395982998
 20
-146.7152479016893
 30
0.0
 10
113.7453395982998
 20
-146.7658908053224
 30
0.0
 10
113.7367268595867
 20
-146.8485730969684
 30
0.0
 10
113.6922851278269
 20
-146.9288438217747
 30
0.0
 10
113.6330294854806
 20
-147.0325411958808
 30
0.0
 10
113.5675726712609
 20
-147.0514892210496
 30
0.0
 10
113.5062499716234
 20
-147.0683701889274
 30
0.0
 10
113.6437092814849
 20
-147.1107448633959
 30
0.0
 10
113.7115776625443
 20
-147.159320709738
 30
0.0
 10
113.7157117771266
 20
-147.4745469466383
 30
0.0
 10
113.7198458917089
 20
-147.745331451779
 30
0.0
 10
113.7556748847555
 20
-147.7773708397918
 30
0.0
 10
113.8235432658149
 20
-147.8321478580073
 30
0.0
 10
113.8235432658149
 20
-147.8321478580073
 30
0.0
 10
113.527609563632
 20
-147.8321478580073
 30
0.0
 10
113.527609563632
 20
-147.8321478580073
 30
0.0
  0
SPLINE
  5
133
330
12E
100
AcDbEntity
  8
_U+30EC_U+30A4_U+30E4_U+30FC 1
370
     0
100
AcDbSpline
210
0.0
220
0.0
230
1.0
 70
    11
 71
     3
 72
    20
 73
    16
 74
     0
 42
0.0000000001
 43
0.0000000001
 12
1.0
 22
0.0
 32
0.0
 13
1.0
 23
0.0
 33
0.0
 40
0.0
 40
0.0
 40
0.0
 40
0.0
 40
1.0
 40
1.0
 40
1.0
 40
2.0
 40
2.0
 40
2.0
 40
3.0
 40
3.0
 40
3.0
 40
4.0
 40
4.0
 40
4.0
 40
5.0
 40
5.0
 40
5.0
 40
5.0
 10
113.2754285741117
 20
-146.4992404147641
 30
0.0
 10
113.2754285741117
 20
-146.4992404147641
 30
0.0
 10
112.831355766063
 20
-146.4992404147641
 30
0.0
 10
112.831355766063
 20
-146.4992404147641
 30
0.0
 10
112.831355766063
 20
-146.4992404147641
 30
0.0
 10
112.831355766063
 20
-146.9794867254079
 30
0.0
 10
112.831355766063
 20
-146.9794867254079
 30
0.0
 10
112.831355766063
 20
-146.9794867254079
 30
0.0
 10
113.2733615168206
 20
-146.9794867254079
 30
0.0
 10
113.2733615168206
 20
-146.9794867254079
 30
0.0
 10
113.3729247763443
 20
-146.9794867254079
 30
0.0
 10
113.5083170289146
 20
-146.9036946247324
 30
0.0
 10
113.5083170289146
 20
-146.732128869567
 30
0.0
 10
113.5083170289146
 20
-146.6535806925033
 30
0.0
 10
113.4745550931591
 20
-146.4992404147641
 30
0.0
 10
113.2754285741117
 20
-146.4992404147641
 30
0.0
  0
HATCH
  5
134
330
12E
100
AcDbEntity
  8
_U+30EC_U+30A4_U+30E4_U+30FC 1
 62
   179
420
  2234388
100
AcDbHatch
 10
0.0
 20
0.0
 30
0.0
210
0.0
220
0.0
230
1.0
  2
SOLID
 70
     1
 71
     0
 91
        2
 92
        1
 93
        1
 72
     4
 94
        3
 73
     0
 74
     1
 95
       44
 96
       40
 40
0.0
 40
0.0
 40
0.0
 40
0.0
 40
1.0
 40
1.0
 40
1.0
 40
2.0
 40
2.0
 40
2.0
 40
3.0
 40
3.0
 40
3.0
 40
4.0
 40
4.0
 40
4.0
 40
5.0
 40
5.0
 40
5.0
 40
6.0
 40
6.0
 40
6.0
 40
7.0
 40
7.0
 40
7.0
 40
8.0
 40
8.0
 40
8.0
 40
9.0
 40
9.0
 40
9.0
 40
10.0
 40
10.0
 40
10.0
 40
11.0
 40
11.0
 40
11.0
 40
12.0
 40
12.0
 40
12.0
 40
13.0
 40
13.0
 40
13.0
 40
13.0
 10
113.527609563632
 20
-147.8321478580073
 10
113.5041829143323
 20
-147.7877061262475
 10
113.4828233223237
 20
-147.7346516557747
 10
113.4807562650326
 20
-147.5041747678115
 10
113.4766221504503
 20
-147.2609510265528
 10
113.417366508104
 20
-147.1910155882022
 10
113.2395995810651
 20
-147.1910155882022
 10
113.2395995810651
 20
-147.1910155882022
 10
112.831355766063
 20
-147.1910155882022
 10
112.831355766063
 20
-147.1910155882022
 10
112.831355766063
 20
-147.1910155882022
 10
112.831355766063
 20
-147.8321478580073
 10
112.831355766063
 20
-147.8321478580073
 10
112.831355766063
 20
-147.8321478580073
 10
112.5967447635175
 20
-147.8321478580073
 10
112.5967447635175
 20
-147.8321478580073
 10
112.5967447635175
 20
-147.8321478580073
 10
112.5967447635175
 20
-146.2877115519697
 10
112.5967447635175
 20
-146.2877115519697
 10
112.5967447635175
 20
-146.2877115519697
 10
113.2712944595294
 20
-146.2877115519697
 10
113.2712944595294
 20
-146.2877115519697
 10
113.5779079577166
 20
-146.2877115519697
 10
113.7453395982998
 20
-146.4592773071352
 10
113.7453395982998
 20
-146.7152479016893
 10
113.7453395982998
 20
-146.7658908053224
 10
113.7367268595867
 20
-146.8485730969684
 10
113.6922851278269
 20
-146.9288438217747
 10
113.6330294854806
 20
-147.0325411958808
 10
113.5675726712609
 20
-147.0514892210496
 10
113.5062499716234
 20
-147.0683701889274
 10
113.6437092814849
 20
-147.1107448633959
 10
113.7115776625443
 20
-147.159320709738
 10
113.7157117771266
 20
-147.4745469466383
 10
113.7198458917089
 20
-147.745331451779
 10
113.7556748847555
 20
-147.7773708397918
 10
113.8235432658149
 20
-147.8321478580073
 10
113.8235432658149
 20
-147.8321478580073
 10
113.527609563632
 20
-147.8321478580073
 10
113.527609563632
 20
-147.8321478580073
 97
        0
 97
        0
 92
        1
 93
        1
 72
     4
 94
        3
 73
     0
 74
     1
 95
       20
 96
       16
 40
0.0
 40
0.0
 40
0.0
 40
0.0
 40
1.0
 40
1.0
 40
1.0
 40
2.0
 40
2.0
 40
2.0
 40
3.0
 40
3.0
 40
3.0
 40
4.0
 40
4.0
 40
4.0
 40
5.0
 40
5.0
 40
5.0
 40
5.0
 10
113.2754285741117
 20
-146.4992404147641
 10
113.2754285741117
 20
-146.4992404147641
 10
112.831355766063
 20
-146.4992404147641
 10
112.831355766063
 20
-146.4992404147641
 10
112.831355766063
 20
-146.4992404147641
 10
112.831355766063
 20
-146.9794867254079
 10
112.831355766063
 20
-146.9794867254079
 10
112.831355766063
 20
-146.9794867254079
 10
113.2733615168206
 20
-146.9794867254079
 10
113.2733615168206
 20
-146.9794867254079
 10
113.3729247763443
 20
-146.9794867254079
 10
113.5083170289146
 20
-146.9036946247324
 10
113.5083170289146
 20
-146.732128869567
 10
113.5083170289146
 20
-146.6535806925033
 10
113.4745550931591
 20
-146.4992404147641
 10
113.2754285741117
 20
-146.4992404147641
 97
        0
 97
        0
 75
     2
 76
     1
 98
        0
  0
SPLINE
  5
135
330
12E
100
AcDbEntity
  8
_U+30EC_U+30A4_U+30E4_U+30FC 1
370
     0
100
AcDbSpline
210
0.0
220
0.0
230
1.0
 70
    11
 71
     3
 72
    26
 73
    22
 74
     0
 42
0.0000000001
 43
0.0000000001
 12
1.0
 22
0.0
 32
0.0
 13
1.0
 23
0.0
 33
0.0
 40
0.0
 40
0.0
 40
0.0
 40
0.0
 40
1.0
 40
1.0
 40
1.0
 40
2.0
 40
2.0
 40
2.0
 40
3.0
 40
3.0
 40
3.0
 40
4.0
 40
4.0
 40
4.0
 40
5.0
 40
5.0
 40
5.0
 40
6.0
 40
6.0
 40
6.0
 40
7.0
 40
7.0
 40
7.0
 40
7.0
 10
114.4143771415353
 20
-147.8321478580073
 30
0.0
 10
114.4143771415353
 20
-147.8321478580073
 30
0.0
 10
114.4143771415353
 20
-146.7279947549847
 30
0.0
 10
114.4143771415353
 20
-146.7279947549847
 30
0.0
 10
114.4143771415353
 20
-146.7279947549847
 30
0.0
 10
114.0843369940484
 20
-146.7279947549847
 30
0.0
 10
114.0843369940484
 20
-146.7279947549847
 30
0.0
 10
114.0843369940484
 20
-146.7279947549847
 30
0.0
 10
114.0843369940484
 20
-146.5798556491189
 30
0.0
 10
114.0843369940484
 20
-146.5798556491189
 30
0.0
 10
114.4164441988265
 20
-146.5650417385324
 30
0.0
 10
114.4632974974258
 20
-146.40208872208
 30
0.0
 10
114.492925318599
 20
-146.2877115519697
 30
0.0
 10
114.492925318599
 20
-146.2877115519697
 30
0.0
 10
114.6389973671736
 20
-146.2877115519697
 30
0.0
 10
114.6389973671736
 20
-146.2877115519697
 30
0.0
 10
114.6389973671736
 20
-146.2877115519697
 30
0.0
 10
114.6389973671736
 20
-147.8321478580073
 30
0.0
 10
114.6389973671736
 20
-147.8321478580073
 30
0.0
 10
114.6389973671736
 20
-147.8321478580073
 30
0.0
 10
114.4143771415353
 20
-147.8321478580073
 30
0.0
 10
114.4143771415353
 20
-147.8321478580073
 30
0.0
  0
HATCH
  5
136
330
12E
100
AcDbEntity
  8
_U+30EC_U+30A4_U+30E4_U+30FC 1
 62
   179
420
  2234388
100
AcDbHatch
 10
0.0
 20
0.0
 30
0.0
210
0.0
220
0.0
230
1.0
  2
SOLID
 70
     1
 71
     0
 91
        1
 92
        1
 93
        1
 72
     4
 94
        3
 73
     0
 74
     1
 95
       26
 96
       22
 40
0.0
 40
0.0
 40
0.0
 40
0.0
 40
1.0
 40
1.0
 40
1.0
 40
2.0
 40
2.0
 40
2.0
 40
3.0
 40
3.0
 40
3.0
 40
4.0
 40
4.0
 40
4.0
 40
5.0
 40
5.0
 40
5.0
 40
6.0
 40
6.0
 40
6.0
 40
7.0
 40
7.0
 40
7.0
 40
7.0
 10
114.4143771415353
 20
-147.8321478580073
 10
114.4143771415353
 20
-147.8321478580073
 10
114.4143771415353
 20
-146.7279947549847
 10
114.4143771415353
 20
-146.7279947549847
 10
114.4143771415353
 20
-146.7279947549847
 10
114.0843369940484
 20
-146.7279947549847
 10
114.0843369940484
 20
-146.7279947549847
 10
114.0843369940484
 20
-146.7279947549847
 10
114.0843369940484
 20
-146.5798556491189
 10
114.0843369940484
 20
-146.5798556491189
 10
114.4164441988265
 20
-146.5650417385324
 10
114.4632974974258
 20
-146.40208872208
 10
114.492925318599
 20
-146.2877115519697
 10
114.492925318599
 20
-146.2877115519697
 10
114.6389973671736
 20
-146.2877115519697
 10
114.6389973671736
 20
-146.2877115519697
 10
114.6389973671736
 20
-146.2877115519697
 10
114.6389973671736
 20
-147.8321478580073
 10
114.6389973671736
 20
-147.8321478580073
 10
114.6389973671736
 20
-147.8321478580073
 10
114.4143771415353
 20
-147.8321478580073
 10
114.4143771415353
 20
-147.8321478580073
 97
        0
 97
        0
 75
     2
 76
     1
 98
        0
  0
POLYLINE
  5
137
330
12E
100
AcDbEntity
  8
_U+30EC_U+30A4_U+30E4_U+30FC 1
370
     0
100
AcDb2dPolyline
 66
     1
 10
0.0
 20
0.0
 30
0.0
  0
VERTEX
  5
138
330
137
100
AcDbEntity
  8
_U+30EC_U+30A4_U+30E4_U+30FC 1
370
     0
100
AcDbVertex
100
AcDb2dVertex
 10
115.1998589121723
 20
-147.8321478580073
 30
0.0
  0
VERTEX
  5
139
330
137
100
AcDbEntity
  8
_U+30EC_U+30A4_U+30E4_U+30FC 1
370
     0
100
AcDbVertex
100
AcDb2dVertex
 10
115.1998589121723
 20
-147.5803113780355
 30
0.0
  0
VERTEX
  5
13A
330
137
100
AcDbEntity
  8
_U+30EC_U+30A4_U+30E4_U+30FC 1
370
     0
100
AcDbVertex
100
AcDb2dVertex
 10
115.451695392144
 20
-147.5803113780355
 30
0.0
  0
VERTEX
  5
13B
330
137
100
AcDbEntity
  8
_U+30EC_U+30A4_U+30E4_U+30FC 1
370
     0
100
AcDbVertex
100
AcDb2dVertex
 10
115.451695392144
 20
-147.8321478580073
 30
0.0
  0
VERTEX
  5
13C
330
137
100
AcDbEntity
  8
_U+30EC_U+30A4_U+30E4_U+30FC 1
370
     0
100
AcDbVertex
100
AcDb2dVertex
 10
115.1998589121723
 20
-147.8321478580073
 30
0.0
  0
SEQEND
  5
13D
330
137
100
AcDbEntity
  8
_U+30EC_U+30A4_U+30E4_U+30FC 1
370
     0
  0
HATCH
  5
13E
330
12E
100
AcDbEntity
  8
_U+30EC_U+30A4_U+30E4_U+30FC 1
 62
   179
420
  2234388
100
AcDbHatch
 10
0.0
 20
0.0
 30
0.0
210
0.0
220
0.0
230
1.0
  2
SOLID
 70
     1
 71
     0
 91
        1
 92
        1
 93
        4
 72
     1
 10
115.1998589121723
 20
-147.8321478580073
 11
115.1998589121723
 21
-147.5803113780355
 72
     1
 10
115.1998589121723
 20
-147.5803113780355
 11
115.451695392144
 21
-147.5803113780355
 72
     1
 10
115.451695392144
 20
-147.5803113780355
 11
115.451695392144
 21
-147.8321478580073
 72
     1
 10
115.451695392144
 20
-147.8321478580073
 11
115.1998589121723
 21
-147.8321478580073
 97
        0
 75
     2
 76
     1
 98
        0
  0
SPLINE
  5
13F
330
12E
100
AcDbEntity
  8
_U+30EC_U+30A4_U+30E4_U+30FC 1
370
     0
100
AcDbSpline
210
0.0
220
0.0
230
1.0
 70
    11
 71
     3
 72
    53
 73
    49
 74
     0
 42
0.0000000001
 43
0.0000000001
 12
1.0
 22
0.0
 32
0.0
 13
1.0
 23
0.0
 33
0.0
 40
0.0
 40
0.0
 40
0.0
 40
0.0
 40
1.0
 40
1.0
 40
1.0
 40
2.0
 40
2.0
 40
2.0
 40
3.0
 40
3.0
 40
3.0
 40
4.0
 40
4.0
 40
4.0
 40
5.0
 40
5.0
 40
5.0
 40
6.0
 40
6.0
 40
6.0
 40
7.0
 40
7.0
 40
7.0
 40
8.0
 40
8.0
 40
8.0
 40
9.0
 40
9.0
 40
9.0
 40
10.0
 40
10.0
 40
10.0
 40
11.0
 40
11.0
 40
11.0
 40
12.0
 40
12.0
 40
12.0
 40
13.0
 40
13.0
 40
13.0
 40
14.0
 40
14.0
 40
14.0
 40
15.0
 40
15.0
 40
15.0
 40
16.0
 40
16.0
 40
16.0
 40
16.0
 10
116.1693087817216
 20
-147.8827907616404
 30
0.0
 10
116.0907606046579
 20
-147.8827907616404
 30
0.0
 10
115.9894747973915
 20
-147.8659097937627
 30
0.0
 10
115.8878444805767
 20
-147.8025200368341
 30
0.0
 10
115.7145561776686
 20
-147.6926214908546
 30
0.0
 10
115.69319658566
 20
-147.5613633528666
 30
0.0
 10
115.6742485604912
 20
-147.4535318641783
 30
0.0
 10
115.6742485604912
 20
-147.4535318641783
 30
0.0
 10
115.8964572192898
 20
-147.4535318641783
 30
0.0
 10
115.8964572192898
 20
-147.4535318641783
 30
0.0
 10
115.9515787470538
 20
-147.6523138736772
 30
0.0
 10
116.078358260911
 20
-147.6819416948504
 30
0.0
 10
116.1713758390127
 20
-147.6819416948504
 30
0.0
 10
116.3112467157139
 20
-147.6819416948504
 30
0.0
 10
116.4635199361619
 20
-147.5823784353266
 30
0.0
 10
116.4635199361619
 20
-147.3498344900723
 30
0.0
 10
116.4635199361619
 20
-147.0938638955182
 30
0.0
 10
116.2836859518319
 20
-147.0242729667162
 30
0.0
 10
116.1631076098481
 20
-147.0242729667162
 30
0.0
 10
116.1314127313838
 20
-147.0242729667162
 30
0.0
 10
115.9894747973915
 20
-147.0242729667162
 30
0.0
 10
115.9005913338721
 20
-147.1531195378645
 30
0.0
 10
115.9005913338721
 20
-147.1531195378645
 30
0.0
 10
115.7248914641243
 20
-147.1338270031471
 30
0.0
 10
115.7248914641243
 20
-147.1338270031471
 30
0.0
 10
115.7248914641243
 20
-147.1338270031471
 30
0.0
 10
115.8454698061081
 20
-146.2877115519697
 30
0.0
 10
115.8454698061081
 20
-146.2877115519697
 30
0.0
 10
115.8454698061081
 20
-146.2877115519697
 30
0.0
 10
116.6240613857745
 20
-146.2877115519697
 30
0.0
 10
116.6240613857745
 20
-146.2877115519697
 30
0.0
 10
116.6240613857745
 20
-146.2877115519697
 30
0.0
 10
116.6240613857745
 20
-146.4827039564349
 30
0.0
 10
116.6240613857745
 20
-146.4827039564349
 30
0.0
 10
116.6240613857745
 20
-146.4827039564349
 30
0.0
 10
116.0084228225604
 20
-146.4827039564349
 30
0.0
 10
116.0084228225604
 20
-146.4827039564349
 30
0.0
 10
116.0084228225604
 20
-146.4827039564349
 30
0.0
 10
115.9429660083406
 20
-146.9057616820236
 30
0.0
 10
115.9429660083406
 20
-146.9057616820236
 30
0.0
 10
116.0042887079781
 20
-146.8716552367196
 30
0.0
 10
116.0866264900756
 20
-146.8313476195422
 30
0.0
 10
116.2051377747682
 20
-146.8313476195422
 30
0.0
 10
116.4590413120311
 20
-146.8313476195422
 30
0.0
 10
116.6960638814163
 20
-147.0177272852942
 30
0.0
 10
116.6960638814163
 20
-147.3308864649034
 30
0.0
 10
116.6960638814163
 20
-147.6481797590949
 30
0.0
 10
116.4717881653265
 20
-147.8827907616404
 30
0.0
 10
116.1693087817216
 20
-147.8827907616404
 30
0.0
  0
HATCH
  5
140
330
12E
100
AcDbEntity
  8
_U+30EC_U+30A4_U+30E4_U+30FC 1
 62
   179
420
  2234388
100
AcDbHatch
 10
0.0
 20
0.0
 30
0.0
210
0.0
220
0.0
230
1.0
  2
SOLID
 70
     1
 71
     0
 91
        1
 92
        1
 93
        1
 72
     4
 94
        3
 73
     0
 74
     1
 95
       53
 96
       49
 40
0.0
 40
0.0
 40
0.0
 40
0.0
 40
1.0
 40
1.0
 40
1.0
 40
2.0
 40
2.0
 40
2.0
 40
3.0
 40
3.0
 40
3.0
 40
4.0
 40
4.0
 40
4.0
 40
5.0
 40
5.0
 40
5.0
 40
6.0
 40
6.0
 40
6.0
 40
7.0
 40
7.0
 40
7.0
 40
8.0
 40
8.0
 40
8.0
 40
9.0
 40
9.0
 40
9.0
 40
10.0
 40
10.0
 40
10.0
 40
11.0
 40
11.0
 40
11.0
 40
12.0
 40
12.0
 40
12.0
 40
13.0
 40
13.0
 40
13.0
 40
14.0
 40
14.0
 40
14.0
 40
15.0
 40
15.0
 40
15.0
 40
16.0
 40
16.0
 40
16.0
 40
16.0
 10
116.1693087817216
 20
-147.8827907616404
 10
116.0907606046579
 20
-147.8827907616404
 10
115.9894747973915
 20
-147.8659097937627
 10
115.8878444805767
 20
-147.8025200368341
 10
115.7145561776686
 20
-147.6926214908546
 10
115.69319658566
 20
-147.5613633528666
 10
115.6742485604912
 20
-147.4535318641783
 10
115.6742485604912
 20
-147.4535318641783
 10
115.8964572192898
 20
-147.4535318641783
 10
115.8964572192898
 20
-147.4535318641783
 10
115.9515787470538
 20
-147.6523138736772
 10
116.078358260911
 20
-147.6819416948504
 10
116.1713758390127
 20
-147.6819416948504
 10
116.3112467157139
 20
-147.6819416948504
 10
116.4635199361619
 20
-147.5823784353266
 10
116.4635199361619
 20
-147.3498344900723
 10
116.4635199361619
 20
-147.0938638955182
 10
116.2836859518319
 20
-147.0242729667162
 10
116.1631076098481
 20
-147.0242729667162
 10
116.1314127313838
 20
-147.0242729667162
 10
115.9894747973915
 20
-147.0242729667162
 10
115.9005913338721
 20
-147.1531195378645
 10
115.9005913338721
 20
-147.1531195378645
 10
115.7248914641243
 20
-147.1338270031471
 10
115.7248914641243
 20
-147.1338270031471
 10
115.7248914641243
 20
-147.1338270031471
 10
115.8454698061081
 20
-146.2877115519697
 10
115.8454698061081
 20
-146.2877115519697
 10
115.8454698061081
 20
-146.2877115519697
 10
116.6240613857745
 20
-146.2877115519697
 10
116.6240613857745
 20
-146.2877115519697
 10
116.6240613857745
 20
-146.2877115519697
 10
116.6240613857745
 20
-146.4827039564349
 10
116.6240613857745
 20
-146.4827039564349
 10
116.6240613857745
 20
-146.4827039564349
 10
116.0084228225604
 20
-146.4827039564349
 10
116.0084228225604
 20
-146.4827039564349
 10
116.0084228225604
 20
-146.4827039564349
 10
115.9429660083406
 20
-146.9057616820236
 10
115.9429660083406
 20
-146.9057616820236
 10
116.0042887079781
 20
-146.8716552367196
 10
116.0866264900756
 20
-146.8313476195422
 10
116.2051377747682
 20
-146.8313476195422
 10
116.4590413120311
 20
-146.8313476195422
 10
116.6960638814163
 20
-147.0177272852942
 10
116.6960638814163
 20
-147.3308864649034
 10
116.6960638814163
 20
-147.6481797590949
 10
116.4717881653265
 20
-147.8827907616404
 10
116.1693087817216
 20
-147.8827907616404
 97
        0
 97
        0
 75
     2
 76
     1
 98
        0
  0
ENDBLK
  5
131
330
12E
100
AcDbEntity
  8
0
100
AcDbBlockEnd
  0
ENDSEC
  0
SECTION
  2
ENTITIES
  0
POLYLINE
  5
41
330
1F
100
AcDbEntity
  8
_U+30EC_U+30A4_U+30E4_U+30FC 1
 62
   179
420
  2234388
370
     9
100
AcDb2dPolyline
 66
     1
 10
0.0
 20
0.0
 30
0.0
  0
VERTEX
  5
42
330
41
100
AcDbEntity
  8
_U+30EC_U+30A4_U+30E4_U+30FC 1
 62
   179
420
  2234388
370
     9
100
AcDbVertex
100
AcDb2dVertex
 10
80.50102933513654
 20
-122.4000952471778
 30
0.0
  0
VERTEX
  5
43
330
41
100
AcDbEntity
  8
_U+30EC_U+30A4_U+30E4_U+30FC 1
 62
   179
420
  2234388
370
     9
100
AcDbVertex
100
AcDb2dVertex
 10
80.50102933513654
 20
-108.3823644173488
 30
0.0
  0
SEQEND
  5
44
330
41
100
AcDbEntity
  8
_U+30EC_U+30A4_U+30E4_U+30FC 1
 62
   179
420
  2234388
370
     9
  0
POLYLINE
  5
45
330
1F
100
AcDbEntity
  8
_U+30EC_U+30A4_U+30E4_U+30FC 1
 62
   179
420
  2234388
370
     9
100
AcDb2dPolyline
 66
     1
 10
0.0
 20
0.0
 30
0.0
  0
VERTEX
  5
46
330
45
100
AcDbEntity
  8
_U+30EC_U+30A4_U+30E4_U+30FC 1
 62
   179
420
  2234388
370
     9
100
AcDbVertex
100
AcDb2dVertex
 10
81.23812320522059
 20
-122.4004480249555
 30
0.0
  0
VERTEX
  5
47
330
45
100
AcDbEntity
  8
_U+30EC_U+30A4_U+30E4_U+30FC 1
 62
   179
420
  2234388
370
     9
100
AcDbVertex
100
AcDb2dVertex
 10
77.71669551728192
 20
-122.4004480249555
 30
0.0
  0
SEQEND
  5
48
330
45
100
AcDbEntity
  8
_U+30EC_U+30A4_U+30E4_U+30FC 1
 62
   179
420
  2234388
370
     9
  0
POLYLINE
  5
49
330
1F
100
AcDbEntity
  8
_U+30EC_U+30A4_U+30E4_U+30FC 1
 62
   179
420
  2234388
370
     9
100
AcDb2dPolyline
 66
     1
 10
0.0
 20
0.0
 30
0.0
  0
VERTEX
  5
4A
330
49
100
AcDbEntity
  8
_U+30EC_U+30A4_U+30E4_U+30FC 1
 62
   179
420
  2234388
370
     9
100
AcDbVertex
100
AcDb2dVertex
 10
81.23896987186565
 20
-108.3833874729042
 30
0.0
  0
VERTEX
  5
4B
330
49
100
AcDbEntity
  8
_U+30EC_U+30A4_U+30E4_U+30FC 1
 62
   179
420
  2234388
370
     9
100
AcDbVertex
100
AcDb2dVertex
 10
70.61704292063136
 20
-108.3833874729042
 30
0.0
  0
SEQEND
  5
4C
330
49
100
AcDbEntity
  8
_U+30EC_U+30A4_U+30E4_U+30FC 1
 62
   179
420
  2234388
370
     9
  0
INSERT
  5
4E
330
1F
100
AcDbEntity
  8
_U+30EC_U+30A4_U+30E4_U+30FC 1
100
AcDbBlockReference
  2
block 2
 10
0.0
 20
0.0
 30
0.0
  0
SPLINE
  5
68
330
1F
100
AcDbEntity
  8
_U+30EC_U+30A4_U+30E4_U+30FC 1
 62
   179
420
  2234388
370
     9
100
AcDbSpline
210
0.0
220
0.0
230
1.0
 70
    11
 71
     3
 72
    17
 73
    13
 74
     0
 42
0.0000000001
 43
0.0000000001
 12
1.0
 22
0.0
 32
0.0
 13
1.0
 23
0.0
 33
0.0
 40
0.0
 40
0.0
 40
0.0
 40
0.0
 40
1.0
 40
1.0
 40
1.0
 40
2.0
 40
2.0
 40
2.0
 40
3.0
 40
3.0
 40
3.0
 40
4.0
 40
4.0
 40
4.0
 40
4.0
 10
80.60093599925436
 20
-122.4000952471778
 30
0.0
 10
80.60093599925436
 20
-122.4555871916083
 30
0.0
 10
80.55613322261961
 20
-122.5003546915972
 30
0.0
 10
80.50102933513654
 20
-122.5003546915972
 30
0.0
 10
80.44589016987658
 20
-122.5003546915972
 30
0.0
 10
80.4011226710187
 20
-122.4555871916083
 30
0.0
 10
80.4011226710187
 20
-122.4000952471778
 30
0.0
 10
80.4011226710187
 20
-122.3449913583025
 30
0.0
 10
80.44589016987658
 20
-122.3001885805361
 30
0.0
 10
80.50102933513654
 20
-122.3001885805361
 30
0.0
 10
80.55613322261961
 20
-122.3001885805361
 30
0.0
 10
80.60093599925436
 20
-122.3449913583025
 30
0.0
 10
80.60093599925436
 20
-122.4000952471778
 30
0.0
  0
HATCH
  5
69
330
1F
100
AcDbEntity
  8
_U+30EC_U+30A4_U+30E4_U+30FC 1
 62
   179
420
  2234388
100
AcDbHatch
 10
0.0
 20
0.0
 30
0.0
210
0.0
220
0.0
230
1.0
  2
SOLID
 70
     1
 71
     0
 91
        1
 92
        1
 93
        1
 72
     4
 94
        3
 73
     0
 74
     1
 95
       17
 96
       13
 40
0.0
 40
0.0
 40
0.0
 40
0.0
 40
1.0
 40
1.0
 40
1.0
 40
2.0
 40
2.0
 40
2.0
 40
3.0
 40
3.0
 40
3.0
 40
4.0
 40
4.0
 40
4.0
 40
4.0
 10
80.60093599925436
 20
-122.4000952471778
 10
80.60093599925436
 20
-122.4555871916083
 10
80.55613322261961
 20
-122.5003546915972
 10
80.50102933513654
 20
-122.5003546915972
 10
80.44589016987658
 20
-122.5003546915972
 10
80.4011226710187
 20
-122.4555871916083
 10
80.4011226710187
 20
-122.4000952471778
 10
80.4011226710187
 20
-122.3449913583025
 10
80.44589016987658
 20
-122.3001885805361
 10
80.50102933513654
 20
-122.3001885805361
 10
80.55613322261961
 20
-122.3001885805361
 10
80.60093599925436
 20
-122.3449913583025
 10
80.60093599925436
 20
-122.4000952471778
 97
        0
 97
        0
 75
     2
 76
     1
 98
        0
  0
SPLINE
  5
6A
330
1F
100
AcDbEntity
  8
_U+30EC_U+30A4_U+30E4_U+30FC 1
 62
   179
420
  2234388
370
     9
100
AcDbSpline
210
0.0
220
0.0
230
1.0
 70
    11
 71
     3
 72
    17
 73
    13
 74
     0
 42
0.0000000001
 43
0.0000000001
 12
1.0
 22
0.0
 32
0.0
 13
1.0
 23
0.0
 33
0.0
 40
0.0
 40
0.0
 40
0.0
 40
0.0
 40
1.0
 40
1.0
 40
1.0
 40
2.0
 40
2.0
 40
2.0
 40
3.0
 40
3.0
 40
3.0
 40
4.0
 40
4.0
 40
4.0
 40
4.0
 10
80.59956016595613
 20
-108.3833874729042
 30
0.0
 10
80.59956016595613
 20
-108.4388441395569
 30
0.0
 10
80.55475738932137
 20
-108.4836469173236
 30
0.0
 10
80.49965553543068
 20
-108.4836469173236
 30
0.0
 10
80.44451433657835
 20
-108.4836469173236
 30
0.0
 10
80.39974683772046
 20
-108.4388441395569
 30
0.0
 10
80.39974683772046
 20
-108.3833874729042
 30
0.0
 10
80.39974683772046
 20
-108.328283584029
 30
0.0
 10
80.44451433657835
 20
-108.2834808062626
 30
0.0
 10
80.49965553543068
 20
-108.2834808062626
 30
0.0
 10
80.55475738932137
 20
-108.2834808062626
 30
0.0
 10
80.59956016595613
 20
-108.328283584029
 30
0.0
 10
80.59956016595613
 20
-108.3833874729042
 30
0.0
  0
HATCH
  5
6B
330
1F
100
AcDbEntity
  8
_U+30EC_U+30A4_U+30E4_U+30FC 1
 62
   179
420
  2234388
100
AcDbHatch
 10
0.0
 20
0.0
 30
0.0
210
0.0
220
0.0
230
1.0
  2
SOLID
 70
     1
 71
     0
 91
        1
 92
        1
 93
        1
 72
     4
 94
        3
 73
     0
 74
     1
 95
       17
 96
       13
 40
0.0
 40
0.0
 40
0.0
 40
0.0
 40
1.0
 40
1.0
 40
1.0
 40
2.0
 40
2.0
 40
2.0
 40
3.0
 40
3.0
 40
3.0
 40
4.0
 40
4.0
 40
4.0
 40
4.0
 10
80.59956016595613
 20
-108.3833874729042
 10
80.59956016595613
 20
-108.4388441395569
 10
80.55475738932137
 20
-108.4836469173236
 10
80.49965553543068
 20
-108.4836469173236
 10
80.44451433657835
 20
-108.4836469173236
 10
80.39974683772046
 20
-108.4388441395569
 10
80.39974683772046
 20
-108.3833874729042
 10
80.39974683772046
 20
-108.328283584029
 10
80.44451433657835
 20
-108.2834808062626
 10
80.49965553543068
 20
-108.2834808062626
 10
80.55475738932137
 20
-108.2834808062626
 10
80.59956016595613
 20
-108.328283584029
 10
80.59956016595613
 20
-108.3833874729042
 97
        0
 97
        0
 75
     2
 76
     1
 98
        0
  0
SPLINE
  5
6C
330
1F
100
AcDbEntity
  8
_U+30EC_U+30A4_U+30E4_U+30FC 1
370
     0
100
AcDbSpline
210
0.0
220
0.0
230
1.0
 70
    11
 71
     3
 72
    80
 73
    76
 74
     0
 42
0.0000000001
 43
0.0000000001
 12
1.0
 22
0.0
 32
0.0
 13
1.0
 23
0.0
 33
0.0
 40
0.0
 40
0.0
 40
0.0
 40
0.0
 40
1.0
 40
1.0
 40
1.0
 40
2.0
 40
2.0
 40
2.0
 40
3.0
 40
3.0
 40
3.0
 40
4.0
 40
4.0
 40
4.0
 40
5.0
 40
5.0
 40
5.0
 40
6.0
 40
6.0
 40
6.0
 40
7.0
 40
7.0
 40
7.0
 40
8.0
 40
8.0
 40
8.0
 40
9.0
 40
9.0
 40
9.0
 40
10.0
 40
10.0
 40
10.0
 40
11.0
 40
11.0
 40
11.0
 40
12.0
 40
12.0
 40
12.0
 40
13.0
 40
13.0
 40
13.0
 40
14.0
 40
14.0
 40
14.0
 40
15.0
 40
15.0
 40
15.0
 40
16.0
 40
16.0
 40
16.0
 40
17.0
 40
17.0
 40
17.0
 40
18.0
 40
18.0
 40
18.0
 40
19.0
 40
19.0
 40
19.0
 40
20.0
 40
20.0
 40
20.0
 40
21.0
 40
21.0
 40
21.0
 40
22.0
 40
22.0
 40
22.0
 40
23.0
 40
23.0
 40
23.0
 40
24.0
 40
24.0
 40
24.0
 40
25.0
 40
25.0
 40
25.0
 40
25.0
 10
108.2800208486576
 20
-153.9244585726299
 30
0.0
 10
108.2800208486576
 20
-153.0959246839483
 30
0.0
 10
107.6082614213512
 20
-152.4244474618936
 30
0.0
 10
106.7800450535919
 20
-152.4244474618936
 30
0.0
 10
106.7800450535919
 20
-152.4244474618936
 30
0.0
 10
106.7662514428327
 20
-152.4127352396744
 30
0.0
 10
106.7662514428327
 20
-152.4127352396744
 30
0.0
 10
106.7662514428327
 20
-152.4127352396744
 30
0.0
 10
106.7765878314579
 20
-152.4251530174491
 30
0.0
 10
106.7765878314579
 20
-152.4251530174491
 30
0.0
 10
90.20827408748409
 20
-152.4251530174491
 30
0.0
 10
76.77636637460505
 20
-138.9934213541407
 30
0.0
 10
76.77636637460505
 20
-122.4252483027269
 30
0.0
 10
76.77636637460505
 20
-122.4252483027269
 30
0.0
 10
76.77636637460505
 20
-122.4193921916173
 30
0.0
 10
76.77636637460505
 20
-122.4193921916173
 30
0.0
 10
76.77636637460505
 20
-122.4193921916173
 30
0.0
 10
69.77626942700044
 20
-122.4193921916173
 30
0.0
 10
69.77626942700044
 20
-122.4193921916173
 30
0.0
 10
69.77626942700044
 20
-122.4193921916173
 30
0.0
 10
69.77626942700044
 20
-108.3989096951225
 30
0.0
 10
69.77626942700044
 20
-108.3989096951225
 30
0.0
 10
69.77626942700044
 20
-108.3989096951225
 30
0.0
 10
68.57632936158319
 20
-108.3989096951225
 30
0.0
 10
68.57632936158319
 20
-108.3989096951225
 30
0.0
 10
68.57632936158319
 20
-108.3989096951225
 30
0.0
 10
68.57632936158319
 20
-123.6193305246509
 30
0.0
 10
68.57632936158319
 20
-123.6193305246509
 30
0.0
 10
68.57632936158319
 20
-123.6193305246509
 30
0.0
 10
73.5762134006922
 20
-123.6193305246509
 30
0.0
 10
73.5762134006922
 20
-123.6193305246509
 30
0.0
 10
73.5762134006922
 20
-123.6193305246509
 30
0.0
 10
73.57586062292341
 20
-123.6193305246509
 30
0.0
 10
73.57586062292341
 20
-123.6193305246509
 30
0.0
 10
73.57586062292341
 20
-123.6193305246509
 30
0.0
 10
73.57586062292341
 20
-124.8192688576841
 30
0.0
 10
73.57586062292341
 20
-124.8192688576841
 30
0.0
 10
73.57586062292341
 20
-124.8192688576841
 30
0.0
 10
74.77615170341255
 20
-124.8192688576841
 30
0.0
 10
74.77615170341255
 20
-124.8192688576841
 30
0.0
 10
74.77615170341255
 20
-124.8192688576841
 30
0.0
 10
74.77615170341255
 20
-123.6193305246509
 30
0.0
 10
74.77615170341255
 20
-123.6193305246509
 30
0.0
 10
74.77615170341255
 20
-123.6193305246509
 30
0.0
 10
75.57607529411591
 20
-123.6193305246509
 30
0.0
 10
75.57607529411591
 20
-123.6193305246509
 30
0.0
 10
75.57607529411591
 20
-123.6193305246509
 30
0.0
 10
75.59847668243329
 20
-123.6220821913166
 30
0.0
 10
75.59847668243329
 20
-123.6220821913166
 30
0.0
 10
76.07253944811671
 20
-136.191519132619
 30
0.0
 10
83.98351035740215
 20
-146.8585666299518
 30
0.0
 10
95.05914719845771
 20
-151.349604128829
 30
0.0
 10
95.05914719845771
 20
-151.6737716287481
 30
0.0
 10
94.67535786240818
 20
-152.4237771841163
 30
0.0
 10
94.03594815649865
 20
-152.4237771841163
 30
0.0
 10
94.03594815649865
 20
-152.4237771841163
 30
0.0
 10
92.32441386580791
 20
-151.6665396843053
 30
0.0
 10
92.32441386580791
 20
-151.6665396843053
 30
0.0
 10
92.32441386580791
 20
-151.6665396843053
 30
0.0
 10
92.02952459657567
 20
-152.4244474618936
 30
0.0
 10
91.32414544790473
 20
-152.4244474618936
 30
0.0
 10
91.32414544790473
 20
-152.4244474618936
 30
0.0
 10
89.82413437506209
 20
-152.4244474618936
 30
0.0
 10
89.82413437506209
 20
-152.4244474618936
 30
0.0
 10
89.82413437506209
 20
-152.4244474618936
 30
0.0
 10
89.78416465385958
 20
-152.4244474618936
 30
0.0
 10
89.78416465385958
 20
-152.4244474618936
 30
0.0
 10
88.95563078610834
 20
-152.4244474618936
 30
0.0
 10
88.28418885879381
 20
-153.0959246839483
 30
0.0
 10
88.28418885879381
 20
-153.9244585726299
 30
0.0
 10
88.28418885879381
 20
-153.9244585726299
 30
0.0
 10
103.2798193095567
 20
-153.9244585726299
 30
0.0
 10
103.2798193095567
 20
-153.9244585726299
 30
0.0
 10
103.2798193095567
 20
-153.9244585726299
 30
0.0
 10
108.2800208486576
 20
-153.9244585726299
 30
0.0
 10
108.2800208486576
 20
-153.9244585726299
 30
0.0
  0
HATCH
  5
6D
330
1F
100
AcDbEntity
  8
_U+30EC_U+30A4_U+30E4_U+30FC 1
 62
     9
420
 13224394
100
AcDbHatch
 10
0.0
 20
0.0
 30
0.0
210
0.0
220
0.0
230
1.0
  2
SOLID
 70
     1
 71
     0
 91
        1
 92
        1
 93
        2
 72
     4
 94
        3
 73
     0
 74
     0
 95
       80
 96
       76
 40
0.0
 40
0.0
 40
0.0
 40
0.0
 40
0.3527777776895833
 40
0.3527777776895833
 40
0.3527777776895833
 40
0.7055555553791667
 40
0.7055555553791667
 40
0.7055555553791667
 40
1.05833333306875
 40
1.05833333306875
 40
1.05833333306875
 40
1.411111110758333
 40
1.411111110758333
 40
1.411111110758333
 40
1.763888888447917
 40
1.763888888447917
 40
1.763888888447917
 40
2.1166666661375
 40
2.1166666661375
 40
2.1166666661375
 40
2.469444443827083
 40
2.469444443827083
 40
2.469444443827083
 40
2.822222221516667
 40
2.822222221516667
 40
2.822222221516667
 40
3.17499999920625
 40
3.17499999920625
 40
3.17499999920625
 40
3.527777776895833
 40
3.527777776895833
 40
3.527777776895833
 40
3.880555554585417
 40
3.880555554585417
 40
3.880555554585417
 40
4.233333332275
 40
4.233333332275
 40
4.233333332275
 40
4.586111109964584
 40
4.586111109964584
 40
4.586111109964584
 40
4.938888887654167
 40
4.938888887654167
 40
4.938888887654167
 40
5.29166666534375
 40
5.29166666534375
 40
5.29166666534375
 40
5.644444443033334
 40
5.644444443033334
 40
5.644444443033334
 40
5.997222220722917
 40
5.997222220722917
 40
5.997222220722917
 40
6.349999998412501
 40
6.349999998412501
 40
6.349999998412501
 40
6.702777776102083
 40
6.702777776102083
 40
6.702777776102083
 40
7.055555553791667
 40
7.055555553791667
 40
7.055555553791667
 40
7.40833333148125
 40
7.40833333148125
 40
7.40833333148125
 40
7.761111109170834
 40
7.761111109170834
 40
7.761111109170834
 40
8.113888886860417
 40
8.113888886860417
 40
8.113888886860417
 40
8.46666666455
 40
8.46666666455
 40
8.46666666455
 40
8.819444442239584
 40
8.819444442239584
 40
8.819444442239584
 40
8.819444442239584
 10
108.2800208486576
 20
-153.9244585726299
 10
108.2800208486576
 20
-153.0959246839483
 10
107.6082614213512
 20
-152.4244474618936
 10
106.7800450535919
 20
-152.4244474618936
 10
106.7800450535919
 20
-152.4244474618936
 10
106.7662514428327
 20
-152.4127352396744
 10
106.7662514428327
 20
-152.4127352396744
 10
106.7662514428327
 20
-152.4127352396744
 10
106.7765878314579
 20
-152.4251530174491
 10
106.7765878314579
 20
-152.4251530174491
 10
90.20827408748409
 20
-152.4251530174491
 10
76.77636637460505
 20
-138.9934213541407
 10
76.77636637460505
 20
-122.4252483027269
 10
76.77636637460505
 20
-122.4252483027269
 10
76.77636637460505
 20
-122.4193921916173
 10
76.77636637460505
 20
-122.4193921916173
 10
76.77636637460505
 20
-122.4193921916173
 10
69.77626942700044
 20
-122.4193921916173
 10
69.77626942700044
 20
-122.4193921916173
 10
69.77626942700044
 20
-122.4193921916173
 10
69.77626942700044
 20
-108.3989096951225
 10
69.77626942700044
 20
-108.3989096951225
 10
69.77626942700044
 20
-108.3989096951225
 10
68.57632936158319
 20
-108.3989096951225
 10
68.57632936158319
 20
-108.3989096951225
 10
68.57632936158319
 20
-108.3989096951225
 10
68.57632936158319
 20
-123.6193305246509
 10
68.57632936158319
 20
-123.6193305246509
 10
68.57632936158319
 20
-123.6193305246509
 10
73.5762134006922
 20
-123.6193305246509
 10
73.5762134006922
 20
-123.6193305246509
 10
73.5762134006922
 20
-123.6193305246509
 10
73.57586062292341
 20
-123.6193305246509
 10
73.57586062292341
 20
-123.6193305246509
 10
73.57586062292341
 20
-123.6193305246509
 10
73.57586062292341
 20
-124.8192688576841
 10
73.57586062292341
 20
-124.8192688576841
 10
73.57586062292341
 20
-124.8192688576841
 10
74.77615170341255
 20
-124.8192688576841
 10
74.77615170341255
 20
-124.8192688576841
 10
74.77615170341255
 20
-124.8192688576841
 10
74.77615170341255
 20
-123.6193305246509
 10
74.77615170341255
 20
-123.6193305246509
 10
74.77615170341255
 20
-123.6193305246509
 10
75.57607529411591
 20
-123.6193305246509
 10
75.57607529411591
 20
-123.6193305246509
 10
75.57607529411591
 20
-123.6193305246509
 10
75.59847668243329
 20
-123.6220821913166
 10
75.59847668243329
 20
-123.6220821913166
 10
76.07253944811671
 20
-136.191519132619
 10
83.98351035740215
 20
-146.8585666299518
 10
95.05914719845771
 20
-151.349604128829
 10
95.05914719845771
 20
-151.6737716287481
 10
94.67535786240818
 20
-152.4237771841163
 10
94.03594815649865
 20
-152.4237771841163
 10
94.03594815649865
 20
-152.4237771841163
 10
92.32441386580791
 20
-151.6665396843053
 10
92.32441386580791
 20
-151.6665396843053
 10
92.32441386580791
 20
-151.6665396843053
 10
92.02952459657567
 20
-152.4244474618936
 10
91.32414544790473
 20
-152.4244474618936
 10
91.32414544790473
 20
-152.4244474618936
 10
89.82413437506209
 20
-152.4244474618936
 10
89.82413437506209
 20
-152.4244474618936
 10
89.82413437506209
 20
-152.4244474618936
 10
89.78416465385958
 20
-152.4244474618936
 10
89.78416465385958
 20
-152.4244474618936
 10
88.95563078610834
 20
-152.4244474618936
 10
88.28418885879381
 20
-153.0959246839483
 10
88.28418885879381
 20
-153.9244585726299
 10
88.28418885879381
 20
-153.9244585726299
 10
103.2798193095567
 20
-153.9244585726299
 10
103.2798193095567
 20
-153.9244585726299
 10
103.2798193095567
 20
-153.9244585726299
 10
108.2800208486576
 20
-153.9244585726299
 10
108.2800208486576
 20
-153.9244585726299
 97
        0
 72
     1
 10
108.2800208486576
 20
-153.9244585726299
 11
108.2800208486576
 21
-153.9244585726299
 97
        0
 75
     2
 76
     1
 98
        0
  0
POLYLINE
  5
6E
330
1F
100
AcDbEntity
  8
_U+30EC_U+30A4_U+30E4_U+30FC 1
 62
   179
420
  2234388
370
     9
100
AcDb2dPolyline
 66
     1
 10
0.0
 20
0.0
 30
0.0
  0
VERTEX
  5
6F
330
6E
100
AcDbEntity
  8
_U+30EC_U+30A4_U+30E4_U+30FC 1
 62
   179
420
  2234388
370
     9
100
AcDbVertex
100
AcDb2dVertex
 10
111.8257196470882
 20
-152.4237771841163
 30
0.0
  0
VERTEX
  5
70
330
6E
100
AcDbEntity
  8
_U+30EC_U+30A4_U+30E4_U+30FC 1
 62
   179
420
  2234388
370
     9
100
AcDbVertex
100
AcDb2dVertex
 10
111.8257196470882
 20
-158.5126157937054
 30
0.0
  0
SEQEND
  5
71
330
6E
100
AcDbEntity
  8
_U+30EC_U+30A4_U+30E4_U+30FC 1
 62
   179
420
  2234388
370
     9
  0
POLYLINE
  5
72
330
1F
100
AcDbEntity
  8
_U+30EC_U+30A4_U+30E4_U+30FC 1
 62
   179
420
  2234388
370
     9
100
AcDb2dPolyline
 66
     1
 10
0.0
 20
0.0
 30
0.0
  0
VERTEX
  5
73
330
72
100
AcDbEntity
  8
_U+30EC_U+30A4_U+30E4_U+30FC 1
 62
   179
420
  2234388
370
     9
100
AcDbVertex
100
AcDb2dVertex
 10
112.8254918438041
 20
-152.4224013507834
 30
0.0
  0
VERTEX
  5
74
330
72
100
AcDbEntity
  8
_U+30EC_U+30A4_U+30E4_U+30FC 1
 62
   179
420
  2234388
370
     9
100
AcDbVertex
100
AcDb2dVertex
 10
108.7513319477446
 20
-152.4224013507834
 30
0.0
  0
SEQEND
  5
75
330
72
100
AcDbEntity
  8
_U+30EC_U+30A4_U+30E4_U+30FC 1
 62
   179
420
  2234388
370
     9
  0
POLYLINE
  5
76
330
1F
100
AcDbEntity
  8
_U+30EC_U+30A4_U+30E4_U+30FC 1
 62
   179
420
  2234388
370
     9
100
AcDb2dPolyline
 66
     1
 10
0.0
 20
0.0
 30
0.0
  0
VERTEX
  5
77
330
76
100
AcDbEntity
  8
_U+30EC_U+30A4_U+30E4_U+30FC 1
 62
   179
420
  2234388
370
     9
100
AcDbVertex
100
AcDb2dVertex
 10
112.8254918438041
 20
-153.9223771837414
 30
0.0
  0
VERTEX
  5
78
330
76
100
AcDbEntity
  8
_U+30EC_U+30A4_U+30E4_U+30FC 1
 62
   179
420
  2234388
370
     9
100
AcDbVertex
100
AcDb2dVertex
 10
108.7513319477446
 20
-153.9223771837414
 30
0.0
  0
SEQEND
  5
79
330
76
100
AcDbEntity
  8
_U+30EC_U+30A4_U+30E4_U+30FC 1
 62
   179
420
  2234388
370
     9
  0
INSERT
  5
7B
330
1F
100
AcDbEntity
  8
_U+30EC_U+30A4_U+30E4_U+30FC 1
100
AcDbBlockReference
  2
block 3
 10
0.0
 20
0.0
 30
0.0
  0
SPLINE
  5
8A
330
1F
100
AcDbEntity
  8
_U+30EC_U+30A4_U+30E4_U+30FC 1
 62
   179
420
  2234388
370
     9
100
AcDbSpline
210
0.0
220
0.0
230
1.0
 70
    11
 71
     3
 72
    17
 73
    13
 74
     0
 42
0.0000000001
 43
0.0000000001
 12
1.0
 22
0.0
 32
0.0
 13
1.0
 23
0.0
 33
0.0
 40
0.0
 40
0.0
 40
0.0
 40
0.0
 40
1.0
 40
1.0
 40
1.0
 40
2.0
 40
2.0
 40
2.0
 40
3.0
 40
3.0
 40
3.0
 40
4.0
 40
4.0
 40
4.0
 40
4.0
 10
111.925626311206
 20
-152.4237771841163
 30
0.0
 10
111.925626311206
 20
-152.3686380174632
 30
0.0
 10
111.8808588123482
 20
-152.3238705174746
 30
0.0
 10
111.8257196470882
 20
-152.3238705174746
 30
0.0
 10
111.7706157596051
 20
-152.3238705174746
 30
0.0
 10
111.7258129829704
 20
-152.3686380174632
 30
0.0
 10
111.7258129829704
 20
-152.4237771841163
 30
0.0
 10
111.7258129829704
 20
-152.4788810729912
 30
0.0
 10
111.7706157596051
 20
-152.5236838507579
 30
0.0
 10
111.8257196470882
 20
-152.5236838507579
 30
0.0
 10
111.8808588123482
 20
-152.5236838507579
 30
0.0
 10
111.925626311206
 20
-152.4788810729912
 30
0.0
 10
111.925626311206
 20
-152.4237771841163
 30
0.0
  0
HATCH
  5
8B
330
1F
100
AcDbEntity
  8
_U+30EC_U+30A4_U+30E4_U+30FC 1
 62
   179
420
  2234388
100
AcDbHatch
 10
0.0
 20
0.0
 30
0.0
210
0.0
220
0.0
230
1.0
  2
SOLID
 70
     1
 71
     0
 91
        1
 92
        1
 93
        1
 72
     4
 94
        3
 73
     0
 74
     1
 95
       17
 96
       13
 40
0.0
 40
0.0
 40
0.0
 40
0.0
 40
1.0
 40
1.0
 40
1.0
 40
2.0
 40
2.0
 40
2.0
 40
3.0
 40
3.0
 40
3.0
 40
4.0
 40
4.0
 40
4.0
 40
4.0
 10
111.925626311206
 20
-152.4237771841163
 10
111.925626311206
 20
-152.3686380174632
 10
111.8808588123482
 20
-152.3238705174746
 10
111.8257196470882
 20
-152.3238705174746
 10
111.7706157596051
 20
-152.3238705174746
 10
111.7258129829704
 20
-152.3686380174632
 10
111.7258129829704
 20
-152.4237771841163
 10
111.7258129829704
 20
-152.4788810729912
 10
111.7706157596051
 20
-152.5236838507579
 10
111.8257196470882
 20
-152.5236838507579
 10
111.8808588123482
 20
-152.5236838507579
 10
111.925626311206
 20
-152.4788810729912
 10
111.925626311206
 20
-152.4237771841163
 97
        0
 97
        0
 75
     2
 76
     1
 98
        0
  0
SPLINE
  5
8C
330
1F
100
AcDbEntity
  8
_U+30EC_U+30A4_U+30E4_U+30FC 1
 62
   179
420
  2234388
370
     9
100
AcDbSpline
210
0.0
220
0.0
230
1.0
 70
    11
 71
     3
 72
    17
 73
    13
 74
     0
 42
0.0000000001
 43
0.0000000001
 12
1.0
 22
0.0
 32
0.0
 13
1.0
 23
0.0
 33
0.0
 40
0.0
 40
0.0
 40
0.0
 40
0.0
 40
1.0
 40
1.0
 40
1.0
 40
2.0
 40
2.0
 40
2.0
 40
3.0
 40
3.0
 40
3.0
 40
4.0
 40
4.0
 40
4.0
 40
4.0
 10
111.9235802001471
 20
-153.9244585726299
 30
0.0
 10
111.9235802001471
 20
-153.8693194059774
 30
0.0
 10
111.8787774235124
 20
-153.8245519059882
 30
0.0
 10
111.8236735360293
 20
-153.8245519059882
 30
0.0
 10
111.7685343707694
 20
-153.8245519059882
 30
0.0
 10
111.7237668719115
 20
-153.8693194059774
 30
0.0
 10
111.7237668719115
 20
-153.9244585726299
 30
0.0
 10
111.7237668719115
 20
-153.9795624615054
 30
0.0
 10
111.7685343707694
 20
-154.0243652392715
 30
0.0
 10
111.8236735360293
 20
-154.0243652392715
 30
0.0
 10
111.8787774235124
 20
-154.0243652392715
 30
0.0
 10
111.9235802001471
 20
-153.9795624615054
 30
0.0
 10
111.9235802001471
 20
-153.9244585726299
 30
0.0
  0
HATCH
  5
8D
330
1F
100
AcDbEntity
  8
_U+30EC_U+30A4_U+30E4_U+30FC 1
 62
   179
420
  2234388
100
AcDbHatch
 10
0.0
 20
0.0
 30
0.0
210
0.0
220
0.0
230
1.0
  2
SOLID
 70
     1
 71
     0
 91
        1
 92
        1
 93
        1
 72
     4
 94
        3
 73
     0
 74
     1
 95
       17
 96
       13
 40
0.0
 40
0.0
 40
0.0
 40
0.0
 40
1.0
 40
1.0
 40
1.0
 40
2.0
 40
2.0
 40
2.0
 40
3.0
 40
3.0
 40
3.0
 40
4.0
 40
4.0
 40
4.0
 40
4.0
 10
111.9235802001471
 20
-153.9244585726299
 10
111.9235802001471
 20
-153.8693194059774
 10
111.8787774235124
 20
-153.8245519059882
 10
111.8236735360293
 20
-153.8245519059882
 10
111.7685343707694
 20
-153.8245519059882
 10
111.7237668719115
 20
-153.8693194059774
 10
111.7237668719115
 20
-153.9244585726299
 10
111.7237668719115
 20
-153.9795624615054
 10
111.7685343707694
 20
-154.0243652392715
 10
111.8236735360293
 20
-154.0243652392715
 10
111.8787774235124
 20
-154.0243652392715
 10
111.9235802001471
 20
-153.9795624615054
 10
111.9235802001471
 20
-153.9244585726299
 97
        0
 97
        0
 75
     2
 76
     1
 98
        0
  0
POLYLINE
  5
8E
330
1F
100
AcDbEntity
  8
_U+30EC_U+30A4_U+30E4_U+30FC 1
 62
   179
420
  2234388
370
     9
100
AcDb2dPolyline
 66
     1
 10
0.0
 20
0.0
 30
0.0
  0
VERTEX
  5
8F
330
8E
100
AcDbEntity
  8
_U+30EC_U+30A4_U+30E4_U+30FC 1
 62
   179
420
  2234388
370
     9
100
AcDbVertex
100
AcDb2dVertex
 10
76.77894165231712
 20
-104.3491971961348
 30
0.0
  0
VERTEX
  5
90
330
8E
100
AcDbEntity
  8
_U+30EC_U+30A4_U+30E4_U+30FC 1
 62
   179
420
  2234388
370
     9
100
AcDbVertex
100
AcDb2dVertex
 10
64.22294586153615
 20
-104.3491971961348
 30
0.0
  0
SEQEND
  5
91
330
8E
100
AcDbEntity
  8
_U+30EC_U+30A4_U+30E4_U+30FC 1
 62
   179
420
  2234388
370
     9
  0
POLYLINE
  5
92
330
1F
100
AcDbEntity
  8
_U+30EC_U+30A4_U+30E4_U+30FC 1
 62
   179
420
  2234388
370
     9
100
AcDb2dPolyline
 66
     1
 10
0.0
 20
0.0
 30
0.0
  0
VERTEX
  5
93
330
92
100
AcDbEntity
  8
_U+30EC_U+30A4_U+30E4_U+30FC 1
 62
   179
420
  2234388
370
     9
100
AcDbVertex
100
AcDb2dVertex
 10
76.77911804120151
 20
-100.4150546971184
 30
0.0
  0
VERTEX
  5
94
330
92
100
AcDbEntity
  8
_U+30EC_U+30A4_U+30E4_U+30FC 1
 62
   179
420
  2234388
370
     9
100
AcDbVertex
100
AcDb2dVertex
 10
76.77911804120151
 20
-121.4237827474219
 30
0.0
  0
SEQEND
  5
95
330
92
100
AcDbEntity
  8
_U+30EC_U+30A4_U+30E4_U+30FC 1
 62
   179
420
  2234388
370
     9
  0
POLYLINE
  5
96
330
1F
100
AcDbEntity
  8
_U+30EC_U+30A4_U+30E4_U+30FC 1
 62
   179
420
  2234388
370
     9
100
AcDb2dPolyline
 66
     1
 10
0.0
 20
0.0
 30
0.0
  0
VERTEX
  5
97
330
96
100
AcDbEntity
  8
_U+30EC_U+30A4_U+30E4_U+30FC 1
 62
   179
420
  2234388
370
     9
100
AcDbVertex
100
AcDb2dVertex
 10
69.77901933090001
 20
-103.3484019186075
 30
0.0
  0
VERTEX
  5
98
330
96
100
AcDbEntity
  8
_U+30EC_U+30A4_U+30E4_U+30FC 1
 62
   179
420
  2234388
370
     9
100
AcDbVertex
100
AcDb2dVertex
 10
69.77901933090001
 20
-107.4153299731463
 30
0.0
  0
SEQEND
  5
99
330
96
100
AcDbEntity
  8
_U+30EC_U+30A4_U+30E4_U+30FC 1
 62
   179
420
  2234388
370
     9
  0
INSERT
  5
9B
330
1F
100
AcDbEntity
  8
_U+30EC_U+30A4_U+30E4_U+30FC 1
100
AcDbBlockReference
  2
block 4
 10
0.0
 20
0.0
 30
0.0
  0
SPLINE
  5
A0
330
1F
100
AcDbEntity
  8
_U+30EC_U+30A4_U+30E4_U+30FC 1
 62
   179
420
  2234388
370
     9
100
AcDbSpline
210
0.0
220
0.0
230
1.0
 70
    11
 71
     3
 72
    17
 73
    13
 74
     0
 42
0.0000000001
 43
0.0000000001
 12
1.0
 22
0.0
 32
0.0
 13
1.0
 23
0.0
 33
0.0
 40
0.0
 40
0.0
 40
0.0
 40
0.0
 40
1.0
 40
1.0
 40
1.0
 40
2.0
 40
2.0
 40
2.0
 40
3.0
 40
3.0
 40
3.0
 40
4.0
 40
4.0
 40
4.0
 40
4.0
 10
76.77876526343273
 20
-104.2492905294932
 30
0.0
 10
76.83425720646146
 20
-104.2492905294932
 30
0.0
 10
76.87902470531934
 20
-104.2940580294821
 30
0.0
 10
76.87902470531934
 20
-104.3491971961348
 30
0.0
 10
76.87902470531934
 20
-104.40430108501
 30
0.0
 10
76.83425720646146
 20
-104.4491038627768
 30
0.0
 10
76.77876526343273
 20
-104.4491038627768
 30
0.0
 10
76.72366137594966
 20
-104.4491038627768
 30
0.0
 10
76.67885859931489
 20
-104.40430108501
 30
0.0
 10
76.67885859931489
 20
-104.3491971961348
 30
0.0
 10
76.67885859931489
 20
-104.2940580294821
 30
0.0
 10
76.72366137594966
 20
-104.2492905294932
 30
0.0
 10
76.77876526343273
 20
-104.2492905294932
 30
0.0
  0
HATCH
  5
A1
330
1F
100
AcDbEntity
  8
_U+30EC_U+30A4_U+30E4_U+30FC 1
 62
   179
420
  2234388
100
AcDbHatch
 10
0.0
 20
0.0
 30
0.0
210
0.0
220
0.0
230
1.0
  2
SOLID
 70
     1
 71
     0
 91
        1
 92
        1
 93
        1
 72
     4
 94
        3
 73
     0
 74
     1
 95
       17
 96
       13
 40
0.0
 40
0.0
 40
0.0
 40
0.0
 40
1.0
 40
1.0
 40
1.0
 40
2.0
 40
2.0
 40
2.0
 40
3.0
 40
3.0
 40
3.0
 40
4.0
 40
4.0
 40
4.0
 40
4.0
 10
76.77876526343273
 20
-104.2492905294932
 10
76.83425720646146
 20
-104.2492905294932
 10
76.87902470531934
 20
-104.2940580294821
 10
76.87902470531934
 20
-104.3491971961348
 10
76.87902470531934
 20
-104.40430108501
 10
76.83425720646146
 20
-104.4491038627768
 10
76.77876526343273
 20
-104.4491038627768
 10
76.72366137594966
 20
-104.4491038627768
 10
76.67885859931489
 20
-104.40430108501
 10
76.67885859931489
 20
-104.3491971961348
 10
76.67885859931489
 20
-104.2940580294821
 10
76.72366137594966
 20
-104.2492905294932
 10
76.77876526343273
 20
-104.2492905294932
 97
        0
 97
        0
 75
     2
 76
     1
 98
        0
  0
SPLINE
  5
A2
330
1F
100
AcDbEntity
  8
_U+30EC_U+30A4_U+30E4_U+30FC 1
 62
   179
420
  2234388
370
     9
100
AcDbSpline
210
0.0
220
0.0
230
1.0
 70
    11
 71
     3
 72
    17
 73
    13
 74
     0
 42
0.0000000001
 43
0.0000000001
 12
1.0
 22
0.0
 32
0.0
 13
1.0
 23
0.0
 33
0.0
 40
0.0
 40
0.0
 40
0.0
 40
0.0
 40
1.0
 40
1.0
 40
1.0
 40
2.0
 40
2.0
 40
2.0
 40
3.0
 40
3.0
 40
3.0
 40
4.0
 40
4.0
 40
4.0
 40
4.0
 10
69.77901933090001
 20
-104.2509838628263
 30
0.0
 10
69.83451127392874
 20
-104.2509838628263
 30
0.0
 10
69.87928053808561
 20
-104.2957866405927
 30
0.0
 10
69.87928053808561
 20
-104.3509258072455
 30
0.0
 10
69.87928053808561
 20
-104.4060296961207
 30
0.0
 10
69.83451127392874
 20
-104.4508324738874
 30
0.0
 10
69.77901933090001
 20
-104.4508324738874
 30
0.0
 10
69.72391544341694
 20
-104.4508324738874
 30
0.0
 10
69.67911266678219
 20
-104.4060296961207
 30
0.0
 10
69.67911266678219
 20
-104.3509258072455
 30
0.0
 10
69.67911266678219
 20
-104.2957866405927
 30
0.0
 10
69.72391544341694
 20
-104.2509838628263
 30
0.0
 10
69.77901933090001
 20
-104.2509838628263
 30
0.0
  0
HATCH
  5
A3
330
1F
100
AcDbEntity
  8
_U+30EC_U+30A4_U+30E4_U+30FC 1
 62
   179
420
  2234388
100
AcDbHatch
 10
0.0
 20
0.0
 30
0.0
210
0.0
220
0.0
230
1.0
  2
SOLID
 70
     1
 71
     0
 91
        1
 92
        1
 93
        1
 72
     4
 94
        3
 73
     0
 74
     1
 95
       17
 96
       13
 40
0.0
 40
0.0
 40
0.0
 40
0.0
 40
1.0
 40
1.0
 40
1.0
 40
2.0
 40
2.0
 40
2.0
 40
3.0
 40
3.0
 40
3.0
 40
4.0
 40
4.0
 40
4.0
 40
4.0
 10
69.77901933090001
 20
-104.2509838628263
 10
69.83451127392874
 20
-104.2509838628263
 10
69.87928053808561
 20
-104.2957866405927
 10
69.87928053808561
 20
-104.3509258072455
 10
69.87928053808561
 20
-104.4060296961207
 10
69.83451127392874
 20
-104.4508324738874
 10
69.77901933090001
 20
-104.4508324738874
 10
69.72391544341694
 20
-104.4508324738874
 10
69.67911266678219
 20
-104.4060296961207
 10
69.67911266678219
 20
-104.3509258072455
 10
69.67911266678219
 20
-104.2957866405927
 10
69.72391544341694
 20
-104.2509838628263
 10
69.77901933090001
 20
-104.2509838628263
 97
        0
 97
        0
 75
     2
 76
     1
 98
        0
  0
POLYLINE
  5
A4
330
1F
100
AcDbEntity
  8
_U+30EC_U+30A4_U+30E4_U+30FC 1
 62
   179
420
  2234388
370
     9
100
AcDb2dPolyline
 66
     1
 10
0.0
 20
0.0
 30
0.0
  0
VERTEX
  5
A5
330
A4
100
AcDbEntity
  8
_U+30EC_U+30A4_U+30E4_U+30FC 1
 62
   179
420
  2234388
370
     9
100
AcDbVertex
100
AcDb2dVertex
 10
68.56807436179379
 20
-103.3484019186075
 30
0.0
  0
VERTEX
  5
A6
330
A4
100
AcDbEntity
  8
_U+30EC_U+30A4_U+30E4_U+30FC 1
 62
   179
420
  2234388
370
     9
100
AcDbVertex
100
AcDb2dVertex
 10
68.56807436179379
 20
-107.4153299731463
 30
0.0
  0
SEQEND
  5
A7
330
A4
100
AcDbEntity
  8
_U+30EC_U+30A4_U+30E4_U+30FC 1
 62
   179
420
  2234388
370
     9
  0
SPLINE
  5
A8
330
1F
100
AcDbEntity
  8
_U+30EC_U+30A4_U+30E4_U+30FC 1
 62
   179
420
  2234388
370
     9
100
AcDbSpline
210
0.0
220
0.0
230
1.0
 70
    11
 71
     3
 72
    17
 73
    13
 74
     0
 42
0.0000000001
 43
0.0000000001
 12
1.0
 22
0.0
 32
0.0
 13
1.0
 23
0.0
 33
0.0
 40
0.0
 40
0.0
 40
0.0
 40
0.0
 40
1.0
 40
1.0
 40
1.0
 40
2.0
 40
2.0
 40
2.0
 40
3.0
 40
3.0
 40
3.0
 40
4.0
 40
4.0
 40
4.0
 40
4.0
 10
68.56807436179379
 20
-104.2509838628263
 30
0.0
 10
68.62353102704564
 20
-104.2509838628263
 30
0.0
 10
68.66833380368041
 20
-104.2957866405927
 30
0.0
 10
68.66833380368041
 20
-104.3509258072455
 30
0.0
 10
68.66833380368041
 20
-104.4060296961207
 30
0.0
 10
68.62353102704564
 20
-104.4508324738874
 30
0.0
 10
68.56807436179379
 20
-104.4508324738874
 30
0.0
 10
68.512972205094
 20
-104.4508324738874
 30
0.0
 10
68.46816942732727
 20
-104.4060296961207
 30
0.0
 10
68.46816942732727
 20
-104.3509258072455
 30
0.0
 10
68.46816942732727
 20
-104.2957866405927
 30
0.0
 10
68.512972205094
 20
-104.2509838628263
 30
0.0
 10
68.56807436179379
 20
-104.2509838628263
 30
0.0
  0
HATCH
  5
A9
330
1F
100
AcDbEntity
  8
_U+30EC_U+30A4_U+30E4_U+30FC 1
 62
   179
420
  2234388
100
AcDbHatch
 10
0.0
 20
0.0
 30
0.0
210
0.0
220
0.0
230
1.0
  2
SOLID
 70
     1
 71
     0
 91
        1
 92
        1
 93
        1
 72
     4
 94
        3
 73
     0
 74
     1
 95
       17
 96
       13
 40
0.0
 40
0.0
 40
0.0
 40
0.0
 40
1.0
 40
1.0
 40
1.0
 40
2.0
 40
2.0
 40
2.0
 40
3.0
 40
3.0
 40
3.0
 40
4.0
 40
4.0
 40
4.0
 40
4.0
 10
68.56807436179379
 20
-104.2509838628263
 10
68.62353102704564
 20
-104.2509838628263
 10
68.66833380368041
 20
-104.2957866405927
 10
68.66833380368041
 20
-104.3509258072455
 10
68.66833380368041
 20
-104.4060296961207
 10
68.62353102704564
 20
-104.4508324738874
 10
68.56807436179379
 20
-104.4508324738874
 10
68.512972205094
 20
-104.4508324738874
 10
68.46816942732727
 20
-104.4060296961207
 10
68.46816942732727
 20
-104.3509258072455
 10
68.46816942732727
 20
-104.2957866405927
 10
68.512972205094
 20
-104.2509838628263
 10
68.56807436179379
 20
-104.2509838628263
 97
        0
 97
        0
 75
     2
 76
     1
 98
        0
  0
POLYLINE
  5
AA
330
1F
100
AcDbEntity
  8
_U+30EC_U+30A4_U+30E4_U+30FC 1
 62
   179
420
  2234388
370
     9
100
AcDb2dPolyline
 66
     1
 10
0.0
 20
0.0
 30
0.0
  0
VERTEX
  5
AB
330
AA
100
AcDbEntity
  8
_U+30EC_U+30A4_U+30E4_U+30FC 1
 62
   179
420
  2234388
370
     9
100
AcDbVertex
100
AcDb2dVertex
 10
76.79703915185542
 20
-101.1326752524946
 30
0.0
  0
VERTEX
  5
AC
330
AA
100
AcDbEntity
  8
_U+30EC_U+30A4_U+30E4_U+30FC 1
 62
   179
420
  2234388
370
     9
100
AcDbVertex
100
AcDb2dVertex
 10
112.3238771343792
 20
-101.1340510858278
 30
0.0
  0
SEQEND
  5
AD
330
AA
100
AcDbEntity
  8
_U+30EC_U+30A4_U+30E4_U+30FC 1
 62
   179
420
  2234388
370
     9
  0
INSERT
  5
AF
330
1F
100
AcDbEntity
  8
_U+30EC_U+30A4_U+30E4_U+30FC 1
100
AcDbBlockReference
  2
block 5
 10
0.0
 20
0.0
 30
0.0
  0
INSERT
  5
B8
330
1F
100
AcDbEntity
  8
_U+30EC_U+30A4_U+30E4_U+30FC 1
100
AcDbBlockReference
  2
block 6
 10
0.0
 20
0.0
 30
0.0
  0
INSERT
  5
C8
330
1F
100
AcDbEntity
  8
_U+30EC_U+30A4_U+30E4_U+30FC 1
100
AcDbBlockReference
  2
block 7
 10
0.0
 20
0.0
 30
0.0
  0
POLYLINE
  5
D7
330
1F
100
AcDbEntity
  8
_U+30EC_U+30A4_U+30E4_U+30FC 1
 62
   179
420
  2234388
370
     9
100
AcDb2dPolyline
 66
     1
 10
0.0
 20
0.0
 30
0.0
  0
VERTEX
  5
D8
330
D7
100
AcDbEntity
  8
_U+30EC_U+30A4_U+30E4_U+30FC 1
 62
   179
420
  2234388
370
     9
100
AcDbVertex
100
AcDb2dVertex
 10
108.279350570897
 20
-100.4150546971184
 30
0.0
  0
VERTEX
  5
D9
330
D7
100
AcDbEntity
  8
_U+30EC_U+30A4_U+30E4_U+30FC 1
 62
   179
420
  2234388
370
     9
100
AcDbVertex
100
AcDb2dVertex
 10
108.279350570897
 20
-151.4232994065888
 30
0.0
  0
SEQEND
  5
DA
330
D7
100
AcDbEntity
  8
_U+30EC_U+30A4_U+30E4_U+30FC 1
 62
   179
420
  2234388
370
     9
  0
SPLINE
  5
DB
330
1F
100
AcDbEntity
  8
_U+30EC_U+30A4_U+30E4_U+30FC 1
 62
   179
420
  2234388
370
     9
100
AcDbSpline
210
0.0
220
0.0
230
1.0
 70
    11
 71
     3
 72
    17
 73
    13
 74
     0
 42
0.0000000001
 43
0.0000000001
 12
1.0
 22
0.0
 32
0.0
 13
1.0
 23
0.0
 33
0.0
 40
0.0
 40
0.0
 40
0.0
 40
0.0
 40
1.0
 40
1.0
 40
1.0
 40
2.0
 40
2.0
 40
2.0
 40
3.0
 40
3.0
 40
3.0
 40
4.0
 40
4.0
 40
4.0
 40
4.0
 10
106.8792461621722
 20
-101.1326752524946
 30
0.0
 10
106.8792461621722
 20
-101.0775360858418
 30
0.0
 10
106.8344786633143
 20
-101.0327685858529
 30
0.0
 10
106.7793394980543
 20
-101.0327685858529
 30
0.0
 10
106.7242356105712
 20
-101.0327685858529
 30
0.0
 10
106.6794328339365
 20
-101.0775360858418
 30
0.0
 10
106.6794328339365
 20
-101.1326752524946
 30
0.0
 10
106.6794328339365
 20
-101.1877791413698
 30
0.0
 10
106.7242356105712
 20
-101.2325819191362
 30
0.0
 10
106.7793394980543
 20
-101.2325819191362
 30
0.0
 10
106.8344786633143
 20
-101.2325819191362
 30
0.0
 10
106.8792461621722
 20
-101.1877791413698
 30
0.0
 10
106.8792461621722
 20
-101.1326752524946
 30
0.0
  0
HATCH
  5
DC
330
1F
100
AcDbEntity
  8
_U+30EC_U+30A4_U+30E4_U+30FC 1
 62
   179
420
  2234388
100
AcDbHatch
 10
0.0
 20
0.0
 30
0.0
210
0.0
220
0.0
230
1.0
  2
SOLID
 70
     1
 71
     0
 91
        1
 92
        1
 93
        1
 72
     4
 94
        3
 73
     0
 74
     1
 95
       17
 96
       13
 40
0.0
 40
0.0
 40
0.0
 40
0.0
 40
1.0
 40
1.0
 40
1.0
 40
2.0
 40
2.0
 40
2.0
 40
3.0
 40
3.0
 40
3.0
 40
4.0
 40
4.0
 40
4.0
 40
4.0
 10
106.8792461621722
 20
-101.1326752524946
 10
106.8792461621722
 20
-101.0775360858418
 10
106.8344786633143
 20
-101.0327685858529
 10
106.7793394980543
 20
-101.0327685858529
 10
106.7242356105712
 20
-101.0327685858529
 10
106.6794328339365
 20
-101.0775360858418
 10
106.6794328339365
 20
-101.1326752524946
 10
106.6794328339365
 20
-101.1877791413698
 10
106.7242356105712
 20
-101.2325819191362
 10
106.7793394980543
 20
-101.2325819191362
 10
106.8344786633143
 20
-101.2325819191362
 10
106.8792461621722
 20
-101.1877791413698
 10
106.8792461621722
 20
-101.1326752524946
 97
        0
 97
        0
 75
     2
 76
     1
 98
        0
  0
SPLINE
  5
DD
330
1F
100
AcDbEntity
  8
_U+30EC_U+30A4_U+30E4_U+30FC 1
 62
   179
420
  2234388
370
     9
100
AcDbSpline
210
0.0
220
0.0
230
1.0
 70
    11
 71
     3
 72
    17
 73
    13
 74
     0
 42
0.0000000001
 43
0.0000000001
 12
1.0
 22
0.0
 32
0.0
 13
1.0
 23
0.0
 33
0.0
 40
0.0
 40
0.0
 40
0.0
 40
0.0
 40
1.0
 40
1.0
 40
1.0
 40
2.0
 40
2.0
 40
2.0
 40
3.0
 40
3.0
 40
3.0
 40
4.0
 40
4.0
 40
4.0
 40
4.0
 10
108.3792572350148
 20
-101.1316521969394
 30
0.0
 10
108.3792572350148
 20
-101.0765130302864
 30
0.0
 10
108.33445445838
 20
-101.0317455302975
 30
0.0
 10
108.279350570897
 20
-101.0317455302975
 30
0.0
 10
108.224211405637
 20
-101.0317455302975
 30
0.0
 10
108.1794439067791
 20
-101.0765130302864
 30
0.0
 10
108.1794439067791
 20
-101.1316521969394
 30
0.0
 10
108.1794439067791
 20
-101.1867560858144
 30
0.0
 10
108.224211405637
 20
-101.2315588635811
 30
0.0
 10
108.279350570897
 20
-101.2315588635811
 30
0.0
 10
108.33445445838
 20
-101.2315588635811
 30
0.0
 10
108.3792572350148
 20
-101.1867560858144
 30
0.0
 10
108.3792572350148
 20
-101.1316521969394
 30
0.0
  0
HATCH
  5
DE
330
1F
100
AcDbEntity
  8
_U+30EC_U+30A4_U+30E4_U+30FC 1
 62
   179
420
  2234388
100
AcDbHatch
 10
0.0
 20
0.0
 30
0.0
210
0.0
220
0.0
230
1.0
  2
SOLID
 70
     1
 71
     0
 91
        1
 92
        1
 93
        1
 72
     4
 94
        3
 73
     0
 74
     1
 95
       17
 96
       13
 40
0.0
 40
0.0
 40
0.0
 40
0.0
 40
1.0
 40
1.0
 40
1.0
 40
2.0
 40
2.0
 40
2.0
 40
3.0
 40
3.0
 40
3.0
 40
4.0
 40
4.0
 40
4.0
 40
4.0
 10
108.3792572350148
 20
-101.1316521969394
 10
108.3792572350148
 20
-101.0765130302864
 10
108.33445445838
 20
-101.0317455302975
 10
108.279350570897
 20
-101.0317455302975
 10
108.224211405637
 20
-101.0317455302975
 10
108.1794439067791
 20
-101.0765130302864
 10
108.1794439067791
 20
-101.1316521969394
 10
108.1794439067791
 20
-101.1867560858144
 10
108.224211405637
 20
-101.2315588635811
 10
108.279350570897
 20
-101.2315588635811
 10
108.33445445838
 20
-101.2315588635811
 10
108.3792572350148
 20
-101.1867560858144
 10
108.3792572350148
 20
-101.1316521969394
 97
        0
 97
        0
 75
     2
 76
     1
 98
        0
  0
SPLINE
  5
DF
330
1F
100
AcDbEntity
  8
_U+30EC_U+30A4_U+30E4_U+30FC 1
 62
   179
420
  2234388
370
     9
100
AcDbSpline
210
0.0
220
0.0
230
1.0
 70
    11
 71
     3
 72
    17
 73
    13
 74
     0
 42
0.0000000001
 43
0.0000000001
 12
1.0
 22
0.0
 32
0.0
 13
1.0
 23
0.0
 33
0.0
 40
0.0
 40
0.0
 40
0.0
 40
0.0
 40
1.0
 40
1.0
 40
1.0
 40
2.0
 40
2.0
 40
2.0
 40
3.0
 40
3.0
 40
3.0
 40
4.0
 40
4.0
 40
4.0
 40
4.0
 10
76.87902470531934
 20
-101.1340510858278
 30
0.0
 10
76.87902470531934
 20
-101.0789119191747
 30
0.0
 10
76.83425720646146
 20
-101.0341444191858
 30
0.0
 10
76.77911804120151
 20
-101.0341444191858
 30
0.0
 10
76.72366137594966
 20
-101.0341444191858
 30
0.0
 10
76.67885859931489
 20
-101.0789119191747
 30
0.0
 10
76.67885859931489
 20
-101.1340510858278
 30
0.0
 10
76.67885859931489
 20
-101.1891549747027
 30
0.0
 10
76.72366137594966
 20
-101.2339577524694
 30
0.0
 10
76.77911804120151
 20
-101.2339577524694
 30
0.0
 10
76.83425720646146
 20
-101.2339577524694
 30
0.0
 10
76.87902470531934
 20
-101.1891549747027
 30
0.0
 10
76.87902470531934
 20
-101.1340510858278
 30
0.0
  0
HATCH
  5
E0
330
1F
100
AcDbEntity
  8
_U+30EC_U+30A4_U+30E4_U+30FC 1
 62
   179
420
  2234388
100
AcDbHatch
 10
0.0
 20
0.0
 30
0.0
210
0.0
220
0.0
230
1.0
  2
SOLID
 70
     1
 71
     0
 91
        1
 92
        1
 93
        1
 72
     4
 94
        3
 73
     0
 74
     1
 95
       17
 96
       13
 40
0.0
 40
0.0
 40
0.0
 40
0.0
 40
1.0
 40
1.0
 40
1.0
 40
2.0
 40
2.0
 40
2.0
 40
3.0
 40
3.0
 40
3.0
 40
4.0
 40
4.0
 40
4.0
 40
4.0
 10
76.87902470531934
 20
-101.1340510858278
 10
76.87902470531934
 20
-101.0789119191747
 10
76.83425720646146
 20
-101.0341444191858
 10
76.77911804120151
 20
-101.0341444191858
 10
76.72366137594966
 20
-101.0341444191858
 10
76.67885859931489
 20
-101.0789119191747
 10
76.67885859931489
 20
-101.1340510858278
 10
76.67885859931489
 20
-101.1891549747027
 10
76.72366137594966
 20
-101.2339577524694
 10
76.77911804120151
 20
-101.2339577524694
 10
76.83425720646146
 20
-101.2339577524694
 10
76.87902470531934
 20
-101.1891549747027
 10
76.87902470531934
 20
-101.1340510858278
 97
        0
 97
        0
 75
     2
 76
     1
 98
        0
  0
POLYLINE
  5
E1
330
1F
100
AcDbEntity
  8
_U+30EC_U+30A4_U+30E4_U+30FC 1
 62
   179
420
  2234388
370
     9
100
AcDb2dPolyline
 66
     1
 10
0.0
 20
0.0
 30
0.0
  0
VERTEX
  5
E2
330
E1
100
AcDbEntity
  8
_U+30EC_U+30A4_U+30E4_U+30FC 1
 62
   179
420
  2234388
370
     9
100
AcDbVertex
100
AcDb2dVertex
 10
106.7793394980543
 20
-100.4150546971184
 30
0.0
  0
VERTEX
  5
E3
330
E1
100
AcDbEntity
  8
_U+30EC_U+30A4_U+30E4_U+30FC 1
 62
   179
420
  2234388
370
     9
100
AcDbVertex
100
AcDb2dVertex
 10
106.7793394980543
 20
-151.4236521843666
 30
0.0
  0
SEQEND
  5
E4
330
E1
100
AcDbEntity
  8
_U+30EC_U+30A4_U+30E4_U+30FC 1
 62
   179
420
  2234388
370
     9
  0
POLYLINE
  5
E5
330
1F
100
AcDbEntity
  8
_U+30EC_U+30A4_U+30E4_U+30FC 1
 62
   179
420
  2234388
370
     9
100
AcDb2dPolyline
 66
     1
 10
0.0
 20
0.0
 30
0.0
  0
VERTEX
  5
E6
330
E5
100
AcDbEntity
  8
_U+30EC_U+30A4_U+30E4_U+30FC 1
 62
   179
420
  2234388
370
     9
100
AcDbVertex
100
AcDb2dVertex
 10
88.27935580336155
 20
-157.6420660717004
 30
0.0
  0
VERTEX
  5
E7
330
E5
100
AcDbEntity
  8
_U+30EC_U+30A4_U+30E4_U+30FC 1
 62
   179
420
  2234388
370
     9
100
AcDbVertex
100
AcDb2dVertex
 10
108.279350570897
 20
-157.6434419050339
 30
0.0
  0
SEQEND
  5
E8
330
E5
100
AcDbEntity
  8
_U+30EC_U+30A4_U+30E4_U+30FC 1
 62
   179
420
  2234388
370
     9
  0
INSERT
  5
EA
330
1F
100
AcDbEntity
  8
_U+30EC_U+30A4_U+30E4_U+30FC 1
100
AcDbBlockReference
  2
block 8
 10
0.0
 20
0.0
 30
0.0
  0
INSERT
  5
F2
330
1F
100
AcDbEntity
  8
_U+30EC_U+30A4_U+30E4_U+30FC 1
100
AcDbBlockReference
  2
block 9
 10
0.0
 20
0.0
 30
0.0
  0
POLYLINE
  5
F7
330
1F
100
AcDbEntity
  8
_U+30EC_U+30A4_U+30E4_U+30FC 1
 62
   179
420
  2234388
370
     9
100
AcDb2dPolyline
 66
     1
 10
0.0
 20
0.0
 30
0.0
  0
VERTEX
  5
F8
330
F7
100
AcDbEntity
  8
_U+30EC_U+30A4_U+30E4_U+30FC 1
 62
   179
420
  2234388
370
     9
100
AcDbVertex
100
AcDb2dVertex
 10
108.279350570897
 20
-154.9245835723802
 30
0.0
  0
VERTEX
  5
F9
330
F7
100
AcDbEntity
  8
_U+30EC_U+30A4_U+30E4_U+30FC 1
 62
   179
420
  2234388
370
     9
100
AcDbVertex
100
AcDb2dVertex
 10
108.279350570897
 20
-158.6401096825623
 30
0.0
  0
SEQEND
  5
FA
330
F7
100
AcDbEntity
  8
_U+30EC_U+30A4_U+30E4_U+30FC 1
 62
   179
420
  2234388
370
     9
  0
SPLINE
  5
FB
330
1F
100
AcDbEntity
  8
_U+30EC_U+30A4_U+30E4_U+30FC 1
 62
   179
420
  2234388
370
     9
100
AcDbSpline
210
0.0
220
0.0
230
1.0
 70
    11
 71
     3
 72
    17
 73
    13
 74
     0
 42
0.0000000001
 43
0.0000000001
 12
1.0
 22
0.0
 32
0.0
 13
1.0
 23
0.0
 33
0.0
 40
0.0
 40
0.0
 40
0.0
 40
0.0
 40
1.0
 40
1.0
 40
1.0
 40
2.0
 40
2.0
 40
2.0
 40
3.0
 40
3.0
 40
3.0
 40
4.0
 40
4.0
 40
4.0
 40
4.0
 10
88.37926246747939
 20
-157.6420660717004
 30
0.0
 10
88.37926246747939
 20
-157.5869269050479
 30
0.0
 10
88.33449720013859
 20
-157.5421594050588
 30
0.0
 10
88.27935580336155
 20
-157.5421594050588
 30
0.0
 10
88.2238991381097
 20
-157.5421594050588
 30
0.0
 10
88.17909636147495
 20
-157.5869269050479
 30
0.0
 10
88.17909636147495
 20
-157.6420660717004
 30
0.0
 10
88.17909636147495
 20
-157.6971699605759
 30
0.0
 10
88.2238991381097
 20
-157.741972738342
 30
0.0
 10
88.27935580336155
 20
-157.741972738342
 30
0.0
 10
88.33449720013859
 20
-157.741972738342
 30
0.0
 10
88.37926246747939
 20
-157.6971699605759
 30
0.0
 10
88.37926246747939
 20
-157.6420660717004
 30
0.0
  0
HATCH
  5
FC
330
1F
100
AcDbEntity
  8
_U+30EC_U+30A4_U+30E4_U+30FC 1
 62
   179
420
  2234388
100
AcDbHatch
 10
0.0
 20
0.0
 30
0.0
210
0.0
220
0.0
230
1.0
  2
SOLID
 70
     1
 71
     0
 91
        1
 92
        1
 93
        1
 72
     4
 94
        3
 73
     0
 74
     1
 95
       17
 96
       13
 40
0.0
 40
0.0
 40
0.0
 40
0.0
 40
1.0
 40
1.0
 40
1.0
 40
2.0
 40
2.0
 40
2.0
 40
3.0
 40
3.0
 40
3.0
 40
4.0
 40
4.0
 40
4.0
 40
4.0
 10
88.37926246747939
 20
-157.6420660717004
 10
88.37926246747939
 20
-157.5869269050479
 10
88.33449720013859
 20
-157.5421594050588
 10
88.27935580336155
 20
-157.5421594050588
 10
88.2238991381097
 20
-157.5421594050588
 10
88.17909636147495
 20
-157.5869269050479
 10
88.17909636147495
 20
-157.6420660717004
 10
88.17909636147495
 20
-157.6971699605759
 10
88.2238991381097
 20
-157.741972738342
 10
88.27935580336155
 20
-157.741972738342
 10
88.33449720013859
 20
-157.741972738342
 10
88.37926246747939
 20
-157.6971699605759
 10
88.37926246747939
 20
-157.6420660717004
 97
        0
 97
        0
 75
     2
 76
     1
 98
        0
  0
SPLINE
  5
FD
330
1F
100
AcDbEntity
  8
_U+30EC_U+30A4_U+30E4_U+30FC 1
 62
   179
420
  2234388
370
     9
100
AcDbSpline
210
0.0
220
0.0
230
1.0
 70
    11
 71
     3
 72
    17
 73
    13
 74
     0
 42
0.0000000001
 43
0.0000000001
 12
1.0
 22
0.0
 32
0.0
 13
1.0
 23
0.0
 33
0.0
 40
0.0
 40
0.0
 40
0.0
 40
0.0
 40
1.0
 40
1.0
 40
1.0
 40
2.0
 40
2.0
 40
2.0
 40
3.0
 40
3.0
 40
3.0
 40
4.0
 40
4.0
 40
4.0
 40
4.0
 10
103.3790583074884
 20
-157.6420660717004
 30
0.0
 10
103.3790583074884
 20
-157.5869269050479
 30
0.0
 10
103.3342555297217
 20
-157.5421594050588
 30
0.0
 10
103.2791490317961
 20
-157.5421594050588
 30
0.0
 10
103.2240098665361
 20
-157.5421594050588
 30
0.0
 10
103.1792423676782
 20
-157.5869269050479
 30
0.0
 10
103.1792423676782
 20
-157.6420660717004
 30
0.0
 10
103.1792423676782
 20
-157.6971699605759
 30
0.0
 10
103.2240098665361
 20
-157.741972738342
 30
0.0
 10
103.2791490317961
 20
-157.741972738342
 30
0.0
 10
103.3342555297217
 20
-157.741972738342
 30
0.0
 10
103.3790583074884
 20
-157.6971699605759
 30
0.0
 10
103.3790583074884
 20
-157.6420660717004
 30
0.0
  0
HATCH
  5
FE
330
1F
100
AcDbEntity
  8
_U+30EC_U+30A4_U+30E4_U+30FC 1
 62
   179
420
  2234388
100
AcDbHatch
 10
0.0
 20
0.0
 30
0.0
210
0.0
220
0.0
230
1.0
  2
SOLID
 70
     1
 71
     0
 91
        1
 92
        1
 93
        1
 72
     4
 94
        3
 73
     0
 74
     1
 95
       17
 96
       13
 40
0.0
 40
0.0
 40
0.0
 40
0.0
 40
1.0
 40
1.0
 40
1.0
 40
2.0
 40
2.0
 40
2.0
 40
3.0
 40
3.0
 40
3.0
 40
4.0
 40
4.0
 40
4.0
 40
4.0
 10
103.3790583074884
 20
-157.6420660717004
 10
103.3790583074884
 20
-157.5869269050479
 10
103.3342555297217
 20
-157.5421594050588
 10
103.2791490317961
 20
-157.5421594050588
 10
103.2240098665361
 20
-157.5421594050588
 10
103.1792423676782
 20
-157.5869269050479
 10
103.1792423676782
 20
-157.6420660717004
 10
103.1792423676782
 20
-157.6971699605759
 10
103.2240098665361
 20
-157.741972738342
 10
103.2791490317961
 20
-157.741972738342
 10
103.3342555297217
 20
-157.741972738342
 10
103.3790583074884
 20
-157.6971699605759
 10
103.3790583074884
 20
-157.6420660717004
 97
        0
 97
        0
 75
     2
 76
     1
 98
        0
  0
SPLINE
  5
FF
330
1F
100
AcDbEntity
  8
_U+30EC_U+30A4_U+30E4_U+30FC 1
 62
   179
420
  2234388
370
     9
100
AcDbSpline
210
0.0
220
0.0
230
1.0
 70
    11
 71
     3
 72
    17
 73
    13
 74
     0
 42
0.0000000001
 43
0.0000000001
 12
1.0
 22
0.0
 32
0.0
 13
1.0
 23
0.0
 33
0.0
 40
0.0
 40
0.0
 40
0.0
 40
0.0
 40
1.0
 40
1.0
 40
1.0
 40
2.0
 40
2.0
 40
2.0
 40
3.0
 40
3.0
 40
3.0
 40
4.0
 40
4.0
 40
4.0
 40
4.0
 10
108.3792572350148
 20
-157.6413605161455
 30
0.0
 10
108.3792572350148
 20
-157.5862566272699
 30
0.0
 10
108.33445445838
 20
-157.5414538495032
 30
0.0
 10
108.279350570897
 20
-157.5414538495032
 30
0.0
 10
108.224211405637
 20
-157.5414538495032
 30
0.0
 10
108.1794439067791
 20
-157.5862566272699
 30
0.0
 10
108.1794439067791
 20
-157.6413605161455
 30
0.0
 10
108.1794439067791
 20
-157.6964996827979
 30
0.0
 10
108.224211405637
 20
-157.7412671827871
 30
0.0
 10
108.279350570897
 20
-157.7412671827871
 30
0.0
 10
108.33445445838
 20
-157.7412671827871
 30
0.0
 10
108.3792572350148
 20
-157.6964996827979
 30
0.0
 10
108.3792572350148
 20
-157.6413605161455
 30
0.0
  0
HATCH
  5
100
330
1F
100
AcDbEntity
  8
_U+30EC_U+30A4_U+30E4_U+30FC 1
 62
   179
420
  2234388
100
AcDbHatch
 10
0.0
 20
0.0
 30
0.0
210
0.0
220
0.0
230
1.0
  2
SOLID
 70
     1
 71
     0
 91
        1
 92
        1
 93
        1
 72
     4
 94
        3
 73
     0
 74
     1
 95
       17
 96
       13
 40
0.0
 40
0.0
 40
0.0
 40
0.0
 40
1.0
 40
1.0
 40
1.0
 40
2.0
 40
2.0
 40
2.0
 40
3.0
 40
3.0
 40
3.0
 40
4.0
 40
4.0
 40
4.0
 40
4.0
 10
108.3792572350148
 20
-157.6413605161455
 10
108.3792572350148
 20
-157.5862566272699
 10
108.33445445838
 20
-157.5414538495032
 10
108.279350570897
 20
-157.5414538495032
 10
108.224211405637
 20
-157.5414538495032
 10
108.1794439067791
 20
-157.5862566272699
 10
108.1794439067791
 20
-157.6413605161455
 10
108.1794439067791
 20
-157.6964996827979
 10
108.224211405637
 20
-157.7412671827871
 10
108.279350570897
 20
-157.7412671827871
 10
108.33445445838
 20
-157.7412671827871
 10
108.3792572350148
 20
-157.6964996827979
 10
108.3792572350148
 20
-157.6413605161455
 97
        0
 97
        0
 75
     2
 76
     1
 98
        0
  0
POLYLINE
  5
101
330
1F
100
AcDbEntity
  8
_U+30EC_U+30A4_U+30E4_U+30FC 1
 62
   179
420
  2234388
370
     9
100
AcDb2dPolyline
 66
     1
 10
0.0
 20
0.0
 30
0.0
  0
VERTEX
  5
102
330
101
100
AcDbEntity
  8
_U+30EC_U+30A4_U+30E4_U+30FC 1
 62
   179
420
  2234388
370
     9
100
AcDbVertex
100
AcDb2dVertex
 10
103.2791490317961
 20
-154.9245835723802
 30
0.0
  0
VERTEX
  5
103
330
101
100
AcDbEntity
  8
_U+30EC_U+30A4_U+30E4_U+30FC 1
 62
   179
420
  2234388
370
     9
100
AcDbVertex
100
AcDb2dVertex
 10
103.2791490317961
 20
-158.6401096825623
 30
0.0
  0
SEQEND
  5
104
330
101
100
AcDbEntity
  8
_U+30EC_U+30A4_U+30E4_U+30FC 1
 62
   179
420
  2234388
370
     9
  0
POLYLINE
  5
105
330
1F
100
AcDbEntity
  8
_U+30EC_U+30A4_U+30E4_U+30FC 1
 62
   179
420
  2234388
370
     9
100
AcDb2dPolyline
 66
     1
 10
0.0
 20
0.0
 30
0.0
  0
VERTEX
  5
106
330
105
100
AcDbEntity
  8
_U+30EC_U+30A4_U+30E4_U+30FC 1
 62
   179
420
  2234388
370
     9
100
AcDbVertex
100
AcDb2dVertex
 10
88.27935580336155
 20
-154.9245835723802
 30
0.0
  0
VERTEX
  5
107
330
105
100
AcDbEntity
  8
_U+30EC_U+30A4_U+30E4_U+30FC 1
 62
   179
420
  2234388
370
     9
100
AcDbVertex
100
AcDb2dVertex
 10
88.27935580336155
 20
-158.6401096825623
 30
0.0
  0
SEQEND
  5
108
330
105
100
AcDbEntity
  8
_U+30EC_U+30A4_U+30E4_U+30FC 1
 62
   179
420
  2234388
370
     9
  0
POLYLINE
  5
109
330
1F
100
AcDbEntity
  8
_U+30EC_U+30A4_U+30E4_U+30FC 1
 62
   179
420
  2234388
370
     9
100
AcDb2dPolyline
 66
     1
 10
0.0
 20
0.0
 30
0.0
  0
VERTEX
  5
10A
330
109
100
AcDbEntity
  8
_U+30EC_U+30A4_U+30E4_U+30FC 1
 62
   179
420
  2234388
370
     9
100
AcDbVertex
100
AcDb2dVertex
 10
80.23351795307242
 20
-136.56909718808
 30
0.0
  0
VERTEX
  5
10B
330
109
100
AcDbEntity
  8
_U+30EC_U+30A4_U+30E4_U+30FC 1
 62
   179
420
  2234388
370
     9
100
AcDbVertex
100
AcDb2dVertex
 10
81.17677515123015
 20
-135.713681632738
 30
0.0
  0
SEQEND
  5
10C
330
109
100
AcDbEntity
  8
_U+30EC_U+30A4_U+30E4_U+30FC 1
 62
   179
420
  2234388
370
     9
  0
POLYLINE
  5
10D
330
1F
100
AcDbEntity
  8
_U+30EC_U+30A4_U+30E4_U+30FC 1
 62
   179
420
  2234388
370
     9
100
AcDb2dPolyline
 66
     1
 10
0.0
 20
0.0
 30
0.0
  0
VERTEX
  5
10E
330
10D
100
AcDbEntity
  8
_U+30EC_U+30A4_U+30E4_U+30FC 1
 62
   179
420
  2234388
370
     9
100
AcDbVertex
100
AcDb2dVertex
 10
80.23351795307242
 20
-136.56909718808
 30
0.0
  0
VERTEX
  5
10F
330
10D
100
AcDbEntity
  8
_U+30EC_U+30A4_U+30E4_U+30FC 1
 62
   179
420
  2234388
370
     9
100
AcDbVertex
100
AcDb2dVertex
 10
106.6794328339365
 20
-122.1272569139126
 30
0.0
  0
SEQEND
  5
110
330
10D
100
AcDbEntity
  8
_U+30EC_U+30A4_U+30E4_U+30FC 1
 62
   179
420
  2234388
370
     9
  0
POLYLINE
  5
111
330
1F
100
AcDbEntity
  8
_U+30EC_U+30A4_U+30E4_U+30FC 1
 62
   179
420
  2234388
370
     9
100
AcDb2dPolyline
 66
     1
 10
0.0
 20
0.0
 30
0.0
  0
VERTEX
  5
112
330
111
100
AcDbEntity
  8
_U+30EC_U+30A4_U+30E4_U+30FC 1
 62
   179
420
  2234388
370
     9
100
AcDbVertex
100
AcDb2dVertex
 10
80.23351795307242
 20
-136.56909718808
 30
0.0
  0
VERTEX
  5
113
330
111
100
AcDbEntity
  8
_U+30EC_U+30A4_U+30E4_U+30FC 1
 62
   179
420
  2234388
370
     9
100
AcDbVertex
100
AcDb2dVertex
 10
81.44583875547688
 20
-136.1804771881771
 30
0.0
  0
SEQEND
  5
114
330
111
100
AcDbEntity
  8
_U+30EC_U+30A4_U+30E4_U+30FC 1
 62
   179
420
  2234388
370
     9
  0
INSERT
  5
116
330
1F
100
AcDbEntity
  8
_U+30EC_U+30A4_U+30E4_U+30FC 1
100
AcDbBlockReference
  2
block 10
 10
0.0
 20
0.0
 30
0.0
  0
POLYLINE
  5
121
330
1F
100
AcDbEntity
  8
_U+30EC_U+30A4_U+30E4_U+30FC 1
 62
   179
420
  2234388
370
     9
100
AcDb2dPolyline
 66
     1
 10
0.0
 20
0.0
 30
0.0
  0
VERTEX
  5
122
330
121
100
AcDbEntity
  8
_U+30EC_U+30A4_U+30E4_U+30FC 1
 62
   179
420
  2234388
370
     9
100
AcDbVertex
100
AcDb2dVertex
 10
107.9134847468976
 20
-152.8306357951256
 30
0.0
  0
VERTEX
  5
123
330
121
100
AcDbEntity
  8
_U+30EC_U+30A4_U+30E4_U+30FC 1
 62
   179
420
  2234388
370
     9
100
AcDbVertex
100
AcDb2dVertex
 10
108.6024950070973
 20
-151.7602374620599
 30
0.0
  0
SEQEND
  5
124
330
121
100
AcDbEntity
  8
_U+30EC_U+30A4_U+30E4_U+30FC 1
 62
   179
420
  2234388
370
     9
  0
POLYLINE
  5
125
330
1F
100
AcDbEntity
  8
_U+30EC_U+30A4_U+30E4_U+30FC 1
 62
   179
420
  2234388
370
     9
100
AcDb2dPolyline
 66
     1
 10
0.0
 20
0.0
 30
0.0
  0
VERTEX
  5
126
330
125
100
AcDbEntity
  8
_U+30EC_U+30A4_U+30E4_U+30FC 1
 62
   179
420
  2234388
370
     9
100
AcDbVertex
100
AcDb2dVertex
 10
107.9134847468976
 20
-152.8306357951256
 30
0.0
  0
VERTEX
  5
127
330
125
100
AcDbEntity
  8
_U+30EC_U+30A4_U+30E4_U+30FC 1
 62
   179
420
  2234388
370
     9
100
AcDbVertex
100
AcDb2dVertex
 10
112.3659282444175
 20
-148.5848846850759
 30
0.0
  0
VERTEX
  5
128
330
125
100
AcDbEntity
  8
_U+30EC_U+30A4_U+30E4_U+30FC 1
 62
   179
420
  2234388
370
     9
100
AcDbVertex
100
AcDb2dVertex
 10
116.9444545164984
 20
-148.5848846850759
 30
0.0
  0
SEQEND
  5
129
330
125
100
AcDbEntity
  8
_U+30EC_U+30A4_U+30E4_U+30FC 1
 62
   179
420
  2234388
370
     9
  0
POLYLINE
  5
12A
330
1F
100
AcDbEntity
  8
_U+30EC_U+30A4_U+30E4_U+30FC 1
 62
   179
420
  2234388
370
     9
100
AcDb2dPolyline
 66
     1
 10
0.0
 20
0.0
 30
0.0
  0
VERTEX
  5
12B
330
12A
100
AcDbEntity
  8
_U+30EC_U+30A4_U+30E4_U+30FC 1
 62
   179
420
  2234388
370
     9
100
AcDbVertex
100
AcDb2dVertex
 10
107.9134847468976
 20
-152.8306357951256
 30
0.0
  0
VERTEX
  5
12C
330
12A
100
AcDbEntity
  8
_U+30EC_U+30A4_U+30E4_U+30FC 1
 62
   179
420
  2234388
370
     9
100
AcDbVertex
100
AcDb2dVertex
 10
108.9835302751541
 20
-152.1416255175199
 30
0.0
  0
SEQEND
  5
12D
330
12A
100
AcDbEntity
  8
_U+30EC_U+30A4_U+30E4_U+30FC 1
 62
   179
420
  2234388
370
     9
  0
INSERT
  5
12F
330
1F
100
AcDbEntity
  8
_U+30EC_U+30A4_U+30E4_U+30FC 1
100
AcDbBlockReference
  2
block 11
 10
0.0
 20
0.0
 30
0.0
  0
SPLINE
  5
141
330
1F
100
AcDbEntity
  8
_U+30EC_U+30A4_U+30E4_U+30FC 1
 62
   179
420
  2234388
370
    25
100
AcDbSpline
210
0.0
220
0.0
230
1.0
 70
    11
 71
     3
 72
    80
 73
    76
 74
     0
 42
0.0000000001
 43
0.0000000001
 12
1.0
 22
0.0
 32
0.0
 13
1.0
 23
0.0
 33
0.0
 40
0.0
 40
0.0
 40
0.0
 40
0.0
 40
1.0
 40
1.0
 40
1.0
 40
2.0
 40
2.0
 40
2.0
 40
3.0
 40
3.0
 40
3.0
 40
4.0
 40
4.0
 40
4.0
 40
5.0
 40
5.0
 40
5.0
 40
6.0
 40
6.0
 40
6.0
 40
7.0
 40
7.0
 40
7.0
 40
8.0
 40
8.0
 40
8.0
 40
9.0
 40
9.0
 40
9.0
 40
10.0
 40
10.0
 40
10.0
 40
11.0
 40
11.0
 40
11.0
 40
12.0
 40
12.0
 40
12.0
 40
13.0
 40
13.0
 40
13.0
 40
14.0
 40
14.0
 40
14.0
 40
15.0
 40
15.0
 40
15.0
 40
16.0
 40
16.0
 40
16.0
 40
17.0
 40
17.0
 40
17.0
 40
18.0
 40
18.0
 40
18.0
 40
19.0
 40
19.0
 40
19.0
 40
20.0
 40
20.0
 40
20.0
 40
21.0
 40
21.0
 40
21.0
 40
22.0
 40
22.0
 40
22.0
 40
23.0
 40
23.0
 40
23.0
 40
24.0
 40
24.0
 40
24.0
 40
25.0
 40
25.0
 40
25.0
 40
25.0
 10
108.2800208486576
 20
-153.9244585726299
 30
0.0
 10
108.2800208486576
 20
-153.0959246839483
 30
0.0
 10
107.6082614213512
 20
-152.4244474618936
 30
0.0
 10
106.7800450535919
 20
-152.4244474618936
 30
0.0
 10
106.7800450535919
 20
-152.4244474618936
 30
0.0
 10
106.7662514428327
 20
-152.4127352396744
 30
0.0
 10
106.7662514428327
 20
-152.4127352396744
 30
0.0
 10
106.7662514428327
 20
-152.4127352396744
 30
0.0
 10
106.7765878314579
 20
-152.4251530174491
 30
0.0
 10
106.7765878314579
 20
-152.4251530174491
 30
0.0
 10
90.20827408748409
 20
-152.4251530174491
 30
0.0
 10
76.77636637460505
 20
-138.9934213541407
 30
0.0
 10
76.77636637460505
 20
-122.4252483027269
 30
0.0
 10
76.77636637460505
 20
-122.4252483027269
 30
0.0
 10
76.77636637460505
 20
-122.4193921916173
 30
0.0
 10
76.77636637460505
 20
-122.4193921916173
 30
0.0
 10
76.77636637460505
 20
-122.4193921916173
 30
0.0
 10
69.77626942700044
 20
-122.4193921916173
 30
0.0
 10
69.77626942700044
 20
-122.4193921916173
 30
0.0
 10
69.77626942700044
 20
-122.4193921916173
 30
0.0
 10
69.77626942700044
 20
-108.3989096951225
 30
0.0
 10
69.77626942700044
 20
-108.3989096951225
 30
0.0
 10
69.77626942700044
 20
-108.3989096951225
 30
0.0
 10
68.57632936158319
 20
-108.3989096951225
 30
0.0
 10
68.57632936158319
 20
-108.3989096951225
 30
0.0
 10
68.57632936158319
 20
-108.3989096951225
 30
0.0
 10
68.57632936158319
 20
-123.6193305246509
 30
0.0
 10
68.57632936158319
 20
-123.6193305246509
 30
0.0
 10
68.57632936158319
 20
-123.6193305246509
 30
0.0
 10
73.5762134006922
 20
-123.6193305246509
 30
0.0
 10
73.5762134006922
 20
-123.6193305246509
 30
0.0
 10
73.5762134006922
 20
-123.6193305246509
 30
0.0
 10
73.57586062292341
 20
-123.6193305246509
 30
0.0
 10
73.57586062292341
 20
-123.6193305246509
 30
0.0
 10
73.57586062292341
 20
-123.6193305246509
 30
0.0
 10
73.57586062292341
 20
-124.8192688576841
 30
0.0
 10
73.57586062292341
 20
-124.8192688576841
 30
0.0
 10
73.57586062292341
 20
-124.8192688576841
 30
0.0
 10
74.77615170341255
 20
-124.8192688576841
 30
0.0
 10
74.77615170341255
 20
-124.8192688576841
 30
0.0
 10
74.77615170341255
 20
-124.8192688576841
 30
0.0
 10
74.77615170341255
 20
-123.6193305246509
 30
0.0
 10
74.77615170341255
 20
-123.6193305246509
 30
0.0
 10
74.77615170341255
 20
-123.6193305246509
 30
0.0
 10
75.57607529411591
 20
-123.6193305246509
 30
0.0
 10
75.57607529411591
 20
-123.6193305246509
 30
0.0
 10
75.57607529411591
 20
-123.6193305246509
 30
0.0
 10
75.59847668243329
 20
-123.6220821913166
 30
0.0
 10
75.59847668243329
 20
-123.6220821913166
 30
0.0
 10
76.07253944811671
 20
-136.191519132619
 30
0.0
 10
83.98351035740215
 20
-146.8585666299518
 30
0.0
 10
95.05914719845771
 20
-151.349604128829
 30
0.0
 10
95.05914719845771
 20
-151.6737716287481
 30
0.0
 10
94.67535786240818
 20
-152.4237771841163
 30
0.0
 10
94.03594815649865
 20
-152.4237771841163
 30
0.0
 10
94.03594815649865
 20
-152.4237771841163
 30
0.0
 10
92.32441386580791
 20
-151.6665396843053
 30
0.0
 10
92.32441386580791
 20
-151.6665396843053
 30
0.0
 10
92.32441386580791
 20
-151.6665396843053
 30
0.0
 10
92.02952459657567
 20
-152.4244474618936
 30
0.0
 10
91.32414544790473
 20
-152.4244474618936
 30
0.0
 10
91.32414544790473
 20
-152.4244474618936
 30
0.0
 10
89.82413437506209
 20
-152.4244474618936
 30
0.0
 10
89.82413437506209
 20
-152.4244474618936
 30
0.0
 10
89.82413437506209
 20
-152.4244474618936
 30
0.0
 10
89.78416465385958
 20
-152.4244474618936
 30
0.0
 10
89.78416465385958
 20
-152.4244474618936
 30
0.0
 10
88.95563078610834
 20
-152.4244474618936
 30
0.0
 10
88.28418885879381
 20
-153.0959246839483
 30
0.0
 10
88.28418885879381
 20
-153.9244585726299
 30
0.0
 10
88.28418885879381
 20
-153.9244585726299
 30
0.0
 10
103.2798193095567
 20
-153.9244585726299
 30
0.0
 10
103.2798193095567
 20
-153.9244585726299
 30
0.0
 10
103.2798193095567
 20
-153.9244585726299
 30
0.0
 10
108.2800208486576
 20
-153.9244585726299
 30
0.0
 10
108.2800208486576
 20
-153.9244585726299
 30
0.0
  0
ENDSEC
  0
SECTION
  2
OBJECTS
  0
DICTIONARY
  5
C
330
0
100
AcDbDictionary
281
     1
  3
ACAD_GROUP
350
D
  3
ACAD_LAYOUT
350
1A
  3
ACAD_MATERIAL
350
3B
  3
ACAD_MLEADERSTYLE
350
143
  3
ACAD_MLINESTYLE
350
17
  3
ACAD_PLOTSETTINGS
350
19
  3
ACAD_PLOTSTYLENAME
350
E
  3
ACAD_TABLESTYLE
350
142
  3
ACAD_VISUALSTYLE
350
2A
  0
SUN
  5
3F
330
29
100
AcDbSun
 90
        1
290
     0
 63
     7
421
 16777215
 40
1.0
291
     1
 91
  2455826
 92
 54000000
292
     0
 70
     2
 71
   256
280
     1
  0
DICTIONARY
  5
D
102
{ACAD_REACTORS
330
C
102
}
330
C
100
AcDbDictionary
281
     1
  0
DICTIONARY
  5
1A
102
{ACAD_REACTORS
330
C
102
}
330
C
100
AcDbDictionary
281
     1
  3
Layout1
350
1E
  3
Layout2
350
26
  3
Model
350
22
  0
DICTIONARY
  5
3B
102
{ACAD_REACTORS
330
C
102
}
330
C
100
AcDbDictionary
281
     1
  3
ByBlock
350
3D
  3
ByLayer
350
3C
  3
Global
350
3E
  0
DICTIONARY
  5
143
102
{ACAD_REACTORS
330
C
102
}
330
C
100
AcDbDictionary
281
     1
  0
DICTIONARY
  5
17
102
{ACAD_REACTORS
330
C
102
}
330
C
100
AcDbDictionary
281
     1
  3
Standard
350
18
  0
DICTIONARY
  5
19
102
{ACAD_REACTORS
330
C
102
}
330
C
100
AcDbDictionary
281
     1
  0
ACDBDICTIONARYWDFLT
  5
E
102
{ACAD_REACTORS
330
C
102
}
330
C
100
AcDbDictionary
281
     1
  3
Normal
350
F
100
AcDbDictionaryWithDefault
340
F
  0
DICTIONARY
  5
142
102
{ACAD_REACTORS
330
C
102
}
330
C
100
AcDbDictionary
281
     1
  0
DICTIONARY
  5
2A
102
{ACAD_REACTORS
330
C
102
}
330
C
100
AcDbDictionary
281
     1
  3
2dWireframe
350
2F
  3
3D Hidden
350
31
  3
3dWireframe
350
30
  3
Basic
350
32
  3
Brighten
350
36
  3
ColorChange
350
3A
  3
Conceptual
350
34
  3
Dim
350
35
  3
Facepattern
350
39
  3
Flat
350
2B
  3
FlatWithEdges
350
2C
  3
Gouraud
350
2D
  3
GouraudWithEdges
350
2E
  3
Linepattern
350
38
  3
Realistic
350
33
  3
Thicken
350
37
  0
LAYOUT
  5
1E
102
{ACAD_REACTORS
330
1A
102
}
330
1A
100
AcDbPlotSettings
  1

  2
none_device
  4

  6

 40
0.0
 41
0.0
 42
0.0
 43
0.0
 44
0.0
 45
0.0
 46
0.0
 47
0.0
 48
0.0
 49
0.0
140
0.0
141
0.0
142
1.0
143
1.0
 70
   688
 72
     0
 73
     0
 74
     5
  7

 75
    16
 76
     0
 77
     2
 78
   300
147
1.0
148
0.0
149
0.0
100
AcDbLayout
  1
Layout1
 70
     1
 71
     1
 10
0.0
 20
0.0
 11
12.0
 21
9.0
 12
0.0
 22
0.0
 32
0.0
 14
1.000000000000000E+20
 24
1.000000000000000E+20
 34
1.000000000000000E+20
 15
-1.000000000000000E+20
 25
-1.000000000000000E+20
 35
-1.000000000000000E+20
146
0.0
 13
0.0
 23
0.0
 33
0.0
 16
1.0
 26
0.0
 36
0.0
 17
0.0
 27
1.0
 37
0.0
 76
     0
330
1B
  0
LAYOUT
  5
26
102
{ACAD_REACTORS
330
1A
102
}
330
1A
100
AcDbPlotSettings
  1

  2
none_device
  4

  6

 40
0.0
 41
0.0
 42
0.0
 43
0.0
 44
0.0
 45
0.0
 46
0.0
 47
0.0
 48
0.0
 49
0.0
140
0.0
141
0.0
142
1.0
143
1.0
 70
   688
 72
     0
 73
     0
 74
     5
  7

 75
    16
 76
     0
 77
     2
 78
   300
147
1.0
148
0.0
149
0.0
100
AcDbLayout
  1
Layout2
 70
     1
 71
     2
 10
0.0
 20
0.0
 11
0.0
 21
0.0
 12
0.0
 22
0.0
 32
0.0
 14
0.0
 24
0.0
 34
0.0
 15
0.0
 25
0.0
 35
0.0
146
0.0
 13
0.0
 23
0.0
 33
0.0
 16
1.0
 26
0.0
 36
0.0
 17
0.0
 27
1.0
 37
0.0
 76
     0
330
23
  0
LAYOUT
  5
22
102
{ACAD_REACTORS
330
1A
102
}
330
1A
100
AcDbPlotSettings
  1

  2
none_device
  4

  6

 40
0.0
 41
0.0
 42
0.0
 43
0.0
 44
0.0
 45
0.0
 46
0.0
 47
0.0
 48
0.0
 49
0.0
140
0.0
141
0.0
142
1.0
143
1.0
 70
  1712
 72
     0
 73
     0
 74
     0
  7

 75
     0
 76
     0
 77
     2
 78
   300
147
1.0
148
0.0
149
0.0
100
AcDbLayout
  1
Model
 70
     1
 71
     0
 10
0.0
 20
0.0
 11
12.0
 21
9.0
 12
0.0
 22
0.0
 32
0.0
 14
1.000000000000000E+20
 24
1.000000000000000E+20
 34
1.000000000000000E+20
 15
-1.000000000000000E+20
 25
-1.000000000000000E+20
 35
-1.000000000000000E+20
146
0.0
 13
0.0
 23
0.0
 33
0.0
 16
1.0
 26
0.0
 36
0.0
 17
0.0
 27
1.0
 37
0.0
 76
     0
330
1F
331
29
  0
MATERIAL
  5
3D
102
{ACAD_REACTORS
330
3B
102
}
330
3B
100
AcDbMaterial
  1
ByBlock
 72
     1
 94
      127
  0
MATERIAL
  5
3C
102
{ACAD_REACTORS
330
3B
102
}
330
3B
100
AcDbMaterial
  1
ByLayer
 72
     1
 94
      127
  0
MATERIAL
  5
3E
102
{ACAD_REACTORS
330
3B
102
}
330
3B
100
AcDbMaterial
  1
Global
 72
     1
 94
      127
  0
MLINESTYLE
  5
18
102
{ACAD_REACTORS
330
17
102
}
330
17
100
AcDbMlineStyle
  2
Standard
 70
     0
  3

 62
   256
 51
90.0
 52
90.0
 71
     2
 49
0.5
 62
   256
  6
BYLAYER
 49
-0.5
 62
   256
  6
BYLAYER
  0
ACDBPLACEHOLDER
  5
F
102
{ACAD_REACTORS
330
E
102
}
330
E
  0
VISUALSTYLE
  5
2F
102
{ACAD_REACTORS
330
2A
102
}
330
2A
100
AcDbVisualStyle
  2
2dWireframe
 70
     4
177
     2
291
     0
 71
     0
176
     1
 72
     2
176
     1
 73
     0
176
     1
 90
        0
176
     1
 40
-0.6
176
     1
 41
-30.0
176
     1
 62
     5
 63
     7
421
 16777215
176
     1
 74
     1
176
     1
 91
        4
176
     1
 64
     7
176
     1
 65
   257
176
     1
 75
     1
176
     1
175
     1
176
     1
 42
1.0
176
     1
 92
        0
176
     1
 66
   257
176
     1
 43
1.0
176
     1
 76
     1
176
     1
 77
     6
176
     1
 78
     2
176
     1
 67
     7
176
     1
 79
     5
176
     1
170
     0
176
     1
171
     0
176
     1
290
     0
176
     1
 93
        1
176
     1
 44
0.0
176
     1
173
     0
176
     1
  0
VISUALSTYLE
  5
31
102
{ACAD_REACTORS
330
2A
102
}
330
2A
100
AcDbVisualStyle
  2
3D Hidden
 70
     6
177
     2
291
     0
 71
     1
176
     1
 72
     2
176
     1
 73
     2
176
     1
 90
        0
176
     1
 40
-0.6
176
     1
 41
-30.0
176
     1
 62
     5
 63
     7
421
 16777215
176
     1
 74
     2
176
     1
 91
        2
176
     1
 64
     7
176
     1
 65
   257
176
     1
 75
     2
176
     1
175
     1
176
     1
 42
40.0
176
     1
 92
        0
176
     1
 66
   257
176
     1
 43
1.0
176
     1
 76
     1
176
     1
 77
     6
176
     1
 78
     2
176
     1
 67
     7
176
     1
 79
     3
176
     1
170
     0
176
     1
171
     0
176
     1
290
     0
176
     1
 93
        1
176
     1
 44
0.0
176
     1
173
     0
176
     1
  0
VISUALSTYLE
  5
30
102
{ACAD_REACTORS
330
2A
102
}
330
2A
100
AcDbVisualStyle
  2
3dWireframe
 70
     5
177
     2
291
     0
 71
     0
176
     1
 72
     2
176
     1
 73
     0
176
     1
 90
        0
176
     1
 40
-0.6
176
     1
 41
-30.0
176
     1
 62
     5
 63
     7
421
 16777215
176
     1
 74
     1
176
     1
 91
        4
176
     1
 64
     7
176
     1
 65
   257
176
     1
 75
     1
176
     1
175
     1
176
     1
 42
1.0
176
     1
 92
        0
176
     1
 66
   257
176
     1
 43
1.0
176
     1
 76
     1
176
     1
 77
     6
176
     1
 78
     2
176
     1
 67
     7
176
     1
 79
     5
176
     1
170
     0
176
     1
171
     0
176
     1
290
     0
176
     1
 93
        1
176
     1
 44
0.0
176
     1
173
     0
176
     1
  0
VISUALSTYLE
  5
32
102
{ACAD_REACTORS
330
2A
102
}
330
2A
100
AcDbVisualStyle
  2
Basic
 70
     7
177
     2
291
     1
 71
     1
176
     1
 72
     0
176
     1
 73
     1
176
     1
 90
        0
176
     1
 40
-0.6
176
     1
 41
-30.0
176
     1
 62
     5
 63
     7
421
 16777215
176
     1
 74
     0
176
     1
 91
        4
176
     1
 64
     7
176
     1
 65
   257
176
     1
 75
     1
176
     1
175
     1
176
     1
 42
1.0
176
     1
 92
        8
176
     1
 66
     7
176
     1
 43
1.0
176
     1
 76
     1
176
     1
 77
     6
176
     1
 78
     2
176
     1
 67
     7
176
     1
 79
     5
176
     1
170
     0
176
     1
171
     0
176
     1
290
     0
176
     1
 93
        1
176
     1
 44
0.0
176
     1
173
     0
176
     1
  0
VISUALSTYLE
  5
36
102
{ACAD_REACTORS
330
2A
102
}
330
2A
100
AcDbVisualStyle
  2
Brighten
 70
    12
177
     2
291
     1
 71
     2
176
     1
 72
     2
176
     1
 73
     0
176
     1
 90
        0
176
     1
 40
-0.6
176
     1
 41
-30.0
176
     1
 62
     5
 63
     7
421
 16777215
176
     1
 74
     1
176
     1
 91
        4
176
     1
 64
     7
176
     1
 65
   257
176
     1
 75
     1
176
     1
175
     1
176
     1
 42
1.0
176
     1
 92
        8
176
     1
 66
     7
176
     1
 43
1.0
176
     1
 76
     1
176
     1
 77
     6
176
     1
 78
     2
176
     1
 67
     7
176
     1
 79
     5
176
     1
170
     0
176
     1
171
     0
176
     1
290
     0
176
     1
 93
        1
176
     1
 44
50.0
176
     1
173
     0
176
     1
  0
VISUALSTYLE
  5
3A
102
{ACAD_REACTORS
330
2A
102
}
330
2A
100
AcDbVisualStyle
  2
ColorChange
 70
    16
177
     2
291
     1
 71
     2
176
     1
 72
     2
176
     1
 73
     3
176
     1
 90
        0
176
     1
 40
-0.6
176
     1
 41
-30.0
176
     1
 62
     5
 63
     8
421
  8421504
176
     1
 74
     1
176
     1
 91
        4
176
     1
 64
     7
176
     1
 65
   257
176
     1
 75
     1
176
     1
175
     1
176
     1
 42
1.0
176
     1
 92
        8
176
     1
 66
     8
424
  8421504
176
     1
 43
1.0
176
     1
 76
     1
176
     1
 77
     6
176
     1
 78
     2
176
     1
 67
     7
176
     1
 79
     5
176
     1
170
     0
176
     1
171
     0
176
     1
290
     0
176
     1
 93
        1
176
     1
 44
0.0
176
     1
173
     0
176
     1
  0
VISUALSTYLE
  5
34
102
{ACAD_REACTORS
330
2A
102
}
330
2A
100
AcDbVisualStyle
  2
Conceptual
 70
     9
177
     2
291
     0
 71
     3
176
     1
 72
     2
176
     1
 73
     0
176
     1
 90
        0
176
     1
 40
-0.6
176
     1
 41
-30.0
176
     1
 62
     5
 63
     7
421
 16777215
176
     1
 74
     2
176
     1
 91
        2
176
     1
 64
     7
176
     1
 65
   257
176
     1
 75
     1
176
     1
175
     1
176
     1
 42
40.0
176
     1
 92
        8
176
     1
 66
     7
176
     1
 43
1.0
176
     1
 76
     1
176
     1
 77
     6
176
     1
 78
     2
176
     1
 67
     7
176
     1
 79
     3
176
     1
170
     0
176
     1
171
     0
176
     1
290
     0
176
     1
 93
        1
176
     1
 44
0.0
176
     1
173
     0
176
     1
  0
VISUALSTYLE
  5
35
102
{ACAD_REACTORS
330
2A
102
}
330
2A
100
AcDbVisualStyle
  2
Dim
 70
    11
177
     2
291
     1
 71
     2
176
     1
 72
     2
176
     1
 73
     0
176
     1
 90
        0
176
     1
 40
-0.6
176
     1
 41
-30.0
176
     1
 62
     5
 63
     7
421
 16777215
176
     1
 74
     1
176
     1
 91
        4
176
     1
 64
     7
176
     1
 65
   257
176
     1
 75
     1
176
     1
175
     1
176
     1
 42
1.0
176
     1
 92
        8
176
     1
 66
     7
176
     1
 43
1.0
176
     1
 76
     1
176
     1
 77
     6
176
     1
 78
     2
176
     1
 67
     7
176
     1
 79
     5
176
     1
170
     0
176
     1
171
     0
176
     1
290
     0
176
     1
 93
        1
176
     1
 44
-50.0
176
     1
173
     0
176
     1
  0
VISUALSTYLE
  5
39
102
{ACAD_REACTORS
330
2A
102
}
330
2A
100
AcDbVisualStyle
  2
Facepattern
 70
    15
177
     2
291
     1
 71
     2
176
     1
 72
     2
176
     1
 73
     0
176
     1
 90
        0
176
     1
 40
-0.6
176
     1
 41
-30.0
176
     1
 62
     5
 63
     7
421
 16777215
176
     1
 74
     1
176
     1
 91
        4
176
     1
 64
     7
176
     1
 65
   257
176
     1
 75
     1
176
     1
175
     1
176
     1
 42
1.0
176
     1
 92
        8
176
     1
 66
     7
176
     1
 43
1.0
176
     1
 76
     1
176
     1
 77
     6
176
     1
 78
     2
176
     1
 67
     7
176
     1
 79
     5
176
     1
170
     0
176
     1
171
     0
176
     1
290
     0
176
     1
 93
        1
176
     1
 44
0.0
176
     1
173
     0
176
     1
  0
VISUALSTYLE
  5
2B
102
{ACAD_REACTORS
330
2A
102
}
330
2A
100
AcDbVisualStyle
  2
Flat
 70
     0
177
     2
291
     1
 71
     2
176
     1
 72
     1
176
     1
 73
     1
176
     1
 90
        2
176
     1
 40
-0.6
176
     1
 41
30.0
176
     1
 62
     5
 63
     7
421
 16777215
176
     1
 74
     0
176
     1
 91
        4
176
     1
 64
     7
176
     1
 65
   257
176
     1
 75
     1
176
     1
175
     1
176
     1
 42
1.0
176
     1
 92
        8
176
     1
 66
     7
176
     1
 43
1.0
176
     1
 76
     1
176
     1
 77
     6
176
     1
 78
     2
176
     1
 67
     7
176
     1
 79
     5
176
     1
170
     0
176
     1
171
     0
176
     1
290
     0
176
     1
 93
       13
176
     1
 44
0.0
176
     1
173
     0
176
     1
  0
VISUALSTYLE
  5
2C
102
{ACAD_REACTORS
330
2A
102
}
330
2A
100
AcDbVisualStyle
  2
FlatWithEdges
 70
     1
177
     2
291
     1
 71
     2
176
     1
 72
     1
176
     1
 73
     1
176
     1
 90
        2
176
     1
 40
-0.6
176
     1
 41
30.0
176
     1
 62
     5
 63
     7
421
 16777215
176
     1
 74
     1
176
     1
 91
        4
176
     1
 64
     7
176
     1
 65
   257
176
     1
 75
     1
176
     1
175
     1
176
     1
 42
1.0
176
     1
 92
        0
176
     1
 66
   257
176
     1
 43
1.0
176
     1
 76
     1
176
     1
 77
     6
176
     1
 78
     2
176
     1
 67
     7
176
     1
 79
     5
176
     1
170
     0
176
     1
171
     0
176
     1
290
     0
176
     1
 93
       13
176
     1
 44
0.0
176
     1
173
     0
176
     1
  0
VISUALSTYLE
  5
2D
102
{ACAD_REACTORS
330
2A
102
}
330
2A
100
AcDbVisualStyle
  2
Gouraud
 70
     2
177
     2
291
     1
 71
     2
176
     1
 72
     2
176
     1
 73
     1
176
     1
 90
        2
176
     1
 40
-0.6
176
     1
 41
30.0
176
     1
 62
     5
 63
     7
421
 16777215
176
     1
 74
     0
176
     1
 91
        4
176
     1
 64
     7
176
     1
 65
   257
176
     1
 75
     1
176
     1
175
     1
176
     1
 42
1.0
176
     1
 92
        0
176
     1
 66
     7
176
     1
 43
1.0
176
     1
 76
     1
176
     1
 77
     6
176
     1
 78
     2
176
     1
 67
     7
176
     1
 79
     5
176
     1
170
     0
176
     1
171
     0
176
     1
290
     0
176
     1
 93
       13
176
     1
 44
0.0
176
     1
173
     0
176
     1
  0
VISUALSTYLE
  5
2E
102
{ACAD_REACTORS
330
2A
102
}
330
2A
100
AcDbVisualStyle
  2
GouraudWithEdges
 70
     3
177
     2
291
     1
 71
     2
176
     1
 72
     2
176
     1
 73
     1
176
     1
 90
        2
176
     1
 40
-0.6
176
     1
 41
30.0
176
     1
 62
     5
 63
     7
421
 16777215
176
     1
 74
     1
176
     1
 91
        4
176
     1
 64
     7
176
     1
 65
   257
176
     1
 75
     1
176
     1
175
     1
176
     1
 42
1.0
176
     1
 92
        0
176
     1
 66
   257
176
     1
 43
1.0
176
     1
 76
     1
176
     1
 77
     6
176
     1
 78
     2
176
     1
 67
     7
176
     1
 79
     5
176
     1
170
     0
176
     1
171
     0
176
     1
290
     0
176
     1
 93
       13
176
     1
 44
0.0
176
     1
173
     0
176
     1
  0
VISUALSTYLE
  5
38
102
{ACAD_REACTORS
330
2A
102
}
330
2A
100
AcDbVisualStyle
  2
Linepattern
 70
    14
177
     2
291
     1
 71
     2
176
     1
 72
     2
176
     1
 73
     0
176
     1
 90
        0
176
     1
 40
-0.6
176
     1
 41
-30.0
176
     1
 62
     5
 63
     7
421
 16777215
176
     1
 74
     1
176
     1
 91
        4
176
     1
 64
     7
176
     1
 65
   257
176
     1
 75
     7
176
     1
175
     7
176
     1
 42
1.0
176
     1
 92
        8
176
     1
 66
     7
176
     1
 43
1.0
176
     1
 76
     1
176
     1
 77
     6
176
     1
 78
     2
176
     1
 67
     7
176
     1
 79
     5
176
     1
170
     0
176
     1
171
     0
176
     1
290
     0
176
     1
 93
        1
176
     1
 44
0.0
176
     1
173
     0
176
     1
  0
VISUALSTYLE
  5
33
102
{ACAD_REACTORS
330
2A
102
}
330
2A
100
AcDbVisualStyle
  2
Realistic
 70
     8
177
     2
291
     0
 71
     2
176
     1
 72
     2
176
     1
 73
     0
176
     1
 90
        0
176
     1
 40
-0.6
176
     1
 41
-30.0
176
     1
 62
     5
 63
     7
421
 16777215
176
     1
 74
     1
176
     1
 91
        0
176
     1
 64
     7
176
     1
 65
   257
176
     1
 75
     1
176
     1
175
     1
176
     1
 42
1.0
176
     1
 92
        8
176
     1
 66
     8
424
  7895160
176
     1
 43
1.0
176
     1
 76
     1
176
     1
 77
     6
176
     1
 78
     2
176
     1
 67
     7
176
     1
 79
     5
176
     1
170
     0
176
     1
171
     0
176
     1
290
     0
176
     1
 93
       13
176
     1
 44
0.0
176
     1
173
     0
176
     1
  0
VISUALSTYLE
  5
37
102
{ACAD_REACTORS
330
2A
102
}
330
2A
100
AcDbVisualStyle
  2
Thicken
 70
    13
177
     2
291
     1
 71
     2
176
     1
 72
     2
176
     1
 73
     0
176
     1
 90
        0
176
     1
 40
-0.6
176
     1
 41
-30.0
176
     1
 62
     5
 63
     7
421
 16777215
176
     1
 74
     1
176
     1
 91
        4
176
     1
 64
     7
176
     1
 65
   257
176
     1
 75
     1
176
     1
175
     1
176
     1
 42
1.0
176
     1
 92
       12
176
     1
 66
     7
176
     1
 43
1.0
176
     1
 76
     1
176
     1
 77
     6
176
     1
 78
     2
176
     1
 67
     7
176
     1
 79
     5
176
     1
170
     0
176
     1
171
     0
176
     1
290
     0
176
     1
 93
        1
176
     1
 44
0.0
176
     1
173
     0
176
     1
  0
ENDSEC
  0
EOF
