  0
SECTION
  2
HEADER
  9
$ACADVER
  1
AC1024
  9
$ACADMAINTVER
 70
     6
  9
$DWGCODEPAGE
  3
UNDEFINED
  9
$INSBASE
 10
0.0
 20
0.0
 30
0.0
  9
$EXTMIN
 10
1.000000000000000E+20
 20
1.000000000000000E+20
 30
1.000000000000000E+20
  9
$EXTMAX
 10
-1.000000000000000E+20
 20
-1.000000000000000E+20
 30
-1.000000000000000E+20
  9
$LIMMIN
 10
0.0
 20
0.0
  9
$LIMMAX
 10
12.0
 20
9.0
  9
$ORTHOMODE
 70
     0
  9
$REGENMODE
 70
     1
  9
$FILLMODE
 70
     1
  9
$QTEXTMODE
 70
     0
  9
$MIRRTEXT
 70
     1
  9
$LTSCALE
 40
1.0
  9
$ATTMODE
 70
     1
  9
$TEXTSIZE
 40
0.2
  9
$TRACEWID
 40
0.05
  9
$TEXTSTYLE
  7
Standard
  9
$CLAYER
  8
0
  9
$CELTYPE
  6
ByLayer
  9
$CECOLOR
 62
   256
  9
$CELTSCALE
 40
1.0
  9
$DISPSILH
 70
     0
  9
$DIMSCALE
 40
1.0
  9
$DIMASZ
 40
0.18
  9
$DIMEXO
 40
0.0625
  9
$DIMDLI
 40
0.38
  9
$DIMRND
 40
0.0
  9
$DIMDLE
 40
0.0
  9
$DIMEXE
 40
0.18
  9
$DIMTP
 40
0.0
  9
$DIMTM
 40
0.0
  9
$DIMTXT
 40
0.18
  9
$DIMCEN
 40
0.09
  9
$DIMTSZ
 40
0.0
  9
$DIMTOL
 70
     0
  9
$DIMLIM
 70
     0
  9
$DIMTIH
 70
     1
  9
$DIMTOH
 70
     1
  9
$DIMSE1
 70
     0
  9
$DIMSE2
 70
     0
  9
$DIMTAD
 70
     0
  9
$DIMZIN
 70
     0
  9
$DIMBLK
  1

  9
$DIMASO
 70
     1
  9
$DIMSHO
 70
     1
  9
$DIMPOST
  1

  9
$DIMAPOST
  1

  9
$DIMALT
 70
     0
  9
$DIMALTD
 70
     2
  9
$DIMALTF
 40
25.4
  9
$DIMLFAC
 40
1.0
  9
$DIMTOFL
 70
     0
  9
$DIMTVP
 40
0.0
  9
$DIMTIX
 70
     0
  9
$DIMSOXD
 70
     0
  9
$DIMSAH
 70
     0
  9
$DIMBLK1
  1

  9
$DIMBLK2
  1

  9
$DIMSTYLE
  2
Standard
  9
$DIMCLRD
 70
     0
  9
$DIMCLRE
 70
     0
  9
$DIMCLRT
 70
     0
  9
$DIMTFAC
 40
1.0
  9
$DIMGAP
 40
0.09
  9
$DIMJUST
 70
     0
  9
$DIMSD1
 70
     0
  9
$DIMSD2
 70
     0
  9
$DIMTOLJ
 70
     1
  9
$DIMTZIN
 70
     0
  9
$DIMALTZ
 70
     0
  9
$DIMALTTZ
 70
     0
  9
$DIMUPT
 70
     0
  9
$DIMDEC
 70
     4
  9
$DIMTDEC
 70
     4
  9
$DIMALTU
 70
     2
  9
$DIMALTTD
 70
     2
  9
$DIMTXSTY
  7
Standard
  9
$DIMAUNIT
 70
     0
  9
$DIMADEC
 70
     0
  9
$DIMALTRND
 40
0.0
  9
$DIMAZIN
 70
     0
  9
$DIMDSEP
 70
    46
  9
$DIMATFIT
 70
     3
  9
$DIMFRAC
 70
     0
  9
$DIMLDRBLK
  1

  9
$DIMLUNIT
 70
     2
  9
$DIMLWD
 70
    -2
  9
$DIMLWE
 70
    -2
  9
$DIMTMOVE
 70
     0
  9
$DIMFXL
 40
1.0
  9
$DIMFXLON
 70
     0
  9
$DIMJOGANG
 40
0.7853981633974483
  9
$DIMTFILL
 70
     0
  9
$DIMTFILLCLR
 70
     0
  9
$DIMARCSYM
 70
     0
  9
$DIMLTYPE
  6

  9
$DIMLTEX1
  6

  9
$DIMLTEX2
  6

  9
$DIMTXTDIRECTION
 70
     0
  9
$LUNITS
 70
     2
  9
$LUPREC
 70
     4
  9
$SKETCHINC
 40
0.1
  9
$FILLETRAD
 40
0.5
  9
$AUNITS
 70
     0
  9
$AUPREC
 70
     0
  9
$MENU
  1
.
  9
$ELEVATION
 40
0.0
  9
$PELEVATION
 40
0.0
  9
$THICKNESS
 40
0.0
  9
$LIMCHECK
 70
     0
  9
$CHAMFERA
 40
0.5
  9
$CHAMFERB
 40
0.5
  9
$CHAMFERC
 40
1.0
  9
$CHAMFERD
 40
0.0
  9
$SKPOLY
 70
     0
  9
$TDCREATE
 40
2457917.617361099
  9
$TDUCREATE
 40
2457917.242361111
  9
$TDUPDATE
 40
2457917.617361099
  9
$TDUUPDATE
 40
2457917.242361111
  9
$TDINDWG
 40
0.0000000116
  9
$TDUSRTIMER
 40
0.0000000116
  9
$USRTIMER
 70
     1
  9
$ANGBASE
 50
0.0
  9
$ANGDIR
 70
     0
  9
$PDMODE
 70
     0
  9
$PDSIZE
 40
0.0
  9
$PLINEWID
 40
0.0
  9
$SPLFRAME
 70
     0
  9
$SPLINETYPE
 70
     6
  9
$SPLINESEGS
 70
     8
  9
$HANDSEED
  5
23E
  9
$SURFTAB1
 70
     6
  9
$SURFTAB2
 70
     6
  9
$SURFTYPE
 70
     6
  9
$SURFU
 70
     6
  9
$SURFV
 70
     6
  9
$UCSBASE
  2

  9
$UCSNAME
  2

  9
$UCSORG
 10
0.0
 20
0.0
 30
0.0
  9
$UCSXDIR
 10
1.0
 20
0.0
 30
0.0
  9
$UCSYDIR
 10
0.0
 20
1.0
 30
0.0
  9
$UCSORTHOREF
  2

  9
$UCSORTHOVIEW
 70
     0
  9
$UCSORGTOP
 10
0.0
 20
0.0
 30
0.0
  9
$UCSORGBOTTOM
 10
0.0
 20
0.0
 30
0.0
  9
$UCSORGLEFT
 10
0.0
 20
0.0
 30
0.0
  9
$UCSORGRIGHT
 10
0.0
 20
0.0
 30
0.0
  9
$UCSORGFRONT
 10
0.0
 20
0.0
 30
0.0
  9
$UCSORGBACK
 10
0.0
 20
0.0
 30
0.0
  9
$PUCSBASE
  2

  9
$PUCSNAME
  2

  9
$PUCSORG
 10
0.0
 20
0.0
 30
0.0
  9
$PUCSXDIR
 10
1.0
 20
0.0
 30
0.0
  9
$PUCSYDIR
 10
0.0
 20
1.0
 30
0.0
  9
$PUCSORTHOREF
  2

  9
$PUCSORTHOVIEW
 70
     0
  9
$PUCSORGTOP
 10
0.0
 20
0.0
 30
0.0
  9
$PUCSORGBOTTOM
 10
0.0
 20
0.0
 30
0.0
  9
$PUCSORGLEFT
 10
0.0
 20
0.0
 30
0.0
  9
$PUCSORGRIGHT
 10
0.0
 20
0.0
 30
0.0
  9
$PUCSORGFRONT
 10
0.0
 20
0.0
 30
0.0
  9
$PUCSORGBACK
 10
0.0
 20
0.0
 30
0.0
  9
$USERI1
 70
     0
  9
$USERI2
 70
     0
  9
$USERI3
 70
     0
  9
$USERI4
 70
     0
  9
$USERI5
 70
     0
  9
$USERR1
 40
0.0
  9
$USERR2
 40
0.0
  9
$USERR3
 40
0.0
  9
$USERR4
 40
0.0
  9
$USERR5
 40
0.0
  9
$WORLDVIEW
 70
     1
  9
$SHADEDGE
 70
     3
  9
$SHADEDIF
 70
    70
  9
$TILEMODE
 70
     1
  9
$MAXACTVP
 70
    64
  9
$PINSBASE
 10
0.0
 20
0.0
 30
0.0
  9
$PLIMCHECK
 70
     0
  9
$PEXTMIN
 10
1.000000000000000E+20
 20
1.000000000000000E+20
 30
1.000000000000000E+20
  9
$PEXTMAX
 10
-1.000000000000000E+20
 20
-1.000000000000000E+20
 30
-1.000000000000000E+20
  9
$PLIMMIN
 10
0.0
 20
0.0
  9
$PLIMMAX
 10
12.0
 20
9.0
  9
$UNITMODE
 70
     0
  9
$VISRETAIN
 70
     1
  9
$PLINEGEN
 70
     0
  9
$PSLTSCALE
 70
     1
  9
$TREEDEPTH
 70
  3020
  9
$CMLSTYLE
  2
Standard
  9
$CMLJUST
 70
     0
  9
$CMLSCALE
 40
1.0
  9
$PROXYGRAPHICS
 70
     1
  9
$MEASUREMENT
 70
     0
  9
$CELWEIGHT
370
    -1
  9
$ENDCAPS
280
     0
  9
$JOINSTYLE
280
     0
  9
$LWDISPLAY
290
     1
  9
$INSUNITS
 70
     1
  9
$HYPERLINKBASE
  1

  9
$STYLESHEET
  1

  9
$XEDIT
290
     1
  9
$CEPSNTYPE
380
     0
  9
$PSTYLEMODE
290
     1
  9
$FINGERPRINTGUID
  2
{DCE65D9C-C041-03B6-EE34-0AC85FDE8DEE}
  9
$VERSIONGUID
  2
{FAEB1C32-E019-11D5-929B-00C0DF256EC4}
  9
$EXTNAMES
290
     1
  9
$PSVPSCALE
 40
0.0
  9
$OLESTARTUP
290
     0
  9
$SORTENTS
280
   127
  9
$INDEXCTL
280
     0
  9
$HIDETEXT
280
     1
  9
$XCLIPFRAME
280
     2
  9
$HALOGAP
280
     0
  9
$OBSCOLOR
 70
   257
  9
$OBSLTYPE
280
     0
  9
$INTERSECTIONDISPLAY
280
     0
  9
$INTERSECTIONCOLOR
 70
   257
  9
$DIMASSOC
280
     2
  9
$PROJECTNAME
  1

  9
$CAMERADISPLAY
290
     0
  9
$LENSLENGTH
 40
50.0
  9
$CAMERAHEIGHT
 40
0.0
  9
$STEPSPERSEC
 40
2.0
  9
$STEPSIZE
 40
6.0
  9
$3DDWFPREC
 40
2.0
  9
$PSOLWIDTH
 40
0.25
  9
$PSOLHEIGHT
 40
4.0
  9
$LOFTANG1
 40
1.570796326794897
  9
$LOFTANG2
 40
1.570796326794897
  9
$LOFTMAG1
 40
0.0
  9
$LOFTMAG2
 40
0.0
  9
$LOFTPARAM
 70
     7
  9
$LOFTNORMALS
280
     1
  9
$LATITUDE
 40
37.795
  9
$LONGITUDE
 40
-122.394
  9
$NORTHDIRECTION
 40
0.0
  9
$TIMEZONE
 70
 -8000
  9
$LIGHTGLYPHDISPLAY
280
     1
  9
$TILEMODELIGHTSYNCH
280
     1
  9
$CMATERIAL
347
3C
  9
$SOLIDHIST
280
     1
  9
$SHOWHIST
280
     1
  9
$DWFFRAME
280
     2
  9
$DGNFRAME
280
     2
  9
$REALWORLDSCALE
290
     1
  9
$INTERFERECOLOR
 62
   256
  9
$CSHADOW
280
     0
  9
$SHADOWPLANELOCATION
 40
0.0
  0
ENDSEC
  0
SECTION
  2
CLASSES
  0
CLASS
  1
ACDBDICTIONARYWDFLT
  2
AcDbDictionaryWithDefault
  3
ObjectDBX Classes
 90
        0
 91
        4
280
     0
281
     0
  0
CLASS
  1
VISUALSTYLE
  2
AcDbVisualStyle
  3
ObjectDBX Classes
 90
     4095
 91
        4
280
     0
281
     0
  0
CLASS
  1
MATERIAL
  2
AcDbMaterial
  3
ObjectDBX Classes
 90
     1153
 91
        4
280
     0
281
     0
  0
CLASS
  1
SUN
  2
AcDbSun
  3
SCENEOE
 90
     1024
 91
        4
280
     0
281
     0
  0
ENDSEC
  0
SECTION
  2
TABLES
  0
TABLE
  2
VPORT
  5
8
330
0
100
AcDbSymbolTable
 70
     1
  0
VPORT
  5
29
330
8
100
AcDbSymbolTableRecord
100
AcDbViewportTableRecord
  2
*Active
 70
     0
 10
0.0
 20
0.0
 11
1.0
 21
1.0
 12
0.0
 22
0.0
 13
0.0
 23
0.0
 14
0.5
 24
0.5
 15
0.5
 25
0.5
 16
0.0
 26
0.0
 36
1.0
 17
91.00082462281999
 27
-128.4993055234307
 37
0.0
 40
256.9986110468615
 41
0.7081814508812795
 42
50.0
 43
0.0
 44
0.0
 50
0.0
 51
0.0
 71
     0
 72
   100
 73
     1
 74
     3
 75
     0
 76
     0
 77
     0
 78
     0
281
     0
 65
     1
110
0.0
120
0.0
130
0.0
111
1.0
121
0.0
131
0.0
112
0.0
122
1.0
132
0.0
 79
     0
146
0.0
 60
     3
 61
     5
292
     1
282
     1
141
0.0
142
0.0
 63
   250
361
3F
  0
ENDTAB
  0
TABLE
  2
LTYPE
  5
5
330
0
100
AcDbSymbolTable
 70
    15
  0
LTYPE
  5
14
330
5
100
AcDbSymbolTableRecord
100
AcDbLinetypeTableRecord
  2
ByBlock
 70
     0
  3

 72
    65
 73
     0
 40
0.0
  0
LTYPE
  5
15
330
5
100
AcDbSymbolTableRecord
100
AcDbLinetypeTableRecord
  2
ByLayer
 70
     0
  3

 72
    65
 73
     0
 40
0.0
  0
LTYPE
  5
16
330
5
100
AcDbSymbolTableRecord
100
AcDbLinetypeTableRecord
  2
Continuous
 70
     0
  3
Solid line
 72
    65
 73
     0
 40
0.0
  0
LTYPE
  5
56
330
5
100
AcDbSymbolTableRecord
100
AcDbLinetypeTableRecord
  2
AI-Linetype-1
 70
     0
  3
Adobe Illustrator Linetype No. 1
 72
    65
 73
     4
 40
2.822222221516667
 49
1.763888888447917
 74
     0
 49
-0.3527777776895833
 74
     0
 49
0.3527777776895833
 74
     0
 49
-0.3527777776895833
 74
     0
  0
LTYPE
  5
5B
330
5
100
AcDbSymbolTableRecord
100
AcDbLinetypeTableRecord
  2
AI-Linetype-2
 70
     0
  3
Adobe Illustrator Linetype No. 2
 72
    65
 73
     4
 40
2.822222221516667
 49
1.763888888447917
 74
     0
 49
-0.3527777776895833
 74
     0
 49
0.3527777776895833
 74
     0
 49
-0.3527777776895833
 74
     0
  0
LTYPE
  5
18D
330
5
100
AcDbSymbolTableRecord
100
AcDbLinetypeTableRecord
  2
AI-Linetype-3
 70
     0
  3
Adobe Illustrator Linetype No. 3
 72
    65
 73
     4
 40
2.822222221516667
 49
1.763888888447917
 74
     0
 49
-0.3527777776895833
 74
     0
 49
0.3527777776895833
 74
     0
 49
-0.3527777776895833
 74
     0
  0
LTYPE
  5
192
330
5
100
AcDbSymbolTableRecord
100
AcDbLinetypeTableRecord
  2
AI-Linetype-4
 70
     0
  3
Adobe Illustrator Linetype No. 4
 72
    65
 73
     2
 40
0.7055555553791667
 49
0.3527777776895833
 74
     0
 49
-0.3527777776895833
 74
     0
  0
LTYPE
  5
197
330
5
100
AcDbSymbolTableRecord
100
AcDbLinetypeTableRecord
  2
AI-Linetype-5
 70
     0
  3
Adobe Illustrator Linetype No. 5
 72
    65
 73
     2
 40
0.7055555553791667
 49
0.3527777776895833
 74
     0
 49
-0.3527777776895833
 74
     0
  0
LTYPE
  5
19C
330
5
100
AcDbSymbolTableRecord
100
AcDbLinetypeTableRecord
  2
AI-Linetype-6
 70
     0
  3
Adobe Illustrator Linetype No. 6
 72
    65
 73
     2
 40
0.7055555553791667
 49
0.3527777776895833
 74
     0
 49
-0.3527777776895833
 74
     0
  0
LTYPE
  5
1A1
330
5
100
AcDbSymbolTableRecord
100
AcDbLinetypeTableRecord
  2
AI-Linetype-7
 70
     0
  3
Adobe Illustrator Linetype No. 7
 72
    65
 73
     2
 40
0.7055555553791667
 49
0.3527777776895833
 74
     0
 49
-0.3527777776895833
 74
     0
  0
LTYPE
  5
1A6
330
5
100
AcDbSymbolTableRecord
100
AcDbLinetypeTableRecord
  2
AI-Linetype-8
 70
     0
  3
Adobe Illustrator Linetype No. 8
 72
    65
 73
     2
 40
0.7055555553791667
 49
0.3527777776895833
 74
     0
 49
-0.3527777776895833
 74
     0
  0
LTYPE
  5
1C5
330
5
100
AcDbSymbolTableRecord
100
AcDbLinetypeTableRecord
  2
AI-Linetype-9
 70
     0
  3
Adobe Illustrator Linetype No. 9
 72
    65
 73
     4
 40
2.822222221516667
 49
1.763888888447917
 74
     0
 49
-0.3527777776895833
 74
     0
 49
0.3527777776895833
 74
     0
 49
-0.3527777776895833
 74
     0
  0
LTYPE
  5
1CA
330
5
100
AcDbSymbolTableRecord
100
AcDbLinetypeTableRecord
  2
AI-Linetype-10
 70
     0
  3
Adobe Illustrator Linetype No. 10
 72
    65
 73
     2
 40
0.7055555553791667
 49
0.3527777776895833
 74
     0
 49
-0.3527777776895833
 74
     0
  0
LTYPE
  5
1CF
330
5
100
AcDbSymbolTableRecord
100
AcDbLinetypeTableRecord
  2
AI-Linetype-11
 70
     0
  3
Adobe Illustrator Linetype No. 11
 72
    65
 73
     2
 40
0.7055555553791667
 49
0.3527777776895833
 74
     0
 49
-0.3527777776895833
 74
     0
  0
LTYPE
  5
1D4
330
5
100
AcDbSymbolTableRecord
100
AcDbLinetypeTableRecord
  2
AI-Linetype-12
 70
     0
  3
Adobe Illustrator Linetype No. 12
 72
    65
 73
     2
 40
0.7055555553791667
 49
0.3527777776895833
 74
     0
 49
-0.3527777776895833
 74
     0
  0
LTYPE
  5
1D9
330
5
100
AcDbSymbolTableRecord
100
AcDbLinetypeTableRecord
  2
AI-Linetype-13
 70
     0
  3
Adobe Illustrator Linetype No. 13
 72
    65
 73
     2
 40
0.7055555553791667
 49
0.3527777776895833
 74
     0
 49
-0.3527777776895833
 74
     0
  0
LTYPE
  5
1DE
330
5
100
AcDbSymbolTableRecord
100
AcDbLinetypeTableRecord
  2
AI-Linetype-14
 70
     0
  3
Adobe Illustrator Linetype No. 14
 72
    65
 73
     2
 40
0.7055555553791667
 49
0.3527777776895833
 74
     0
 49
-0.3527777776895833
 74
     0
  0
ENDTAB
  0
TABLE
  2
LAYER
  5
2
330
0
100
AcDbSymbolTable
 70
     2
  0
LAYER
  5
10
330
2
100
AcDbSymbolTableRecord
100
AcDbLayerTableRecord
  2
0
 70
     0
 62
     7
  6
Continuous
370
    -3
390
F
347
3E
  0
LAYER
  5
40
330
2
100
AcDbSymbolTableRecord
100
AcDbLayerTableRecord
  2
_U+30EC_U+30A4_U+30E4_U+30FC 1
 70
     0
 62
     7
  6
Continuous
370
    -3
390
F
347
3E
  0
ENDTAB
  0
TABLE
  2
STYLE
  5
3
330
0
100
AcDbSymbolTable
 70
     1
  0
STYLE
  5
11
330
3
100
AcDbSymbolTableRecord
100
AcDbTextStyleTableRecord
  2
Standard
 70
     0
 40
0.0
 41
1.0
 50
0.0
 71
     0
 42
0.2
  3
txt
  4

  0
ENDTAB
  0
TABLE
  2
VIEW
  5
6
330
0
100
AcDbSymbolTable
 70
     0
  0
ENDTAB
  0
TABLE
  2
UCS
  5
7
330
0
100
AcDbSymbolTable
 70
     0
  0
ENDTAB
  0
TABLE
  2
APPID
  5
9
330
0
100
AcDbSymbolTable
 70
     1
  0
APPID
  5
12
330
9
100
AcDbSymbolTableRecord
100
AcDbRegAppTableRecord
  2
ACAD
 70
     0
  0
ENDTAB
  0
TABLE
  2
DIMSTYLE
  5
A
330
0
100
AcDbSymbolTable
 70
     1
100
AcDbDimStyleTable
  0
DIMSTYLE
105
27
330
A
100
AcDbSymbolTableRecord
100
AcDbDimStyleTableRecord
  2
Standard
 70
     0
178
     0
340
11
  0
ENDTAB
  0
TABLE
  2
BLOCK_RECORD
  5
1
330
0
100
AcDbSymbolTable
 70
    23
  0
BLOCK_RECORD
  5
1F
330
1
100
AcDbSymbolTableRecord
100
AcDbBlockTableRecord
  2
*Model_Space
340
22
 70
     0
280
     1
281
     0
  0
BLOCK_RECORD
  5
1B
330
1
100
AcDbSymbolTableRecord
100
AcDbBlockTableRecord
  2
*Paper_Space
340
1E
 70
     0
280
     1
281
     0
  0
BLOCK_RECORD
  5
23
330
1
100
AcDbSymbolTableRecord
100
AcDbBlockTableRecord
  2
*Paper_Space0
340
26
 70
     0
280
     1
281
     0
  0
BLOCK_RECORD
  5
5D
330
1
100
AcDbSymbolTableRecord
100
AcDbBlockTableRecord
  2
block 2
340
0
102
{BLKREFS
331
5E
102
}
 70
     0
280
     1
281
     0
  0
BLOCK_RECORD
  5
65
330
1
100
AcDbSymbolTableRecord
100
AcDbBlockTableRecord
  2
block 3
340
0
102
{BLKREFS
331
66
102
}
 70
     0
280
     1
281
     0
  0
BLOCK_RECORD
  5
88
330
1
100
AcDbSymbolTableRecord
100
AcDbBlockTableRecord
  2
block 4
340
0
102
{BLKREFS
331
89
102
}
 70
     0
280
     1
281
     0
  0
BLOCK_RECORD
  5
90
330
1
100
AcDbSymbolTableRecord
100
AcDbBlockTableRecord
  2
block 5
340
0
102
{BLKREFS
331
91
102
}
 70
     0
280
     1
281
     0
  0
BLOCK_RECORD
  5
97
330
1
100
AcDbSymbolTableRecord
100
AcDbBlockTableRecord
  2
block 6
340
0
102
{BLKREFS
331
98
102
}
 70
     0
280
     1
281
     0
  0
BLOCK_RECORD
  5
9B
330
1
100
AcDbSymbolTableRecord
100
AcDbBlockTableRecord
  2
block 7
340
0
102
{BLKREFS
331
9C
102
}
 70
     0
280
     1
281
     0
  0
BLOCK_RECORD
  5
A1
330
1
100
AcDbSymbolTableRecord
100
AcDbBlockTableRecord
  2
block 8
340
0
102
{BLKREFS
331
A2
102
}
 70
     0
280
     1
281
     0
  0
BLOCK_RECORD
  5
A8
330
1
100
AcDbSymbolTableRecord
100
AcDbBlockTableRecord
  2
block 9
340
0
102
{BLKREFS
331
A9
102
}
 70
     0
280
     1
281
     0
  0
BLOCK_RECORD
  5
AE
330
1
100
AcDbSymbolTableRecord
100
AcDbBlockTableRecord
  2
block 10
340
0
102
{BLKREFS
331
AF
102
}
 70
     0
280
     1
281
     0
  0
BLOCK_RECORD
  5
CE
330
1
100
AcDbSymbolTableRecord
100
AcDbBlockTableRecord
  2
block 11
340
0
102
{BLKREFS
331
CF
102
}
 70
     0
280
     1
281
     0
  0
BLOCK_RECORD
  5
D4
330
1
100
AcDbSymbolTableRecord
100
AcDbBlockTableRecord
  2
block 12
340
0
102
{BLKREFS
331
D5
102
}
 70
     0
280
     1
281
     0
  0
BLOCK_RECORD
  5
E0
330
1
100
AcDbSymbolTableRecord
100
AcDbBlockTableRecord
  2
block 13
340
0
102
{BLKREFS
331
E1
102
}
 70
     0
280
     1
281
     0
  0
BLOCK_RECORD
  5
E8
330
1
100
AcDbSymbolTableRecord
100
AcDbBlockTableRecord
  2
block 14
340
0
102
{BLKREFS
331
E9
102
}
 70
     0
280
     1
281
     0
  0
BLOCK_RECORD
  5
EE
330
1
100
AcDbSymbolTableRecord
100
AcDbBlockTableRecord
  2
block 15
340
0
102
{BLKREFS
331
EF
102
}
 70
     0
280
     1
281
     0
  0
BLOCK_RECORD
  5
FC
330
1
100
AcDbSymbolTableRecord
100
AcDbBlockTableRecord
  2
block 16
340
0
102
{BLKREFS
331
FD
102
}
 70
     0
280
     1
281
     0
  0
BLOCK_RECORD
  5
121
330
1
100
AcDbSymbolTableRecord
100
AcDbBlockTableRecord
  2
block 17
340
0
102
{BLKREFS
331
122
102
}
 70
     0
280
     1
281
     0
  0
BLOCK_RECORD
  5
127
330
1
100
AcDbSymbolTableRecord
100
AcDbBlockTableRecord
  2
block 18
340
0
102
{BLKREFS
331
128
102
}
 70
     0
280
     1
281
     0
  0
BLOCK_RECORD
  5
14A
330
1
100
AcDbSymbolTableRecord
100
AcDbBlockTableRecord
  2
block 19
340
0
102
{BLKREFS
331
14B
102
}
 70
     0
280
     1
281
     0
  0
BLOCK_RECORD
  5
151
330
1
100
AcDbSymbolTableRecord
100
AcDbBlockTableRecord
  2
block 20
340
0
102
{BLKREFS
331
152
102
}
 70
     0
280
     1
281
     0
  0
BLOCK_RECORD
  5
1F3
330
1
100
AcDbSymbolTableRecord
100
AcDbBlockTableRecord
  2
block 21
340
0
102
{BLKREFS
331
1F4
102
}
 70
     0
280
     1
281
     0
  0
BLOCK_RECORD
  5
1FA
330
1
100
AcDbSymbolTableRecord
100
AcDbBlockTableRecord
  2
block 22
340
0
102
{BLKREFS
331
1FB
102
}
 70
     0
280
     1
281
     0
  0
BLOCK_RECORD
  5
223
330
1
100
AcDbSymbolTableRecord
100
AcDbBlockTableRecord
  2
block 23
340
0
102
{BLKREFS
331
224
102
}
 70
     0
280
     1
281
     0
  0
ENDTAB
  0
ENDSEC
  0
SECTION
  2
BLOCKS
  0
BLOCK
  5
20
330
1F
100
AcDbEntity
  8
0
100
AcDbBlockBegin
  2
*Model_Space
 70
     0
 10
0.0
 20
0.0
 30
0.0
  3
*Model_Space
  1

  0
ENDBLK
  5
21
330
1F
100
AcDbEntity
  8
0
100
AcDbBlockEnd
  0
BLOCK
  5
1C
330
1B
100
AcDbEntity
 67
     1
  8
0
100
AcDbBlockBegin
  2
*Paper_Space
 70
     0
 10
0.0
 20
0.0
 30
0.0
  3
*Paper_Space
  1

  0
ENDBLK
  5
1D
330
1B
100
AcDbEntity
 67
     1
  8
0
100
AcDbBlockEnd
  0
BLOCK
  5
24
330
23
100
AcDbEntity
  8
0
100
AcDbBlockBegin
  2
*Paper_Space0
 70
     0
 10
0.0
 20
0.0
 30
0.0
  3
*Paper_Space0
  1

  0
ENDBLK
  5
25
330
23
100
AcDbEntity
  8
0
100
AcDbBlockEnd
  0
BLOCK
  5
5F
330
5D
100
AcDbEntity
  8
0
100
AcDbBlockBegin
  2
block 2
 70
     0
 10
0.0
 20
0.0
 30
0.0
  3
block 2
  1

  0
SPLINE
  5
61
330
5D
100
AcDbEntity
  8
_U+30EC_U+30A4_U+30E4_U+30FC 1
370
     0
100
AcDbSpline
210
0.0
220
0.0
230
1.0
 70
    11
 71
     3
 72
    62
 73
    58
 74
     0
 42
0.0000000001
 43
0.0000000001
 12
1.0
 22
0.0
 32
0.0
 13
1.0
 23
0.0
 33
0.0
 40
0.0
 40
0.0
 40
0.0
 40
0.0
 40
1.0
 40
1.0
 40
1.0
 40
2.0
 40
2.0
 40
2.0
 40
3.0
 40
3.0
 40
3.0
 40
4.0
 40
4.0
 40
4.0
 40
5.0
 40
5.0
 40
5.0
 40
6.0
 40
6.0
 40
6.0
 40
7.0
 40
7.0
 40
7.0
 40
8.0
 40
8.0
 40
8.0
 40
9.0
 40
9.0
 40
9.0
 40
10.0
 40
10.0
 40
10.0
 40
11.0
 40
11.0
 40
11.0
 40
12.0
 40
12.0
 40
12.0
 40
13.0
 40
13.0
 40
13.0
 40
14.0
 40
14.0
 40
14.0
 40
15.0
 40
15.0
 40
15.0
 40
16.0
 40
16.0
 40
16.0
 40
17.0
 40
17.0
 40
17.0
 40
18.0
 40
18.0
 40
18.0
 40
19.0
 40
19.0
 40
19.0
 40
19.0
 10
88.0683539276357
 20
-126.2038384016088
 30
0.0
 10
88.04079316375369
 20
-126.3075357757148
 30
0.0
 10
88.03218042504056
 20
-126.3561116220568
 30
0.0
 10
88.03218042504056
 20
-126.3984862965254
 30
0.0
 10
88.03218042504056
 20
-126.3984862965254
 30
0.0
 10
87.83787703967248
 20
-126.3984862965254
 30
0.0
 10
87.83787703967248
 20
-126.3984862965254
 30
0.0
 10
87.8588921221325
 20
-126.358178679348
 30
0.0
 10
87.87784014730138
 20
-126.3096028330059
 30
0.0
 10
87.90540091118338
 20
-126.2017713443176
 30
0.0
 10
87.90540091118338
 20
-126.2017713443176
 30
0.0
 10
87.9222818790611
 20
-126.1445827592625
 30
0.0
 10
87.9222818790611
 20
-126.1445827592625
 30
0.0
 10
87.80170353707736
 20
-126.110820823507
 30
0.0
 10
87.74038083743991
 20
-126.0746473209119
 30
0.0
 10
87.67285696592901
 20
-126.0026448252702
 30
0.0
 10
87.58604055970072
 20
-125.9075601898773
 30
0.0
 10
87.53746471335869
 20
-125.7807806760201
 30
0.0
 10
87.53746471335869
 20
-125.6409097993189
 30
0.0
 10
87.53746471335869
 20
-125.44212778982
 30
0.0
 10
87.62600366732961
 20
-125.2540255763254
 30
0.0
 10
87.77862139732618
 20
-125.1334472343416
 30
0.0
 10
87.85682506484136
 20
-125.0697129678645
 30
0.0
 10
87.9539767575254
 20
-125.0232041788136
 30
0.0
 10
88.05974118892257
 20
-125.0021890963536
 30
0.0
 10
88.10866154481312
 20
-124.9915093003493
 30
0.0
 10
88.14862465244201
 20
-124.987375185767
 30
0.0
 10
88.2354410586703
 20
-124.9832410711848
 30
0.0
 10
88.2354410586703
 20
-124.9832410711848
 30
0.0
 10
88.29262964372546
 20
-124.7717122083904
 30
0.0
 10
88.29262964372546
 20
-124.7717122083904
 30
0.0
 10
88.32019040760746
 20
-124.6635362101536
 30
0.0
 10
88.33259275135435
 20
-124.6042805678073
 30
0.0
 10
88.33913843277634
 20
-124.5388237535875
 30
0.0
 10
88.33913843277634
 20
-124.5388237535875
 30
0.0
 10
88.53378632769295
 20
-124.5388237535875
 30
0.0
 10
88.53378632769295
 20
-124.5388237535875
 30
0.0
 10
88.50622556381094
 20
-124.5939452813515
 30
0.0
 10
88.48934459593322
 20
-124.6404540704024
 30
0.0
 10
88.45558266017777
 20
-124.7672335842596
 30
0.0
 10
88.45558266017777
 20
-124.7672335842596
 30
0.0
 10
88.39425996054032
 20
-124.9915093003493
 30
0.0
 10
88.39425996054032
 20
-124.9915093003493
 30
0.0
 10
88.51690535981523
 20
-125.0190700642313
 30
0.0
 10
88.58236217403497
 20
-125.0528319999868
 30
0.0
 10
88.6543646696767
 20
-125.1269015529197
 30
0.0
 10
88.75151636236073
 20
-125.2243977551522
 30
0.0
 10
88.80457083283359
 20
-125.3553113835917
 30
0.0
 10
88.80457083283359
 20
-125.5034504894575
 30
0.0
 10
88.80457083283359
 20
-125.7046440657961
 30
0.0
 10
88.71775442660528
 20
-125.8865451074173
 30
0.0
 10
88.5675482634484
 20
-126.0091905066921
 30
0.0
 10
88.43835718275153
 20
-126.1128878807982
 30
0.0
 10
88.30537649702089
 20
-126.1552625552667
 30
0.0
 10
88.08110078093112
 20
-126.1614637271402
 30
0.0
 10
88.08110078093112
 20
-126.1614637271402
 30
0.0
 10
88.0683539276357
 20
-126.2038384016088
 30
0.0
 10
88.0683539276357
 20
-126.2038384016088
 30
0.0
  0
SPLINE
  5
62
330
5D
100
AcDbEntity
  8
_U+30EC_U+30A4_U+30E4_U+30FC 1
370
     0
100
AcDbSpline
210
0.0
220
0.0
230
1.0
 70
    11
 71
     3
 72
    20
 73
    16
 74
     0
 42
0.0000000001
 43
0.0000000001
 12
1.0
 22
0.0
 32
0.0
 13
1.0
 23
0.0
 33
0.0
 40
0.0
 40
0.0
 40
0.0
 40
0.0
 40
1.0
 40
1.0
 40
1.0
 40
2.0
 40
2.0
 40
2.0
 40
3.0
 40
3.0
 40
3.0
 40
4.0
 40
4.0
 40
4.0
 40
5.0
 40
5.0
 40
5.0
 40
5.0
 10
88.20167912291487
 20
-125.1207003810462
 30
0.0
 10
88.04286022104485
 20
-125.1313801770505
 30
0.0
 10
87.9498426429431
 20
-125.1692762273882
 30
0.0
 10
87.85682506484136
 20
-125.2602267481988
 30
0.0
 10
87.75519474802648
 20
-125.3577229504314
 30
0.0
 10
87.70007322026248
 20
-125.4931152030017
 30
0.0
 10
87.70007322026248
 20
-125.6388427420278
 30
0.0
 10
87.70007322026248
 20
-125.7532199121381
 30
0.0
 10
87.73831378014876
 20
-125.848304547531
 30
0.0
 10
87.81031627579048
 20
-125.9203070431727
 30
0.0
 10
87.85682506484136
 20
-125.9647487749324
 30
0.0
 10
87.8905870005968
 20
-125.9857638573925
 30
0.0
 10
87.96052243894738
 20
-126.007123449401
 30
0.0
 10
87.96052243894738
 20
-126.007123449401
 30
0.0
 10
88.20167912291487
 20
-125.1207003810462
 30
0.0
 10
88.20167912291487
 20
-125.1207003810462
 30
0.0
  0
SPLINE
  5
63
330
5D
100
AcDbEntity
  8
_U+30EC_U+30A4_U+30E4_U+30FC 1
370
     0
100
AcDbSpline
210
0.0
220
0.0
230
1.0
 70
    11
 71
     3
 72
    20
 73
    16
 74
     0
 42
0.0000000001
 43
0.0000000001
 12
1.0
 22
0.0
 32
0.0
 13
1.0
 23
0.0
 33
0.0
 40
0.0
 40
0.0
 40
0.0
 40
0.0
 40
1.0
 40
1.0
 40
1.0
 40
2.0
 40
2.0
 40
2.0
 40
3.0
 40
3.0
 40
3.0
 40
4.0
 40
4.0
 40
4.0
 40
5.0
 40
5.0
 40
5.0
 40
5.0
 10
88.11486271668656
 20
-126.0260714745699
 30
0.0
 10
88.21201440937061
 20
-126.0219373599876
 30
0.0
 10
88.25438908383919
 20
-126.0133246212744
 30
0.0
 10
88.31571178347663
 20
-125.9902424815233
 30
0.0
 10
88.5124267356844
 20
-125.9161729285904
 30
0.0
 10
88.64161781638127
 20
-125.7256591482561
 30
0.0
 10
88.64161781638127
 20
-125.5099961708794
 30
0.0
 10
88.64161781638127
 20
-125.3873507716046
 30
0.0
 10
88.5951090273304
 20
-125.2750406587854
 30
0.0
 10
88.51690535981523
 20
-125.2051052204348
 30
0.0
 10
88.4724636280555
 20
-125.1651421128059
 30
0.0
 10
88.43422306816923
 20
-125.1458495780885
 30
0.0
 10
88.35601940065405
 20
-125.1289686102108
 30
0.0
 10
88.35601940065405
 20
-125.1289686102108
 30
0.0
 10
88.11486271668656
 20
-126.0260714745699
 30
0.0
 10
88.11486271668656
 20
-126.0260714745699
 30
0.0
  0
HATCH
  5
64
330
5D
100
AcDbEntity
  8
_U+30EC_U+30A4_U+30E4_U+30FC 1
 62
     7
420
 16777215
100
AcDbHatch
 10
0.0
 20
0.0
 30
0.0
210
0.0
220
0.0
230
1.0
  2
SOLID
 70
     1
 71
     0
 91
        3
 92
        1
 93
        1
 72
     4
 94
        3
 73
     0
 74
     1
 95
       62
 96
       58
 40
0.0
 40
0.0
 40
0.0
 40
0.0
 40
1.0
 40
1.0
 40
1.0
 40
2.0
 40
2.0
 40
2.0
 40
3.0
 40
3.0
 40
3.0
 40
4.0
 40
4.0
 40
4.0
 40
5.0
 40
5.0
 40
5.0
 40
6.0
 40
6.0
 40
6.0
 40
7.0
 40
7.0
 40
7.0
 40
8.0
 40
8.0
 40
8.0
 40
9.0
 40
9.0
 40
9.0
 40
10.0
 40
10.0
 40
10.0
 40
11.0
 40
11.0
 40
11.0
 40
12.0
 40
12.0
 40
12.0
 40
13.0
 40
13.0
 40
13.0
 40
14.0
 40
14.0
 40
14.0
 40
15.0
 40
15.0
 40
15.0
 40
16.0
 40
16.0
 40
16.0
 40
17.0
 40
17.0
 40
17.0
 40
18.0
 40
18.0
 40
18.0
 40
19.0
 40
19.0
 40
19.0
 40
19.0
 10
88.0683539276357
 20
-126.2038384016088
 10
88.04079316375369
 20
-126.3075357757148
 10
88.03218042504056
 20
-126.3561116220568
 10
88.03218042504056
 20
-126.3984862965254
 10
88.03218042504056
 20
-126.3984862965254
 10
87.83787703967248
 20
-126.3984862965254
 10
87.83787703967248
 20
-126.3984862965254
 10
87.8588921221325
 20
-126.358178679348
 10
87.87784014730138
 20
-126.3096028330059
 10
87.90540091118338
 20
-126.2017713443176
 10
87.90540091118338
 20
-126.2017713443176
 10
87.9222818790611
 20
-126.1445827592625
 10
87.9222818790611
 20
-126.1445827592625
 10
87.80170353707736
 20
-126.110820823507
 10
87.74038083743991
 20
-126.0746473209119
 10
87.67285696592901
 20
-126.0026448252702
 10
87.58604055970072
 20
-125.9075601898773
 10
87.53746471335869
 20
-125.7807806760201
 10
87.53746471335869
 20
-125.6409097993189
 10
87.53746471335869
 20
-125.44212778982
 10
87.62600366732961
 20
-125.2540255763254
 10
87.77862139732618
 20
-125.1334472343416
 10
87.85682506484136
 20
-125.0697129678645
 10
87.9539767575254
 20
-125.0232041788136
 10
88.05974118892257
 20
-125.0021890963536
 10
88.10866154481312
 20
-124.9915093003493
 10
88.14862465244201
 20
-124.987375185767
 10
88.2354410586703
 20
-124.9832410711848
 10
88.2354410586703
 20
-124.9832410711848
 10
88.29262964372546
 20
-124.7717122083904
 10
88.29262964372546
 20
-124.7717122083904
 10
88.32019040760746
 20
-124.6635362101536
 10
88.33259275135435
 20
-124.6042805678073
 10
88.33913843277634
 20
-124.5388237535875
 10
88.33913843277634
 20
-124.5388237535875
 10
88.53378632769295
 20
-124.5388237535875
 10
88.53378632769295
 20
-124.5388237535875
 10
88.50622556381094
 20
-124.5939452813515
 10
88.48934459593322
 20
-124.6404540704024
 10
88.45558266017777
 20
-124.7672335842596
 10
88.45558266017777
 20
-124.7672335842596
 10
88.39425996054032
 20
-124.9915093003493
 10
88.39425996054032
 20
-124.9915093003493
 10
88.51690535981523
 20
-125.0190700642313
 10
88.58236217403497
 20
-125.0528319999868
 10
88.6543646696767
 20
-125.1269015529197
 10
88.75151636236073
 20
-125.2243977551522
 10
88.80457083283359
 20
-125.3553113835917
 10
88.80457083283359
 20
-125.5034504894575
 10
88.80457083283359
 20
-125.7046440657961
 10
88.71775442660528
 20
-125.8865451074173
 10
88.5675482634484
 20
-126.0091905066921
 10
88.43835718275153
 20
-126.1128878807982
 10
88.30537649702089
 20
-126.1552625552667
 10
88.08110078093112
 20
-126.1614637271402
 10
88.08110078093112
 20
-126.1614637271402
 10
88.0683539276357
 20
-126.2038384016088
 10
88.0683539276357
 20
-126.2038384016088
 97
        0
 97
        0
 92
        1
 93
        1
 72
     4
 94
        3
 73
     0
 74
     1
 95
       20
 96
       16
 40
0.0
 40
0.0
 40
0.0
 40
0.0
 40
1.0
 40
1.0
 40
1.0
 40
2.0
 40
2.0
 40
2.0
 40
3.0
 40
3.0
 40
3.0
 40
4.0
 40
4.0
 40
4.0
 40
5.0
 40
5.0
 40
5.0
 40
5.0
 10
88.20167912291487
 20
-125.1207003810462
 10
88.04286022104485
 20
-125.1313801770505
 10
87.9498426429431
 20
-125.1692762273882
 10
87.85682506484136
 20
-125.2602267481988
 10
87.75519474802648
 20
-125.3577229504314
 10
87.70007322026248
 20
-125.4931152030017
 10
87.70007322026248
 20
-125.6388427420278
 10
87.70007322026248
 20
-125.7532199121381
 10
87.73831378014876
 20
-125.848304547531
 10
87.81031627579048
 20
-125.9203070431727
 10
87.85682506484136
 20
-125.9647487749324
 10
87.8905870005968
 20
-125.9857638573925
 10
87.96052243894738
 20
-126.007123449401
 10
87.96052243894738
 20
-126.007123449401
 10
88.20167912291487
 20
-125.1207003810462
 10
88.20167912291487
 20
-125.1207003810462
 97
        0
 97
        0
 92
        1
 93
        1
 72
     4
 94
        3
 73
     0
 74
     1
 95
       20
 96
       16
 40
0.0
 40
0.0
 40
0.0
 40
0.0
 40
1.0
 40
1.0
 40
1.0
 40
2.0
 40
2.0
 40
2.0
 40
3.0
 40
3.0
 40
3.0
 40
4.0
 40
4.0
 40
4.0
 40
5.0
 40
5.0
 40
5.0
 40
5.0
 10
88.11486271668656
 20
-126.0260714745699
 10
88.21201440937061
 20
-126.0219373599876
 10
88.25438908383919
 20
-126.0133246212744
 10
88.31571178347663
 20
-125.9902424815233
 10
88.5124267356844
 20
-125.9161729285904
 10
88.64161781638127
 20
-125.7256591482561
 10
88.64161781638127
 20
-125.5099961708794
 10
88.64161781638127
 20
-125.3873507716046
 10
88.5951090273304
 20
-125.2750406587854
 10
88.51690535981523
 20
-125.2051052204348
 10
88.4724636280555
 20
-125.1651421128059
 10
88.43422306816923
 20
-125.1458495780885
 10
88.35601940065405
 20
-125.1289686102108
 10
88.35601940065405
 20
-125.1289686102108
 10
88.11486271668656
 20
-126.0260714745699
 10
88.11486271668656
 20
-126.0260714745699
 97
        0
 97
        0
 75
     2
 76
     1
 98
        0
  0
ENDBLK
  5
60
330
5D
100
AcDbEntity
  8
0
100
AcDbBlockEnd
  0
BLOCK
  5
67
330
65
100
AcDbEntity
  8
0
100
AcDbBlockBegin
  2
block 3
 70
     0
 10
0.0
 20
0.0
 30
0.0
  3
block 3
  1

  0
POLYLINE
  5
69
330
65
100
AcDbEntity
  8
_U+30EC_U+30A4_U+30E4_U+30FC 1
370
     0
100
AcDb2dPolyline
 66
     1
 10
0.0
 20
0.0
 30
0.0
  0
VERTEX
  5
6A
330
69
100
AcDbEntity
  8
_U+30EC_U+30A4_U+30E4_U+30FC 1
370
     0
100
AcDbVertex
100
AcDb2dVertex
 10
89.85050182215544
 20
-125.799728701189
 30
0.0
  0
VERTEX
  5
6B
330
69
100
AcDbEntity
  8
_U+30EC_U+30A4_U+30E4_U+30FC 1
370
     0
100
AcDbVertex
100
AcDb2dVertex
 10
89.85050182215544
 20
-126.1466498165536
 30
0.0
  0
VERTEX
  5
6C
330
69
100
AcDbEntity
  8
_U+30EC_U+30A4_U+30E4_U+30FC 1
370
     0
100
AcDbVertex
100
AcDb2dVertex
 10
89.63277178748764
 20
-126.1466498165536
 30
0.0
  0
VERTEX
  5
6D
330
69
100
AcDbEntity
  8
_U+30EC_U+30A4_U+30E4_U+30FC 1
370
     0
100
AcDbVertex
100
AcDb2dVertex
 10
89.63277178748764
 20
-125.799728701189
 30
0.0
  0
VERTEX
  5
6E
330
69
100
AcDbEntity
  8
_U+30EC_U+30A4_U+30E4_U+30FC 1
370
     0
100
AcDbVertex
100
AcDb2dVertex
 10
88.97682560709607
 20
-125.799728701189
 30
0.0
  0
VERTEX
  5
6F
330
69
100
AcDbEntity
  8
_U+30EC_U+30A4_U+30E4_U+30FC 1
370
     0
100
AcDbVertex
100
AcDb2dVertex
 10
88.97682560709607
 20
-125.5754529850992
 30
0.0
  0
VERTEX
  5
70
330
69
100
AcDbEntity
  8
_U+30EC_U+30A4_U+30E4_U+30FC 1
370
     0
100
AcDbVertex
100
AcDb2dVertex
 10
89.65585392723882
 20
-124.6022135105161
 30
0.0
  0
VERTEX
  5
71
330
69
100
AcDbEntity
  8
_U+30EC_U+30A4_U+30E4_U+30FC 1
370
     0
100
AcDbVertex
100
AcDb2dVertex
 10
89.85050182215544
 20
-124.6022135105161
 30
0.0
  0
VERTEX
  5
72
330
69
100
AcDbEntity
  8
_U+30EC_U+30A4_U+30E4_U+30FC 1
370
     0
100
AcDbVertex
100
AcDb2dVertex
 10
89.85050182215544
 20
-125.60094669169
 30
0.0
  0
VERTEX
  5
73
330
69
100
AcDbEntity
  8
_U+30EC_U+30A4_U+30E4_U+30FC 1
370
     0
100
AcDbVertex
100
AcDb2dVertex
 10
90.05789657036748
 20
-125.60094669169
 30
0.0
  0
VERTEX
  5
74
330
69
100
AcDbEntity
  8
_U+30EC_U+30A4_U+30E4_U+30FC 1
370
     0
100
AcDbVertex
100
AcDb2dVertex
 10
90.05789657036748
 20
-125.799728701189
 30
0.0
  0
VERTEX
  5
75
330
69
100
AcDbEntity
  8
_U+30EC_U+30A4_U+30E4_U+30FC 1
370
     0
100
AcDbVertex
100
AcDb2dVertex
 10
89.85050182215544
 20
-125.799728701189
 30
0.0
  0
SEQEND
  5
76
330
69
100
AcDbEntity
  8
_U+30EC_U+30A4_U+30E4_U+30FC 1
370
     0
  0
POLYLINE
  5
77
330
65
100
AcDbEntity
  8
_U+30EC_U+30A4_U+30E4_U+30FC 1
370
     0
100
AcDb2dPolyline
 66
     1
 10
0.0
 20
0.0
 30
0.0
  0
VERTEX
  5
78
330
77
100
AcDbEntity
  8
_U+30EC_U+30A4_U+30E4_U+30FC 1
370
     0
100
AcDbVertex
100
AcDb2dVertex
 10
89.63277178748764
 20
-124.9450005112985
 30
0.0
  0
VERTEX
  5
79
330
77
100
AcDbEntity
  8
_U+30EC_U+30A4_U+30E4_U+30FC 1
370
     0
100
AcDbVertex
100
AcDb2dVertex
 10
89.17560761659499
 20
-125.60094669169
 30
0.0
  0
VERTEX
  5
7A
330
77
100
AcDbEntity
  8
_U+30EC_U+30A4_U+30E4_U+30FC 1
370
     0
100
AcDbVertex
100
AcDb2dVertex
 10
89.63277178748764
 20
-125.60094669169
 30
0.0
  0
VERTEX
  5
7B
330
77
100
AcDbEntity
  8
_U+30EC_U+30A4_U+30E4_U+30FC 1
370
     0
100
AcDbVertex
100
AcDb2dVertex
 10
89.63277178748764
 20
-124.9450005112985
 30
0.0
  0
SEQEND
  5
7C
330
77
100
AcDbEntity
  8
_U+30EC_U+30A4_U+30E4_U+30FC 1
370
     0
  0
HATCH
  5
7D
330
65
100
AcDbEntity
  8
_U+30EC_U+30A4_U+30E4_U+30FC 1
 62
     7
420
 16777215
100
AcDbHatch
 10
0.0
 20
0.0
 30
0.0
210
0.0
220
0.0
230
1.0
  2
SOLID
 70
     1
 71
     0
 91
        2
 92
        1
 93
       11
 72
     1
 10
89.85050182215544
 20
-125.799728701189
 11
89.85050182215544
 21
-126.1466498165536
 72
     1
 10
89.85050182215544
 20
-126.1466498165536
 11
89.63277178748764
 21
-126.1466498165536
 72
     1
 10
89.63277178748764
 20
-126.1466498165536
 11
89.63277178748764
 21
-125.799728701189
 72
     1
 10
89.63277178748764
 20
-125.799728701189
 11
88.97682560709607
 21
-125.799728701189
 72
     1
 10
88.97682560709607
 20
-125.799728701189
 11
88.97682560709607
 21
-125.5754529850992
 72
     1
 10
88.97682560709607
 20
-125.5754529850992
 11
89.65585392723882
 21
-124.6022135105161
 72
     1
 10
89.65585392723882
 20
-124.6022135105161
 11
89.85050182215544
 21
-124.6022135105161
 72
     1
 10
89.85050182215544
 20
-124.6022135105161
 11
89.85050182215544
 21
-125.60094669169
 72
     1
 10
89.85050182215544
 20
-125.60094669169
 11
90.05789657036748
 21
-125.60094669169
 72
     1
 10
90.05789657036748
 20
-125.60094669169
 11
90.05789657036748
 21
-125.799728701189
 72
     1
 10
90.05789657036748
 20
-125.799728701189
 11
89.85050182215544
 21
-125.799728701189
 97
        0
 92
        1
 93
        3
 72
     1
 10
89.63277178748764
 20
-124.9450005112985
 11
89.17560761659499
 21
-125.60094669169
 72
     1
 10
89.17560761659499
 20
-125.60094669169
 11
89.63277178748764
 21
-125.60094669169
 72
     1
 10
89.63277178748764
 20
-125.60094669169
 11
89.63277178748764
 21
-124.9450005112985
 97
        0
 75
     2
 76
     1
 98
        0
  0
POLYLINE
  5
7E
330
65
100
AcDbEntity
  8
_U+30EC_U+30A4_U+30E4_U+30FC 1
370
     0
100
AcDb2dPolyline
 66
     1
 10
0.0
 20
0.0
 30
0.0
  0
VERTEX
  5
7F
330
7E
100
AcDbEntity
  8
_U+30EC_U+30A4_U+30E4_U+30FC 1
370
     0
100
AcDbVertex
100
AcDb2dVertex
 10
90.25530054167228
 20
-126.1466498165536
 30
0.0
  0
VERTEX
  5
80
330
7E
100
AcDbEntity
  8
_U+30EC_U+30A4_U+30E4_U+30FC 1
370
     0
100
AcDbVertex
100
AcDb2dVertex
 10
90.25530054167228
 20
-125.8948133365819
 30
0.0
  0
VERTEX
  5
81
330
7E
100
AcDbEntity
  8
_U+30EC_U+30A4_U+30E4_U+30FC 1
370
     0
100
AcDbVertex
100
AcDb2dVertex
 10
90.50713702164406
 20
-125.8948133365819
 30
0.0
  0
VERTEX
  5
82
330
7E
100
AcDbEntity
  8
_U+30EC_U+30A4_U+30E4_U+30FC 1
370
     0
100
AcDbVertex
100
AcDb2dVertex
 10
90.50713702164406
 20
-126.1466498165536
 30
0.0
  0
VERTEX
  5
83
330
7E
100
AcDbEntity
  8
_U+30EC_U+30A4_U+30E4_U+30FC 1
370
     0
100
AcDbVertex
100
AcDb2dVertex
 10
90.25530054167228
 20
-126.1466498165536
 30
0.0
  0
SEQEND
  5
84
330
7E
100
AcDbEntity
  8
_U+30EC_U+30A4_U+30E4_U+30FC 1
370
     0
  0
HATCH
  5
85
330
65
100
AcDbEntity
  8
_U+30EC_U+30A4_U+30E4_U+30FC 1
 62
     7
420
 16777215
100
AcDbHatch
 10
0.0
 20
0.0
 30
0.0
210
0.0
220
0.0
230
1.0
  2
SOLID
 70
     1
 71
     0
 91
        1
 92
        1
 93
        4
 72
     1
 10
90.25530054167228
 20
-126.1466498165536
 11
90.25530054167228
 21
-125.8948133365819
 72
     1
 10
90.25530054167228
 20
-125.8948133365819
 11
90.50713702164406
 21
-125.8948133365819
 72
     1
 10
90.50713702164406
 20
-125.8948133365819
 11
90.50713702164406
 21
-126.1466498165536
 72
     1
 10
90.50713702164406
 20
-126.1466498165536
 11
90.25530054167228
 21
-126.1466498165536
 97
        0
 75
     2
 76
     1
 98
        0
  0
SPLINE
  5
86
330
65
100
AcDbEntity
  8
_U+30EC_U+30A4_U+30E4_U+30FC 1
370
     0
100
AcDbSpline
210
0.0
220
0.0
230
1.0
 70
    11
 71
     3
 72
    53
 73
    49
 74
     0
 42
0.0000000001
 43
0.0000000001
 12
1.0
 22
0.0
 32
0.0
 13
1.0
 23
0.0
 33
0.0
 40
0.0
 40
0.0
 40
0.0
 40
0.0
 40
1.0
 40
1.0
 40
1.0
 40
2.0
 40
2.0
 40
2.0
 40
3.0
 40
3.0
 40
3.0
 40
4.0
 40
4.0
 40
4.0
 40
5.0
 40
5.0
 40
5.0
 40
6.0
 40
6.0
 40
6.0
 40
7.0
 40
7.0
 40
7.0
 40
8.0
 40
8.0
 40
8.0
 40
9.0
 40
9.0
 40
9.0
 40
10.0
 40
10.0
 40
10.0
 40
11.0
 40
11.0
 40
11.0
 40
12.0
 40
12.0
 40
12.0
 40
13.0
 40
13.0
 40
13.0
 40
14.0
 40
14.0
 40
14.0
 40
15.0
 40
15.0
 40
15.0
 40
16.0
 40
16.0
 40
16.0
 40
16.0
 10
91.22440590167307
 20
-126.1972927201868
 30
0.0
 10
91.1462022341579
 20
-126.1972927201868
 30
0.0
 10
91.04457191734303
 20
-126.1804117523091
 30
0.0
 10
90.94294160052816
 20
-126.1170219953805
 30
0.0
 10
90.7696532976201
 20
-126.007123449401
 30
0.0
 10
90.74829370561154
 20
-125.875865311413
 30
0.0
 10
90.72934568044266
 20
-125.7680338227247
 30
0.0
 10
90.72934568044266
 20
-125.7680338227247
 30
0.0
 10
90.95155433924128
 20
-125.7680338227247
 30
0.0
 10
90.95155433924128
 20
-125.7680338227247
 30
0.0
 10
91.00633135745676
 20
-125.9668158322236
 30
0.0
 10
91.13345538086247
 20
-125.9964436533967
 30
0.0
 10
91.22647295896422
 20
-125.9964436533967
 30
0.0
 10
91.36599932611684
 20
-125.9964436533967
 30
0.0
 10
91.51827254656489
 20
-125.896880393873
 30
0.0
 10
91.51827254656489
 20
-125.6643364486186
 30
0.0
 10
91.51827254656489
 20
-125.4083658540646
 30
0.0
 10
91.33843856223484
 20
-125.338430415714
 30
0.0
 10
91.2178602202511
 20
-125.338430415714
 30
0.0
 10
91.18616534178679
 20
-125.338430415714
 30
0.0
 10
91.04457191734303
 20
-125.338430415714
 30
0.0
 10
90.95568845382358
 20
-125.4676214964109
 30
0.0
 10
90.95568845382358
 20
-125.4676214964109
 30
0.0
 10
90.77998858407584
 20
-125.448673471242
 30
0.0
 10
90.77998858407584
 20
-125.448673471242
 30
0.0
 10
90.77998858407584
 20
-125.448673471242
 30
0.0
 10
90.90056692605958
 20
-124.6022135105161
 30
0.0
 10
90.90056692605958
 20
-124.6022135105161
 30
0.0
 10
90.90056692605958
 20
-124.6022135105161
 30
0.0
 10
91.67915850572605
 20
-124.6022135105161
 30
0.0
 10
91.67915850572605
 20
-124.6022135105161
 30
0.0
 10
91.67915850572605
 20
-124.6022135105161
 30
0.0
 10
91.67915850572605
 20
-124.7968614054327
 30
0.0
 10
91.67915850572605
 20
-124.7968614054327
 30
0.0
 10
91.67915850572605
 20
-124.7968614054327
 30
0.0
 10
91.0635199425119
 20
-124.7968614054327
 30
0.0
 10
91.0635199425119
 20
-124.7968614054327
 30
0.0
 10
91.0635199425119
 20
-124.7968614054327
 30
0.0
 10
90.99806312829216
 20
-125.2199191310214
 30
0.0
 10
90.99806312829216
 20
-125.2199191310214
 30
0.0
 10
91.0593858279296
 20
-125.186157195266
 30
0.0
 10
91.14172361002707
 20
-125.1458495780885
 30
0.0
 10
91.26023489471967
 20
-125.1458495780885
 30
0.0
 10
91.51413843198259
 20
-125.1458495780885
 30
0.0
 10
91.75116100136776
 20
-125.3322292438406
 30
0.0
 10
91.75116100136776
 20
-125.6453884234498
 30
0.0
 10
91.75116100136776
 20
-125.9626817176413
 30
0.0
 10
91.526885285278
 20
-126.1972927201868
 30
0.0
 10
91.22440590167307
 20
-126.1972927201868
 30
0.0
  0
HATCH
  5
87
330
65
100
AcDbEntity
  8
_U+30EC_U+30A4_U+30E4_U+30FC 1
 62
     7
420
 16777215
100
AcDbHatch
 10
0.0
 20
0.0
 30
0.0
210
0.0
220
0.0
230
1.0
  2
SOLID
 70
     1
 71
     0
 91
        1
 92
        1
 93
        1
 72
     4
 94
        3
 73
     0
 74
     1
 95
       53
 96
       49
 40
0.0
 40
0.0
 40
0.0
 40
0.0
 40
1.0
 40
1.0
 40
1.0
 40
2.0
 40
2.0
 40
2.0
 40
3.0
 40
3.0
 40
3.0
 40
4.0
 40
4.0
 40
4.0
 40
5.0
 40
5.0
 40
5.0
 40
6.0
 40
6.0
 40
6.0
 40
7.0
 40
7.0
 40
7.0
 40
8.0
 40
8.0
 40
8.0
 40
9.0
 40
9.0
 40
9.0
 40
10.0
 40
10.0
 40
10.0
 40
11.0
 40
11.0
 40
11.0
 40
12.0
 40
12.0
 40
12.0
 40
13.0
 40
13.0
 40
13.0
 40
14.0
 40
14.0
 40
14.0
 40
15.0
 40
15.0
 40
15.0
 40
16.0
 40
16.0
 40
16.0
 40
16.0
 10
91.22440590167307
 20
-126.1972927201868
 10
91.1462022341579
 20
-126.1972927201868
 10
91.04457191734303
 20
-126.1804117523091
 10
90.94294160052816
 20
-126.1170219953805
 10
90.7696532976201
 20
-126.007123449401
 10
90.74829370561154
 20
-125.875865311413
 10
90.72934568044266
 20
-125.7680338227247
 10
90.72934568044266
 20
-125.7680338227247
 10
90.95155433924128
 20
-125.7680338227247
 10
90.95155433924128
 20
-125.7680338227247
 10
91.00633135745676
 20
-125.9668158322236
 10
91.13345538086247
 20
-125.9964436533967
 10
91.22647295896422
 20
-125.9964436533967
 10
91.36599932611684
 20
-125.9964436533967
 10
91.51827254656489
 20
-125.896880393873
 10
91.51827254656489
 20
-125.6643364486186
 10
91.51827254656489
 20
-125.4083658540646
 10
91.33843856223484
 20
-125.338430415714
 10
91.2178602202511
 20
-125.338430415714
 10
91.18616534178679
 20
-125.338430415714
 10
91.04457191734303
 20
-125.338430415714
 10
90.95568845382358
 20
-125.4676214964109
 10
90.95568845382358
 20
-125.4676214964109
 10
90.77998858407584
 20
-125.448673471242
 10
90.77998858407584
 20
-125.448673471242
 10
90.77998858407584
 20
-125.448673471242
 10
90.90056692605958
 20
-124.6022135105161
 10
90.90056692605958
 20
-124.6022135105161
 10
90.90056692605958
 20
-124.6022135105161
 10
91.67915850572605
 20
-124.6022135105161
 10
91.67915850572605
 20
-124.6022135105161
 10
91.67915850572605
 20
-124.6022135105161
 10
91.67915850572605
 20
-124.7968614054327
 10
91.67915850572605
 20
-124.7968614054327
 10
91.67915850572605
 20
-124.7968614054327
 10
91.0635199425119
 20
-124.7968614054327
 10
91.0635199425119
 20
-124.7968614054327
 10
91.0635199425119
 20
-124.7968614054327
 10
90.99806312829216
 20
-125.2199191310214
 10
90.99806312829216
 20
-125.2199191310214
 10
91.0593858279296
 20
-125.186157195266
 10
91.14172361002707
 20
-125.1458495780885
 10
91.26023489471967
 20
-125.1458495780885
 10
91.51413843198259
 20
-125.1458495780885
 10
91.75116100136776
 20
-125.3322292438406
 10
91.75116100136776
 20
-125.6453884234498
 10
91.75116100136776
 20
-125.9626817176413
 10
91.526885285278
 20
-126.1972927201868
 10
91.22440590167307
 20
-126.1972927201868
 97
        0
 97
        0
 75
     2
 76
     1
 98
        0
  0
ENDBLK
  5
68
330
65
100
AcDbEntity
  8
0
100
AcDbBlockEnd
  0
BLOCK
  5
8A
330
88
100
AcDbEntity
  8
0
100
AcDbBlockBegin
  2
block 4
 70
     0
 10
0.0
 20
0.0
 30
0.0
  3
block 4
  1

  0
SPLINE
  5
8C
330
88
100
AcDbEntity
  8
_U+30EC_U+30A4_U+30E4_U+30FC 1
370
     0
100
AcDbSpline
210
0.0
220
0.0
230
1.0
 70
    11
 71
     3
 72
    62
 73
    58
 74
     0
 42
0.0000000001
 43
0.0000000001
 12
1.0
 22
0.0
 32
0.0
 13
1.0
 23
0.0
 33
0.0
 40
0.0
 40
0.0
 40
0.0
 40
0.0
 40
1.0
 40
1.0
 40
1.0
 40
2.0
 40
2.0
 40
2.0
 40
3.0
 40
3.0
 40
3.0
 40
4.0
 40
4.0
 40
4.0
 40
5.0
 40
5.0
 40
5.0
 40
6.0
 40
6.0
 40
6.0
 40
7.0
 40
7.0
 40
7.0
 40
8.0
 40
8.0
 40
8.0
 40
9.0
 40
9.0
 40
9.0
 40
10.0
 40
10.0
 40
10.0
 40
11.0
 40
11.0
 40
11.0
 40
12.0
 40
12.0
 40
12.0
 40
13.0
 40
13.0
 40
13.0
 40
14.0
 40
14.0
 40
14.0
 40
15.0
 40
15.0
 40
15.0
 40
16.0
 40
16.0
 40
16.0
 40
17.0
 40
17.0
 40
17.0
 40
18.0
 40
18.0
 40
18.0
 40
19.0
 40
19.0
 40
19.0
 40
19.0
 10
88.0683539276357
 20
-128.3205050677463
 30
0.0
 10
88.04079316375369
 20
-128.4242024418523
 30
0.0
 10
88.03218042504056
 20
-128.4727782881943
 30
0.0
 10
88.03218042504056
 20
-128.5151529626629
 30
0.0
 10
88.03218042504056
 20
-128.5151529626629
 30
0.0
 10
87.83787703967248
 20
-128.5151529626629
 30
0.0
 10
87.83787703967248
 20
-128.5151529626629
 30
0.0
 10
87.8588921221325
 20
-128.4748453454854
 30
0.0
 10
87.87784014730138
 20
-128.4262694991434
 30
0.0
 10
87.90540091118338
 20
-128.3184380104551
 30
0.0
 10
87.90540091118338
 20
-128.3184380104551
 30
0.0
 10
87.9222818790611
 20
-128.2612494254
 30
0.0
 10
87.9222818790611
 20
-128.2612494254
 30
0.0
 10
87.80170353707736
 20
-128.2274874896445
 30
0.0
 10
87.74038083743991
 20
-128.1913139870494
 30
0.0
 10
87.67285696592901
 20
-128.1193114914077
 30
0.0
 10
87.58604055970072
 20
-128.0242268560148
 30
0.0
 10
87.53746471335869
 20
-127.8974473421576
 30
0.0
 10
87.53746471335869
 20
-127.7575764654564
 30
0.0
 10
87.53746471335869
 20
-127.5587944559575
 30
0.0
 10
87.62600366732961
 20
-127.3706922424629
 30
0.0
 10
87.77862139732618
 20
-127.2501139004791
 30
0.0
 10
87.85682506484136
 20
-127.186379634002
 30
0.0
 10
87.9539767575254
 20
-127.1398708449511
 30
0.0
 10
88.05974118892257
 20
-127.1188557624911
 30
0.0
 10
88.10866154481312
 20
-127.1081759664869
 30
0.0
 10
88.14862465244201
 20
-127.1040418519046
 30
0.0
 10
88.2354410586703
 20
-127.0999077373223
 30
0.0
 10
88.2354410586703
 20
-127.0999077373223
 30
0.0
 10
88.29262964372546
 20
-126.8883788745279
 30
0.0
 10
88.29262964372546
 20
-126.8883788745279
 30
0.0
 10
88.32019040760746
 20
-126.7802028762911
 30
0.0
 10
88.33259275135435
 20
-126.7209472339448
 30
0.0
 10
88.33913843277634
 20
-126.655490419725
 30
0.0
 10
88.33913843277634
 20
-126.655490419725
 30
0.0
 10
88.53378632769295
 20
-126.655490419725
 30
0.0
 10
88.53378632769295
 20
-126.655490419725
 30
0.0
 10
88.50622556381094
 20
-126.710611947489
 30
0.0
 10
88.48934459593322
 20
-126.7571207365399
 30
0.0
 10
88.45558266017777
 20
-126.8839002503971
 30
0.0
 10
88.45558266017777
 20
-126.8839002503971
 30
0.0
 10
88.39425996054032
 20
-127.1081759664869
 30
0.0
 10
88.39425996054032
 20
-127.1081759664869
 30
0.0
 10
88.51690535981523
 20
-127.1357367303688
 30
0.0
 10
88.58236217403497
 20
-127.1694986661243
 30
0.0
 10
88.6543646696767
 20
-127.2435682190572
 30
0.0
 10
88.75151636236073
 20
-127.3410644212897
 30
0.0
 10
88.80457083283359
 20
-127.4719780497292
 30
0.0
 10
88.80457083283359
 20
-127.620117155595
 30
0.0
 10
88.80457083283359
 20
-127.8213107319336
 30
0.0
 10
88.71775442660528
 20
-128.0032117735548
 30
0.0
 10
88.5675482634484
 20
-128.1258571728297
 30
0.0
 10
88.43835718275153
 20
-128.2295545469357
 30
0.0
 10
88.30537649702089
 20
-128.2719292214042
 30
0.0
 10
88.08110078093112
 20
-128.2781303932777
 30
0.0
 10
88.08110078093112
 20
-128.2781303932777
 30
0.0
 10
88.0683539276357
 20
-128.3205050677463
 30
0.0
 10
88.0683539276357
 20
-128.3205050677463
 30
0.0
  0
SPLINE
  5
8D
330
88
100
AcDbEntity
  8
_U+30EC_U+30A4_U+30E4_U+30FC 1
370
     0
100
AcDbSpline
210
0.0
220
0.0
230
1.0
 70
    11
 71
     3
 72
    20
 73
    16
 74
     0
 42
0.0000000001
 43
0.0000000001
 12
1.0
 22
0.0
 32
0.0
 13
1.0
 23
0.0
 33
0.0
 40
0.0
 40
0.0
 40
0.0
 40
0.0
 40
1.0
 40
1.0
 40
1.0
 40
2.0
 40
2.0
 40
2.0
 40
3.0
 40
3.0
 40
3.0
 40
4.0
 40
4.0
 40
4.0
 40
5.0
 40
5.0
 40
5.0
 40
5.0
 10
88.20167912291487
 20
-127.2373670471837
 30
0.0
 10
88.04286022104485
 20
-127.248046843188
 30
0.0
 10
87.9498426429431
 20
-127.2859428935257
 30
0.0
 10
87.85682506484136
 20
-127.3768934143363
 30
0.0
 10
87.75519474802648
 20
-127.4743896165689
 30
0.0
 10
87.70007322026248
 20
-127.6097818691392
 30
0.0
 10
87.70007322026248
 20
-127.7555094081653
 30
0.0
 10
87.70007322026248
 20
-127.8698865782756
 30
0.0
 10
87.73831378014876
 20
-127.9649712136685
 30
0.0
 10
87.81031627579048
 20
-128.0369737093102
 30
0.0
 10
87.85682506484136
 20
-128.0814154410699
 30
0.0
 10
87.8905870005968
 20
-128.10243052353
 30
0.0
 10
87.96052243894738
 20
-128.1237901155385
 30
0.0
 10
87.96052243894738
 20
-128.1237901155385
 30
0.0
 10
88.20167912291487
 20
-127.2373670471837
 30
0.0
 10
88.20167912291487
 20
-127.2373670471837
 30
0.0
  0
SPLINE
  5
8E
330
88
100
AcDbEntity
  8
_U+30EC_U+30A4_U+30E4_U+30FC 1
370
     0
100
AcDbSpline
210
0.0
220
0.0
230
1.0
 70
    11
 71
     3
 72
    20
 73
    16
 74
     0
 42
0.0000000001
 43
0.0000000001
 12
1.0
 22
0.0
 32
0.0
 13
1.0
 23
0.0
 33
0.0
 40
0.0
 40
0.0
 40
0.0
 40
0.0
 40
1.0
 40
1.0
 40
1.0
 40
2.0
 40
2.0
 40
2.0
 40
3.0
 40
3.0
 40
3.0
 40
4.0
 40
4.0
 40
4.0
 40
5.0
 40
5.0
 40
5.0
 40
5.0
 10
88.11486271668656
 20
-128.1427381407074
 30
0.0
 10
88.21201440937061
 20
-128.1386040261251
 30
0.0
 10
88.25438908383919
 20
-128.1299912874119
 30
0.0
 10
88.31571178347663
 20
-128.1069091476608
 30
0.0
 10
88.5124267356844
 20
-128.0328395947279
 30
0.0
 10
88.64161781638127
 20
-127.8423258143936
 30
0.0
 10
88.64161781638127
 20
-127.626662837017
 30
0.0
 10
88.64161781638127
 20
-127.5040174377421
 30
0.0
 10
88.5951090273304
 20
-127.3917073249229
 30
0.0
 10
88.51690535981523
 20
-127.3217718865723
 30
0.0
 10
88.4724636280555
 20
-127.2818087789434
 30
0.0
 10
88.43422306816923
 20
-127.262516244226
 30
0.0
 10
88.35601940065405
 20
-127.2456352763483
 30
0.0
 10
88.35601940065405
 20
-127.2456352763483
 30
0.0
 10
88.11486271668656
 20
-128.1427381407074
 30
0.0
 10
88.11486271668656
 20
-128.1427381407074
 30
0.0
  0
HATCH
  5
8F
330
88
100
AcDbEntity
  8
_U+30EC_U+30A4_U+30E4_U+30FC 1
 62
     7
420
 16777215
100
AcDbHatch
 10
0.0
 20
0.0
 30
0.0
210
0.0
220
0.0
230
1.0
  2
SOLID
 70
     1
 71
     0
 91
        3
 92
        1
 93
        1
 72
     4
 94
        3
 73
     0
 74
     1
 95
       62
 96
       58
 40
0.0
 40
0.0
 40
0.0
 40
0.0
 40
1.0
 40
1.0
 40
1.0
 40
2.0
 40
2.0
 40
2.0
 40
3.0
 40
3.0
 40
3.0
 40
4.0
 40
4.0
 40
4.0
 40
5.0
 40
5.0
 40
5.0
 40
6.0
 40
6.0
 40
6.0
 40
7.0
 40
7.0
 40
7.0
 40
8.0
 40
8.0
 40
8.0
 40
9.0
 40
9.0
 40
9.0
 40
10.0
 40
10.0
 40
10.0
 40
11.0
 40
11.0
 40
11.0
 40
12.0
 40
12.0
 40
12.0
 40
13.0
 40
13.0
 40
13.0
 40
14.0
 40
14.0
 40
14.0
 40
15.0
 40
15.0
 40
15.0
 40
16.0
 40
16.0
 40
16.0
 40
17.0
 40
17.0
 40
17.0
 40
18.0
 40
18.0
 40
18.0
 40
19.0
 40
19.0
 40
19.0
 40
19.0
 10
88.0683539276357
 20
-128.3205050677463
 10
88.04079316375369
 20
-128.4242024418523
 10
88.03218042504056
 20
-128.4727782881943
 10
88.03218042504056
 20
-128.5151529626629
 10
88.03218042504056
 20
-128.5151529626629
 10
87.83787703967248
 20
-128.5151529626629
 10
87.83787703967248
 20
-128.5151529626629
 10
87.8588921221325
 20
-128.4748453454854
 10
87.87784014730138
 20
-128.4262694991434
 10
87.90540091118338
 20
-128.3184380104551
 10
87.90540091118338
 20
-128.3184380104551
 10
87.9222818790611
 20
-128.2612494254
 10
87.9222818790611
 20
-128.2612494254
 10
87.80170353707736
 20
-128.2274874896445
 10
87.74038083743991
 20
-128.1913139870494
 10
87.67285696592901
 20
-128.1193114914077
 10
87.58604055970072
 20
-128.0242268560148
 10
87.53746471335869
 20
-127.8974473421576
 10
87.53746471335869
 20
-127.7575764654564
 10
87.53746471335869
 20
-127.5587944559575
 10
87.62600366732961
 20
-127.3706922424629
 10
87.77862139732618
 20
-127.2501139004791
 10
87.85682506484136
 20
-127.186379634002
 10
87.9539767575254
 20
-127.1398708449511
 10
88.05974118892257
 20
-127.1188557624911
 10
88.10866154481312
 20
-127.1081759664869
 10
88.14862465244201
 20
-127.1040418519046
 10
88.2354410586703
 20
-127.0999077373223
 10
88.2354410586703
 20
-127.0999077373223
 10
88.29262964372546
 20
-126.8883788745279
 10
88.29262964372546
 20
-126.8883788745279
 10
88.32019040760746
 20
-126.7802028762911
 10
88.33259275135435
 20
-126.7209472339448
 10
88.33913843277634
 20
-126.655490419725
 10
88.33913843277634
 20
-126.655490419725
 10
88.53378632769295
 20
-126.655490419725
 10
88.53378632769295
 20
-126.655490419725
 10
88.50622556381094
 20
-126.710611947489
 10
88.48934459593322
 20
-126.7571207365399
 10
88.45558266017777
 20
-126.8839002503971
 10
88.45558266017777
 20
-126.8839002503971
 10
88.39425996054032
 20
-127.1081759664869
 10
88.39425996054032
 20
-127.1081759664869
 10
88.51690535981523
 20
-127.1357367303688
 10
88.58236217403497
 20
-127.1694986661243
 10
88.6543646696767
 20
-127.2435682190572
 10
88.75151636236073
 20
-127.3410644212897
 10
88.80457083283359
 20
-127.4719780497292
 10
88.80457083283359
 20
-127.620117155595
 10
88.80457083283359
 20
-127.8213107319336
 10
88.71775442660528
 20
-128.0032117735548
 10
88.5675482634484
 20
-128.1258571728297
 10
88.43835718275153
 20
-128.2295545469357
 10
88.30537649702089
 20
-128.2719292214042
 10
88.08110078093112
 20
-128.2781303932777
 10
88.08110078093112
 20
-128.2781303932777
 10
88.0683539276357
 20
-128.3205050677463
 10
88.0683539276357
 20
-128.3205050677463
 97
        0
 97
        0
 92
        1
 93
        1
 72
     4
 94
        3
 73
     0
 74
     1
 95
       20
 96
       16
 40
0.0
 40
0.0
 40
0.0
 40
0.0
 40
1.0
 40
1.0
 40
1.0
 40
2.0
 40
2.0
 40
2.0
 40
3.0
 40
3.0
 40
3.0
 40
4.0
 40
4.0
 40
4.0
 40
5.0
 40
5.0
 40
5.0
 40
5.0
 10
88.20167912291487
 20
-127.2373670471837
 10
88.04286022104485
 20
-127.248046843188
 10
87.9498426429431
 20
-127.2859428935257
 10
87.85682506484136
 20
-127.3768934143363
 10
87.75519474802648
 20
-127.4743896165689
 10
87.70007322026248
 20
-127.6097818691392
 10
87.70007322026248
 20
-127.7555094081653
 10
87.70007322026248
 20
-127.8698865782756
 10
87.73831378014876
 20
-127.9649712136685
 10
87.81031627579048
 20
-128.0369737093102
 10
87.85682506484136
 20
-128.0814154410699
 10
87.8905870005968
 20
-128.10243052353
 10
87.96052243894738
 20
-128.1237901155385
 10
87.96052243894738
 20
-128.1237901155385
 10
88.20167912291487
 20
-127.2373670471837
 10
88.20167912291487
 20
-127.2373670471837
 97
        0
 97
        0
 92
        1
 93
        1
 72
     4
 94
        3
 73
     0
 74
     1
 95
       20
 96
       16
 40
0.0
 40
0.0
 40
0.0
 40
0.0
 40
1.0
 40
1.0
 40
1.0
 40
2.0
 40
2.0
 40
2.0
 40
3.0
 40
3.0
 40
3.0
 40
4.0
 40
4.0
 40
4.0
 40
5.0
 40
5.0
 40
5.0
 40
5.0
 10
88.11486271668656
 20
-128.1427381407074
 10
88.21201440937061
 20
-128.1386040261251
 10
88.25438908383919
 20
-128.1299912874119
 10
88.31571178347663
 20
-128.1069091476608
 10
88.5124267356844
 20
-128.0328395947279
 10
88.64161781638127
 20
-127.8423258143936
 10
88.64161781638127
 20
-127.626662837017
 10
88.64161781638127
 20
-127.5040174377421
 10
88.5951090273304
 20
-127.3917073249229
 10
88.51690535981523
 20
-127.3217718865723
 10
88.4724636280555
 20
-127.2818087789434
 10
88.43422306816923
 20
-127.262516244226
 10
88.35601940065405
 20
-127.2456352763483
 10
88.35601940065405
 20
-127.2456352763483
 10
88.11486271668656
 20
-128.1427381407074
 10
88.11486271668656
 20
-128.1427381407074
 97
        0
 97
        0
 75
     2
 76
     1
 98
        0
  0
ENDBLK
  5
8B
330
88
100
AcDbEntity
  8
0
100
AcDbBlockEnd
  0
BLOCK
  5
92
330
90
100
AcDbEntity
  8
0
100
AcDbBlockBegin
  2
block 5
 70
     0
 10
0.0
 20
0.0
 30
0.0
  3
block 5
  1

  0
SPLINE
  5
94
330
90
100
AcDbEntity
  8
_U+30EC_U+30A4_U+30E4_U+30FC 1
370
     0
100
AcDbSpline
210
0.0
220
0.0
230
1.0
 70
    11
 71
     3
 72
    32
 73
    28
 74
     0
 42
0.0000000001
 43
0.0000000001
 12
1.0
 22
0.0
 32
0.0
 13
1.0
 23
0.0
 33
0.0
 40
0.0
 40
0.0
 40
0.0
 40
0.0
 40
1.0
 40
1.0
 40
1.0
 40
2.0
 40
2.0
 40
2.0
 40
3.0
 40
3.0
 40
3.0
 40
4.0
 40
4.0
 40
4.0
 40
5.0
 40
5.0
 40
5.0
 40
6.0
 40
6.0
 40
6.0
 40
7.0
 40
7.0
 40
7.0
 40
8.0
 40
8.0
 40
8.0
 40
9.0
 40
9.0
 40
9.0
 40
9.0
 10
89.52252873195965
 20
-128.3139593863243
 30
0.0
 10
89.00645342826923
 20
-128.3139593863243
 30
0.0
 10
88.9978406895561
 20
-127.7599880322961
 30
0.0
 10
88.9978406895561
 20
-127.5460476026621
 30
0.0
 10
88.9978406895561
 20
-127.3155707146989
 30
0.0
 10
89.0171332242735
 20
-126.6682372730205
 30
0.0
 10
89.56076929184593
 20
-126.6682372730205
 30
0.0
 10
89.73405759475399
 20
-126.6682372730205
 30
0.0
 10
89.9796929028523
 20
-126.738172711371
 30
0.0
 10
90.01758895319006
 20
-127.0702799161491
 30
0.0
 10
90.01758895319006
 20
-127.0702799161491
 30
0.0
 10
89.80399303310456
 20
-127.0702799161491
 30
0.0
 10
89.80399303310456
 20
-127.0702799161491
 30
0.0
 10
89.79331323710029
 20
-127.013091331094
 30
0.0
 10
89.76161835863599
 20
-126.8649522252282
 30
0.0
 10
89.55870223455477
 20
-126.8649522252282
 30
0.0
 10
89.26655813740558
 20
-126.8649522252282
 30
0.0
 10
89.22659502977669
 20
-127.192925315424
 30
0.0
 10
89.21384817648126
 20
-127.3979084967964
 30
0.0
 10
89.30686575458301
 20
-127.3197048292812
 30
0.0
 10
89.37473413564243
 20
-127.2604491869349
 30
0.0
 10
89.55663517726363
 20
-127.2604491869349
 30
0.0
 10
89.73646916159366
 20
-127.2604491869349
 30
0.0
 10
90.0389485451986
 20
-127.3686251851717
 30
0.0
 10
90.0389485451986
 20
-127.7748019428827
 30
0.0
 10
90.0389485451986
 20
-128.0941622943654
 30
0.0
 10
89.83982202615115
 20
-128.3139593863243
 30
0.0
 10
89.52252873195965
 20
-128.3139593863243
 30
0.0
  0
SPLINE
  5
95
330
90
100
AcDbEntity
  8
_U+30EC_U+30A4_U+30E4_U+30FC 1
370
     0
100
AcDbSpline
210
0.0
220
0.0
230
1.0
 70
    11
 71
     3
 72
    17
 73
    13
 74
     0
 42
0.0000000001
 43
0.0000000001
 12
1.0
 22
0.0
 32
0.0
 13
1.0
 23
0.0
 33
0.0
 40
0.0
 40
0.0
 40
0.0
 40
0.0
 40
1.0
 40
1.0
 40
1.0
 40
2.0
 40
2.0
 40
2.0
 40
3.0
 40
3.0
 40
3.0
 40
4.0
 40
4.0
 40
4.0
 40
4.0
 10
89.53940969983738
 20
-127.4550970818515
 30
0.0
 10
89.27723793340986
 20
-127.4550970818515
 30
0.0
 10
89.23934188307211
 20
-127.6666259446458
 30
0.0
 10
89.23934188307211
 20
-127.7830701720473
 30
0.0
 10
89.23934188307211
 20
-127.958770041795
 30
0.0
 10
89.33442651846501
 20
-128.1217230582473
 30
0.0
 10
89.51839461737735
 20
-128.1217230582473
 30
0.0
 10
89.6389729593611
 20
-128.1217230582473
 30
0.0
 10
89.81467282910883
 20
-128.0624674159011
 30
0.0
 10
89.81467282910883
 20
-127.7768690001738
 30
0.0
 10
89.81467282910883
 20
-127.5525932840841
 30
0.0
 10
89.67514646195622
 20
-127.4550970818515
 30
0.0
 10
89.53940969983738
 20
-127.4550970818515
 30
0.0
  0
HATCH
  5
96
330
90
100
AcDbEntity
  8
_U+30EC_U+30A4_U+30E4_U+30FC 1
 62
     7
420
 16777215
100
AcDbHatch
 10
0.0
 20
0.0
 30
0.0
210
0.0
220
0.0
230
1.0
  2
SOLID
 70
     1
 71
     0
 91
        2
 92
        1
 93
        1
 72
     4
 94
        3
 73
     0
 74
     1
 95
       32
 96
       28
 40
0.0
 40
0.0
 40
0.0
 40
0.0
 40
1.0
 40
1.0
 40
1.0
 40
2.0
 40
2.0
 40
2.0
 40
3.0
 40
3.0
 40
3.0
 40
4.0
 40
4.0
 40
4.0
 40
5.0
 40
5.0
 40
5.0
 40
6.0
 40
6.0
 40
6.0
 40
7.0
 40
7.0
 40
7.0
 40
8.0
 40
8.0
 40
8.0
 40
9.0
 40
9.0
 40
9.0
 40
9.0
 10
89.52252873195965
 20
-128.3139593863243
 10
89.00645342826923
 20
-128.3139593863243
 10
88.9978406895561
 20
-127.7599880322961
 10
88.9978406895561
 20
-127.5460476026621
 10
88.9978406895561
 20
-127.3155707146989
 10
89.0171332242735
 20
-126.6682372730205
 10
89.56076929184593
 20
-126.6682372730205
 10
89.73405759475399
 20
-126.6682372730205
 10
89.9796929028523
 20
-126.738172711371
 10
90.01758895319006
 20
-127.0702799161491
 10
90.01758895319006
 20
-127.0702799161491
 10
89.80399303310456
 20
-127.0702799161491
 10
89.80399303310456
 20
-127.0702799161491
 10
89.79331323710029
 20
-127.013091331094
 10
89.76161835863599
 20
-126.8649522252282
 10
89.55870223455477
 20
-126.8649522252282
 10
89.26655813740558
 20
-126.8649522252282
 10
89.22659502977669
 20
-127.192925315424
 10
89.21384817648126
 20
-127.3979084967964
 10
89.30686575458301
 20
-127.3197048292812
 10
89.37473413564243
 20
-127.2604491869349
 10
89.55663517726363
 20
-127.2604491869349
 10
89.73646916159366
 20
-127.2604491869349
 10
90.0389485451986
 20
-127.3686251851717
 10
90.0389485451986
 20
-127.7748019428827
 10
90.0389485451986
 20
-128.0941622943654
 10
89.83982202615115
 20
-128.3139593863243
 10
89.52252873195965
 20
-128.3139593863243
 97
        0
 97
        0
 92
        1
 93
        1
 72
     4
 94
        3
 73
     0
 74
     1
 95
       17
 96
       13
 40
0.0
 40
0.0
 40
0.0
 40
0.0
 40
1.0
 40
1.0
 40
1.0
 40
2.0
 40
2.0
 40
2.0
 40
3.0
 40
3.0
 40
3.0
 40
4.0
 40
4.0
 40
4.0
 40
4.0
 10
89.53940969983738
 20
-127.4550970818515
 10
89.27723793340986
 20
-127.4550970818515
 10
89.23934188307211
 20
-127.6666259446458
 10
89.23934188307211
 20
-127.7830701720473
 10
89.23934188307211
 20
-127.958770041795
 10
89.33442651846501
 20
-128.1217230582473
 10
89.51839461737735
 20
-128.1217230582473
 10
89.6389729593611
 20
-128.1217230582473
 10
89.81467282910883
 20
-128.0624674159011
 10
89.81467282910883
 20
-127.7768690001738
 10
89.81467282910883
 20
-127.5525932840841
 10
89.67514646195622
 20
-127.4550970818515
 10
89.53940969983738
 20
-127.4550970818515
 97
        0
 97
        0
 75
     2
 76
     1
 98
        0
  0
ENDBLK
  5
93
330
90
100
AcDbEntity
  8
0
100
AcDbBlockEnd
  0
BLOCK
  5
99
330
97
100
AcDbEntity
  8
0
100
AcDbBlockBegin
  2
block 6
 70
     0
 10
0.0
 20
0.0
 30
0.0
  3
block 6
  1

  0
ENDBLK
  5
9A
330
97
100
AcDbEntity
  8
0
100
AcDbBlockEnd
  0
BLOCK
  5
9D
330
9B
100
AcDbEntity
  8
0
100
AcDbBlockBegin
  2
block 7
 70
     0
 10
0.0
 20
0.0
 30
0.0
  3
block 7
  1

  0
SPLINE
  5
9F
330
9B
100
AcDbEntity
  8
_U+30EC_U+30A4_U+30E4_U+30FC 1
370
     0
100
AcDbSpline
210
0.0
220
0.0
230
1.0
 70
    11
 71
     3
 72
    89
 73
    85
 74
     0
 42
0.0000000001
 43
0.0000000001
 12
1.0
 22
0.0
 32
0.0
 13
1.0
 23
0.0
 33
0.0
 40
0.0
 40
0.0
 40
0.0
 40
0.0
 40
1.0
 40
1.0
 40
1.0
 40
2.0
 40
2.0
 40
2.0
 40
3.0
 40
3.0
 40
3.0
 40
4.0
 40
4.0
 40
4.0
 40
5.0
 40
5.0
 40
5.0
 40
6.0
 40
6.0
 40
6.0
 40
7.0
 40
7.0
 40
7.0
 40
8.0
 40
8.0
 40
8.0
 40
9.0
 40
9.0
 40
9.0
 40
10.0
 40
10.0
 40
10.0
 40
11.0
 40
11.0
 40
11.0
 40
12.0
 40
12.0
 40
12.0
 40
13.0
 40
13.0
 40
13.0
 40
14.0
 40
14.0
 40
14.0
 40
15.0
 40
15.0
 40
15.0
 40
16.0
 40
16.0
 40
16.0
 40
17.0
 40
17.0
 40
17.0
 40
18.0
 40
18.0
 40
18.0
 40
19.0
 40
19.0
 40
19.0
 40
20.0
 40
20.0
 40
20.0
 40
21.0
 40
21.0
 40
21.0
 40
22.0
 40
22.0
 40
22.0
 40
23.0
 40
23.0
 40
23.0
 40
24.0
 40
24.0
 40
24.0
 40
25.0
 40
25.0
 40
25.0
 40
26.0
 40
26.0
 40
26.0
 40
27.0
 40
27.0
 40
27.0
 40
28.0
 40
28.0
 40
28.0
 40
28.0
 10
93.80822751561045
 20
-127.2649278110657
 30
0.0
 10
93.7978922291547
 20
-127.5398464307887
 30
0.0
 10
93.78721243315043
 20
-127.799951139925
 30
0.0
 10
93.59876571010726
 20
-128.0349066520191
 30
0.0
 10
93.43822426049462
 20
-128.2357557188091
 30
0.0
 10
93.25839027616458
 20
-128.3267062396197
 30
0.0
 10
93.1843207232317
 20
-128.364946799506
 30
0.0
 10
93.1843207232317
 20
-128.364946799506
 30
0.0
 10
93.0024196816105
 20
-128.2230088655137
 30
0.0
 10
93.0024196816105
 20
-128.2230088655137
 30
0.0
 10
93.55673554518721
 20
-127.9670382709596
 30
0.0
 10
93.59463159552496
 20
-127.7007323899498
 30
0.0
 10
93.60324433423808
 20
-127.262516244226
 30
0.0
 10
93.60324433423808
 20
-127.262516244226
 30
0.0
 10
93.08475746370799
 20
-127.262516244226
 30
0.0
 10
93.08475746370799
 20
-127.262516244226
 30
0.0
 10
93.08475746370799
 20
-127.262516244226
 30
0.0
 10
93.08475746370799
 20
-127.3917073249229
 30
0.0
 10
93.08475746370799
 20
-127.3917073249229
 30
0.0
 10
93.08475746370799
 20
-127.592556391713
 30
0.0
 10
93.09130314512996
 20
-127.6921196512367
 30
0.0
 10
93.10818411300768
 20
-127.7851372293384
 30
0.0
 10
93.10818411300768
 20
-127.7851372293384
 30
0.0
 10
92.88597545420906
 20
-127.7851372293384
 30
0.0
 10
92.88597545420906
 20
-127.7851372293384
 30
0.0
 10
92.89458819292219
 20
-127.7155463005364
 30
0.0
 10
92.90699053666908
 20
-127.4340819993915
 30
0.0
 10
92.90699053666908
 20
-127.3706922424629
 30
0.0
 10
92.90699053666908
 20
-127.3706922424629
 30
0.0
 10
92.90699053666908
 20
-127.262516244226
 30
0.0
 10
92.90699053666908
 20
-127.262516244226
 30
0.0
 10
92.67858070599702
 20
-127.269061925648
 30
0.0
 10
92.61312389177728
 20
-127.269061925648
 30
0.0
 10
92.45430498990726
 20
-127.2797417216523
 30
0.0
 10
92.45430498990726
 20
-127.2797417216523
 30
0.0
 10
92.45430498990726
 20
-127.0744140307314
 30
0.0
 10
92.45430498990726
 20
-127.0744140307314
 30
0.0
 10
92.57936195602183
 20
-127.0830267694445
 30
0.0
 10
92.7802110228119
 20
-127.0912949986091
 30
0.0
 10
92.90699053666908
 20
-127.0912949986091
 30
0.0
 10
92.90699053666908
 20
-127.0912949986091
 30
0.0
 10
92.90699053666908
 20
-127.0509873814317
 30
0.0
 10
92.90699053666908
 20
-127.0509873814317
 30
0.0
 10
92.90699053666908
 20
-126.8522053719328
 30
0.0
 10
92.90078936479564
 20
-126.786748557713
 30
0.0
 10
92.88804251150022
 20
-126.6365423945561
 30
0.0
 10
92.88804251150022
 20
-126.6365423945561
 30
0.0
 10
93.09543725971226
 20
-126.655490419725
 30
0.0
 10
93.09543725971226
 20
-126.655490419725
 30
0.0
 10
93.13574487688967
 20
-126.6596245343073
 30
0.0
 10
93.16296113122316
 20
-126.6641031584382
 30
0.0
 10
93.16296113122316
 20
-126.6937309796113
 30
0.0
 10
93.16296113122316
 20
-126.7233588007844
 30
0.0
 10
93.13126625275885
 20
-126.7423068259533
 30
0.0
 10
93.10163843158571
 20
-126.759187793831
 30
0.0
 10
93.09543725971226
 20
-126.8163763788862
 30
0.0
 10
93.08475746370799
 20
-126.8945800464014
 30
0.0
 10
93.08475746370799
 20
-127.0912949986091
 30
0.0
 10
93.08475746370799
 20
-127.0912949986091
 30
0.0
 10
93.60531139152923
 20
-127.0912949986091
 30
0.0
 10
93.60531139152923
 20
-127.0912949986091
 30
0.0
 10
93.60531139152923
 20
-126.9624484274608
 30
0.0
 10
93.59463159552496
 20
-126.7168131193625
 30
0.0
 10
93.56707083164297
 20
-126.5921006627964
 30
0.0
 10
93.56707083164297
 20
-126.5921006627964
 30
0.0
 10
93.78721243315043
 20
-126.6110486879653
 30
0.0
 10
93.78721243315043
 20
-126.6110486879653
 30
0.0
 10
93.85266924737017
 20
-126.6175943693873
 30
0.0
 10
93.8612819860833
 20
-126.6175943693873
 30
0.0
 10
93.8612819860833
 20
-126.6448106237207
 30
0.0
 10
93.8612819860833
 20
-126.6575574770162
 30
0.0
 10
93.85473630466132
 20
-126.6641031584382
 30
0.0
 10
93.802026343737
 20
-126.7126790047802
 30
0.0
 10
93.80409340102815
 20
-126.786748557713
 30
0.0
 10
93.80409340102815
 20
-126.8184434361773
 30
0.0
 10
93.80822751561045
 20
-127.089227941318
 30
0.0
 10
94.03904891312219
 20
-127.0850938267357
 30
0.0
 10
94.12552080980196
 20
-127.0785481453137
 30
0.0
 10
94.19545624815252
 20
-127.0744140307314
 30
0.0
 10
94.19545624815252
 20
-127.0744140307314
 30
0.0
 10
94.19545624815252
 20
-127.2797417216523
 30
0.0
 10
94.19545624815252
 20
-127.2797417216523
 30
0.0
 10
94.11311846605506
 20
-127.2752630975215
 30
0.0
 10
94.03457028899136
 20
-127.269061925648
 30
0.0
 10
93.80822751561045
 20
-127.2649278110657
 30
0.0
  0
HATCH
  5
A0
330
9B
100
AcDbEntity
  8
_U+30EC_U+30A4_U+30E4_U+30FC 1
 62
     7
420
 16777215
100
AcDbHatch
 10
0.0
 20
0.0
 30
0.0
210
0.0
220
0.0
230
1.0
  2
SOLID
 70
     1
 71
     0
 91
        1
 92
        1
 93
        1
 72
     4
 94
        3
 73
     0
 74
     1
 95
       89
 96
       85
 40
0.0
 40
0.0
 40
0.0
 40
0.0
 40
1.0
 40
1.0
 40
1.0
 40
2.0
 40
2.0
 40
2.0
 40
3.0
 40
3.0
 40
3.0
 40
4.0
 40
4.0
 40
4.0
 40
5.0
 40
5.0
 40
5.0
 40
6.0
 40
6.0
 40
6.0
 40
7.0
 40
7.0
 40
7.0
 40
8.0
 40
8.0
 40
8.0
 40
9.0
 40
9.0
 40
9.0
 40
10.0
 40
10.0
 40
10.0
 40
11.0
 40
11.0
 40
11.0
 40
12.0
 40
12.0
 40
12.0
 40
13.0
 40
13.0
 40
13.0
 40
14.0
 40
14.0
 40
14.0
 40
15.0
 40
15.0
 40
15.0
 40
16.0
 40
16.0
 40
16.0
 40
17.0
 40
17.0
 40
17.0
 40
18.0
 40
18.0
 40
18.0
 40
19.0
 40
19.0
 40
19.0
 40
20.0
 40
20.0
 40
20.0
 40
21.0
 40
21.0
 40
21.0
 40
22.0
 40
22.0
 40
22.0
 40
23.0
 40
23.0
 40
23.0
 40
24.0
 40
24.0
 40
24.0
 40
25.0
 40
25.0
 40
25.0
 40
26.0
 40
26.0
 40
26.0
 40
27.0
 40
27.0
 40
27.0
 40
28.0
 40
28.0
 40
28.0
 40
28.0
 10
93.80822751561045
 20
-127.2649278110657
 10
93.7978922291547
 20
-127.5398464307887
 10
93.78721243315043
 20
-127.799951139925
 10
93.59876571010726
 20
-128.0349066520191
 10
93.43822426049462
 20
-128.2357557188091
 10
93.25839027616458
 20
-128.3267062396197
 10
93.1843207232317
 20
-128.364946799506
 10
93.1843207232317
 20
-128.364946799506
 10
93.0024196816105
 20
-128.2230088655137
 10
93.0024196816105
 20
-128.2230088655137
 10
93.55673554518721
 20
-127.9670382709596
 10
93.59463159552496
 20
-127.7007323899498
 10
93.60324433423808
 20
-127.262516244226
 10
93.60324433423808
 20
-127.262516244226
 10
93.08475746370799
 20
-127.262516244226
 10
93.08475746370799
 20
-127.262516244226
 10
93.08475746370799
 20
-127.262516244226
 10
93.08475746370799
 20
-127.3917073249229
 10
93.08475746370799
 20
-127.3917073249229
 10
93.08475746370799
 20
-127.592556391713
 10
93.09130314512996
 20
-127.6921196512367
 10
93.10818411300768
 20
-127.7851372293384
 10
93.10818411300768
 20
-127.7851372293384
 10
92.88597545420906
 20
-127.7851372293384
 10
92.88597545420906
 20
-127.7851372293384
 10
92.89458819292219
 20
-127.7155463005364
 10
92.90699053666908
 20
-127.4340819993915
 10
92.90699053666908
 20
-127.3706922424629
 10
92.90699053666908
 20
-127.3706922424629
 10
92.90699053666908
 20
-127.262516244226
 10
92.90699053666908
 20
-127.262516244226
 10
92.67858070599702
 20
-127.269061925648
 10
92.61312389177728
 20
-127.269061925648
 10
92.45430498990726
 20
-127.2797417216523
 10
92.45430498990726
 20
-127.2797417216523
 10
92.45430498990726
 20
-127.0744140307314
 10
92.45430498990726
 20
-127.0744140307314
 10
92.57936195602183
 20
-127.0830267694445
 10
92.7802110228119
 20
-127.0912949986091
 10
92.90699053666908
 20
-127.0912949986091
 10
92.90699053666908
 20
-127.0912949986091
 10
92.90699053666908
 20
-127.0509873814317
 10
92.90699053666908
 20
-127.0509873814317
 10
92.90699053666908
 20
-126.8522053719328
 10
92.90078936479564
 20
-126.786748557713
 10
92.88804251150022
 20
-126.6365423945561
 10
92.88804251150022
 20
-126.6365423945561
 10
93.09543725971226
 20
-126.655490419725
 10
93.09543725971226
 20
-126.655490419725
 10
93.13574487688967
 20
-126.6596245343073
 10
93.16296113122316
 20
-126.6641031584382
 10
93.16296113122316
 20
-126.6937309796113
 10
93.16296113122316
 20
-126.7233588007844
 10
93.13126625275885
 20
-126.7423068259533
 10
93.10163843158571
 20
-126.759187793831
 10
93.09543725971226
 20
-126.8163763788862
 10
93.08475746370799
 20
-126.8945800464014
 10
93.08475746370799
 20
-127.0912949986091
 10
93.08475746370799
 20
-127.0912949986091
 10
93.60531139152923
 20
-127.0912949986091
 10
93.60531139152923
 20
-127.0912949986091
 10
93.60531139152923
 20
-126.9624484274608
 10
93.59463159552496
 20
-126.7168131193625
 10
93.56707083164297
 20
-126.5921006627964
 10
93.56707083164297
 20
-126.5921006627964
 10
93.78721243315043
 20
-126.6110486879653
 10
93.78721243315043
 20
-126.6110486879653
 10
93.85266924737017
 20
-126.6175943693873
 10
93.8612819860833
 20
-126.6175943693873
 10
93.8612819860833
 20
-126.6448106237207
 10
93.8612819860833
 20
-126.6575574770162
 10
93.85473630466132
 20
-126.6641031584382
 10
93.802026343737
 20
-126.7126790047802
 10
93.80409340102815
 20
-126.786748557713
 10
93.80409340102815
 20
-126.8184434361773
 10
93.80822751561045
 20
-127.089227941318
 10
94.03904891312219
 20
-127.0850938267357
 10
94.12552080980196
 20
-127.0785481453137
 10
94.19545624815252
 20
-127.0744140307314
 10
94.19545624815252
 20
-127.0744140307314
 10
94.19545624815252
 20
-127.2797417216523
 10
94.19545624815252
 20
-127.2797417216523
 10
94.11311846605506
 20
-127.2752630975215
 10
94.03457028899136
 20
-127.269061925648
 10
93.80822751561045
 20
-127.2649278110657
 97
        0
 97
        0
 75
     2
 76
     1
 98
        0
  0
ENDBLK
  5
9E
330
9B
100
AcDbEntity
  8
0
100
AcDbBlockEnd
  0
BLOCK
  5
A3
330
A1
100
AcDbEntity
  8
0
100
AcDbBlockBegin
  2
block 8
 70
     0
 10
0.0
 20
0.0
 30
0.0
  3
block 8
  1

  0
SPLINE
  5
A5
330
A1
100
AcDbEntity
  8
_U+30EC_U+30A4_U+30E4_U+30FC 1
370
     0
100
AcDbSpline
210
0.0
220
0.0
230
1.0
 70
    11
 71
     3
 72
    50
 73
    46
 74
     0
 42
0.0000000001
 43
0.0000000001
 12
1.0
 22
0.0
 32
0.0
 13
1.0
 23
0.0
 33
0.0
 40
0.0
 40
0.0
 40
0.0
 40
0.0
 40
1.0
 40
1.0
 40
1.0
 40
2.0
 40
2.0
 40
2.0
 40
3.0
 40
3.0
 40
3.0
 40
4.0
 40
4.0
 40
4.0
 40
5.0
 40
5.0
 40
5.0
 40
6.0
 40
6.0
 40
6.0
 40
7.0
 40
7.0
 40
7.0
 40
8.0
 40
8.0
 40
8.0
 40
9.0
 40
9.0
 40
9.0
 40
10.0
 40
10.0
 40
10.0
 40
11.0
 40
11.0
 40
11.0
 40
12.0
 40
12.0
 40
12.0
 40
13.0
 40
13.0
 40
13.0
 40
14.0
 40
14.0
 40
14.0
 40
15.0
 40
15.0
 40
15.0
 40
15.0
 10
95.81947425989931
 20
-127.4192680888049
 30
0.0
 10
95.7409260828356
 20
-127.5970350158438
 30
0.0
 10
95.60553383026529
 20
-127.8040852545073
 30
0.0
 10
95.46807452040382
 20
-127.9439561312085
 30
0.0
 10
95.29892033207805
 20
-128.1151773768254
 30
0.0
 10
95.13596731562573
 20
-128.2040608403448
 30
0.0
 10
94.81660696414308
 20
-128.3456542647886
 30
0.0
 10
94.81660696414308
 20
-128.3456542647886
 30
0.0
 10
94.64745277581731
 20
-128.1575520512939
 30
0.0
 10
94.64745277581731
 20
-128.1575520512939
 30
0.0
 10
94.8334879320208
 20
-128.1341254019943
 30
0.0
 10
95.00470917763772
 20
-128.0476535053145
 30
0.0
 10
95.15732690763429
 20
-127.9418890739173
 30
0.0
 10
95.4194986740618
 20
-127.7599880322961
 30
0.0
 10
95.61001245439611
 20
-127.4468288526869
 30
0.0
 10
95.65858830073813
 20
-127.2649278110657
 30
0.0
 10
95.65858830073813
 20
-127.2649278110657
 30
0.0
 10
94.98782820976
 20
-127.2649278110657
 30
0.0
 10
94.98782820976
 20
-127.2649278110657
 30
0.0
 10
94.8293538174385
 20
-127.2649278110657
 30
0.0
 10
94.53720972028931
 20
-127.2731960402303
 30
0.0
 10
94.38493649984127
 20
-127.290077008108
 30
0.0
 10
94.38493649984127
 20
-127.290077008108
 30
0.0
 10
94.38493649984127
 20
-127.061667177436
 30
0.0
 10
94.38493649984127
 20
-127.061667177436
 30
0.0
 10
94.41904294514525
 20
-127.0682128588579
 30
0.0
 10
94.44419214218756
 20
-127.0744140307314
 30
0.0
 10
94.49724661266042
 20
-127.0785481453137
 30
0.0
 10
94.59853241992676
 20
-127.0850938267357
 30
0.0
 10
94.79559188168305
 20
-127.0871608840268
 30
0.0
 10
94.87999672107168
 20
-127.0871608840268
 30
0.0
 10
94.87999672107168
 20
-127.0871608840268
 30
0.0
 10
95.38573673830635
 20
-127.0871608840268
 30
0.0
 10
95.38573673830635
 20
-127.0871608840268
 30
0.0
 10
95.45326060981725
 20
-127.0871608840268
 30
0.0
 10
95.59933265839184
 20
-127.0830267694445
 30
0.0
 10
95.66065535802929
 20
-127.0764810880225
 30
0.0
 10
95.732657853671
 20
-127.0682128588579
 30
0.0
 10
95.76021861755301
 20
-127.0533989482714
 30
0.0
 10
95.79398055330846
 20
-127.0299722989717
 30
0.0
 10
95.79398055330846
 20
-127.0299722989717
 30
0.0
 10
95.95900062705192
 20
-127.1970594300063
 30
0.0
 10
95.95900062705192
 20
-127.1970594300063
 30
0.0
 10
95.88906518870135
 20
-127.2649278110657
 30
0.0
 10
95.84255639965048
 20
-127.3686251851717
 30
0.0
 10
95.81947425989931
 20
-127.4192680888049
 30
0.0
  0
SPLINE
  5
A6
330
A1
100
AcDbEntity
  8
_U+30EC_U+30A4_U+30E4_U+30FC 1
370
     0
100
AcDbSpline
210
0.0
220
0.0
230
1.0
 70
    11
 71
     3
 72
    29
 73
    25
 74
     0
 42
0.0000000001
 43
0.0000000001
 12
1.0
 22
0.0
 32
0.0
 13
1.0
 23
0.0
 33
0.0
 40
0.0
 40
0.0
 40
0.0
 40
0.0
 40
1.0
 40
1.0
 40
1.0
 40
2.0
 40
2.0
 40
2.0
 40
3.0
 40
3.0
 40
3.0
 40
4.0
 40
4.0
 40
4.0
 40
5.0
 40
5.0
 40
5.0
 40
6.0
 40
6.0
 40
6.0
 40
7.0
 40
7.0
 40
7.0
 40
8.0
 40
8.0
 40
8.0
 40
8.0
 10
95.32648109596005
 20
-126.7929497295865
 30
0.0
 10
95.32648109596005
 20
-126.7929497295865
 30
0.0
 10
94.98576115246884
 20
-126.7929497295865
 30
0.0
 10
94.98576115246884
 20
-126.7929497295865
 30
0.0
 10
94.87172849190708
 20
-126.7929497295865
 30
0.0
 10
94.75528426450563
 20
-126.7974283537173
 30
0.0
 10
94.64090709439533
 20
-126.8122422643039
 30
0.0
 10
94.64090709439533
 20
-126.8122422643039
 30
0.0
 10
94.64090709439533
 20
-126.6027804588007
 30
0.0
 10
94.64090709439533
 20
-126.6027804588007
 30
0.0
 10
94.75941837908793
 20
-126.6175943693873
 30
0.0
 10
94.93305119154452
 20
-126.6217284839696
 30
0.0
 10
94.98576115246884
 20
-126.6217284839696
 30
0.0
 10
94.98576115246884
 20
-126.6217284839696
 30
0.0
 10
95.32648109596005
 20
-126.6217284839696
 30
0.0
 10
95.32648109596005
 20
-126.6217284839696
 30
0.0
 10
95.4429253233615
 20
-126.6217284839696
 30
0.0
 10
95.55902504121441
 20
-126.6175943693873
 30
0.0
 10
95.67546926861586
 20
-126.6027804588007
 30
0.0
 10
95.67546926861586
 20
-126.6027804588007
 30
0.0
 10
95.67546926861586
 20
-126.8122422643039
 30
0.0
 10
95.67546926861586
 20
-126.8122422643039
 30
0.0
 10
95.52526310545896
 20
-126.7929497295865
 30
0.0
 10
95.34129500654663
 20
-126.7929497295865
 30
0.0
 10
95.32648109596005
 20
-126.7929497295865
 30
0.0
  0
HATCH
  5
A7
330
A1
100
AcDbEntity
  8
_U+30EC_U+30A4_U+30E4_U+30FC 1
 62
     7
420
 16777215
100
AcDbHatch
 10
0.0
 20
0.0
 30
0.0
210
0.0
220
0.0
230
1.0
  2
SOLID
 70
     1
 71
     0
 91
        2
 92
        1
 93
        1
 72
     4
 94
        3
 73
     0
 74
     1
 95
       50
 96
       46
 40
0.0
 40
0.0
 40
0.0
 40
0.0
 40
1.0
 40
1.0
 40
1.0
 40
2.0
 40
2.0
 40
2.0
 40
3.0
 40
3.0
 40
3.0
 40
4.0
 40
4.0
 40
4.0
 40
5.0
 40
5.0
 40
5.0
 40
6.0
 40
6.0
 40
6.0
 40
7.0
 40
7.0
 40
7.0
 40
8.0
 40
8.0
 40
8.0
 40
9.0
 40
9.0
 40
9.0
 40
10.0
 40
10.0
 40
10.0
 40
11.0
 40
11.0
 40
11.0
 40
12.0
 40
12.0
 40
12.0
 40
13.0
 40
13.0
 40
13.0
 40
14.0
 40
14.0
 40
14.0
 40
15.0
 40
15.0
 40
15.0
 40
15.0
 10
95.81947425989931
 20
-127.4192680888049
 10
95.7409260828356
 20
-127.5970350158438
 10
95.60553383026529
 20
-127.8040852545073
 10
95.46807452040382
 20
-127.9439561312085
 10
95.29892033207805
 20
-128.1151773768254
 10
95.13596731562573
 20
-128.2040608403448
 10
94.81660696414308
 20
-128.3456542647886
 10
94.81660696414308
 20
-128.3456542647886
 10
94.64745277581731
 20
-128.1575520512939
 10
94.64745277581731
 20
-128.1575520512939
 10
94.8334879320208
 20
-128.1341254019943
 10
95.00470917763772
 20
-128.0476535053145
 10
95.15732690763429
 20
-127.9418890739173
 10
95.4194986740618
 20
-127.7599880322961
 10
95.61001245439611
 20
-127.4468288526869
 10
95.65858830073813
 20
-127.2649278110657
 10
95.65858830073813
 20
-127.2649278110657
 10
94.98782820976
 20
-127.2649278110657
 10
94.98782820976
 20
-127.2649278110657
 10
94.8293538174385
 20
-127.2649278110657
 10
94.53720972028931
 20
-127.2731960402303
 10
94.38493649984127
 20
-127.290077008108
 10
94.38493649984127
 20
-127.290077008108
 10
94.38493649984127
 20
-127.061667177436
 10
94.38493649984127
 20
-127.061667177436
 10
94.41904294514525
 20
-127.0682128588579
 10
94.44419214218756
 20
-127.0744140307314
 10
94.49724661266042
 20
-127.0785481453137
 10
94.59853241992676
 20
-127.0850938267357
 10
94.79559188168305
 20
-127.0871608840268
 10
94.87999672107168
 20
-127.0871608840268
 10
94.87999672107168
 20
-127.0871608840268
 10
95.38573673830635
 20
-127.0871608840268
 10
95.38573673830635
 20
-127.0871608840268
 10
95.45326060981725
 20
-127.0871608840268
 10
95.59933265839184
 20
-127.0830267694445
 10
95.66065535802929
 20
-127.0764810880225
 10
95.732657853671
 20
-127.0682128588579
 10
95.76021861755301
 20
-127.0533989482714
 10
95.79398055330846
 20
-127.0299722989717
 10
95.79398055330846
 20
-127.0299722989717
 10
95.95900062705192
 20
-127.1970594300063
 10
95.95900062705192
 20
-127.1970594300063
 10
95.88906518870135
 20
-127.2649278110657
 10
95.84255639965048
 20
-127.3686251851717
 10
95.81947425989931
 20
-127.4192680888049
 97
        0
 97
        0
 92
        1
 93
        1
 72
     4
 94
        3
 73
     0
 74
     1
 95
       29
 96
       25
 40
0.0
 40
0.0
 40
0.0
 40
0.0
 40
1.0
 40
1.0
 40
1.0
 40
2.0
 40
2.0
 40
2.0
 40
3.0
 40
3.0
 40
3.0
 40
4.0
 40
4.0
 40
4.0
 40
5.0
 40
5.0
 40
5.0
 40
6.0
 40
6.0
 40
6.0
 40
7.0
 40
7.0
 40
7.0
 40
8.0
 40
8.0
 40
8.0
 40
8.0
 10
95.32648109596005
 20
-126.7929497295865
 10
95.32648109596005
 20
-126.7929497295865
 10
94.98576115246884
 20
-126.7929497295865
 10
94.98576115246884
 20
-126.7929497295865
 10
94.87172849190708
 20
-126.7929497295865
 10
94.75528426450563
 20
-126.7974283537173
 10
94.64090709439533
 20
-126.8122422643039
 10
94.64090709439533
 20
-126.8122422643039
 10
94.64090709439533
 20
-126.6027804588007
 10
94.64090709439533
 20
-126.6027804588007
 10
94.75941837908793
 20
-126.6175943693873
 10
94.93305119154452
 20
-126.6217284839696
 10
94.98576115246884
 20
-126.6217284839696
 10
94.98576115246884
 20
-126.6217284839696
 10
95.32648109596005
 20
-126.6217284839696
 10
95.32648109596005
 20
-126.6217284839696
 10
95.4429253233615
 20
-126.6217284839696
 10
95.55902504121441
 20
-126.6175943693873
 10
95.67546926861586
 20
-126.6027804588007
 10
95.67546926861586
 20
-126.6027804588007
 10
95.67546926861586
 20
-126.8122422643039
 10
95.67546926861586
 20
-126.8122422643039
 10
95.52526310545896
 20
-126.7929497295865
 10
95.34129500654663
 20
-126.7929497295865
 10
95.32648109596005
 20
-126.7929497295865
 97
        0
 97
        0
 75
     2
 76
     1
 98
        0
  0
ENDBLK
  5
A4
330
A1
100
AcDbEntity
  8
0
100
AcDbBlockEnd
  0
BLOCK
  5
AA
330
A8
100
AcDbEntity
  8
0
100
AcDbBlockBegin
  2
block 9
 70
     0
 10
0.0
 20
0.0
 30
0.0
  3
block 9
  1

  0
SPLINE
  5
AC
330
A8
100
AcDbEntity
  8
_U+30EC_U+30A4_U+30E4_U+30FC 1
370
     0
100
AcDbSpline
210
0.0
220
0.0
230
1.0
 70
    11
 71
     3
 72
   107
 73
   103
 74
     0
 42
0.0000000001
 43
0.0000000001
 12
1.0
 22
0.0
 32
0.0
 13
1.0
 23
0.0
 33
0.0
 40
0.0
 40
0.0
 40
0.0
 40
0.0
 40
1.0
 40
1.0
 40
1.0
 40
2.0
 40
2.0
 40
2.0
 40
3.0
 40
3.0
 40
3.0
 40
4.0
 40
4.0
 40
4.0
 40
5.0
 40
5.0
 40
5.0
 40
6.0
 40
6.0
 40
6.0
 40
7.0
 40
7.0
 40
7.0
 40
8.0
 40
8.0
 40
8.0
 40
9.0
 40
9.0
 40
9.0
 40
10.0
 40
10.0
 40
10.0
 40
11.0
 40
11.0
 40
11.0
 40
12.0
 40
12.0
 40
12.0
 40
13.0
 40
13.0
 40
13.0
 40
14.0
 40
14.0
 40
14.0
 40
15.0
 40
15.0
 40
15.0
 40
16.0
 40
16.0
 40
16.0
 40
17.0
 40
17.0
 40
17.0
 40
18.0
 40
18.0
 40
18.0
 40
19.0
 40
19.0
 40
19.0
 40
20.0
 40
20.0
 40
20.0
 40
21.0
 40
21.0
 40
21.0
 40
22.0
 40
22.0
 40
22.0
 40
23.0
 40
23.0
 40
23.0
 40
24.0
 40
24.0
 40
24.0
 40
25.0
 40
25.0
 40
25.0
 40
26.0
 40
26.0
 40
26.0
 40
27.0
 40
27.0
 40
27.0
 40
28.0
 40
28.0
 40
28.0
 40
29.0
 40
29.0
 40
29.0
 40
30.0
 40
30.0
 40
30.0
 40
31.0
 40
31.0
 40
31.0
 40
32.0
 40
32.0
 40
32.0
 40
33.0
 40
33.0
 40
33.0
 40
34.0
 40
34.0
 40
34.0
 40
34.0
 10
97.50412595218647
 20
-127.4764566738601
 30
0.0
 10
97.45968422042675
 20
-127.4764566738601
 30
0.0
 10
97.25642358679701
 20
-127.4699109924381
 30
0.0
 10
97.21404891232844
 20
-127.4699109924381
 30
0.0
 10
97.21404891232844
 20
-127.4699109924381
 30
0.0
 10
96.9983859349518
 20
-127.4699109924381
 30
0.0
 10
96.9983859349518
 20
-127.4699109924381
 30
0.0
 10
96.9983859349518
 20
-127.4699109924381
 30
0.0
 10
96.9983859349518
 20
-127.7661892041696
 30
0.0
 10
96.9983859349518
 20
-127.7661892041696
 30
0.0
 10
96.9983859349518
 20
-127.9629041563773
 30
0.0
 10
97.00045299224294
 20
-127.9735839523816
 30
0.0
 10
97.03421492799839
 20
-128.0032117735548
 30
0.0
 10
97.07452254517582
 20
-128.0349066520191
 30
0.0
 10
97.21198185503728
 20
-128.0390407666013
 30
0.0
 10
97.28605140797016
 20
-128.0390407666013
 30
0.0
 10
97.38768172478503
 20
-128.0390407666013
 30
0.0
 10
97.57819550511934
 20
-128.0307725374367
 30
0.0
 10
97.66673445909026
 20
-127.9839192388374
 30
0.0
 10
97.66673445909026
 20
-127.9839192388374
 30
0.0
 10
97.66673445909026
 20
-128.206127897636
 30
0.0
 10
97.66673445909026
 20
-128.206127897636
 30
0.0
 10
97.54408905981538
 20
-128.2398898333914
 30
0.0
 10
97.3708007569073
 20
-128.2398898333914
 30
0.0
 10
97.23334144704583
 20
-128.2398898333914
 30
0.0
 10
97.11276310506209
 20
-128.2398898333914
 30
0.0
 10
96.96014537506552
 20
-128.2398898333914
 30
0.0
 10
96.86299368238147
 20
-128.1575520512939
 30
0.0
 10
96.7889241294486
 20
-128.0962293516565
 30
0.0
 10
96.7889241294486
 20
-128.0307725374367
 30
0.0
 10
96.7889241294486
 20
-127.772390376043
 30
0.0
 10
96.7889241294486
 20
-127.730360211123
 30
0.0
 10
96.79512530132206
 20
-127.5377793734975
 30
0.0
 10
96.79512530132206
 20
-127.4995388136112
 30
0.0
 10
96.79512530132206
 20
-127.4995388136112
 30
0.0
 10
96.79512530132206
 20
-127.4699109924381
 30
0.0
 10
96.79512530132206
 20
-127.4699109924381
 30
0.0
 10
96.79512530132206
 20
-127.4699109924381
 30
0.0
 10
96.69177243676457
 20
-127.4699109924381
 30
0.0
 10
96.69177243676457
 20
-127.4699109924381
 30
0.0
 10
96.4950574845568
 20
-127.4699109924381
 30
0.0
 10
96.30040958964018
 20
-127.4699109924381
 30
0.0
 10
96.10782875201471
 20
-127.4974717563201
 30
0.0
 10
96.10782875201471
 20
-127.4974717563201
 30
0.0
 10
96.10782875201471
 20
-127.2773301548126
 30
0.0
 10
96.10782875201471
 20
-127.2773301548126
 30
0.0
 10
96.16915145165216
 20
-127.290077008108
 30
0.0
 10
96.24115394729388
 20
-127.3007568041123
 30
0.0
 10
96.4082410783285
 20
-127.3028238614035
 30
0.0
 10
96.45061575279708
 20
-127.3028238614035
 30
0.0
 10
96.63871796629171
 20
-127.3069579759858
 30
0.0
 10
96.67695852617798
 20
-127.3069579759858
 30
0.0
 10
96.67695852617798
 20
-127.3069579759858
 30
0.0
 10
96.79512530132206
 20
-127.3069579759858
 30
0.0
 10
96.79512530132206
 20
-127.3069579759858
 30
0.0
 10
96.79512530132206
 20
-127.3069579759858
 30
0.0
 10
96.79512530132206
 20
-126.8587510533548
 30
0.0
 10
96.79512530132206
 20
-126.8587510533548
 30
0.0
 10
96.40617402103734
 20
-126.8670192825194
 30
0.0
 10
96.37861325715535
 20
-126.8711533971017
 30
0.0
 10
96.3214246721002
 20
-126.8839002503971
 30
0.0
 10
96.3214246721002
 20
-126.8839002503971
 30
0.0
 10
96.3214246721002
 20
-126.6661702157293
 30
0.0
 10
96.3214246721002
 20
-126.6661702157293
 30
0.0
 10
96.41857636478424
 20
-126.6809841263159
 30
0.0
 10
96.69590655134687
 20
-126.6871852981893
 30
0.0
 10
96.79753686816173
 20
-126.6871852981893
 30
0.0
 10
96.79753686816173
 20
-126.6871852981893
 30
0.0
 10
97.21404891232844
 20
-126.6871852981893
 30
0.0
 10
97.21404891232844
 20
-126.6871852981893
 30
0.0
 10
97.32188040101676
 20
-126.6871852981893
 30
0.0
 10
97.51893986277305
 20
-126.683051183607
 30
0.0
 10
97.62022567003939
 20
-126.6703043303116
 30
0.0
 10
97.62022567003939
 20
-126.6703043303116
 30
0.0
 10
97.62022567003939
 20
-126.8839002503971
 30
0.0
 10
97.62022567003939
 20
-126.8839002503971
 30
0.0
 10
97.56751570911507
 20
-126.8735649639413
 30
0.0
 10
97.53375377335962
 20
-126.8670192825194
 30
0.0
 10
97.43625757112706
 20
-126.8649522252282
 30
0.0
 10
97.40249563537161
 20
-126.8649522252282
 30
0.0
 10
97.25228947221471
 20
-126.8587510533548
 30
0.0
 10
97.2205945937504
 20
-126.8587510533548
 30
0.0
 10
97.2205945937504
 20
-126.8587510533548
 30
0.0
 10
96.9983859349518
 20
-126.8587510533548
 30
0.0
 10
96.9983859349518
 20
-126.8587510533548
 30
0.0
 10
96.9983859349518
 20
-126.8587510533548
 30
0.0
 10
96.9983859349518
 20
-127.3069579759858
 30
0.0
 10
96.9983859349518
 20
-127.3069579759858
 30
0.0
 10
96.9983859349518
 20
-127.3069579759858
 30
0.0
 10
97.21852753645926
 20
-127.3069579759858
 30
0.0
 10
97.21852753645926
 20
-127.3069579759858
 30
0.0
 10
97.26710338280128
 20
-127.3069579759858
 30
0.0
 10
97.47208656417365
 20
-127.2986897468212
 30
0.0
 10
97.51446123864223
 20
-127.2986897468212
 30
0.0
 10
97.5885307915751
 20
-127.29662268953
 30
0.0
 10
97.68395993651652
 20
-127.2921440653992
 30
0.0
 10
97.76009654674054
 20
-127.2752630975215
 30
0.0
 10
97.76009654674054
 20
-127.2752630975215
 30
0.0
 10
97.76009654674054
 20
-127.4933376417378
 30
0.0
 10
97.76009654674054
 20
-127.4933376417378
 30
0.0
 10
97.69636228026341
 20
-127.4785237311512
 30
0.0
 10
97.61609155545709
 20
-127.4764566738601
 30
0.0
 10
97.50412595218647
 20
-127.4764566738601
 30
0.0
  0
HATCH
  5
AD
330
A8
100
AcDbEntity
  8
_U+30EC_U+30A4_U+30E4_U+30FC 1
 62
     7
420
 16777215
100
AcDbHatch
 10
0.0
 20
0.0
 30
0.0
210
0.0
220
0.0
230
1.0
  2
SOLID
 70
     1
 71
     0
 91
        1
 92
        1
 93
        1
 72
     4
 94
        3
 73
     0
 74
     1
 95
      107
 96
      103
 40
0.0
 40
0.0
 40
0.0
 40
0.0
 40
1.0
 40
1.0
 40
1.0
 40
2.0
 40
2.0
 40
2.0
 40
3.0
 40
3.0
 40
3.0
 40
4.0
 40
4.0
 40
4.0
 40
5.0
 40
5.0
 40
5.0
 40
6.0
 40
6.0
 40
6.0
 40
7.0
 40
7.0
 40
7.0
 40
8.0
 40
8.0
 40
8.0
 40
9.0
 40
9.0
 40
9.0
 40
10.0
 40
10.0
 40
10.0
 40
11.0
 40
11.0
 40
11.0
 40
12.0
 40
12.0
 40
12.0
 40
13.0
 40
13.0
 40
13.0
 40
14.0
 40
14.0
 40
14.0
 40
15.0
 40
15.0
 40
15.0
 40
16.0
 40
16.0
 40
16.0
 40
17.0
 40
17.0
 40
17.0
 40
18.0
 40
18.0
 40
18.0
 40
19.0
 40
19.0
 40
19.0
 40
20.0
 40
20.0
 40
20.0
 40
21.0
 40
21.0
 40
21.0
 40
22.0
 40
22.0
 40
22.0
 40
23.0
 40
23.0
 40
23.0
 40
24.0
 40
24.0
 40
24.0
 40
25.0
 40
25.0
 40
25.0
 40
26.0
 40
26.0
 40
26.0
 40
27.0
 40
27.0
 40
27.0
 40
28.0
 40
28.0
 40
28.0
 40
29.0
 40
29.0
 40
29.0
 40
30.0
 40
30.0
 40
30.0
 40
31.0
 40
31.0
 40
31.0
 40
32.0
 40
32.0
 40
32.0
 40
33.0
 40
33.0
 40
33.0
 40
34.0
 40
34.0
 40
34.0
 40
34.0
 10
97.50412595218647
 20
-127.4764566738601
 10
97.45968422042675
 20
-127.4764566738601
 10
97.25642358679701
 20
-127.4699109924381
 10
97.21404891232844
 20
-127.4699109924381
 10
97.21404891232844
 20
-127.4699109924381
 10
96.9983859349518
 20
-127.4699109924381
 10
96.9983859349518
 20
-127.4699109924381
 10
96.9983859349518
 20
-127.4699109924381
 10
96.9983859349518
 20
-127.7661892041696
 10
96.9983859349518
 20
-127.7661892041696
 10
96.9983859349518
 20
-127.9629041563773
 10
97.00045299224294
 20
-127.9735839523816
 10
97.03421492799839
 20
-128.0032117735548
 10
97.07452254517582
 20
-128.0349066520191
 10
97.21198185503728
 20
-128.0390407666013
 10
97.28605140797016
 20
-128.0390407666013
 10
97.38768172478503
 20
-128.0390407666013
 10
97.57819550511934
 20
-128.0307725374367
 10
97.66673445909026
 20
-127.9839192388374
 10
97.66673445909026
 20
-127.9839192388374
 10
97.66673445909026
 20
-128.206127897636
 10
97.66673445909026
 20
-128.206127897636
 10
97.54408905981538
 20
-128.2398898333914
 10
97.3708007569073
 20
-128.2398898333914
 10
97.23334144704583
 20
-128.2398898333914
 10
97.11276310506209
 20
-128.2398898333914
 10
96.96014537506552
 20
-128.2398898333914
 10
96.86299368238147
 20
-128.1575520512939
 10
96.7889241294486
 20
-128.0962293516565
 10
96.7889241294486
 20
-128.0307725374367
 10
96.7889241294486
 20
-127.772390376043
 10
96.7889241294486
 20
-127.730360211123
 10
96.79512530132206
 20
-127.5377793734975
 10
96.79512530132206
 20
-127.4995388136112
 10
96.79512530132206
 20
-127.4995388136112
 10
96.79512530132206
 20
-127.4699109924381
 10
96.79512530132206
 20
-127.4699109924381
 10
96.79512530132206
 20
-127.4699109924381
 10
96.69177243676457
 20
-127.4699109924381
 10
96.69177243676457
 20
-127.4699109924381
 10
96.4950574845568
 20
-127.4699109924381
 10
96.30040958964018
 20
-127.4699109924381
 10
96.10782875201471
 20
-127.4974717563201
 10
96.10782875201471
 20
-127.4974717563201
 10
96.10782875201471
 20
-127.2773301548126
 10
96.10782875201471
 20
-127.2773301548126
 10
96.16915145165216
 20
-127.290077008108
 10
96.24115394729388
 20
-127.3007568041123
 10
96.4082410783285
 20
-127.3028238614035
 10
96.45061575279708
 20
-127.3028238614035
 10
96.63871796629171
 20
-127.3069579759858
 10
96.67695852617798
 20
-127.3069579759858
 10
96.67695852617798
 20
-127.3069579759858
 10
96.79512530132206
 20
-127.3069579759858
 10
96.79512530132206
 20
-127.3069579759858
 10
96.79512530132206
 20
-127.3069579759858
 10
96.79512530132206
 20
-126.8587510533548
 10
96.79512530132206
 20
-126.8587510533548
 10
96.40617402103734
 20
-126.8670192825194
 10
96.37861325715535
 20
-126.8711533971017
 10
96.3214246721002
 20
-126.8839002503971
 10
96.3214246721002
 20
-126.8839002503971
 10
96.3214246721002
 20
-126.6661702157293
 10
96.3214246721002
 20
-126.6661702157293
 10
96.41857636478424
 20
-126.6809841263159
 10
96.69590655134687
 20
-126.6871852981893
 10
96.79753686816173
 20
-126.6871852981893
 10
96.79753686816173
 20
-126.6871852981893
 10
97.21404891232844
 20
-126.6871852981893
 10
97.21404891232844
 20
-126.6871852981893
 10
97.32188040101676
 20
-126.6871852981893
 10
97.51893986277305
 20
-126.683051183607
 10
97.62022567003939
 20
-126.6703043303116
 10
97.62022567003939
 20
-126.6703043303116
 10
97.62022567003939
 20
-126.8839002503971
 10
97.62022567003939
 20
-126.8839002503971
 10
97.56751570911507
 20
-126.8735649639413
 10
97.53375377335962
 20
-126.8670192825194
 10
97.43625757112706
 20
-126.8649522252282
 10
97.40249563537161
 20
-126.8649522252282
 10
97.25228947221471
 20
-126.8587510533548
 10
97.2205945937504
 20
-126.8587510533548
 10
97.2205945937504
 20
-126.8587510533548
 10
96.9983859349518
 20
-126.8587510533548
 10
96.9983859349518
 20
-126.8587510533548
 10
96.9983859349518
 20
-126.8587510533548
 10
96.9983859349518
 20
-127.3069579759858
 10
96.9983859349518
 20
-127.3069579759858
 10
96.9983859349518
 20
-127.3069579759858
 10
97.21852753645926
 20
-127.3069579759858
 10
97.21852753645926
 20
-127.3069579759858
 10
97.26710338280128
 20
-127.3069579759858
 10
97.47208656417365
 20
-127.2986897468212
 10
97.51446123864223
 20
-127.2986897468212
 10
97.5885307915751
 20
-127.29662268953
 10
97.68395993651652
 20
-127.2921440653992
 10
97.76009654674054
 20
-127.2752630975215
 10
97.76009654674054
 20
-127.2752630975215
 10
97.76009654674054
 20
-127.4933376417378
 10
97.76009654674054
 20
-127.4933376417378
 10
97.69636228026341
 20
-127.4785237311512
 10
97.61609155545709
 20
-127.4764566738601
 10
97.50412595218647
 20
-127.4764566738601
 97
        0
 97
        0
 75
     2
 76
     1
 98
        0
  0
ENDBLK
  5
AB
330
A8
100
AcDbEntity
  8
0
100
AcDbBlockEnd
  0
BLOCK
  5
B0
330
AE
100
AcDbEntity
  8
0
100
AcDbBlockBegin
  2
block 10
 70
     0
 10
0.0
 20
0.0
 30
0.0
  3
block 10
  1

  0
SPLINE
  5
B2
330
AE
100
AcDbEntity
  8
_U+30EC_U+30A4_U+30E4_U+30FC 1
370
     0
100
AcDbSpline
210
0.0
220
0.0
230
1.0
 70
    11
 71
     3
 72
    20
 73
    16
 74
     0
 42
0.0000000001
 43
0.0000000001
 12
1.0
 22
0.0
 32
0.0
 13
1.0
 23
0.0
 33
0.0
 40
0.0
 40
0.0
 40
0.0
 40
0.0
 40
1.0
 40
1.0
 40
1.0
 40
2.0
 40
2.0
 40
2.0
 40
3.0
 40
3.0
 40
3.0
 40
4.0
 40
4.0
 40
4.0
 40
5.0
 40
5.0
 40
5.0
 40
5.0
 10
99.05545244919448
 20
-128.4028428498438
 30
0.0
 10
98.917993139333
 20
-128.2950113611554
 30
0.0
 10
98.78914656818466
 20
-128.206127897636
 30
0.0
 10
98.55625811338177
 20
-128.0962293516565
 30
0.0
 10
98.36574433304746
 20
-128.0052788308459
 30
0.0
 10
98.16902938083969
 20
-127.9246635964911
 30
0.0
 10
97.96197914217618
 20
-127.8888346034445
 30
0.0
 10
97.96197914217618
 20
-127.8888346034445
 30
0.0
 10
98.0505180961471
 20
-127.6941867085279
 30
0.0
 10
98.0505180961471
 20
-127.6941867085279
 30
0.0
 10
98.46944170715348
 20
-127.8020181972162
 30
0.0
 10
98.88836531815986
 20
-127.9945990348416
 30
0.0
 10
99.1508815941359
 20
-128.185112815176
 30
0.0
 10
99.1508815941359
 20
-128.185112815176
 30
0.0
 10
99.05545244919448
 20
-128.4028428498438
 30
0.0
 10
99.05545244919448
 20
-128.4028428498438
 30
0.0
  0
SPLINE
  5
B3
330
AE
100
AcDbEntity
  8
_U+30EC_U+30A4_U+30E4_U+30FC 1
370
     0
100
AcDbSpline
210
0.0
220
0.0
230
1.0
 70
    11
 71
     3
 72
    17
 73
    13
 74
     0
 42
0.0000000001
 43
0.0000000001
 12
1.0
 22
0.0
 32
0.0
 13
1.0
 23
0.0
 33
0.0
 40
0.0
 40
0.0
 40
0.0
 40
0.0
 40
1.0
 40
1.0
 40
1.0
 40
2.0
 40
2.0
 40
2.0
 40
3.0
 40
3.0
 40
3.0
 40
4.0
 40
4.0
 40
4.0
 40
4.0
 10
98.95175507508846
 20
-127.6349310661816
 30
0.0
 10
98.72541230170754
 20
-127.4678439351469
 30
0.0
 10
98.39537215422061
 20
-127.3410644212897
 30
0.0
 10
98.16696232354855
 20
-127.3048909186946
 30
0.0
 10
98.16696232354855
 20
-127.3048909186946
 30
0.0
 10
98.23689776189912
 20
-127.1061089091957
 30
0.0
 10
98.23689776189912
 20
-127.1061089091957
 30
0.0
 10
98.4229329181026
 20
-127.13780378766
 30
0.0
 10
98.7912136254758
 20
-127.2859428935257
 30
0.0
 10
99.03030325215215
 20
-127.4382161139738
 30
0.0
 10
99.03030325215215
 20
-127.4382161139738
 30
0.0
 10
98.95175507508846
 20
-127.6349310661816
 30
0.0
 10
98.95175507508846
 20
-127.6349310661816
 30
0.0
  0
SPLINE
  5
B4
330
AE
100
AcDbEntity
  8
_U+30EC_U+30A4_U+30E4_U+30FC 1
370
     0
100
AcDbSpline
210
0.0
220
0.0
230
1.0
 70
    11
 71
     3
 72
    20
 73
    16
 74
     0
 42
0.0000000001
 43
0.0000000001
 12
1.0
 22
0.0
 32
0.0
 13
1.0
 23
0.0
 33
0.0
 40
0.0
 40
0.0
 40
0.0
 40
0.0
 40
1.0
 40
1.0
 40
1.0
 40
2.0
 40
2.0
 40
2.0
 40
3.0
 40
3.0
 40
3.0
 40
4.0
 40
4.0
 40
4.0
 40
5.0
 40
5.0
 40
5.0
 40
5.0
 10
98.98344995355275
 20
-127.0682128588579
 30
0.0
 10
98.92006019662415
 20
-127.013091331094
 30
0.0
 10
98.84805770098244
 20
-126.9497015741654
 30
0.0
 10
98.60276690243265
 20
-126.8394585186374
 30
0.0
 10
98.36815589988713
 20
-126.7357611445313
 30
0.0
 10
98.27065969765457
 20
-126.7188801766536
 30
0.0
 10
98.17109643813085
 20
-126.7019992087759
 30
0.0
 10
98.17109643813085
 20
-126.7019992087759
 30
0.0
 10
98.23896481919026
 20
-126.4970160274035
 30
0.0
 10
98.23896481919026
 20
-126.4970160274035
 30
0.0
 10
98.55832517067293
 20
-126.5604057843321
 30
0.0
 10
98.92867293533727
 20
-126.7550536792487
 30
0.0
 10
99.05751950648562
 20
-126.8522053719328
 30
0.0
 10
99.05751950648562
 20
-126.8522053719328
 30
0.0
 10
98.98344995355275
 20
-127.0682128588579
 30
0.0
 10
98.98344995355275
 20
-127.0682128588579
 30
0.0
  0
HATCH
  5
B5
330
AE
100
AcDbEntity
  8
_U+30EC_U+30A4_U+30E4_U+30FC 1
 62
     7
420
 16777215
100
AcDbHatch
 10
0.0
 20
0.0
 30
0.0
210
0.0
220
0.0
230
1.0
  2
SOLID
 70
     1
 71
     0
 91
        3
 92
        1
 93
        1
 72
     4
 94
        3
 73
     0
 74
     1
 95
       20
 96
       16
 40
0.0
 40
0.0
 40
0.0
 40
0.0
 40
1.0
 40
1.0
 40
1.0
 40
2.0
 40
2.0
 40
2.0
 40
3.0
 40
3.0
 40
3.0
 40
4.0
 40
4.0
 40
4.0
 40
5.0
 40
5.0
 40
5.0
 40
5.0
 10
99.05545244919448
 20
-128.4028428498438
 10
98.917993139333
 20
-128.2950113611554
 10
98.78914656818466
 20
-128.206127897636
 10
98.55625811338177
 20
-128.0962293516565
 10
98.36574433304746
 20
-128.0052788308459
 10
98.16902938083969
 20
-127.9246635964911
 10
97.96197914217618
 20
-127.8888346034445
 10
97.96197914217618
 20
-127.8888346034445
 10
98.0505180961471
 20
-127.6941867085279
 10
98.0505180961471
 20
-127.6941867085279
 10
98.46944170715348
 20
-127.8020181972162
 10
98.88836531815986
 20
-127.9945990348416
 10
99.1508815941359
 20
-128.185112815176
 10
99.1508815941359
 20
-128.185112815176
 10
99.05545244919448
 20
-128.4028428498438
 10
99.05545244919448
 20
-128.4028428498438
 97
        0
 97
        0
 92
        1
 93
        1
 72
     4
 94
        3
 73
     0
 74
     1
 95
       17
 96
       13
 40
0.0
 40
0.0
 40
0.0
 40
0.0
 40
1.0
 40
1.0
 40
1.0
 40
2.0
 40
2.0
 40
2.0
 40
3.0
 40
3.0
 40
3.0
 40
4.0
 40
4.0
 40
4.0
 40
4.0
 10
98.95175507508846
 20
-127.6349310661816
 10
98.72541230170754
 20
-127.4678439351469
 10
98.39537215422061
 20
-127.3410644212897
 10
98.16696232354855
 20
-127.3048909186946
 10
98.16696232354855
 20
-127.3048909186946
 10
98.23689776189912
 20
-127.1061089091957
 10
98.23689776189912
 20
-127.1061089091957
 10
98.4229329181026
 20
-127.13780378766
 10
98.7912136254758
 20
-127.2859428935257
 10
99.03030325215215
 20
-127.4382161139738
 10
99.03030325215215
 20
-127.4382161139738
 10
98.95175507508846
 20
-127.6349310661816
 10
98.95175507508846
 20
-127.6349310661816
 97
        0
 97
        0
 92
        1
 93
        1
 72
     4
 94
        3
 73
     0
 74
     1
 95
       20
 96
       16
 40
0.0
 40
0.0
 40
0.0
 40
0.0
 40
1.0
 40
1.0
 40
1.0
 40
2.0
 40
2.0
 40
2.0
 40
3.0
 40
3.0
 40
3.0
 40
4.0
 40
4.0
 40
4.0
 40
5.0
 40
5.0
 40
5.0
 40
5.0
 10
98.98344995355275
 20
-127.0682128588579
 10
98.92006019662415
 20
-127.013091331094
 10
98.84805770098244
 20
-126.9497015741654
 10
98.60276690243265
 20
-126.8394585186374
 10
98.36815589988713
 20
-126.7357611445313
 10
98.27065969765457
 20
-126.7188801766536
 10
98.17109643813085
 20
-126.7019992087759
 10
98.17109643813085
 20
-126.7019992087759
 10
98.23896481919026
 20
-126.4970160274035
 10
98.23896481919026
 20
-126.4970160274035
 10
98.55832517067293
 20
-126.5604057843321
 10
98.92867293533727
 20
-126.7550536792487
 10
99.05751950648562
 20
-126.8522053719328
 10
99.05751950648562
 20
-126.8522053719328
 10
98.98344995355275
 20
-127.0682128588579
 10
98.98344995355275
 20
-127.0682128588579
 97
        0
 97
        0
 75
     2
 76
     1
 98
        0
  0
ENDBLK
  5
B1
330
AE
100
AcDbEntity
  8
0
100
AcDbBlockEnd
  0
BLOCK
  5
D0
330
CE
100
AcDbEntity
  8
0
100
AcDbBlockBegin
  2
block 11
 70
     0
 10
0.0
 20
0.0
 30
0.0
  3
block 11
  1

  0
SPLINE
  5
D2
330
CE
100
AcDbEntity
  8
_U+30EC_U+30A4_U+30E4_U+30FC 1
370
     0
100
AcDbSpline
210
0.0
220
0.0
230
1.0
 70
    11
 71
     3
 72
    53
 73
    49
 74
     0
 42
0.0000000001
 43
0.0000000001
 12
1.0
 22
0.0
 32
0.0
 13
1.0
 23
0.0
 33
0.0
 40
0.0
 40
0.0
 40
0.0
 40
0.0
 40
1.0
 40
1.0
 40
1.0
 40
2.0
 40
2.0
 40
2.0
 40
3.0
 40
3.0
 40
3.0
 40
4.0
 40
4.0
 40
4.0
 40
5.0
 40
5.0
 40
5.0
 40
6.0
 40
6.0
 40
6.0
 40
7.0
 40
7.0
 40
7.0
 40
8.0
 40
8.0
 40
8.0
 40
9.0
 40
9.0
 40
9.0
 40
10.0
 40
10.0
 40
10.0
 40
11.0
 40
11.0
 40
11.0
 40
12.0
 40
12.0
 40
12.0
 40
13.0
 40
13.0
 40
13.0
 40
14.0
 40
14.0
 40
14.0
 40
15.0
 40
15.0
 40
15.0
 40
16.0
 40
16.0
 40
16.0
 40
16.0
 10
82.74085826924535
 20
-134.8658419801724
 30
0.0
 10
82.68539223193282
 20
-134.9209635079364
 30
0.0
 10
82.60133190209272
 20
-134.9809081693798
 30
0.0
 10
82.48488767469128
 20
-135.0070908950677
 30
0.0
 10
82.28438311744974
 20
-135.0515326268274
 30
0.0
 10
82.17655162876142
 20
-134.9733289593122
 30
0.0
 10
82.08732365569345
 20
-134.9099392023836
 30
0.0
 10
82.08732365569345
 20
-134.9099392023836
 30
0.0
 10
82.24476451936937
 20
-134.7535318673533
 30
0.0
 10
82.24476451936937
 20
-134.7535318673533
 30
0.0
 10
82.42356497505384
 20
-134.8561957128137
 30
0.0
 10
82.5348415592274
 20
-134.7872938031087
 30
0.0
 10
82.6009873925442
 20
-134.721836988889
 30
0.0
 10
82.69986163297087
 20
-134.6236517675594
 30
0.0
 10
82.73775768330862
 20
-134.445540330972
 30
0.0
 10
82.57377113821073
 20
-134.280864766777
 30
0.0
 10
82.39359264433216
 20
-134.0989637251558
 30
0.0
 10
82.21685924593885
 20
-134.1761338640254
 30
0.0
 10
82.13107636835612
 20
-134.2608832129626
 30
0.0
 10
82.108683247702
 20
-134.2836208431652
 30
0.0
 10
82.0080864595327
 20
-134.3831841026889
 30
0.0
 10
82.03633624251175
 20
-134.5375243804281
 30
0.0
 10
82.03633624251175
 20
-134.5375243804281
 30
0.0
 10
81.8978434040047
 20
-134.6477674359561
 30
0.0
 10
81.8978434040047
 20
-134.6477674359561
 30
0.0
 10
81.8978434040047
 20
-134.6477674359561
 30
0.0
 10
81.38728025309068
 20
-133.9621934343914
 30
0.0
 10
81.38728025309068
 20
-133.9621934343914
 30
0.0
 10
81.38728025309068
 20
-133.9621934343914
 30
0.0
 10
81.93987356892475
 20
-133.4133897235911
 30
0.0
 10
81.93987356892475
 20
-133.4133897235911
 30
0.0
 10
81.93987356892475
 20
-133.4133897235911
 30
0.0
 10
82.0769883692377
 20
-133.5518825620981
 30
0.0
 10
82.0769883692377
 20
-133.5518825620981
 30
0.0
 10
82.0769883692377
 20
-133.5518825620981
 30
0.0
 10
81.64015026170802
 20
-133.9856200836911
 30
0.0
 10
81.64015026170802
 20
-133.9856200836911
 30
0.0
 10
81.64015026170802
 20
-133.9856200836911
 30
0.0
 10
81.89164223213126
 20
-134.3318521799587
 30
0.0
 10
81.89164223213126
 20
-134.3318521799587
 30
0.0
 10
81.91127927639718
 20
-134.2646728179963
 30
0.0
 10
81.94125160711886
 20
-134.1782009213166
 30
0.0
 10
82.02531193695896
 20
-134.0948296105735
 30
0.0
 10
82.20583494038604
 20
-133.9156846453405
 30
0.0
 10
82.50521373805425
 20
-133.8808891809395
 30
0.0
 10
82.72604435865877
 20
-134.1030978397381
 30
0.0
 10
82.94928654610295
 20
-134.3284070844735
 30
0.0
 10
82.95548771797641
 20
-134.652935079184
 30
0.0
 10
82.74085826924535
 20
-134.8658419801724
 30
0.0
  0
HATCH
  5
D3
330
CE
100
AcDbEntity
  8
_U+30EC_U+30A4_U+30E4_U+30FC 1
 62
     7
420
 16777215
100
AcDbHatch
 10
0.0
 20
0.0
 30
0.0
210
0.0
220
0.0
230
1.0
  2
SOLID
 70
     1
 71
     0
 91
        1
 92
        1
 93
        1
 72
     4
 94
        3
 73
     0
 74
     1
 95
       53
 96
       49
 40
0.0
 40
0.0
 40
0.0
 40
0.0
 40
1.0
 40
1.0
 40
1.0
 40
2.0
 40
2.0
 40
2.0
 40
3.0
 40
3.0
 40
3.0
 40
4.0
 40
4.0
 40
4.0
 40
5.0
 40
5.0
 40
5.0
 40
6.0
 40
6.0
 40
6.0
 40
7.0
 40
7.0
 40
7.0
 40
8.0
 40
8.0
 40
8.0
 40
9.0
 40
9.0
 40
9.0
 40
10.0
 40
10.0
 40
10.0
 40
11.0
 40
11.0
 40
11.0
 40
12.0
 40
12.0
 40
12.0
 40
13.0
 40
13.0
 40
13.0
 40
14.0
 40
14.0
 40
14.0
 40
15.0
 40
15.0
 40
15.0
 40
16.0
 40
16.0
 40
16.0
 40
16.0
 10
82.74085826924535
 20
-134.8658419801724
 10
82.68539223193282
 20
-134.9209635079364
 10
82.60133190209272
 20
-134.9809081693798
 10
82.48488767469128
 20
-135.0070908950677
 10
82.28438311744974
 20
-135.0515326268274
 10
82.17655162876142
 20
-134.9733289593122
 10
82.08732365569345
 20
-134.9099392023836
 10
82.08732365569345
 20
-134.9099392023836
 10
82.24476451936937
 20
-134.7535318673533
 10
82.24476451936937
 20
-134.7535318673533
 10
82.42356497505384
 20
-134.8561957128137
 10
82.5348415592274
 20
-134.7872938031087
 10
82.6009873925442
 20
-134.721836988889
 10
82.69986163297087
 20
-134.6236517675594
 10
82.73775768330862
 20
-134.445540330972
 10
82.57377113821073
 20
-134.280864766777
 10
82.39359264433216
 20
-134.0989637251558
 10
82.21685924593885
 20
-134.1761338640254
 10
82.13107636835612
 20
-134.2608832129626
 10
82.108683247702
 20
-134.2836208431652
 10
82.0080864595327
 20
-134.3831841026889
 10
82.03633624251175
 20
-134.5375243804281
 10
82.03633624251175
 20
-134.5375243804281
 10
81.8978434040047
 20
-134.6477674359561
 10
81.8978434040047
 20
-134.6477674359561
 10
81.8978434040047
 20
-134.6477674359561
 10
81.38728025309068
 20
-133.9621934343914
 10
81.38728025309068
 20
-133.9621934343914
 10
81.38728025309068
 20
-133.9621934343914
 10
81.93987356892475
 20
-133.4133897235911
 10
81.93987356892475
 20
-133.4133897235911
 10
81.93987356892475
 20
-133.4133897235911
 10
82.0769883692377
 20
-133.5518825620981
 10
82.0769883692377
 20
-133.5518825620981
 10
82.0769883692377
 20
-133.5518825620981
 10
81.64015026170802
 20
-133.9856200836911
 10
81.64015026170802
 20
-133.9856200836911
 10
81.64015026170802
 20
-133.9856200836911
 10
81.89164223213126
 20
-134.3318521799587
 10
81.89164223213126
 20
-134.3318521799587
 10
81.91127927639718
 20
-134.2646728179963
 10
81.94125160711886
 20
-134.1782009213166
 10
82.02531193695896
 20
-134.0948296105735
 10
82.20583494038604
 20
-133.9156846453405
 10
82.50521373805425
 20
-133.8808891809395
 10
82.72604435865877
 20
-134.1030978397381
 10
82.94928654610295
 20
-134.3284070844735
 10
82.95548771797641
 20
-134.652935079184
 10
82.74085826924535
 20
-134.8658419801724
 97
        0
 97
        0
 75
     2
 76
     1
 98
        0
  0
ENDBLK
  5
D1
330
CE
100
AcDbEntity
  8
0
100
AcDbBlockEnd
  0
BLOCK
  5
D6
330
D4
100
AcDbEntity
  8
0
100
AcDbBlockBegin
  2
block 12
 70
     0
 10
0.0
 20
0.0
 30
0.0
  3
block 12
  1

  0
POLYLINE
  5
D8
330
D4
100
AcDbEntity
  8
_U+30EC_U+30A4_U+30E4_U+30FC 1
370
     0
100
AcDb2dPolyline
 66
     1
 10
0.0
 20
0.0
 30
0.0
  0
VERTEX
  5
D9
330
D8
100
AcDbEntity
  8
_U+30EC_U+30A4_U+30E4_U+30FC 1
370
     0
100
AcDbVertex
100
AcDb2dVertex
 10
82.01807723643994
 20
-135.5128309123023
 30
0.0
  0
VERTEX
  5
DA
330
D8
100
AcDbEntity
  8
_U+30EC_U+30A4_U+30E4_U+30FC 1
370
     0
100
AcDbVertex
100
AcDb2dVertex
 10
81.84065481894956
 20
-135.3343749661664
 30
0.0
  0
VERTEX
  5
DB
330
D8
100
AcDbEntity
  8
_U+30EC_U+30A4_U+30E4_U+30FC 1
370
     0
100
AcDbVertex
100
AcDb2dVertex
 10
82.01945527463403
 20
-135.1566080391275
 30
0.0
  0
VERTEX
  5
DC
330
D8
100
AcDbEntity
  8
_U+30EC_U+30A4_U+30E4_U+30FC 1
370
     0
100
AcDbVertex
100
AcDb2dVertex
 10
82.19653318257588
 20
-135.3357530043605
 30
0.0
  0
VERTEX
  5
DD
330
D8
100
AcDbEntity
  8
_U+30EC_U+30A4_U+30E4_U+30FC 1
370
     0
100
AcDbVertex
100
AcDb2dVertex
 10
82.01807723643994
 20
-135.5128309123023
 30
0.0
  0
SEQEND
  5
DE
330
D8
100
AcDbEntity
  8
_U+30EC_U+30A4_U+30E4_U+30FC 1
370
     0
  0
HATCH
  5
DF
330
D4
100
AcDbEntity
  8
_U+30EC_U+30A4_U+30E4_U+30FC 1
 62
     7
420
 16777215
100
AcDbHatch
 10
0.0
 20
0.0
 30
0.0
210
0.0
220
0.0
230
1.0
  2
SOLID
 70
     1
 71
     0
 91
        1
 92
        1
 93
        4
 72
     1
 10
82.01807723643994
 20
-135.5128309123023
 11
81.84065481894956
 21
-135.3343749661664
 72
     1
 10
81.84065481894956
 20
-135.3343749661664
 11
82.01945527463403
 21
-135.1566080391275
 72
     1
 10
82.01945527463403
 20
-135.1566080391275
 11
82.19653318257588
 21
-135.3357530043605
 72
     1
 10
82.19653318257588
 20
-135.3357530043605
 11
82.01807723643994
 21
-135.5128309123023
 97
        0
 75
     2
 76
     1
 98
        0
  0
ENDBLK
  5
D7
330
D4
100
AcDbEntity
  8
0
100
AcDbBlockEnd
  0
BLOCK
  5
E2
330
E0
100
AcDbEntity
  8
0
100
AcDbBlockBegin
  2
block 13
 70
     0
 10
0.0
 20
0.0
 30
0.0
  3
block 13
  1

  0
SPLINE
  5
E4
330
E0
100
AcDbEntity
  8
_U+30EC_U+30A4_U+30E4_U+30FC 1
370
     0
100
AcDbSpline
210
0.0
220
0.0
230
1.0
 70
    11
 71
     3
 72
    29
 73
    25
 74
     0
 42
0.0000000001
 43
0.0000000001
 12
1.0
 22
0.0
 32
0.0
 13
1.0
 23
0.0
 33
0.0
 40
0.0
 40
0.0
 40
0.0
 40
0.0
 40
1.0
 40
1.0
 40
1.0
 40
2.0
 40
2.0
 40
2.0
 40
3.0
 40
3.0
 40
3.0
 40
4.0
 40
4.0
 40
4.0
 40
5.0
 40
5.0
 40
5.0
 40
6.0
 40
6.0
 40
6.0
 40
7.0
 40
7.0
 40
7.0
 40
8.0
 40
8.0
 40
8.0
 40
8.0
 10
81.41931964110351
 20
-136.1787678696012
 30
0.0
 10
81.22983938941476
 20
-136.3665255735472
 30
0.0
 10
80.95285371240068
 20
-136.4478298269992
 30
0.0
 10
80.70687389475384
 20
-136.2004719711582
 30
0.0
 10
80.52669540087527
 20
-136.018570929537
 30
0.0
 10
80.56045733663072
 20
-135.8511392889539
 30
0.0
 10
80.59249672464355
 20
-135.7333170233584
 30
0.0
 10
80.4622721153011
 20
-135.7787922837636
 30
0.0
 10
80.3272243722793
 20
-135.7515760294302
 30
0.0
 10
80.21422524036312
 20
-135.6375433688684
 30
0.0
 10
80.02061087409207
 20
-135.4422064548547
 30
0.0
 10
80.06608613449737
 20
-135.2062174141151
 30
0.0
 10
80.26107853896251
 20
-135.0126030478441
 30
0.0
 10
80.4622721153011
 20
-134.8127875096996
 30
0.0
 10
80.69895017513777
 20
-134.7804036121382
 30
0.0
 10
80.88670787908389
 20
-134.9695393542785
 30
0.0
 10
80.99970701100008
 20
-135.0835720148402
 30
0.0
 10
81.0248562080424
 20
-135.2199977960561
 30
0.0
 10
80.97834741899153
 20
-135.3502224053986
 30
0.0
 10
81.07687714986967
 20
-135.3233506606136
 30
0.0
 10
81.25671113419972
 20
-135.2789089288539
 30
0.0
 10
81.4413682522091
 20
-135.4652885946059
 30
0.0
 10
81.70526256637925
 20
-135.7309054565187
 30
0.0
 10
81.5888183389778
 20
-136.0103027003724
 30
0.0
 10
81.41931964110351
 20
-136.1787678696012
 30
0.0
  0
SPLINE
  5
E5
330
E0
100
AcDbEntity
  8
_U+30EC_U+30A4_U+30E4_U+30FC 1
370
     0
100
AcDbSpline
210
0.0
220
0.0
230
1.0
 70
    11
 71
     3
 72
    17
 73
    13
 74
     0
 42
0.0000000001
 43
0.0000000001
 12
1.0
 22
0.0
 32
0.0
 13
1.0
 23
0.0
 33
0.0
 40
0.0
 40
0.0
 40
0.0
 40
0.0
 40
1.0
 40
1.0
 40
1.0
 40
2.0
 40
2.0
 40
2.0
 40
3.0
 40
3.0
 40
3.0
 40
4.0
 40
4.0
 40
4.0
 40
4.0
 10
80.39681530108136
 20
-135.14902882906
 30
0.0
 10
80.27968205458286
 20
-135.2654730564614
 30
0.0
 10
80.28657224555336
 20
-135.3925970798671
 30
0.0
 10
80.38165688094625
 20
-135.4887152439056
 30
0.0
 10
80.46847328717455
 20
-135.5755316501339
 30
0.0
 10
80.6028320110993
 20
-135.6089490763408
 30
0.0
 10
80.72892250585944
 20
-135.4838921102263
 30
0.0
 10
80.8553575101681
 20
-135.3584906345632
 30
0.0
 10
80.82262910305823
 20
-135.2234428915414
 30
0.0
 10
80.73650171592699
 20
-135.1366264853131
 30
0.0
 10
80.64107257098557
 20
-135.0405083212746
 30
0.0
 10
80.51257050938575
 20
-135.0339626398526
 30
0.0
 10
80.39681530108136
 20
-135.14902882906
 30
0.0
  0
SPLINE
  5
E6
330
E0
100
AcDbEntity
  8
_U+30EC_U+30A4_U+30E4_U+30FC 1
370
     0
100
AcDbSpline
210
0.0
220
0.0
230
1.0
 70
    11
 71
     3
 72
    17
 73
    13
 74
     0
 42
0.0000000001
 43
0.0000000001
 12
1.0
 22
0.0
 32
0.0
 13
1.0
 23
0.0
 33
0.0
 40
0.0
 40
0.0
 40
0.0
 40
0.0
 40
1.0
 40
1.0
 40
1.0
 40
2.0
 40
2.0
 40
2.0
 40
3.0
 40
3.0
 40
3.0
 40
4.0
 40
4.0
 40
4.0
 40
4.0
 10
80.86190319159009
 20
-135.617561815054
 30
0.0
 10
80.75992836522668
 20
-135.7188476223203
 30
0.0
 10
80.7130750666273
 20
-135.8876573010975
 30
0.0
 10
80.85570201971663
 20
-136.031662292381
 30
0.0
 10
81.00039603009712
 20
-136.1777343409556
 30
0.0
 10
81.16197100835535
 20
-136.1598198444323
 30
0.0
 10
81.28220484079057
 20
-136.0406195406426
 30
0.0
 10
81.41415199787563
 20
-135.9097059122031
 30
0.0
 10
81.40588376871104
 20
-135.7450303480082
 30
0.0
 10
81.28082680259647
 20
-135.6185953436995
 30
0.0
 10
81.12441946756613
 20
-135.4611544800236
 30
0.0
 10
80.95664331743446
 20
-135.5235107083066
 30
0.0
 10
80.86190319159009
 20
-135.617561815054
 30
0.0
  0
HATCH
  5
E7
330
E0
100
AcDbEntity
  8
_U+30EC_U+30A4_U+30E4_U+30FC 1
 62
     7
420
 16777215
100
AcDbHatch
 10
0.0
 20
0.0
 30
0.0
210
0.0
220
0.0
230
1.0
  2
SOLID
 70
     1
 71
     0
 91
        3
 92
        1
 93
        1
 72
     4
 94
        3
 73
     0
 74
     1
 95
       29
 96
       25
 40
0.0
 40
0.0
 40
0.0
 40
0.0
 40
1.0
 40
1.0
 40
1.0
 40
2.0
 40
2.0
 40
2.0
 40
3.0
 40
3.0
 40
3.0
 40
4.0
 40
4.0
 40
4.0
 40
5.0
 40
5.0
 40
5.0
 40
6.0
 40
6.0
 40
6.0
 40
7.0
 40
7.0
 40
7.0
 40
8.0
 40
8.0
 40
8.0
 40
8.0
 10
81.41931964110351
 20
-136.1787678696012
 10
81.22983938941476
 20
-136.3665255735472
 10
80.95285371240068
 20
-136.4478298269992
 10
80.70687389475384
 20
-136.2004719711582
 10
80.52669540087527
 20
-136.018570929537
 10
80.56045733663072
 20
-135.8511392889539
 10
80.59249672464355
 20
-135.7333170233584
 10
80.4622721153011
 20
-135.7787922837636
 10
80.3272243722793
 20
-135.7515760294302
 10
80.21422524036312
 20
-135.6375433688684
 10
80.02061087409207
 20
-135.4422064548547
 10
80.06608613449737
 20
-135.2062174141151
 10
80.26107853896251
 20
-135.0126030478441
 10
80.4622721153011
 20
-134.8127875096996
 10
80.69895017513777
 20
-134.7804036121382
 10
80.88670787908389
 20
-134.9695393542785
 10
80.99970701100008
 20
-135.0835720148402
 10
81.0248562080424
 20
-135.2199977960561
 10
80.97834741899153
 20
-135.3502224053986
 10
81.07687714986967
 20
-135.3233506606136
 10
81.25671113419972
 20
-135.2789089288539
 10
81.4413682522091
 20
-135.4652885946059
 10
81.70526256637925
 20
-135.7309054565187
 10
81.5888183389778
 20
-136.0103027003724
 10
81.41931964110351
 20
-136.1787678696012
 97
        0
 97
        0
 92
        1
 93
        1
 72
     4
 94
        3
 73
     0
 74
     1
 95
       17
 96
       13
 40
0.0
 40
0.0
 40
0.0
 40
0.0
 40
1.0
 40
1.0
 40
1.0
 40
2.0
 40
2.0
 40
2.0
 40
3.0
 40
3.0
 40
3.0
 40
4.0
 40
4.0
 40
4.0
 40
4.0
 10
80.39681530108136
 20
-135.14902882906
 10
80.27968205458286
 20
-135.2654730564614
 10
80.28657224555336
 20
-135.3925970798671
 10
80.38165688094625
 20
-135.4887152439056
 10
80.46847328717455
 20
-135.5755316501339
 10
80.6028320110993
 20
-135.6089490763408
 10
80.72892250585944
 20
-135.4838921102263
 10
80.8553575101681
 20
-135.3584906345632
 10
80.82262910305823
 20
-135.2234428915414
 10
80.73650171592699
 20
-135.1366264853131
 10
80.64107257098557
 20
-135.0405083212746
 10
80.51257050938575
 20
-135.0339626398526
 10
80.39681530108136
 20
-135.14902882906
 97
        0
 97
        0
 92
        1
 93
        1
 72
     4
 94
        3
 73
     0
 74
     1
 95
       17
 96
       13
 40
0.0
 40
0.0
 40
0.0
 40
0.0
 40
1.0
 40
1.0
 40
1.0
 40
2.0
 40
2.0
 40
2.0
 40
3.0
 40
3.0
 40
3.0
 40
4.0
 40
4.0
 40
4.0
 40
4.0
 10
80.86190319159009
 20
-135.617561815054
 10
80.75992836522668
 20
-135.7188476223203
 10
80.7130750666273
 20
-135.8876573010975
 10
80.85570201971663
 20
-136.031662292381
 10
81.00039603009712
 20
-136.1777343409556
 10
81.16197100835535
 20
-136.1598198444323
 10
81.28220484079057
 20
-136.0406195406426
 10
81.41415199787563
 20
-135.9097059122031
 10
81.40588376871104
 20
-135.7450303480082
 10
81.28082680259647
 20
-135.6185953436995
 10
81.12441946756613
 20
-135.4611544800236
 10
80.95664331743446
 20
-135.5235107083066
 10
80.86190319159009
 20
-135.617561815054
 97
        0
 97
        0
 75
     2
 76
     1
 98
        0
  0
ENDBLK
  5
E3
330
E0
100
AcDbEntity
  8
0
100
AcDbBlockEnd
  0
BLOCK
  5
EA
330
E8
100
AcDbEntity
  8
0
100
AcDbBlockBegin
  2
block 14
 70
     0
 10
0.0
 20
0.0
 30
0.0
  3
block 14
  1

  0
SPLINE
  5
EC
330
E8
100
AcDbEntity
  8
_U+30EC_U+30A4_U+30E4_U+30FC 1
370
     0
100
AcDbSpline
210
0.0
220
0.0
230
1.0
 70
    11
 71
     3
 72
    44
 73
    40
 74
     0
 42
0.0000000001
 43
0.0000000001
 12
1.0
 22
0.0
 32
0.0
 13
1.0
 23
0.0
 33
0.0
 40
0.0
 40
0.0
 40
0.0
 40
0.0
 40
1.0
 40
1.0
 40
1.0
 40
2.0
 40
2.0
 40
2.0
 40
3.0
 40
3.0
 40
3.0
 40
4.0
 40
4.0
 40
4.0
 40
5.0
 40
5.0
 40
5.0
 40
6.0
 40
6.0
 40
6.0
 40
7.0
 40
7.0
 40
7.0
 40
8.0
 40
8.0
 40
8.0
 40
9.0
 40
9.0
 40
9.0
 40
10.0
 40
10.0
 40
10.0
 40
11.0
 40
11.0
 40
11.0
 40
12.0
 40
12.0
 40
12.0
 40
13.0
 40
13.0
 40
13.0
 40
13.0
 10
80.09330238883085
 20
-136.6042371620295
 30
0.0
 10
80.05058320481375
 20
-136.8701985334908
 30
0.0
 10
80.03680282287274
 20
-136.9880207990863
 30
0.0
 10
80.10329316573807
 20
-137.1244465803022
 30
0.0
 10
80.10329316573807
 20
-137.1244465803022
 30
0.0
 10
80.65588648157214
 20
-136.5759873790504
 30
0.0
 10
80.65588648157214
 20
-136.5759873790504
 30
0.0
 10
80.65588648157214
 20
-136.5759873790504
 30
0.0
 10
80.80058049195263
 20
-136.7217149180765
 30
0.0
 10
80.80058049195263
 20
-136.7217149180765
 30
0.0
 10
80.80058049195263
 20
-136.7217149180765
 30
0.0
 10
80.07125377772525
 20
-137.4462184986246
 30
0.0
 10
80.07125377772525
 20
-137.4462184986246
 30
0.0
 10
79.84146590885908
 20
-137.1699218407075
 30
0.0
 10
79.83285317014595
 20
-137.0686360334412
 30
0.0
 10
79.89624292707455
 20
-136.5852891368606
 30
0.0
 10
79.93758407289755
 20
-136.2638617280868
 30
0.0
 10
79.93620603470345
 20
-136.169466111791
 30
0.0
 10
79.83939885156794
 20
-136.0719699095584
 30
0.0
 10
79.75568303127636
 20
-135.9879095797183
 30
0.0
 10
79.61236705908996
 20
-135.9458794147983
 30
0.0
 10
79.47318520148588
 20
-136.0847167628538
 30
0.0
 10
79.28852808347648
 20
-136.2676513331206
 30
0.0
 10
79.44493541850683
 20
-136.4368055214464
 30
0.0
 10
79.52382810511905
 20
-136.5229329085776
 30
0.0
 10
79.52382810511905
 20
-136.5229329085776
 30
0.0
 10
79.3646646937005
 20
-136.6807182818021
 30
0.0
 10
79.3646646937005
 20
-136.6807182818021
 30
0.0
 10
79.28094887340893
 20
-136.5846001177636
 30
0.0
 10
79.20997990641278
 20
-136.4974392019868
 30
0.0
 10
79.18310816162784
 20
-136.3568793061886
 30
0.0
 10
79.14796818767829
 20
-136.1653319972087
 30
0.0
 10
79.25648869546366
 20
-136.0103027003724
 30
0.0
 10
79.33882647756113
 20
-135.9283094278235
 30
0.0
 10
79.5355414297689
 20
-135.7329725138098
 30
0.0
 10
79.81218259723445
 20
-135.7174695841262
 30
0.0
 10
80.0044189253114
 20
-135.9110839503972
 30
0.0
 10
80.16564939402109
 20
-136.073003438204
 30
0.0
 10
80.15324705027419
 20
-136.2256211682005
 30
0.0
 10
80.09330238883085
 20
-136.6042371620295
 30
0.0
  0
HATCH
  5
ED
330
E8
100
AcDbEntity
  8
_U+30EC_U+30A4_U+30E4_U+30FC 1
 62
     7
420
 16777215
100
AcDbHatch
 10
0.0
 20
0.0
 30
0.0
210
0.0
220
0.0
230
1.0
  2
SOLID
 70
     1
 71
     0
 91
        1
 92
        1
 93
        1
 72
     4
 94
        3
 73
     0
 74
     1
 95
       44
 96
       40
 40
0.0
 40
0.0
 40
0.0
 40
0.0
 40
1.0
 40
1.0
 40
1.0
 40
2.0
 40
2.0
 40
2.0
 40
3.0
 40
3.0
 40
3.0
 40
4.0
 40
4.0
 40
4.0
 40
5.0
 40
5.0
 40
5.0
 40
6.0
 40
6.0
 40
6.0
 40
7.0
 40
7.0
 40
7.0
 40
8.0
 40
8.0
 40
8.0
 40
9.0
 40
9.0
 40
9.0
 40
10.0
 40
10.0
 40
10.0
 40
11.0
 40
11.0
 40
11.0
 40
12.0
 40
12.0
 40
12.0
 40
13.0
 40
13.0
 40
13.0
 40
13.0
 10
80.09330238883085
 20
-136.6042371620295
 10
80.05058320481375
 20
-136.8701985334908
 10
80.03680282287274
 20
-136.9880207990863
 10
80.10329316573807
 20
-137.1244465803022
 10
80.10329316573807
 20
-137.1244465803022
 10
80.65588648157214
 20
-136.5759873790504
 10
80.65588648157214
 20
-136.5759873790504
 10
80.65588648157214
 20
-136.5759873790504
 10
80.80058049195263
 20
-136.7217149180765
 10
80.80058049195263
 20
-136.7217149180765
 10
80.80058049195263
 20
-136.7217149180765
 10
80.07125377772525
 20
-137.4462184986246
 10
80.07125377772525
 20
-137.4462184986246
 10
79.84146590885908
 20
-137.1699218407075
 10
79.83285317014595
 20
-137.0686360334412
 10
79.89624292707455
 20
-136.5852891368606
 10
79.93758407289755
 20
-136.2638617280868
 10
79.93620603470345
 20
-136.169466111791
 10
79.83939885156794
 20
-136.0719699095584
 10
79.75568303127636
 20
-135.9879095797183
 10
79.61236705908996
 20
-135.9458794147983
 10
79.47318520148588
 20
-136.0847167628538
 10
79.28852808347648
 20
-136.2676513331206
 10
79.44493541850683
 20
-136.4368055214464
 10
79.52382810511905
 20
-136.5229329085776
 10
79.52382810511905
 20
-136.5229329085776
 10
79.3646646937005
 20
-136.6807182818021
 10
79.3646646937005
 20
-136.6807182818021
 10
79.28094887340893
 20
-136.5846001177636
 10
79.20997990641278
 20
-136.4974392019868
 10
79.18310816162784
 20
-136.3568793061886
 10
79.14796818767829
 20
-136.1653319972087
 10
79.25648869546366
 20
-136.0103027003724
 10
79.33882647756113
 20
-135.9283094278235
 10
79.5355414297689
 20
-135.7329725138098
 10
79.81218259723445
 20
-135.7174695841262
 10
80.0044189253114
 20
-135.9110839503972
 10
80.16564939402109
 20
-136.073003438204
 10
80.15324705027419
 20
-136.2256211682005
 10
80.09330238883085
 20
-136.6042371620295
 97
        0
 97
        0
 75
     2
 76
     1
 98
        0
  0
ENDBLK
  5
EB
330
E8
100
AcDbEntity
  8
0
100
AcDbBlockEnd
  0
BLOCK
  5
F0
330
EE
100
AcDbEntity
  8
0
100
AcDbBlockBegin
  2
block 15
 70
     0
 10
0.0
 20
0.0
 30
0.0
  3
block 15
  1

  0
SPLINE
  5
F2
330
EE
100
AcDbEntity
  8
_U+30EC_U+30A4_U+30E4_U+30FC 1
370
     0
100
AcDbSpline
210
0.0
220
0.0
230
1.0
 70
    11
 71
     3
 72
    44
 73
    40
 74
     0
 42
0.0000000001
 43
0.0000000001
 12
1.0
 22
0.0
 32
0.0
 13
1.0
 23
0.0
 33
0.0
 40
0.0
 40
0.0
 40
0.0
 40
0.0
 40
1.0
 40
1.0
 40
1.0
 40
2.0
 40
2.0
 40
2.0
 40
3.0
 40
3.0
 40
3.0
 40
4.0
 40
4.0
 40
4.0
 40
5.0
 40
5.0
 40
5.0
 40
6.0
 40
6.0
 40
6.0
 40
7.0
 40
7.0
 40
7.0
 40
8.0
 40
8.0
 40
8.0
 40
9.0
 40
9.0
 40
9.0
 40
10.0
 40
10.0
 40
10.0
 40
11.0
 40
11.0
 40
11.0
 40
12.0
 40
12.0
 40
12.0
 40
13.0
 40
13.0
 40
13.0
 40
13.0
 10
79.77325301825114
 20
-137.741807691259
 30
0.0
 10
79.72571070055469
 20
-137.7266492711239
 30
0.0
 10
79.6733452491789
 20
-137.7042561504698
 30
0.0
 10
79.509358704081
 20
-137.5419921531145
 30
0.0
 10
79.33503687252735
 20
-137.3724934552402
 30
0.0
 10
79.24339733261971
 20
-137.3642252260756
 30
0.0
 10
79.11730683785956
 20
-137.4896267017387
 30
0.0
 10
79.11730683785956
 20
-137.4896267017387
 30
0.0
 10
78.82791881709858
 20
-137.7772921747571
 30
0.0
 10
78.82791881709858
 20
-137.7772921747571
 30
0.0
 10
78.82791881709858
 20
-137.7772921747571
 30
0.0
 10
79.27957083521483
 20
-138.2323892883586
 30
0.0
 10
79.27957083521483
 20
-138.2323892883586
 30
0.0
 10
79.27957083521483
 20
-138.2323892883586
 30
0.0
 10
79.11282821372875
 20
-138.3977538716506
 30
0.0
 10
79.11282821372875
 20
-138.3977538716506
 30
0.0
 10
79.11282821372875
 20
-138.3977538716506
 30
0.0
 10
78.02452254993831
 20
-137.3018689977926
 30
0.0
 10
78.02452254993831
 20
-137.3018689977926
 30
0.0
 10
78.02452254993831
 20
-137.3018689977926
 30
0.0
 10
78.50339082238804
 20
-136.8261013112796
 30
0.0
 10
78.50339082238804
 20
-136.8261013112796
 30
0.0
 10
78.72112085705584
 20
-136.6100938243544
 30
0.0
 10
78.96089950282922
 20
-136.6138834293882
 30
0.0
 10
79.14107799670779
 20
-136.7957844710094
 30
0.0
 10
79.17656248020586
 20
-136.831613464056
 30
0.0
 10
79.22892793158167
 20
-136.8963812591787
 30
0.0
 10
79.25373261907546
 20
-136.9845757036011
 30
0.0
 10
79.2847384784427
 20
-137.1003309119055
 30
0.0
 10
79.2516655617843
 20
-137.1595865542518
 30
0.0
 10
79.21997068332001
 20
-137.2147080820158
 30
0.0
 10
79.34743921627425
 20
-137.1478732296019
 30
0.0
 10
79.4294324888232
 20
-137.134781866758
 30
0.0
 10
79.65508624310706
 20
-137.355267977814
 30
0.0
 10
79.84904511892663
 20
-137.5447482295027
 30
0.0
 10
79.89658743662308
 20
-137.5419921531145
 30
0.0
 10
79.98340384285137
 20
-137.5330349048529
 30
0.0
 10
79.98340384285137
 20
-137.5330349048529
 30
0.0
 10
79.77325301825114
 20
-137.741807691259
 30
0.0
 10
79.77325301825114
 20
-137.741807691259
 30
0.0
  0
SPLINE
  5
F3
330
EE
100
AcDbEntity
  8
_U+30EC_U+30A4_U+30E4_U+30FC 1
370
     0
100
AcDbSpline
210
0.0
220
0.0
230
1.0
 70
    11
 71
     3
 72
    20
 73
    16
 74
     0
 42
0.0000000001
 43
0.0000000001
 12
1.0
 22
0.0
 32
0.0
 13
1.0
 23
0.0
 33
0.0
 40
0.0
 40
0.0
 40
0.0
 40
0.0
 40
1.0
 40
1.0
 40
1.0
 40
2.0
 40
2.0
 40
2.0
 40
3.0
 40
3.0
 40
3.0
 40
4.0
 40
4.0
 40
4.0
 40
5.0
 40
5.0
 40
5.0
 40
5.0
 10
78.6556640428361
 20
-136.9735513980483
 30
0.0
 10
78.6556640428361
 20
-136.9735513980483
 30
0.0
 10
78.34009329638721
 20
-137.286366068109
 30
0.0
 10
78.34009329638721
 20
-137.286366068109
 30
0.0
 10
78.34009329638721
 20
-137.286366068109
 30
0.0
 10
78.67874618258726
 20
-137.6274305211487
 30
0.0
 10
78.67874618258726
 20
-137.6274305211487
 30
0.0
 10
78.67874618258726
 20
-137.6274305211487
 30
0.0
 10
78.99259438129353
 20
-137.3159938892821
 30
0.0
 10
78.99259438129353
 20
-137.3159938892821
 30
0.0
 10
79.06287432919262
 20
-137.245713941383
 30
0.0
 10
79.10524900366119
 20
-137.0961967973232
 30
0.0
 10
78.98467066167744
 20
-136.9749294362424
 30
0.0
 10
78.92954913391345
 20
-136.9191188893813
 30
0.0
 10
78.79656844818281
 20
-136.8333360117986
 30
0.0
 10
78.6556640428361
 20
-136.9735513980483
 30
0.0
  0
HATCH
  5
F4
330
EE
100
AcDbEntity
  8
_U+30EC_U+30A4_U+30E4_U+30FC 1
 62
     7
420
 16777215
100
AcDbHatch
 10
0.0
 20
0.0
 30
0.0
210
0.0
220
0.0
230
1.0
  2
SOLID
 70
     1
 71
     0
 91
        2
 92
        1
 93
        1
 72
     4
 94
        3
 73
     0
 74
     1
 95
       44
 96
       40
 40
0.0
 40
0.0
 40
0.0
 40
0.0
 40
1.0
 40
1.0
 40
1.0
 40
2.0
 40
2.0
 40
2.0
 40
3.0
 40
3.0
 40
3.0
 40
4.0
 40
4.0
 40
4.0
 40
5.0
 40
5.0
 40
5.0
 40
6.0
 40
6.0
 40
6.0
 40
7.0
 40
7.0
 40
7.0
 40
8.0
 40
8.0
 40
8.0
 40
9.0
 40
9.0
 40
9.0
 40
10.0
 40
10.0
 40
10.0
 40
11.0
 40
11.0
 40
11.0
 40
12.0
 40
12.0
 40
12.0
 40
13.0
 40
13.0
 40
13.0
 40
13.0
 10
79.77325301825114
 20
-137.741807691259
 10
79.72571070055469
 20
-137.7266492711239
 10
79.6733452491789
 20
-137.7042561504698
 10
79.509358704081
 20
-137.5419921531145
 10
79.33503687252735
 20
-137.3724934552402
 10
79.24339733261971
 20
-137.3642252260756
 10
79.11730683785956
 20
-137.4896267017387
 10
79.11730683785956
 20
-137.4896267017387
 10
78.82791881709858
 20
-137.7772921747571
 10
78.82791881709858
 20
-137.7772921747571
 10
78.82791881709858
 20
-137.7772921747571
 10
79.27957083521483
 20
-138.2323892883586
 10
79.27957083521483
 20
-138.2323892883586
 10
79.27957083521483
 20
-138.2323892883586
 10
79.11282821372875
 20
-138.3977538716506
 10
79.11282821372875
 20
-138.3977538716506
 10
79.11282821372875
 20
-138.3977538716506
 10
78.02452254993831
 20
-137.3018689977926
 10
78.02452254993831
 20
-137.3018689977926
 10
78.02452254993831
 20
-137.3018689977926
 10
78.50339082238804
 20
-136.8261013112796
 10
78.50339082238804
 20
-136.8261013112796
 10
78.72112085705584
 20
-136.6100938243544
 10
78.96089950282922
 20
-136.6138834293882
 10
79.14107799670779
 20
-136.7957844710094
 10
79.17656248020586
 20
-136.831613464056
 10
79.22892793158167
 20
-136.8963812591787
 10
79.25373261907546
 20
-136.9845757036011
 10
79.2847384784427
 20
-137.1003309119055
 10
79.2516655617843
 20
-137.1595865542518
 10
79.21997068332001
 20
-137.2147080820158
 10
79.34743921627425
 20
-137.1478732296019
 10
79.4294324888232
 20
-137.134781866758
 10
79.65508624310706
 20
-137.355267977814
 10
79.84904511892663
 20
-137.5447482295027
 10
79.89658743662308
 20
-137.5419921531145
 10
79.98340384285137
 20
-137.5330349048529
 10
79.98340384285137
 20
-137.5330349048529
 10
79.77325301825114
 20
-137.741807691259
 10
79.77325301825114
 20
-137.741807691259
 97
        0
 97
        0
 92
        1
 93
        1
 72
     4
 94
        3
 73
     0
 74
     1
 95
       20
 96
       16
 40
0.0
 40
0.0
 40
0.0
 40
0.0
 40
1.0
 40
1.0
 40
1.0
 40
2.0
 40
2.0
 40
2.0
 40
3.0
 40
3.0
 40
3.0
 40
4.0
 40
4.0
 40
4.0
 40
5.0
 40
5.0
 40
5.0
 40
5.0
 10
78.6556640428361
 20
-136.9735513980483
 10
78.6556640428361
 20
-136.9735513980483
 10
78.34009329638721
 20
-137.286366068109
 10
78.34009329638721
 20
-137.286366068109
 10
78.34009329638721
 20
-137.286366068109
 10
78.67874618258726
 20
-137.6274305211487
 10
78.67874618258726
 20
-137.6274305211487
 10
78.67874618258726
 20
-137.6274305211487
 10
78.99259438129353
 20
-137.3159938892821
 10
78.99259438129353
 20
-137.3159938892821
 10
79.06287432919262
 20
-137.245713941383
 10
79.10524900366119
 20
-137.0961967973232
 10
78.98467066167744
 20
-136.9749294362424
 10
78.92954913391345
 20
-136.9191188893813
 10
78.79656844818281
 20
-136.8333360117986
 10
78.6556640428361
 20
-136.9735513980483
 97
        0
 97
        0
 75
     2
 76
     1
 98
        0
  0
ENDBLK
  5
F1
330
EE
100
AcDbEntity
  8
0
100
AcDbBlockEnd
  0
BLOCK
  5
FE
330
FC
100
AcDbEntity
  8
0
100
AcDbBlockBegin
  2
block 16
 70
     0
 10
0.0
 20
0.0
 30
0.0
  3
block 16
  1

  0
SPLINE
  5
100
330
FC
100
AcDbEntity
  8
_U+30EC_U+30A4_U+30E4_U+30FC 1
370
     0
100
AcDbSpline
210
0.0
220
0.0
230
1.0
 70
    11
 71
     3
 72
    62
 73
    58
 74
     0
 42
0.0000000001
 43
0.0000000001
 12
1.0
 22
0.0
 32
0.0
 13
1.0
 23
0.0
 33
0.0
 40
0.0
 40
0.0
 40
0.0
 40
0.0
 40
1.0
 40
1.0
 40
1.0
 40
2.0
 40
2.0
 40
2.0
 40
3.0
 40
3.0
 40
3.0
 40
4.0
 40
4.0
 40
4.0
 40
5.0
 40
5.0
 40
5.0
 40
6.0
 40
6.0
 40
6.0
 40
7.0
 40
7.0
 40
7.0
 40
8.0
 40
8.0
 40
8.0
 40
9.0
 40
9.0
 40
9.0
 40
10.0
 40
10.0
 40
10.0
 40
11.0
 40
11.0
 40
11.0
 40
12.0
 40
12.0
 40
12.0
 40
13.0
 40
13.0
 40
13.0
 40
14.0
 40
14.0
 40
14.0
 40
15.0
 40
15.0
 40
15.0
 40
16.0
 40
16.0
 40
16.0
 40
17.0
 40
17.0
 40
17.0
 40
18.0
 40
18.0
 40
18.0
 40
19.0
 40
19.0
 40
19.0
 40
19.0
 10
78.82137313567661
 20
-145.9969454930147
 30
0.0
 10
78.72594399073519
 20
-145.9969454930147
 30
0.0
 10
78.5082139560674
 20
-145.9759304105546
 30
0.0
 10
78.38315698995282
 20
-145.7898952543511
 30
0.0
 10
78.30908743701995
 20
-145.677585141532
 30
0.0
 10
78.30495332243765
 20
-145.5783663915568
 30
0.0
 10
78.30081920785535
 20
-145.4936170426197
 30
0.0
 10
78.30081920785535
 20
-145.4936170426197
 30
0.0
 10
78.52096080936282
 20
-145.4936170426197
 30
0.0
 10
78.52096080936282
 20
-145.4936170426197
 30
0.0
 10
78.52302786665396
 20
-145.5676865955525
 30
0.0
 10
78.53336315310972
 20
-145.8022975980981
 30
0.0
 10
78.81689451154578
 20
-145.8022975980981
 30
0.0
 10
78.95435382140725
 20
-145.8022975980981
 30
0.0
 10
79.10697155140382
 20
-145.732706669296
 30
0.0
 10
79.10697155140382
 20
-145.5042968386239
 30
0.0
 10
79.10697155140382
 20
-145.3878526112225
 30
0.0
 10
79.06873099151754
 20
-145.3392767648805
 30
0.0
 10
79.03703611305325
 20
-145.3075818864162
 30
0.0
 10
78.96296656012038
 20
-145.2335123334833
 30
0.0
 10
78.84652233271893
 20
-145.2207654801879
 30
0.0
 10
78.79174531450346
 20
-145.2207654801879
 30
0.0
 10
78.77245277978605
 20
-145.2207654801879
 30
0.0
 10
78.73662378673946
 20
-145.222832537479
 30
0.0
 10
78.70906302285746
 20
-145.2269666520613
 30
0.0
 10
78.70906302285746
 20
-145.2269666520613
 30
0.0
 10
78.70906302285746
 20
-145.0323187571447
 30
0.0
 10
78.70906302285746
 20
-145.0323187571447
 30
0.0
 10
78.74730358274374
 20
-145.0388644385667
 30
0.0
 10
78.78933374766378
 20
-145.0409314958578
 30
0.0
 10
78.79587942908576
 20
-145.0409314958578
 30
0.0
 10
78.8613362433055
 20
-145.0409314958578
 30
0.0
 10
79.06011825280441
 20
-145.0195719038493
 30
0.0
 10
79.06011825280441
 20
-144.7828938440126
 30
0.0
 10
79.06011825280441
 20
-144.6051269169737
 30
0.0
 10
78.92920462436493
 20
-144.5500053892097
 30
0.0
 10
78.81896156883693
 20
-144.5500053892097
 30
0.0
 10
78.55472274511827
 20
-144.5500053892097
 30
0.0
 10
78.54611000640514
 20
-144.7828938440126
 30
0.0
 10
78.54197589182284
 20
-144.8545518301058
 30
0.0
 10
78.54197589182284
 20
-144.8545518301058
 30
0.0
 10
78.3387152581931
 20
-144.8545518301058
 30
0.0
 10
78.3387152581931
 20
-144.8545518301058
 30
0.0
 10
78.34732799690623
 20
-144.7298393735398
 30
0.0
 10
78.37488876078822
 20
-144.353290437002
 30
0.0
 10
78.83170842213235
 20
-144.353290437002
 30
0.0
 10
79.05598413822212
 20
-144.353290437002
 30
0.0
 10
79.2971408221896
 20
-144.4804144604077
 30
0.0
 10
79.2971408221896
 20
-144.7763481625906
 30
0.0
 10
79.2971408221896
 20
-144.9627278283427
 30
0.0
 10
79.20205618679671
 20
-145.0450656104401
 30
0.0
 10
79.10249292727299
 20
-145.1063883100776
 30
0.0
 10
79.16381562691043
 20
-145.1339490739596
 30
0.0
 10
79.34571666853164
 20
-145.2142197987659
 30
0.0
 10
79.34571666853164
 20
-145.4915499853285
 30
0.0
 10
79.34571666853164
 20
-145.82985836198
 30
0.0
 10
79.09835881269069
 20
-145.9969454930147
 30
0.0
 10
78.82137313567661
 20
-145.9969454930147
 30
0.0
  0
HATCH
  5
101
330
FC
100
AcDbEntity
  8
_U+30EC_U+30A4_U+30E4_U+30FC 1
 62
     7
420
 16777215
100
AcDbHatch
 10
0.0
 20
0.0
 30
0.0
210
0.0
220
0.0
230
1.0
  2
SOLID
 70
     1
 71
     0
 91
        1
 92
        1
 93
        1
 72
     4
 94
        3
 73
     0
 74
     1
 95
       62
 96
       58
 40
0.0
 40
0.0
 40
0.0
 40
0.0
 40
1.0
 40
1.0
 40
1.0
 40
2.0
 40
2.0
 40
2.0
 40
3.0
 40
3.0
 40
3.0
 40
4.0
 40
4.0
 40
4.0
 40
5.0
 40
5.0
 40
5.0
 40
6.0
 40
6.0
 40
6.0
 40
7.0
 40
7.0
 40
7.0
 40
8.0
 40
8.0
 40
8.0
 40
9.0
 40
9.0
 40
9.0
 40
10.0
 40
10.0
 40
10.0
 40
11.0
 40
11.0
 40
11.0
 40
12.0
 40
12.0
 40
12.0
 40
13.0
 40
13.0
 40
13.0
 40
14.0
 40
14.0
 40
14.0
 40
15.0
 40
15.0
 40
15.0
 40
16.0
 40
16.0
 40
16.0
 40
17.0
 40
17.0
 40
17.0
 40
18.0
 40
18.0
 40
18.0
 40
19.0
 40
19.0
 40
19.0
 40
19.0
 10
78.82137313567661
 20
-145.9969454930147
 10
78.72594399073519
 20
-145.9969454930147
 10
78.5082139560674
 20
-145.9759304105546
 10
78.38315698995282
 20
-145.7898952543511
 10
78.30908743701995
 20
-145.677585141532
 10
78.30495332243765
 20
-145.5783663915568
 10
78.30081920785535
 20
-145.4936170426197
 10
78.30081920785535
 20
-145.4936170426197
 10
78.52096080936282
 20
-145.4936170426197
 10
78.52096080936282
 20
-145.4936170426197
 10
78.52302786665396
 20
-145.5676865955525
 10
78.53336315310972
 20
-145.8022975980981
 10
78.81689451154578
 20
-145.8022975980981
 10
78.95435382140725
 20
-145.8022975980981
 10
79.10697155140382
 20
-145.732706669296
 10
79.10697155140382
 20
-145.5042968386239
 10
79.10697155140382
 20
-145.3878526112225
 10
79.06873099151754
 20
-145.3392767648805
 10
79.03703611305325
 20
-145.3075818864162
 10
78.96296656012038
 20
-145.2335123334833
 10
78.84652233271893
 20
-145.2207654801879
 10
78.79174531450346
 20
-145.2207654801879
 10
78.77245277978605
 20
-145.2207654801879
 10
78.73662378673946
 20
-145.222832537479
 10
78.70906302285746
 20
-145.2269666520613
 10
78.70906302285746
 20
-145.2269666520613
 10
78.70906302285746
 20
-145.0323187571447
 10
78.70906302285746
 20
-145.0323187571447
 10
78.74730358274374
 20
-145.0388644385667
 10
78.78933374766378
 20
-145.0409314958578
 10
78.79587942908576
 20
-145.0409314958578
 10
78.8613362433055
 20
-145.0409314958578
 10
79.06011825280441
 20
-145.0195719038493
 10
79.06011825280441
 20
-144.7828938440126
 10
79.06011825280441
 20
-144.6051269169737
 10
78.92920462436493
 20
-144.5500053892097
 10
78.81896156883693
 20
-144.5500053892097
 10
78.55472274511827
 20
-144.5500053892097
 10
78.54611000640514
 20
-144.7828938440126
 10
78.54197589182284
 20
-144.8545518301058
 10
78.54197589182284
 20
-144.8545518301058
 10
78.3387152581931
 20
-144.8545518301058
 10
78.3387152581931
 20
-144.8545518301058
 10
78.34732799690623
 20
-144.7298393735398
 10
78.37488876078822
 20
-144.353290437002
 10
78.83170842213235
 20
-144.353290437002
 10
79.05598413822212
 20
-144.353290437002
 10
79.2971408221896
 20
-144.4804144604077
 10
79.2971408221896
 20
-144.7763481625906
 10
79.2971408221896
 20
-144.9627278283427
 10
79.20205618679671
 20
-145.0450656104401
 10
79.10249292727299
 20
-145.1063883100776
 10
79.16381562691043
 20
-145.1339490739596
 10
79.34571666853164
 20
-145.2142197987659
 10
79.34571666853164
 20
-145.4915499853285
 10
79.34571666853164
 20
-145.82985836198
 10
79.09835881269069
 20
-145.9969454930147
 10
78.82137313567661
 20
-145.9969454930147
 97
        0
 97
        0
 75
     2
 76
     1
 98
        0
  0
SPLINE
  5
102
330
FC
100
AcDbEntity
  8
_U+30EC_U+30A4_U+30E4_U+30FC 1
370
     0
100
AcDbSpline
210
0.0
220
0.0
230
1.0
 70
    11
 71
     3
 72
    53
 73
    49
 74
     0
 42
0.0000000001
 43
0.0000000001
 12
1.0
 22
0.0
 32
0.0
 13
1.0
 23
0.0
 33
0.0
 40
0.0
 40
0.0
 40
0.0
 40
0.0
 40
1.0
 40
1.0
 40
1.0
 40
2.0
 40
2.0
 40
2.0
 40
3.0
 40
3.0
 40
3.0
 40
4.0
 40
4.0
 40
4.0
 40
5.0
 40
5.0
 40
5.0
 40
6.0
 40
6.0
 40
6.0
 40
7.0
 40
7.0
 40
7.0
 40
8.0
 40
8.0
 40
8.0
 40
9.0
 40
9.0
 40
9.0
 40
10.0
 40
10.0
 40
10.0
 40
11.0
 40
11.0
 40
11.0
 40
12.0
 40
12.0
 40
12.0
 40
13.0
 40
13.0
 40
13.0
 40
14.0
 40
14.0
 40
14.0
 40
15.0
 40
15.0
 40
15.0
 40
16.0
 40
16.0
 40
16.0
 40
16.0
 10
79.98753795743367
 20
-145.9969454930147
 30
0.0
 10
79.9093342899185
 20
-145.9969454930147
 30
0.0
 10
79.80770397310363
 20
-145.9800645251369
 30
0.0
 10
79.70607365628877
 20
-145.9166747682083
 30
0.0
 10
79.5327853533807
 20
-145.8067762222289
 30
0.0
 10
79.51142576137215
 20
-145.6755180842408
 30
0.0
 10
79.49247773620327
 20
-145.5676865955525
 30
0.0
 10
79.49247773620327
 20
-145.5676865955525
 30
0.0
 10
79.71468639500189
 20
-145.5676865955525
 30
0.0
 10
79.71468639500189
 20
-145.5676865955525
 30
0.0
 10
79.76946341321737
 20
-145.7664686050514
 30
0.0
 10
79.89658743662308
 20
-145.7960964262246
 30
0.0
 10
79.98960501472483
 20
-145.7960964262246
 30
0.0
 10
80.12913138187744
 20
-145.7960964262246
 30
0.0
 10
80.28140460232548
 20
-145.6965331667009
 30
0.0
 10
80.28140460232548
 20
-145.4639892214465
 30
0.0
 10
80.28140460232548
 20
-145.2080186268925
 30
0.0
 10
80.10157061799545
 20
-145.1380831885419
 30
0.0
 10
79.9809922760117
 20
-145.1380831885419
 30
0.0
 10
79.9492973975474
 20
-145.1380831885419
 30
0.0
 10
79.80770397310363
 20
-145.1380831885419
 30
0.0
 10
79.71882050958419
 20
-145.2672742692388
 30
0.0
 10
79.71882050958419
 20
-145.2672742692388
 30
0.0
 10
79.54312063983645
 20
-145.2483262440699
 30
0.0
 10
79.54312063983645
 20
-145.2483262440699
 30
0.0
 10
79.54312063983645
 20
-145.2483262440699
 30
0.0
 10
79.66369898182019
 20
-144.401866283344
 30
0.0
 10
79.66369898182019
 20
-144.401866283344
 30
0.0
 10
79.66369898182019
 20
-144.401866283344
 30
0.0
 10
80.44229056148666
 20
-144.401866283344
 30
0.0
 10
80.44229056148666
 20
-144.401866283344
 30
0.0
 10
80.44229056148666
 20
-144.401866283344
 30
0.0
 10
80.44229056148666
 20
-144.5965141782606
 30
0.0
 10
80.44229056148666
 20
-144.5965141782606
 30
0.0
 10
80.44229056148666
 20
-144.5965141782606
 30
0.0
 10
79.82665199827251
 20
-144.5965141782606
 30
0.0
 10
79.82665199827251
 20
-144.5965141782606
 30
0.0
 10
79.82665199827251
 20
-144.5965141782606
 30
0.0
 10
79.76119518405277
 20
-145.0195719038493
 30
0.0
 10
79.76119518405277
 20
-145.0195719038493
 30
0.0
 10
79.82251788369021
 20
-144.9858099680938
 30
0.0
 10
79.90485566578768
 20
-144.9455023509164
 30
0.0
 10
80.02336695048027
 20
-144.9455023509164
 30
0.0
 10
80.27727048774318
 20
-144.9455023509164
 30
0.0
 10
80.51429305712837
 20
-145.1318820166684
 30
0.0
 10
80.51429305712837
 20
-145.4450411962776
 30
0.0
 10
80.51429305712837
 20
-145.7623344904692
 30
0.0
 10
80.2900173410386
 20
-145.9969454930147
 30
0.0
 10
79.98753795743367
 20
-145.9969454930147
 30
0.0
  0
HATCH
  5
103
330
FC
100
AcDbEntity
  8
_U+30EC_U+30A4_U+30E4_U+30FC 1
 62
     7
420
 16777215
100
AcDbHatch
 10
0.0
 20
0.0
 30
0.0
210
0.0
220
0.0
230
1.0
  2
SOLID
 70
     1
 71
     0
 91
        1
 92
        1
 93
        1
 72
     4
 94
        3
 73
     0
 74
     1
 95
       53
 96
       49
 40
0.0
 40
0.0
 40
0.0
 40
0.0
 40
1.0
 40
1.0
 40
1.0
 40
2.0
 40
2.0
 40
2.0
 40
3.0
 40
3.0
 40
3.0
 40
4.0
 40
4.0
 40
4.0
 40
5.0
 40
5.0
 40
5.0
 40
6.0
 40
6.0
 40
6.0
 40
7.0
 40
7.0
 40
7.0
 40
8.0
 40
8.0
 40
8.0
 40
9.0
 40
9.0
 40
9.0
 40
10.0
 40
10.0
 40
10.0
 40
11.0
 40
11.0
 40
11.0
 40
12.0
 40
12.0
 40
12.0
 40
13.0
 40
13.0
 40
13.0
 40
14.0
 40
14.0
 40
14.0
 40
15.0
 40
15.0
 40
15.0
 40
16.0
 40
16.0
 40
16.0
 40
16.0
 10
79.98753795743367
 20
-145.9969454930147
 10
79.9093342899185
 20
-145.9969454930147
 10
79.80770397310363
 20
-145.9800645251369
 10
79.70607365628877
 20
-145.9166747682083
 10
79.5327853533807
 20
-145.8067762222289
 10
79.51142576137215
 20
-145.6755180842408
 10
79.49247773620327
 20
-145.5676865955525
 10
79.49247773620327
 20
-145.5676865955525
 10
79.71468639500189
 20
-145.5676865955525
 10
79.71468639500189
 20
-145.5676865955525
 10
79.76946341321737
 20
-145.7664686050514
 10
79.89658743662308
 20
-145.7960964262246
 10
79.98960501472483
 20
-145.7960964262246
 10
80.12913138187744
 20
-145.7960964262246
 10
80.28140460232548
 20
-145.6965331667009
 10
80.28140460232548
 20
-145.4639892214465
 10
80.28140460232548
 20
-145.2080186268925
 10
80.10157061799545
 20
-145.1380831885419
 10
79.9809922760117
 20
-145.1380831885419
 10
79.9492973975474
 20
-145.1380831885419
 10
79.80770397310363
 20
-145.1380831885419
 10
79.71882050958419
 20
-145.2672742692388
 10
79.71882050958419
 20
-145.2672742692388
 10
79.54312063983645
 20
-145.2483262440699
 10
79.54312063983645
 20
-145.2483262440699
 10
79.54312063983645
 20
-145.2483262440699
 10
79.66369898182019
 20
-144.401866283344
 10
79.66369898182019
 20
-144.401866283344
 10
79.66369898182019
 20
-144.401866283344
 10
80.44229056148666
 20
-144.401866283344
 10
80.44229056148666
 20
-144.401866283344
 10
80.44229056148666
 20
-144.401866283344
 10
80.44229056148666
 20
-144.5965141782606
 10
80.44229056148666
 20
-144.5965141782606
 10
80.44229056148666
 20
-144.5965141782606
 10
79.82665199827251
 20
-144.5965141782606
 10
79.82665199827251
 20
-144.5965141782606
 10
79.82665199827251
 20
-144.5965141782606
 10
79.76119518405277
 20
-145.0195719038493
 10
79.76119518405277
 20
-145.0195719038493
 10
79.82251788369021
 20
-144.9858099680938
 10
79.90485566578768
 20
-144.9455023509164
 10
80.02336695048027
 20
-144.9455023509164
 10
80.27727048774318
 20
-144.9455023509164
 10
80.51429305712837
 20
-145.1318820166684
 10
80.51429305712837
 20
-145.4450411962776
 10
80.51429305712837
 20
-145.7623344904692
 10
80.2900173410386
 20
-145.9969454930147
 10
79.98753795743367
 20
-145.9969454930147
 97
        0
 97
        0
 75
     2
 76
     1
 98
        0
  0
ENDBLK
  5
FF
330
FC
100
AcDbEntity
  8
0
100
AcDbBlockEnd
  0
BLOCK
  5
123
330
121
100
AcDbEntity
  8
0
100
AcDbBlockBegin
  2
block 17
 70
     0
 10
0.0
 20
0.0
 30
0.0
  3
block 17
  1

  0
SPLINE
  5
125
330
121
100
AcDbEntity
  8
_U+30EC_U+30A4_U+30E4_U+30FC 1
370
     0
100
AcDbSpline
210
0.0
220
0.0
230
1.0
 70
    11
 71
     3
 72
    53
 73
    49
 74
     0
 42
0.0000000001
 43
0.0000000001
 12
1.0
 22
0.0
 32
0.0
 13
1.0
 23
0.0
 33
0.0
 40
0.0
 40
0.0
 40
0.0
 40
0.0
 40
1.0
 40
1.0
 40
1.0
 40
2.0
 40
2.0
 40
2.0
 40
3.0
 40
3.0
 40
3.0
 40
4.0
 40
4.0
 40
4.0
 40
5.0
 40
5.0
 40
5.0
 40
6.0
 40
6.0
 40
6.0
 40
7.0
 40
7.0
 40
7.0
 40
8.0
 40
8.0
 40
8.0
 40
9.0
 40
9.0
 40
9.0
 40
10.0
 40
10.0
 40
10.0
 40
11.0
 40
11.0
 40
11.0
 40
12.0
 40
12.0
 40
12.0
 40
13.0
 40
13.0
 40
13.0
 40
14.0
 40
14.0
 40
14.0
 40
15.0
 40
15.0
 40
15.0
 40
16.0
 40
16.0
 40
16.0
 40
16.0
 10
78.68770343084891
 20
-129.4901149849886
 30
0.0
 10
78.68770343084891
 20
-129.5683186525038
 30
0.0
 10
78.67082246297119
 20
-129.6699489693186
 30
0.0
 10
78.60743270604259
 20
-129.7715792861335
 30
0.0
 10
78.49753416006313
 20
-129.9448675890416
 30
0.0
 10
78.3662760220751
 20
-129.9662271810501
 30
0.0
 10
78.25844453338678
 20
-129.985175206219
 30
0.0
 10
78.25844453338678
 20
-129.985175206219
 30
0.0
 10
78.25844453338678
 20
-129.7629665474204
 30
0.0
 10
78.25844453338678
 20
-129.7629665474204
 30
0.0
 10
78.45722654288569
 20
-129.7081895292049
 30
0.0
 10
78.48685436405884
 20
-129.5810655057992
 30
0.0
 10
78.48685436405884
 20
-129.4880479276974
 30
0.0
 10
78.48685436405884
 20
-129.3485215605448
 30
0.0
 10
78.38729110453512
 20
-129.1962483400968
 30
0.0
 10
78.15474715928076
 20
-129.1962483400968
 30
0.0
 10
77.8987765647267
 20
-129.1962483400968
 30
0.0
 10
77.82884112637613
 20
-129.3760823244268
 30
0.0
 10
77.82884112637613
 20
-129.4966606664106
 30
0.0
 10
77.82884112637613
 20
-129.5283555448749
 30
0.0
 10
77.82884112637613
 20
-129.6699489693186
 30
0.0
 10
77.95803220707299
 20
-129.7588324328381
 30
0.0
 10
77.95803220707299
 20
-129.7588324328381
 30
0.0
 10
77.93908418190412
 20
-129.9345323025858
 30
0.0
 10
77.93908418190412
 20
-129.9345323025858
 30
0.0
 10
77.93908418190412
 20
-129.9345323025858
 30
0.0
 10
77.09262422117824
 20
-129.8139539606021
 30
0.0
 10
77.09262422117824
 20
-129.8139539606021
 30
0.0
 10
77.09262422117824
 20
-129.8139539606021
 30
0.0
 10
77.09262422117824
 20
-129.0353623809356
 30
0.0
 10
77.09262422117824
 20
-129.0353623809356
 30
0.0
 10
77.09262422117824
 20
-129.0353623809356
 30
0.0
 10
77.28727211609485
 20
-129.0353623809356
 30
0.0
 10
77.28727211609485
 20
-129.0353623809356
 30
0.0
 10
77.28727211609485
 20
-129.0353623809356
 30
0.0
 10
77.28727211609485
 20
-129.6510009441498
 30
0.0
 10
77.28727211609485
 20
-129.6510009441498
 30
0.0
 10
77.28727211609485
 20
-129.6510009441498
 30
0.0
 10
77.71032984168353
 20
-129.7164577583695
 30
0.0
 10
77.71032984168353
 20
-129.7164577583695
 30
0.0
 10
77.67656790592808
 20
-129.655135058732
 30
0.0
 10
77.63626028875066
 20
-129.5727972766346
 30
0.0
 10
77.63626028875066
 20
-129.454285991942
 30
0.0
 10
77.63626028875066
 20
-129.2003824546791
 30
0.0
 10
77.82263995450268
 20
-128.9633598852939
 30
0.0
 10
78.13579913411189
 20
-128.9633598852939
 30
0.0
 10
78.45309242830339
 20
-128.9633598852939
 30
0.0
 10
78.68770343084891
 20
-129.1876356013836
 30
0.0
 10
78.68770343084891
 20
-129.4901149849886
 30
0.0
  0
HATCH
  5
126
330
121
100
AcDbEntity
  8
_U+30EC_U+30A4_U+30E4_U+30FC 1
 62
     7
420
 16777215
100
AcDbHatch
 10
0.0
 20
0.0
 30
0.0
210
0.0
220
0.0
230
1.0
  2
SOLID
 70
     1
 71
     0
 91
        1
 92
        1
 93
        1
 72
     4
 94
        3
 73
     0
 74
     1
 95
       53
 96
       49
 40
0.0
 40
0.0
 40
0.0
 40
0.0
 40
1.0
 40
1.0
 40
1.0
 40
2.0
 40
2.0
 40
2.0
 40
3.0
 40
3.0
 40
3.0
 40
4.0
 40
4.0
 40
4.0
 40
5.0
 40
5.0
 40
5.0
 40
6.0
 40
6.0
 40
6.0
 40
7.0
 40
7.0
 40
7.0
 40
8.0
 40
8.0
 40
8.0
 40
9.0
 40
9.0
 40
9.0
 40
10.0
 40
10.0
 40
10.0
 40
11.0
 40
11.0
 40
11.0
 40
12.0
 40
12.0
 40
12.0
 40
13.0
 40
13.0
 40
13.0
 40
14.0
 40
14.0
 40
14.0
 40
15.0
 40
15.0
 40
15.0
 40
16.0
 40
16.0
 40
16.0
 40
16.0
 10
78.68770343084891
 20
-129.4901149849886
 10
78.68770343084891
 20
-129.5683186525038
 10
78.67082246297119
 20
-129.6699489693186
 10
78.60743270604259
 20
-129.7715792861335
 10
78.49753416006313
 20
-129.9448675890416
 10
78.3662760220751
 20
-129.9662271810501
 10
78.25844453338678
 20
-129.985175206219
 10
78.25844453338678
 20
-129.985175206219
 10
78.25844453338678
 20
-129.7629665474204
 10
78.25844453338678
 20
-129.7629665474204
 10
78.45722654288569
 20
-129.7081895292049
 10
78.48685436405884
 20
-129.5810655057992
 10
78.48685436405884
 20
-129.4880479276974
 10
78.48685436405884
 20
-129.3485215605448
 10
78.38729110453512
 20
-129.1962483400968
 10
78.15474715928076
 20
-129.1962483400968
 10
77.8987765647267
 20
-129.1962483400968
 10
77.82884112637613
 20
-129.3760823244268
 10
77.82884112637613
 20
-129.4966606664106
 10
77.82884112637613
 20
-129.5283555448749
 10
77.82884112637613
 20
-129.6699489693186
 10
77.95803220707299
 20
-129.7588324328381
 10
77.95803220707299
 20
-129.7588324328381
 10
77.93908418190412
 20
-129.9345323025858
 10
77.93908418190412
 20
-129.9345323025858
 10
77.93908418190412
 20
-129.9345323025858
 10
77.09262422117824
 20
-129.8139539606021
 10
77.09262422117824
 20
-129.8139539606021
 10
77.09262422117824
 20
-129.8139539606021
 10
77.09262422117824
 20
-129.0353623809356
 10
77.09262422117824
 20
-129.0353623809356
 10
77.09262422117824
 20
-129.0353623809356
 10
77.28727211609485
 20
-129.0353623809356
 10
77.28727211609485
 20
-129.0353623809356
 10
77.28727211609485
 20
-129.0353623809356
 10
77.28727211609485
 20
-129.6510009441498
 10
77.28727211609485
 20
-129.6510009441498
 10
77.28727211609485
 20
-129.6510009441498
 10
77.71032984168353
 20
-129.7164577583695
 10
77.71032984168353
 20
-129.7164577583695
 10
77.67656790592808
 20
-129.655135058732
 10
77.63626028875066
 20
-129.5727972766346
 10
77.63626028875066
 20
-129.454285991942
 10
77.63626028875066
 20
-129.2003824546791
 10
77.82263995450268
 20
-128.9633598852939
 10
78.13579913411189
 20
-128.9633598852939
 10
78.45309242830339
 20
-128.9633598852939
 10
78.68770343084891
 20
-129.1876356013836
 10
78.68770343084891
 20
-129.4901149849886
 97
        0
 97
        0
 75
     2
 76
     1
 98
        0
  0
ENDBLK
  5
124
330
121
100
AcDbEntity
  8
0
100
AcDbBlockEnd
  0
BLOCK
  5
129
330
127
100
AcDbEntity
  8
0
100
AcDbBlockBegin
  2
block 18
 70
     0
 10
0.0
 20
0.0
 30
0.0
  3
block 18
  1

  0
SPLINE
  5
12B
330
127
100
AcDbEntity
  8
_U+30EC_U+30A4_U+30E4_U+30FC 1
370
     0
100
AcDbSpline
210
0.0
220
0.0
230
1.0
 70
    11
 71
     3
 72
    26
 73
    22
 74
     0
 42
0.0000000001
 43
0.0000000001
 12
1.0
 22
0.0
 32
0.0
 13
1.0
 23
0.0
 33
0.0
 40
0.0
 40
0.0
 40
0.0
 40
0.0
 40
1.0
 40
1.0
 40
1.0
 40
2.0
 40
2.0
 40
2.0
 40
3.0
 40
3.0
 40
3.0
 40
4.0
 40
4.0
 40
4.0
 40
5.0
 40
5.0
 40
5.0
 40
6.0
 40
6.0
 40
6.0
 40
7.0
 40
7.0
 40
7.0
 40
7.0
 10
78.63706052721574
 20
-130.8529947589534
 30
0.0
 10
78.63706052721574
 20
-130.8529947589534
 30
0.0
 10
77.53290742419317
 20
-130.8529947589534
 30
0.0
 10
77.53290742419317
 20
-130.8529947589534
 30
0.0
 10
77.53290742419317
 20
-130.8529947589534
 30
0.0
 10
77.53290742419317
 20
-131.1830349064404
 30
0.0
 10
77.53290742419317
 20
-131.1830349064404
 30
0.0
 10
77.53290742419317
 20
-131.1830349064404
 30
0.0
 10
77.38476831832742
 20
-131.1830349064404
 30
0.0
 10
77.38476831832742
 20
-131.1830349064404
 30
0.0
 10
77.36995440774085
 20
-130.8509277016623
 30
0.0
 10
77.20700139128853
 20
-130.8044189126114
 30
0.0
 10
77.09262422117824
 20
-130.7747910914383
 30
0.0
 10
77.09262422117824
 20
-130.7747910914383
 30
0.0
 10
77.09262422117824
 20
-130.6287190428637
 30
0.0
 10
77.09262422117824
 20
-130.6287190428637
 30
0.0
 10
77.09262422117824
 20
-130.6287190428637
 30
0.0
 10
78.63706052721574
 20
-130.6287190428637
 30
0.0
 10
78.63706052721574
 20
-130.6287190428637
 30
0.0
 10
78.63706052721574
 20
-130.6287190428637
 30
0.0
 10
78.63706052721574
 20
-130.8529947589534
 30
0.0
 10
78.63706052721574
 20
-130.8529947589534
 30
0.0
  0
HATCH
  5
12C
330
127
100
AcDbEntity
  8
_U+30EC_U+30A4_U+30E4_U+30FC 1
 62
     7
420
 16777215
100
AcDbHatch
 10
0.0
 20
0.0
 30
0.0
210
0.0
220
0.0
230
1.0
  2
SOLID
 70
     1
 71
     0
 91
        1
 92
        1
 93
        1
 72
     4
 94
        3
 73
     0
 74
     1
 95
       26
 96
       22
 40
0.0
 40
0.0
 40
0.0
 40
0.0
 40
1.0
 40
1.0
 40
1.0
 40
2.0
 40
2.0
 40
2.0
 40
3.0
 40
3.0
 40
3.0
 40
4.0
 40
4.0
 40
4.0
 40
5.0
 40
5.0
 40
5.0
 40
6.0
 40
6.0
 40
6.0
 40
7.0
 40
7.0
 40
7.0
 40
7.0
 10
78.63706052721574
 20
-130.8529947589534
 10
78.63706052721574
 20
-130.8529947589534
 10
77.53290742419317
 20
-130.8529947589534
 10
77.53290742419317
 20
-130.8529947589534
 10
77.53290742419317
 20
-130.8529947589534
 10
77.53290742419317
 20
-131.1830349064404
 10
77.53290742419317
 20
-131.1830349064404
 10
77.53290742419317
 20
-131.1830349064404
 10
77.38476831832742
 20
-131.1830349064404
 10
77.38476831832742
 20
-131.1830349064404
 10
77.36995440774085
 20
-130.8509277016623
 10
77.20700139128853
 20
-130.8044189126114
 10
77.09262422117824
 20
-130.7747910914383
 10
77.09262422117824
 20
-130.7747910914383
 10
77.09262422117824
 20
-130.6287190428637
 10
77.09262422117824
 20
-130.6287190428637
 10
77.09262422117824
 20
-130.6287190428637
 10
78.63706052721574
 20
-130.6287190428637
 10
78.63706052721574
 20
-130.6287190428637
 10
78.63706052721574
 20
-130.6287190428637
 10
78.63706052721574
 20
-130.8529947589534
 10
78.63706052721574
 20
-130.8529947589534
 97
        0
 97
        0
 75
     2
 76
     1
 98
        0
  0
ENDBLK
  5
12A
330
127
100
AcDbEntity
  8
0
100
AcDbBlockEnd
  0
BLOCK
  5
14C
330
14A
100
AcDbEntity
  8
0
100
AcDbBlockBegin
  2
block 19
 70
     0
 10
0.0
 20
0.0
 30
0.0
  3
block 19
  1

  0
SPLINE
  5
14E
330
14A
100
AcDbEntity
  8
_U+30EC_U+30A4_U+30E4_U+30FC 1
370
     0
100
AcDbSpline
210
0.0
220
0.0
230
1.0
 70
    11
 71
     3
 72
    29
 73
    25
 74
     0
 42
0.0000000001
 43
0.0000000001
 12
1.0
 22
0.0
 32
0.0
 13
1.0
 23
0.0
 33
0.0
 40
0.0
 40
0.0
 40
0.0
 40
0.0
 40
1.0
 40
1.0
 40
1.0
 40
2.0
 40
2.0
 40
2.0
 40
3.0
 40
3.0
 40
3.0
 40
4.0
 40
4.0
 40
4.0
 40
5.0
 40
5.0
 40
5.0
 40
6.0
 40
6.0
 40
6.0
 40
7.0
 40
7.0
 40
7.0
 40
8.0
 40
8.0
 40
8.0
 40
8.0
 10
106.2894639491221
 20
-134.6980658300408
 30
0.0
 10
106.4989257546253
 20
-134.8062418282776
 30
0.0
 10
106.5175292702456
 20
-134.9795301311857
 30
0.0
 10
106.5175292702456
 20
-135.0959743585871
 30
0.0
 10
106.5175292702456
 20
-135.2568603177483
 30
0.0
 10
106.4713649907433
 20
-135.3984537421921
 30
0.0
 10
106.2894639491221
 20
-135.493538377585
 30
0.0
 10
106.0944715446569
 20
-135.597235751691
 30
0.0
 10
105.8574489752718
 20
-135.6161837768599
 30
0.0
 10
105.694840468368
 20
-135.6161837768599
 30
0.0
 10
105.5508354770845
 20
-135.6161837768599
 30
0.0
 10
105.2993435066613
 20
-135.5993028089821
 30
0.0
 10
105.1002169876138
 20
-135.493538377585
 30
0.0
 10
104.8976453730811
 20
-135.3857068888966
 30
0.0
 10
104.8742187237815
 20
-135.2248209297355
 30
0.0
 10
104.8742187237815
 20
-135.0959743585871
 30
0.0
 10
104.8742187237815
 20
-134.9371554567171
 30
0.0
 10
104.9183159459926
 20
-134.7934949749822
 30
0.0
 10
105.1002169876138
 20
-134.6980658300408
 30
0.0
 10
105.2931423347878
 20
-134.5988470800656
 30
0.0
 10
105.5212076559114
 20
-134.5754204307659
 30
0.0
 10
105.694840468368
 20
-134.5754204307659
 30
0.0
 10
105.8664062235334
 20
-134.5754204307659
 30
0.0
 10
106.0965386019481
 20
-134.5967800227744
 30
0.0
 10
106.2894639491221
 20
-134.6980658300408
 30
0.0
  0
SPLINE
  5
14F
330
14A
100
AcDbEntity
  8
_U+30EC_U+30A4_U+30E4_U+30FC 1
370
     0
100
AcDbSpline
210
0.0
220
0.0
230
1.0
 70
    11
 71
     3
 72
    17
 73
    13
 74
     0
 42
0.0000000001
 43
0.0000000001
 12
1.0
 22
0.0
 32
0.0
 13
1.0
 23
0.0
 33
0.0
 40
0.0
 40
0.0
 40
0.0
 40
0.0
 40
1.0
 40
1.0
 40
1.0
 40
2.0
 40
2.0
 40
2.0
 40
3.0
 40
3.0
 40
3.0
 40
4.0
 40
4.0
 40
4.0
 40
4.0
 10
105.0664550518584
 20
-135.0959743585871
 30
0.0
 10
105.0664550518584
 20
-135.3453992717192
 30
0.0
 10
105.350330919843
 20
-135.3922525703186
 30
0.0
 10
105.694840468368
 20
-135.3922525703186
 30
0.0
 10
106.0145453293991
 20
-135.3922525703186
 30
0.0
 10
106.3232258848775
 20
-135.3560790677235
 30
0.0
 10
106.3232258848775
 20
-135.0959743585871
 30
0.0
 10
106.3232258848775
 20
-134.8482719931977
 30
0.0
 10
106.0421060932811
 20
-134.7996961468556
 30
0.0
 10
105.694840468368
 20
-134.7996961468556
 30
0.0
 10
105.3751356073368
 20
-134.7996961468556
 30
0.0
 10
105.0664550518584
 20
-134.8379367067419
 30
0.0
 10
105.0664550518584
 20
-135.0959743585871
 30
0.0
  0
HATCH
  5
150
330
14A
100
AcDbEntity
  8
_U+30EC_U+30A4_U+30E4_U+30FC 1
 62
     7
420
 16777215
100
AcDbHatch
 10
0.0
 20
0.0
 30
0.0
210
0.0
220
0.0
230
1.0
  2
SOLID
 70
     1
 71
     0
 91
        2
 92
        1
 93
        1
 72
     4
 94
        3
 73
     0
 74
     1
 95
       29
 96
       25
 40
0.0
 40
0.0
 40
0.0
 40
0.0
 40
1.0
 40
1.0
 40
1.0
 40
2.0
 40
2.0
 40
2.0
 40
3.0
 40
3.0
 40
3.0
 40
4.0
 40
4.0
 40
4.0
 40
5.0
 40
5.0
 40
5.0
 40
6.0
 40
6.0
 40
6.0
 40
7.0
 40
7.0
 40
7.0
 40
8.0
 40
8.0
 40
8.0
 40
8.0
 10
106.2894639491221
 20
-134.6980658300408
 10
106.4989257546253
 20
-134.8062418282776
 10
106.5175292702456
 20
-134.9795301311857
 10
106.5175292702456
 20
-135.0959743585871
 10
106.5175292702456
 20
-135.2568603177483
 10
106.4713649907433
 20
-135.3984537421921
 10
106.2894639491221
 20
-135.493538377585
 10
106.0944715446569
 20
-135.597235751691
 10
105.8574489752718
 20
-135.6161837768599
 10
105.694840468368
 20
-135.6161837768599
 10
105.5508354770845
 20
-135.6161837768599
 10
105.2993435066613
 20
-135.5993028089821
 10
105.1002169876138
 20
-135.493538377585
 10
104.8976453730811
 20
-135.3857068888966
 10
104.8742187237815
 20
-135.2248209297355
 10
104.8742187237815
 20
-135.0959743585871
 10
104.8742187237815
 20
-134.9371554567171
 10
104.9183159459926
 20
-134.7934949749822
 10
105.1002169876138
 20
-134.6980658300408
 10
105.2931423347878
 20
-134.5988470800656
 10
105.5212076559114
 20
-134.5754204307659
 10
105.694840468368
 20
-134.5754204307659
 10
105.8664062235334
 20
-134.5754204307659
 10
106.0965386019481
 20
-134.5967800227744
 10
106.2894639491221
 20
-134.6980658300408
 97
        0
 97
        0
 92
        1
 93
        1
 72
     4
 94
        3
 73
     0
 74
     1
 95
       17
 96
       13
 40
0.0
 40
0.0
 40
0.0
 40
0.0
 40
1.0
 40
1.0
 40
1.0
 40
2.0
 40
2.0
 40
2.0
 40
3.0
 40
3.0
 40
3.0
 40
4.0
 40
4.0
 40
4.0
 40
4.0
 10
105.0664550518584
 20
-135.0959743585871
 10
105.0664550518584
 20
-135.3453992717192
 10
105.350330919843
 20
-135.3922525703186
 10
105.694840468368
 20
-135.3922525703186
 10
106.0145453293991
 20
-135.3922525703186
 10
106.3232258848775
 20
-135.3560790677235
 10
106.3232258848775
 20
-135.0959743585871
 10
106.3232258848775
 20
-134.8482719931977
 10
106.0421060932811
 20
-134.7996961468556
 10
105.694840468368
 20
-134.7996961468556
 10
105.3751356073368
 20
-134.7996961468556
 10
105.0664550518584
 20
-134.8379367067419
 10
105.0664550518584
 20
-135.0959743585871
 97
        0
 97
        0
 75
     2
 76
     1
 98
        0
  0
ENDBLK
  5
14D
330
14A
100
AcDbEntity
  8
0
100
AcDbBlockEnd
  0
BLOCK
  5
153
330
151
100
AcDbEntity
  8
0
100
AcDbBlockBegin
  2
block 20
 70
     0
 10
0.0
 20
0.0
 30
0.0
  3
block 20
  1

  0
SPLINE
  5
155
330
151
100
AcDbEntity
  8
_U+30EC_U+30A4_U+30E4_U+30FC 1
370
     0
100
AcDbSpline
210
0.0
220
0.0
230
1.0
 70
    11
 71
     3
 72
    32
 73
    28
 74
     0
 42
0.0000000001
 43
0.0000000001
 12
1.0
 22
0.0
 32
0.0
 13
1.0
 23
0.0
 33
0.0
 40
0.0
 40
0.0
 40
0.0
 40
0.0
 40
1.0
 40
1.0
 40
1.0
 40
2.0
 40
2.0
 40
2.0
 40
3.0
 40
3.0
 40
3.0
 40
4.0
 40
4.0
 40
4.0
 40
5.0
 40
5.0
 40
5.0
 40
6.0
 40
6.0
 40
6.0
 40
7.0
 40
7.0
 40
7.0
 40
8.0
 40
8.0
 40
8.0
 40
9.0
 40
9.0
 40
9.0
 40
9.0
 10
106.5178737797941
 20
-136.4257812158936
 30
0.0
 10
106.5178737797941
 20
-136.941856519584
 30
0.0
 10
105.963902425766
 20
-136.9501247487486
 30
0.0
 10
105.749961996132
 20
-136.9501247487486
 30
0.0
 10
105.5194851081688
 20
-136.9501247487486
 30
0.0
 10
104.8721516664903
 20
-136.9311767235797
 30
0.0
 10
104.8721516664903
 20
-136.3875406560073
 30
0.0
 10
104.8721516664903
 20
-136.2142523530992
 30
0.0
 10
104.9420871048409
 20
-135.9686170450009
 30
0.0
 10
105.274194309619
 20
-135.9307209946631
 30
0.0
 10
105.274194309619
 20
-135.9307209946631
 30
0.0
 10
105.274194309619
 20
-136.1443169147487
 30
0.0
 10
105.274194309619
 20
-136.1443169147487
 30
0.0
 10
105.2170057245638
 20
-136.1549967107529
 30
0.0
 10
105.0688666186981
 20
-136.1866915892172
 30
0.0
 10
105.0688666186981
 20
-136.3896077132984
 30
0.0
 10
105.0688666186981
 20
-136.6817518104476
 30
0.0
 10
105.3968397088939
 20
-136.7217149180765
 30
0.0
 10
105.6018228902662
 20
-136.7344617713719
 30
0.0
 10
105.5236192227511
 20
-136.6414441932702
 30
0.0
 10
105.4643635804048
 20
-136.5735758122108
 30
0.0
 10
105.4643635804048
 20
-136.3916747705896
 30
0.0
 10
105.4643635804048
 20
-136.2118407862596
 30
0.0
 10
105.5725395786416
 20
-135.9093614026546
 30
0.0
 10
105.9787163363525
 20
-135.9093614026546
 30
0.0
 10
106.2980766878352
 20
-135.9093614026546
 30
0.0
 10
106.5178737797941
 20
-136.1084879217021
 30
0.0
 10
106.5178737797941
 20
-136.4257812158936
 30
0.0
  0
SPLINE
  5
156
330
151
100
AcDbEntity
  8
_U+30EC_U+30A4_U+30E4_U+30FC 1
370
     0
100
AcDbSpline
210
0.0
220
0.0
230
1.0
 70
    11
 71
     3
 72
    17
 73
    13
 74
     0
 42
0.0000000001
 43
0.0000000001
 12
1.0
 22
0.0
 32
0.0
 13
1.0
 23
0.0
 33
0.0
 40
0.0
 40
0.0
 40
0.0
 40
0.0
 40
1.0
 40
1.0
 40
1.0
 40
2.0
 40
2.0
 40
2.0
 40
3.0
 40
3.0
 40
3.0
 40
4.0
 40
4.0
 40
4.0
 40
4.0
 10
105.6590114753214
 20
-136.4085557384673
 30
0.0
 10
105.6590114753214
 20
-136.6710720144434
 30
0.0
 10
105.8705403381157
 20
-136.7089680647811
 30
0.0
 10
105.9869845655171
 20
-136.7089680647811
 30
0.0
 10
106.1626844352649
 20
-136.7089680647811
 30
0.0
 10
106.3256374517172
 20
-136.6138834293882
 30
0.0
 10
106.3256374517172
 20
-136.4299153304759
 30
0.0
 10
106.3256374517172
 20
-136.3093369884921
 30
0.0
 10
106.2663818093709
 20
-136.1336371187444
 30
0.0
 10
105.9807833936437
 20
-136.1336371187444
 30
0.0
 10
105.7565076775539
 20
-136.1336371187444
 30
0.0
 10
105.6590114753214
 20
-136.2735079954455
 30
0.0
 10
105.6590114753214
 20
-136.4085557384673
 30
0.0
  0
HATCH
  5
157
330
151
100
AcDbEntity
  8
_U+30EC_U+30A4_U+30E4_U+30FC 1
 62
     7
420
 16777215
100
AcDbHatch
 10
0.0
 20
0.0
 30
0.0
210
0.0
220
0.0
230
1.0
  2
SOLID
 70
     1
 71
     0
 91
        2
 92
        1
 93
        1
 72
     4
 94
        3
 73
     0
 74
     1
 95
       32
 96
       28
 40
0.0
 40
0.0
 40
0.0
 40
0.0
 40
1.0
 40
1.0
 40
1.0
 40
2.0
 40
2.0
 40
2.0
 40
3.0
 40
3.0
 40
3.0
 40
4.0
 40
4.0
 40
4.0
 40
5.0
 40
5.0
 40
5.0
 40
6.0
 40
6.0
 40
6.0
 40
7.0
 40
7.0
 40
7.0
 40
8.0
 40
8.0
 40
8.0
 40
9.0
 40
9.0
 40
9.0
 40
9.0
 10
106.5178737797941
 20
-136.4257812158936
 10
106.5178737797941
 20
-136.941856519584
 10
105.963902425766
 20
-136.9501247487486
 10
105.749961996132
 20
-136.9501247487486
 10
105.5194851081688
 20
-136.9501247487486
 10
104.8721516664903
 20
-136.9311767235797
 10
104.8721516664903
 20
-136.3875406560073
 10
104.8721516664903
 20
-136.2142523530992
 10
104.9420871048409
 20
-135.9686170450009
 10
105.274194309619
 20
-135.9307209946631
 10
105.274194309619
 20
-135.9307209946631
 10
105.274194309619
 20
-136.1443169147487
 10
105.274194309619
 20
-136.1443169147487
 10
105.2170057245638
 20
-136.1549967107529
 10
105.0688666186981
 20
-136.1866915892172
 10
105.0688666186981
 20
-136.3896077132984
 10
105.0688666186981
 20
-136.6817518104476
 10
105.3968397088939
 20
-136.7217149180765
 10
105.6018228902662
 20
-136.7344617713719
 10
105.5236192227511
 20
-136.6414441932702
 10
105.4643635804048
 20
-136.5735758122108
 10
105.4643635804048
 20
-136.3916747705896
 10
105.4643635804048
 20
-136.2118407862596
 10
105.5725395786416
 20
-135.9093614026546
 10
105.9787163363525
 20
-135.9093614026546
 10
106.2980766878352
 20
-135.9093614026546
 10
106.5178737797941
 20
-136.1084879217021
 10
106.5178737797941
 20
-136.4257812158936
 97
        0
 97
        0
 92
        1
 93
        1
 72
     4
 94
        3
 73
     0
 74
     1
 95
       17
 96
       13
 40
0.0
 40
0.0
 40
0.0
 40
0.0
 40
1.0
 40
1.0
 40
1.0
 40
2.0
 40
2.0
 40
2.0
 40
3.0
 40
3.0
 40
3.0
 40
4.0
 40
4.0
 40
4.0
 40
4.0
 10
105.6590114753214
 20
-136.4085557384673
 10
105.6590114753214
 20
-136.6710720144434
 10
105.8705403381157
 20
-136.7089680647811
 10
105.9869845655171
 20
-136.7089680647811
 10
106.1626844352649
 20
-136.7089680647811
 10
106.3256374517172
 20
-136.6138834293882
 10
106.3256374517172
 20
-136.4299153304759
 10
106.3256374517172
 20
-136.3093369884921
 10
106.2663818093709
 20
-136.1336371187444
 10
105.9807833936437
 20
-136.1336371187444
 10
105.7565076775539
 20
-136.1336371187444
 10
105.6590114753214
 20
-136.2735079954455
 10
105.6590114753214
 20
-136.4085557384673
 97
        0
 97
        0
 75
     2
 76
     1
 98
        0
  0
ENDBLK
  5
154
330
151
100
AcDbEntity
  8
0
100
AcDbBlockEnd
  0
BLOCK
  5
1F5
330
1F3
100
AcDbEntity
  8
0
100
AcDbBlockBegin
  2
block 21
 70
     0
 10
0.0
 20
0.0
 30
0.0
  3
block 21
  1

  0
SPLINE
  5
1F7
330
1F3
100
AcDbEntity
  8
_U+30EC_U+30A4_U+30E4_U+30FC 1
370
     0
100
AcDbSpline
210
0.0
220
0.0
230
1.0
 70
    11
 71
     3
 72
    29
 73
    25
 74
     0
 42
0.0000000001
 43
0.0000000001
 12
1.0
 22
0.0
 32
0.0
 13
1.0
 23
0.0
 33
0.0
 40
0.0
 40
0.0
 40
0.0
 40
0.0
 40
1.0
 40
1.0
 40
1.0
 40
2.0
 40
2.0
 40
2.0
 40
3.0
 40
3.0
 40
3.0
 40
4.0
 40
4.0
 40
4.0
 40
5.0
 40
5.0
 40
5.0
 40
6.0
 40
6.0
 40
6.0
 40
7.0
 40
7.0
 40
7.0
 40
8.0
 40
8.0
 40
8.0
 40
8.0
 10
86.23590763903131
 20
-111.4443603237014
 30
0.0
 10
86.44536944453449
 20
-111.5525363219383
 30
0.0
 10
86.46431746970337
 20
-111.7258246248463
 30
0.0
 10
86.46431746970337
 20
-111.8422688522478
 30
0.0
 10
86.46431746970337
 20
-112.0031548114089
 30
0.0
 10
86.4178086806525
 20
-112.1447482358527
 30
0.0
 10
86.23590763903131
 20
-112.2398328712456
 30
0.0
 10
86.04125974411468
 20
-112.3435302453516
 30
0.0
 10
85.8042371747295
 20
-112.3624782705205
 30
0.0
 10
85.64162866782571
 20
-112.3624782705205
 30
0.0
 10
85.49762367654226
 20
-112.3624782705205
 30
0.0
 10
85.2457871965705
 20
-112.3455973026428
 30
0.0
 10
85.04700518707159
 20
-112.2398328712456
 30
0.0
 10
84.84408906299036
 20
-112.1320013825573
 30
0.0
 10
84.82066241369067
 20
-111.9711154233961
 30
0.0
 10
84.82066241369067
 20
-111.8422688522478
 30
0.0
 10
84.82066241369067
 20
-111.6834499503777
 30
0.0
 10
84.86510414545039
 20
-111.5397894686428
 30
0.0
 10
85.04700518707159
 20
-111.4443603237014
 30
0.0
 10
85.23958602469705
 20
-111.3451415737262
 30
0.0
 10
85.46799585536911
 20
-111.3217149244265
 30
0.0
 10
85.64162866782571
 20
-111.3217149244265
 30
0.0
 10
85.81284991344262
 20
-111.3217149244265
 30
0.0
 10
86.04332680140584
 20
-111.3430745164351
 30
0.0
 10
86.23590763903131
 20
-111.4443603237014
 30
0.0
  0
SPLINE
  5
1F8
330
1F3
100
AcDbEntity
  8
_U+30EC_U+30A4_U+30E4_U+30FC 1
370
     0
100
AcDbSpline
210
0.0
220
0.0
230
1.0
 70
    11
 71
     3
 72
    17
 73
    13
 74
     0
 42
0.0000000001
 43
0.0000000001
 12
1.0
 22
0.0
 32
0.0
 13
1.0
 23
0.0
 33
0.0
 40
0.0
 40
0.0
 40
0.0
 40
0.0
 40
1.0
 40
1.0
 40
1.0
 40
2.0
 40
2.0
 40
2.0
 40
3.0
 40
3.0
 40
3.0
 40
4.0
 40
4.0
 40
4.0
 40
4.0
 10
85.01324325131614
 20
-111.8422688522478
 30
0.0
 10
85.01324325131614
 20
-112.0916937653799
 30
0.0
 10
85.2967746097522
 20
-112.1385470639793
 30
0.0
 10
85.64162866782571
 20
-112.1385470639793
 30
0.0
 10
85.96098901930837
 20
-112.1385470639793
 30
0.0
 10
86.26966957478675
 20
-112.1023735613841
 30
0.0
 10
86.26966957478675
 20
-111.8422688522478
 30
0.0
 10
86.26966957478675
 20
-111.5945664868583
 30
0.0
 10
85.98854978319036
 20
-111.5459906405163
 30
0.0
 10
85.64162866782571
 20
-111.5459906405163
 30
0.0
 10
85.32192380679453
 20
-111.5459906405163
 30
0.0
 10
85.01324325131614
 20
-111.5842312004026
 30
0.0
 10
85.01324325131614
 20
-111.8422688522478
 30
0.0
  0
HATCH
  5
1F9
330
1F3
100
AcDbEntity
  8
_U+30EC_U+30A4_U+30E4_U+30FC 1
 62
     7
420
 16777215
100
AcDbHatch
 10
0.0
 20
0.0
 30
0.0
210
0.0
220
0.0
230
1.0
  2
SOLID
 70
     1
 71
     0
 91
        2
 92
        1
 93
        1
 72
     4
 94
        3
 73
     0
 74
     1
 95
       29
 96
       25
 40
0.0
 40
0.0
 40
0.0
 40
0.0
 40
1.0
 40
1.0
 40
1.0
 40
2.0
 40
2.0
 40
2.0
 40
3.0
 40
3.0
 40
3.0
 40
4.0
 40
4.0
 40
4.0
 40
5.0
 40
5.0
 40
5.0
 40
6.0
 40
6.0
 40
6.0
 40
7.0
 40
7.0
 40
7.0
 40
8.0
 40
8.0
 40
8.0
 40
8.0
 10
86.23590763903131
 20
-111.4443603237014
 10
86.44536944453449
 20
-111.5525363219383
 10
86.46431746970337
 20
-111.7258246248463
 10
86.46431746970337
 20
-111.8422688522478
 10
86.46431746970337
 20
-112.0031548114089
 10
86.4178086806525
 20
-112.1447482358527
 10
86.23590763903131
 20
-112.2398328712456
 10
86.04125974411468
 20
-112.3435302453516
 10
85.8042371747295
 20
-112.3624782705205
 10
85.64162866782571
 20
-112.3624782705205
 10
85.49762367654226
 20
-112.3624782705205
 10
85.2457871965705
 20
-112.3455973026428
 10
85.04700518707159
 20
-112.2398328712456
 10
84.84408906299036
 20
-112.1320013825573
 10
84.82066241369067
 20
-111.9711154233961
 10
84.82066241369067
 20
-111.8422688522478
 10
84.82066241369067
 20
-111.6834499503777
 10
84.86510414545039
 20
-111.5397894686428
 10
85.04700518707159
 20
-111.4443603237014
 10
85.23958602469705
 20
-111.3451415737262
 10
85.46799585536911
 20
-111.3217149244265
 10
85.64162866782571
 20
-111.3217149244265
 10
85.81284991344262
 20
-111.3217149244265
 10
86.04332680140584
 20
-111.3430745164351
 10
86.23590763903131
 20
-111.4443603237014
 97
        0
 97
        0
 92
        1
 93
        1
 72
     4
 94
        3
 73
     0
 74
     1
 95
       17
 96
       13
 40
0.0
 40
0.0
 40
0.0
 40
0.0
 40
1.0
 40
1.0
 40
1.0
 40
2.0
 40
2.0
 40
2.0
 40
3.0
 40
3.0
 40
3.0
 40
4.0
 40
4.0
 40
4.0
 40
4.0
 10
85.01324325131614
 20
-111.8422688522478
 10
85.01324325131614
 20
-112.0916937653799
 10
85.2967746097522
 20
-112.1385470639793
 10
85.64162866782571
 20
-112.1385470639793
 10
85.96098901930837
 20
-112.1385470639793
 10
86.26966957478675
 20
-112.1023735613841
 10
86.26966957478675
 20
-111.8422688522478
 10
86.26966957478675
 20
-111.5945664868583
 10
85.98854978319036
 20
-111.5459906405163
 10
85.64162866782571
 20
-111.5459906405163
 10
85.32192380679453
 20
-111.5459906405163
 10
85.01324325131614
 20
-111.5842312004026
 10
85.01324325131614
 20
-111.8422688522478
 97
        0
 97
        0
 75
     2
 76
     1
 98
        0
  0
ENDBLK
  5
1F6
330
1F3
100
AcDbEntity
  8
0
100
AcDbBlockEnd
  0
BLOCK
  5
1FC
330
1FA
100
AcDbEntity
  8
0
100
AcDbBlockBegin
  2
block 22
 70
     0
 10
0.0
 20
0.0
 30
0.0
  3
block 22
  1

  0
SPLINE
  5
1FE
330
1FA
100
AcDbEntity
  8
_U+30EC_U+30A4_U+30E4_U+30FC 1
370
     0
100
AcDbSpline
210
0.0
220
0.0
230
1.0
 70
    11
 71
     3
 72
    26
 73
    22
 74
     0
 42
0.0000000001
 43
0.0000000001
 12
1.0
 22
0.0
 32
0.0
 13
1.0
 23
0.0
 33
0.0
 40
0.0
 40
0.0
 40
0.0
 40
0.0
 40
1.0
 40
1.0
 40
1.0
 40
2.0
 40
2.0
 40
2.0
 40
3.0
 40
3.0
 40
3.0
 40
4.0
 40
4.0
 40
4.0
 40
5.0
 40
5.0
 40
5.0
 40
6.0
 40
6.0
 40
6.0
 40
7.0
 40
7.0
 40
7.0
 40
7.0
 10
86.41384682084446
 20
-113.2240966513815
 30
0.0
 10
86.41384682084446
 20
-113.2240966513815
 30
0.0
 10
85.30969371782189
 20
-113.2240966513815
 30
0.0
 10
85.30969371782189
 20
-113.2240966513815
 30
0.0
 10
85.30969371782189
 20
-113.2240966513815
 30
0.0
 10
85.30969371782189
 20
-113.5541367988684
 30
0.0
 10
85.30969371782189
 20
-113.5541367988684
 30
0.0
 10
85.30969371782189
 20
-113.5541367988684
 30
0.0
 10
85.16155461195615
 20
-113.5541367988684
 30
0.0
 10
85.16155461195615
 20
-113.5541367988684
 30
0.0
 10
85.14674070136957
 20
-113.2220295940903
 30
0.0
 10
84.98378768491725
 20
-113.1755208050395
 30
0.0
 10
84.86941051480696
 20
-113.1458929838663
 30
0.0
 10
84.86941051480696
 20
-113.1458929838663
 30
0.0
 10
84.86941051480696
 20
-112.9998209352917
 30
0.0
 10
84.86941051480696
 20
-112.9998209352917
 30
0.0
 10
84.86941051480696
 20
-112.9998209352917
 30
0.0
 10
86.41384682084446
 20
-112.9998209352917
 30
0.0
 10
86.41384682084446
 20
-112.9998209352917
 30
0.0
 10
86.41384682084446
 20
-112.9998209352917
 30
0.0
 10
86.41384682084446
 20
-113.2240966513815
 30
0.0
 10
86.41384682084446
 20
-113.2240966513815
 30
0.0
  0
HATCH
  5
1FF
330
1FA
100
AcDbEntity
  8
_U+30EC_U+30A4_U+30E4_U+30FC 1
 62
     7
420
 16777215
100
AcDbHatch
 10
0.0
 20
0.0
 30
0.0
210
0.0
220
0.0
230
1.0
  2
SOLID
 70
     1
 71
     0
 91
        1
 92
        1
 93
        1
 72
     4
 94
        3
 73
     0
 74
     1
 95
       26
 96
       22
 40
0.0
 40
0.0
 40
0.0
 40
0.0
 40
1.0
 40
1.0
 40
1.0
 40
2.0
 40
2.0
 40
2.0
 40
3.0
 40
3.0
 40
3.0
 40
4.0
 40
4.0
 40
4.0
 40
5.0
 40
5.0
 40
5.0
 40
6.0
 40
6.0
 40
6.0
 40
7.0
 40
7.0
 40
7.0
 40
7.0
 10
86.41384682084446
 20
-113.2240966513815
 10
86.41384682084446
 20
-113.2240966513815
 10
85.30969371782189
 20
-113.2240966513815
 10
85.30969371782189
 20
-113.2240966513815
 10
85.30969371782189
 20
-113.2240966513815
 10
85.30969371782189
 20
-113.5541367988684
 10
85.30969371782189
 20
-113.5541367988684
 10
85.30969371782189
 20
-113.5541367988684
 10
85.16155461195615
 20
-113.5541367988684
 10
85.16155461195615
 20
-113.5541367988684
 10
85.14674070136957
 20
-113.2220295940903
 10
84.98378768491725
 20
-113.1755208050395
 10
84.86941051480696
 20
-113.1458929838663
 10
84.86941051480696
 20
-113.1458929838663
 10
84.86941051480696
 20
-112.9998209352917
 10
84.86941051480696
 20
-112.9998209352917
 10
84.86941051480696
 20
-112.9998209352917
 10
86.41384682084446
 20
-112.9998209352917
 10
86.41384682084446
 20
-112.9998209352917
 10
86.41384682084446
 20
-112.9998209352917
 10
86.41384682084446
 20
-113.2240966513815
 10
86.41384682084446
 20
-113.2240966513815
 97
        0
 97
        0
 75
     2
 76
     1
 98
        0
  0
ENDBLK
  5
1FD
330
1FA
100
AcDbEntity
  8
0
100
AcDbBlockEnd
  0
BLOCK
  5
225
330
223
100
AcDbEntity
  8
0
100
AcDbBlockBegin
  2
block 23
 70
     0
 10
0.0
 20
0.0
 30
0.0
  3
block 23
  1

  0
SPLINE
  5
227
330
223
100
AcDbEntity
  8
_U+30EC_U+30A4_U+30E4_U+30FC 1
370
     0
100
AcDbSpline
210
0.0
220
0.0
230
1.0
 70
    11
 71
     3
 72
    26
 73
    22
 74
     0
 42
0.0000000001
 43
0.0000000001
 12
1.0
 22
0.0
 32
0.0
 13
1.0
 23
0.0
 33
0.0
 40
0.0
 40
0.0
 40
0.0
 40
0.0
 40
1.0
 40
1.0
 40
1.0
 40
2.0
 40
2.0
 40
2.0
 40
3.0
 40
3.0
 40
3.0
 40
4.0
 40
4.0
 40
4.0
 40
5.0
 40
5.0
 40
5.0
 40
6.0
 40
6.0
 40
6.0
 40
7.0
 40
7.0
 40
7.0
 40
7.0
 10
97.86723901633181
 20
-145.9463025893815
 30
0.0
 10
97.86723901633181
 20
-145.9463025893815
 30
0.0
 10
97.86723901633181
 20
-144.8421494863589
 30
0.0
 10
97.86723901633181
 20
-144.8421494863589
 30
0.0
 10
97.86723901633181
 20
-144.8421494863589
 30
0.0
 10
97.53719886884487
 20
-144.8421494863589
 30
0.0
 10
97.53719886884487
 20
-144.8421494863589
 30
0.0
 10
97.53719886884487
 20
-144.8421494863589
 30
0.0
 10
97.53719886884487
 20
-144.6940103804932
 30
0.0
 10
97.53719886884487
 20
-144.6940103804932
 30
0.0
 10
97.86930607362295
 20
-144.6791964699066
 30
0.0
 10
97.91581486267383
 20
-144.5162434534543
 30
0.0
 10
97.94544268384698
 20
-144.401866283344
 30
0.0
 10
97.94544268384698
 20
-144.401866283344
 30
0.0
 10
98.09151473242157
 20
-144.401866283344
 30
0.0
 10
98.09151473242157
 20
-144.401866283344
 30
0.0
 10
98.09151473242157
 20
-144.401866283344
 30
0.0
 10
98.09151473242157
 20
-145.9463025893815
 30
0.0
 10
98.09151473242157
 20
-145.9463025893815
 30
0.0
 10
98.09151473242157
 20
-145.9463025893815
 30
0.0
 10
97.86723901633181
 20
-145.9463025893815
 30
0.0
 10
97.86723901633181
 20
-145.9463025893815
 30
0.0
  0
HATCH
  5
228
330
223
100
AcDbEntity
  8
_U+30EC_U+30A4_U+30E4_U+30FC 1
 62
     7
420
 16777215
100
AcDbHatch
 10
0.0
 20
0.0
 30
0.0
210
0.0
220
0.0
230
1.0
  2
SOLID
 70
     1
 71
     0
 91
        1
 92
        1
 93
        1
 72
     4
 94
        3
 73
     0
 74
     1
 95
       26
 96
       22
 40
0.0
 40
0.0
 40
0.0
 40
0.0
 40
1.0
 40
1.0
 40
1.0
 40
2.0
 40
2.0
 40
2.0
 40
3.0
 40
3.0
 40
3.0
 40
4.0
 40
4.0
 40
4.0
 40
5.0
 40
5.0
 40
5.0
 40
6.0
 40
6.0
 40
6.0
 40
7.0
 40
7.0
 40
7.0
 40
7.0
 10
97.86723901633181
 20
-145.9463025893815
 10
97.86723901633181
 20
-145.9463025893815
 10
97.86723901633181
 20
-144.8421494863589
 10
97.86723901633181
 20
-144.8421494863589
 10
97.86723901633181
 20
-144.8421494863589
 10
97.53719886884487
 20
-144.8421494863589
 10
97.53719886884487
 20
-144.8421494863589
 10
97.53719886884487
 20
-144.8421494863589
 10
97.53719886884487
 20
-144.6940103804932
 10
97.53719886884487
 20
-144.6940103804932
 10
97.86930607362295
 20
-144.6791964699066
 10
97.91581486267383
 20
-144.5162434534543
 10
97.94544268384698
 20
-144.401866283344
 10
97.94544268384698
 20
-144.401866283344
 10
98.09151473242157
 20
-144.401866283344
 10
98.09151473242157
 20
-144.401866283344
 10
98.09151473242157
 20
-144.401866283344
 10
98.09151473242157
 20
-145.9463025893815
 10
98.09151473242157
 20
-145.9463025893815
 10
98.09151473242157
 20
-145.9463025893815
 10
97.86723901633181
 20
-145.9463025893815
 10
97.86723901633181
 20
-145.9463025893815
 97
        0
 97
        0
 75
     2
 76
     1
 98
        0
  0
SPLINE
  5
229
330
223
100
AcDbEntity
  8
_U+30EC_U+30A4_U+30E4_U+30FC 1
370
     0
100
AcDbSpline
210
0.0
220
0.0
230
1.0
 70
    11
 71
     3
 72
    29
 73
    25
 74
     0
 42
0.0000000001
 43
0.0000000001
 12
1.0
 22
0.0
 32
0.0
 13
1.0
 23
0.0
 33
0.0
 40
0.0
 40
0.0
 40
0.0
 40
0.0
 40
1.0
 40
1.0
 40
1.0
 40
2.0
 40
2.0
 40
2.0
 40
3.0
 40
3.0
 40
3.0
 40
4.0
 40
4.0
 40
4.0
 40
5.0
 40
5.0
 40
5.0
 40
6.0
 40
6.0
 40
6.0
 40
7.0
 40
7.0
 40
7.0
 40
8.0
 40
8.0
 40
8.0
 40
8.0
 10
99.49056800898153
 20
-145.7685356623426
 30
0.0
 10
99.38239201074468
 20
-145.9779974678458
 30
0.0
 10
99.20910370783662
 20
-145.9969454930147
 30
0.0
 10
99.09265948043517
 20
-145.9969454930147
 30
0.0
 10
98.93177352127401
 20
-145.9969454930147
 30
0.0
 10
98.79018009683024
 20
-145.9504367039638
 30
0.0
 10
98.69509546143735
 20
-145.7685356623426
 30
0.0
 10
98.59139808733133
 20
-145.573887767426
 30
0.0
 10
98.57245006216245
 20
-145.3368651980408
 30
0.0
 10
98.57245006216245
 20
-145.174256691137
 30
0.0
 10
98.57245006216245
 20
-145.0302516998536
 30
0.0
 10
98.58933103004017
 20
-144.7784152198818
 30
0.0
 10
98.69509546143735
 20
-144.5796332103829
 30
0.0
 10
98.80292695012567
 20
-144.3767170863017
 30
0.0
 10
98.96381290928683
 20
-144.353290437002
 30
0.0
 10
99.09265948043517
 20
-144.353290437002
 30
0.0
 10
99.2514783823052
 20
-144.353290437002
 30
0.0
 10
99.3951388640401
 20
-144.3977321687617
 30
0.0
 10
99.49056800898153
 20
-144.5796332103829
 30
0.0
 10
99.58978675895672
 20
-144.7722140480084
 30
0.0
 10
99.61321340825643
 20
-145.0006238786804
 30
0.0
 10
99.61321340825643
 20
-145.174256691137
 30
0.0
 10
99.61321340825643
 20
-145.3454779367539
 30
0.0
 10
99.59185381624788
 20
-145.5759548247171
 30
0.0
 10
99.49056800898153
 20
-145.7685356623426
 30
0.0
  0
SPLINE
  5
22A
330
223
100
AcDbEntity
  8
_U+30EC_U+30A4_U+30E4_U+30FC 1
370
     0
100
AcDbSpline
210
0.0
220
0.0
230
1.0
 70
    11
 71
     3
 72
    17
 73
    13
 74
     0
 42
0.0000000001
 43
0.0000000001
 12
1.0
 22
0.0
 32
0.0
 13
1.0
 23
0.0
 33
0.0
 40
0.0
 40
0.0
 40
0.0
 40
0.0
 40
1.0
 40
1.0
 40
1.0
 40
2.0
 40
2.0
 40
2.0
 40
3.0
 40
3.0
 40
3.0
 40
4.0
 40
4.0
 40
4.0
 40
4.0
 10
99.09265948043517
 20
-144.5458712746274
 30
0.0
 10
98.84323456730309
 20
-144.5458712746274
 30
0.0
 10
98.79638126870368
 20
-144.8294026330635
 30
0.0
 10
98.79638126870368
 20
-145.174256691137
 30
0.0
 10
98.79638126870368
 20
-145.4936170426197
 30
0.0
 10
98.83255477129882
 20
-145.8022975980981
 30
0.0
 10
99.09265948043517
 20
-145.8022975980981
 30
0.0
 10
99.34036184582463
 20
-145.8022975980981
 30
0.0
 10
99.38893769216666
 20
-145.5211778065017
 30
0.0
 10
99.38893769216666
 20
-145.174256691137
 30
0.0
 10
99.38893769216666
 20
-144.8545518301058
 30
0.0
 10
99.35069713228039
 20
-144.5458712746274
 30
0.0
 10
99.09265948043517
 20
-144.5458712746274
 30
0.0
  0
HATCH
  5
22B
330
223
100
AcDbEntity
  8
_U+30EC_U+30A4_U+30E4_U+30FC 1
 62
     7
420
 16777215
100
AcDbHatch
 10
0.0
 20
0.0
 30
0.0
210
0.0
220
0.0
230
1.0
  2
SOLID
 70
     1
 71
     0
 91
        2
 92
        1
 93
        1
 72
     4
 94
        3
 73
     0
 74
     1
 95
       29
 96
       25
 40
0.0
 40
0.0
 40
0.0
 40
0.0
 40
1.0
 40
1.0
 40
1.0
 40
2.0
 40
2.0
 40
2.0
 40
3.0
 40
3.0
 40
3.0
 40
4.0
 40
4.0
 40
4.0
 40
5.0
 40
5.0
 40
5.0
 40
6.0
 40
6.0
 40
6.0
 40
7.0
 40
7.0
 40
7.0
 40
8.0
 40
8.0
 40
8.0
 40
8.0
 10
99.49056800898153
 20
-145.7685356623426
 10
99.38239201074468
 20
-145.9779974678458
 10
99.20910370783662
 20
-145.9969454930147
 10
99.09265948043517
 20
-145.9969454930147
 10
98.93177352127401
 20
-145.9969454930147
 10
98.79018009683024
 20
-145.9504367039638
 10
98.69509546143735
 20
-145.7685356623426
 10
98.59139808733133
 20
-145.573887767426
 10
98.57245006216245
 20
-145.3368651980408
 10
98.57245006216245
 20
-145.174256691137
 10
98.57245006216245
 20
-145.0302516998536
 10
98.58933103004017
 20
-144.7784152198818
 10
98.69509546143735
 20
-144.5796332103829
 10
98.80292695012567
 20
-144.3767170863017
 10
98.96381290928683
 20
-144.353290437002
 10
99.09265948043517
 20
-144.353290437002
 10
99.2514783823052
 20
-144.353290437002
 10
99.3951388640401
 20
-144.3977321687617
 10
99.49056800898153
 20
-144.5796332103829
 10
99.58978675895672
 20
-144.7722140480084
 10
99.61321340825643
 20
-145.0006238786804
 10
99.61321340825643
 20
-145.174256691137
 10
99.61321340825643
 20
-145.3454779367539
 10
99.59185381624788
 20
-145.5759548247171
 10
99.49056800898153
 20
-145.7685356623426
 97
        0
 97
        0
 92
        1
 93
        1
 72
     4
 94
        3
 73
     0
 74
     1
 95
       17
 96
       13
 40
0.0
 40
0.0
 40
0.0
 40
0.0
 40
1.0
 40
1.0
 40
1.0
 40
2.0
 40
2.0
 40
2.0
 40
3.0
 40
3.0
 40
3.0
 40
4.0
 40
4.0
 40
4.0
 40
4.0
 10
99.09265948043517
 20
-144.5458712746274
 10
98.84323456730309
 20
-144.5458712746274
 10
98.79638126870368
 20
-144.8294026330635
 10
98.79638126870368
 20
-145.174256691137
 10
98.79638126870368
 20
-145.4936170426197
 10
98.83255477129882
 20
-145.8022975980981
 10
99.09265948043517
 20
-145.8022975980981
 10
99.34036184582463
 20
-145.8022975980981
 10
99.38893769216666
 20
-145.5211778065017
 10
99.38893769216666
 20
-145.174256691137
 10
99.38893769216666
 20
-144.8545518301058
 10
99.35069713228039
 20
-144.5458712746274
 10
99.09265948043517
 20
-144.5458712746274
 97
        0
 97
        0
 75
     2
 76
     1
 98
        0
  0
ENDBLK
  5
226
330
223
100
AcDbEntity
  8
0
100
AcDbBlockEnd
  0
ENDSEC
  0
SECTION
  2
ENTITIES
  0
POLYLINE
  5
41
330
1F
100
AcDbEntity
  8
_U+30EC_U+30A4_U+30E4_U+30FC 1
 62
     7
420
 16777215
370
     9
100
AcDb2dPolyline
 66
     1
 10
0.0
 20
0.0
 30
0.0
  0
VERTEX
  5
42
330
41
100
AcDbEntity
  8
_U+30EC_U+30A4_U+30E4_U+30FC 1
 62
     7
420
 16777215
370
     9
100
AcDbVertex
100
AcDb2dVertex
 10
103.3043020867099
 20
-128.1840633012872
 30
0.0
  0
VERTEX
  5
43
330
41
100
AcDbEntity
  8
_U+30EC_U+30A4_U+30E4_U+30FC 1
 62
     7
420
 16777215
370
     9
100
AcDbVertex
100
AcDb2dVertex
 10
103.3043020867099
 20
-143.1840332975374
 30
0.0
  0
SEQEND
  5
44
330
41
100
AcDbEntity
  8
_U+30EC_U+30A4_U+30E4_U+30FC 1
 62
     7
420
 16777215
370
     9
  0
POLYLINE
  5
45
330
1F
100
AcDbEntity
  8
_U+30EC_U+30A4_U+30E4_U+30FC 1
 62
     7
420
 16777215
370
     9
100
AcDb2dPolyline
 66
     1
 10
0.0
 20
0.0
 30
0.0
  0
VERTEX
  5
46
330
45
100
AcDbEntity
  8
_U+30EC_U+30A4_U+30E4_U+30FC 1
 62
     7
420
 16777215
370
     9
100
AcDbVertex
100
AcDb2dVertex
 10
100.8045188171514
 20
-128.1840633012872
 30
0.0
  0
VERTEX
  5
47
330
45
100
AcDbEntity
  8
_U+30EC_U+30A4_U+30E4_U+30FC 1
 62
     7
420
 16777215
370
     9
100
AcDbVertex
100
AcDb2dVertex
 10
100.8045188171514
 20
-143.1840332975374
 30
0.0
  0
SEQEND
  5
48
330
45
100
AcDbEntity
  8
_U+30EC_U+30A4_U+30E4_U+30FC 1
 62
     7
420
 16777215
370
     9
  0
POLYLINE
  5
49
330
1F
100
AcDbEntity
  8
_U+30EC_U+30A4_U+30E4_U+30FC 1
 62
     7
420
 16777215
370
     9
100
AcDb2dPolyline
 66
     1
 10
0.0
 20
0.0
 30
0.0
  0
VERTEX
  5
4A
330
49
100
AcDbEntity
  8
_U+30EC_U+30A4_U+30E4_U+30FC 1
 62
     7
420
 16777215
370
     9
100
AcDbVertex
100
AcDb2dVertex
 10
103.3043020867099
 20
-143.1840332975374
 30
0.0
  0
VERTEX
  5
4B
330
49
100
AcDbEntity
  8
_U+30EC_U+30A4_U+30E4_U+30FC 1
 62
     7
420
 16777215
370
     9
100
AcDbVertex
100
AcDb2dVertex
 10
100.8045188171514
 20
-143.1840332975374
 30
0.0
  0
SEQEND
  5
4C
330
49
100
AcDbEntity
  8
_U+30EC_U+30A4_U+30E4_U+30FC 1
 62
     7
420
 16777215
370
     9
  0
SPLINE
  5
4D
330
1F
100
AcDbEntity
  8
_U+30EC_U+30A4_U+30E4_U+30FC 1
 62
     7
420
 16777215
370
     9
100
AcDbSpline
210
0.0
220
0.0
230
1.0
 70
    11
 71
     3
 72
    17
 73
    13
 74
     0
 42
0.0000000001
 43
0.0000000001
 12
1.0
 22
0.0
 32
0.0
 13
1.0
 23
0.0
 33
0.0
 40
0.0
 40
0.0
 40
0.0
 40
0.0
 40
1.0
 40
1.0
 40
1.0
 40
2.0
 40
2.0
 40
2.0
 40
3.0
 40
3.0
 40
3.0
 40
4.0
 40
4.0
 40
4.0
 40
4.0
 10
102.6169851598004
 20
-131.9337383003497
 30
0.0
 10
102.6169851598004
 20
-131.622976355983
 30
0.0
 10
102.36513711067
 20
-131.3718338560457
 30
0.0
 10
102.0544104519306
 20
-131.3718338560457
 30
0.0
 10
101.7436485154144
 20
-131.3718338560457
 30
0.0
 10
101.4918357440609
 20
-131.622976355983
 30
0.0
 10
101.4918357440609
 20
-131.9337383003497
 30
0.0
 10
101.4918357440609
 20
-132.244464966939
 30
0.0
 10
101.7436485154144
 20
-132.4959602446541
 30
0.0
 10
102.0544104519306
 20
-132.4959602446541
 30
0.0
 10
102.36513711067
 20
-132.4959602446541
 30
0.0
 10
102.6169851598004
 20
-132.244464966939
 30
0.0
 10
102.6169851598004
 20
-131.9337383003497
 30
0.0
  0
SPLINE
  5
4E
330
1F
100
AcDbEntity
  8
_U+30EC_U+30A4_U+30E4_U+30FC 1
 62
     7
420
 16777215
370
     9
100
AcDbSpline
210
0.0
220
0.0
230
1.0
 70
    11
 71
     3
 72
    17
 73
    13
 74
     0
 42
0.0000000001
 43
0.0000000001
 12
1.0
 22
0.0
 32
0.0
 13
1.0
 23
0.0
 33
0.0
 40
0.0
 40
0.0
 40
0.0
 40
0.0
 40
1.0
 40
1.0
 40
1.0
 40
2.0
 40
2.0
 40
2.0
 40
3.0
 40
3.0
 40
3.0
 40
4.0
 40
4.0
 40
4.0
 40
4.0
 10
102.8044159883519
 20
-131.9337383003497
 30
0.0
 10
102.8044159883519
 20
-131.51961246712
 30
0.0
 10
102.4685009969219
 20
-131.1840855227594
 30
0.0
 10
102.0544104519306
 20
-131.1840855227594
 30
0.0
 10
101.6403199069394
 20
-131.1840855227594
 30
0.0
 10
101.3044049155093
 20
-131.51961246712
 30
0.0
 10
101.3044049155093
 20
-131.9337383003497
 30
0.0
 10
101.3044049155093
 20
-132.347828855802
 30
0.0
 10
101.6403199069394
 20
-132.6840613557181
 30
0.0
 10
102.0544104519306
 20
-132.6840613557181
 30
0.0
 10
102.4685009969219
 20
-132.6840613557181
 30
0.0
 10
102.8044159883519
 20
-132.347828855802
 30
0.0
 10
102.8044159883519
 20
-131.9337383003497
 30
0.0
  0
POLYLINE
  5
4F
330
1F
100
AcDbEntity
  8
_U+30EC_U+30A4_U+30E4_U+30FC 1
 62
     7
420
 16777215
370
     9
100
AcDb2dPolyline
 66
     1
 10
0.0
 20
0.0
 30
0.0
  0
VERTEX
  5
50
330
4F
100
AcDbEntity
  8
_U+30EC_U+30A4_U+30E4_U+30FC 1
 62
     7
420
 16777215
370
     9
100
AcDbVertex
100
AcDb2dVertex
 10
100.8045188171514
 20
-128.1840633012872
 30
0.0
  0
VERTEX
  5
51
330
4F
100
AcDbEntity
  8
_U+30EC_U+30A4_U+30E4_U+30FC 1
 62
     7
420
 16777215
370
     9
100
AcDbVertex
100
AcDb2dVertex
 10
103.3043020867099
 20
-128.1840633012872
 30
0.0
  0
SEQEND
  5
52
330
4F
100
AcDbEntity
  8
_U+30EC_U+30A4_U+30E4_U+30FC 1
 62
     7
420
 16777215
370
     9
  0
POLYLINE
  5
53
330
1F
100
AcDbEntity
  8
_U+30EC_U+30A4_U+30E4_U+30FC 1
  6
AI-Linetype-1
 62
     7
420
 16777215
370
     9
100
AcDb2dPolyline
 66
     1
 10
0.0
 20
0.0
 30
0.0
  0
VERTEX
  5
54
330
53
100
AcDbEntity
  8
_U+30EC_U+30A4_U+30E4_U+30FC 1
  6
AI-Linetype-1
 62
     7
420
 16777215
370
     9
100
AcDbVertex
100
AcDb2dVertex
 10
102.0544104519306
 20
-127.3751791348229
 30
0.0
  0
VERTEX
  5
55
330
53
100
AcDbEntity
  8
_U+30EC_U+30A4_U+30E4_U+30FC 1
  6
AI-Linetype-1
 62
     7
420
 16777215
370
     9
100
AcDbVertex
100
AcDb2dVertex
 10
102.0544104519306
 20
-144.841806630456
 30
0.0
  0
SEQEND
  5
57
330
53
100
AcDbEntity
  8
_U+30EC_U+30A4_U+30E4_U+30FC 1
  6
AI-Linetype-1
 62
     7
420
 16777215
370
     9
  0
POLYLINE
  5
58
330
1F
100
AcDbEntity
  8
_U+30EC_U+30A4_U+30E4_U+30FC 1
  6
AI-Linetype-2
 62
     7
420
 16777215
370
     9
100
AcDb2dPolyline
 66
     1
 10
0.0
 20
0.0
 30
0.0
  0
VERTEX
  5
59
330
58
100
AcDbEntity
  8
_U+30EC_U+30A4_U+30E4_U+30FC 1
  6
AI-Linetype-2
 62
     7
420
 16777215
370
     9
100
AcDbVertex
100
AcDb2dVertex
 10
100.554399379088
 20
-131.9337383003497
 30
0.0
  0
VERTEX
  5
5A
330
58
100
AcDbEntity
  8
_U+30EC_U+30A4_U+30E4_U+30FC 1
  6
AI-Linetype-2
 62
     7
420
 16777215
370
     9
100
AcDbVertex
100
AcDb2dVertex
 10
103.5543888630006
 20
-131.9337383003497
 30
0.0
  0
SEQEND
  5
5C
330
58
100
AcDbEntity
  8
_U+30EC_U+30A4_U+30E4_U+30FC 1
  6
AI-Linetype-2
 62
     7
420
 16777215
370
     9
  0
INSERT
  5
5E
330
1F
100
AcDbEntity
  8
_U+30EC_U+30A4_U+30E4_U+30FC 1
100
AcDbBlockReference
  2
block 2
 10
0.0
 20
0.0
 30
0.0
  0
INSERT
  5
66
330
1F
100
AcDbEntity
  8
_U+30EC_U+30A4_U+30E4_U+30FC 1
100
AcDbBlockReference
  2
block 3
 10
0.0
 20
0.0
 30
0.0
  0
INSERT
  5
89
330
1F
100
AcDbEntity
  8
_U+30EC_U+30A4_U+30E4_U+30FC 1
100
AcDbBlockReference
  2
block 4
 10
0.0
 20
0.0
 30
0.0
  0
INSERT
  5
91
330
1F
100
AcDbEntity
  8
_U+30EC_U+30A4_U+30E4_U+30FC 1
100
AcDbBlockReference
  2
block 5
 10
0.0
 20
0.0
 30
0.0
  0
INSERT
  5
98
330
1F
100
AcDbEntity
  8
_U+30EC_U+30A4_U+30E4_U+30FC 1
100
AcDbBlockReference
  2
block 6
 10
0.0
 20
0.0
 30
0.0
  0
INSERT
  5
9C
330
1F
100
AcDbEntity
  8
_U+30EC_U+30A4_U+30E4_U+30FC 1
100
AcDbBlockReference
  2
block 7
 10
0.0
 20
0.0
 30
0.0
  0
INSERT
  5
A2
330
1F
100
AcDbEntity
  8
_U+30EC_U+30A4_U+30E4_U+30FC 1
100
AcDbBlockReference
  2
block 8
 10
0.0
 20
0.0
 30
0.0
  0
INSERT
  5
A9
330
1F
100
AcDbEntity
  8
_U+30EC_U+30A4_U+30E4_U+30FC 1
100
AcDbBlockReference
  2
block 9
 10
0.0
 20
0.0
 30
0.0
  0
INSERT
  5
AF
330
1F
100
AcDbEntity
  8
_U+30EC_U+30A4_U+30E4_U+30FC 1
100
AcDbBlockReference
  2
block 10
 10
0.0
 20
0.0
 30
0.0
  0
POLYLINE
  5
B6
330
1F
100
AcDbEntity
  8
_U+30EC_U+30A4_U+30E4_U+30FC 1
370
     0
100
AcDb2dPolyline
 66
     1
 10
0.0
 20
0.0
 30
0.0
  0
VERTEX
  5
B7
330
B6
100
AcDbEntity
  8
_U+30EC_U+30A4_U+30E4_U+30FC 1
370
     0
100
AcDbVertex
100
AcDb2dVertex
 10
101.4236110857552
 20
-131.403160522705
 30
0.0
  0
VERTEX
  5
B8
330
B6
100
AcDbEntity
  8
_U+30EC_U+30A4_U+30E4_U+30FC 1
370
     0
100
AcDbVertex
100
AcDb2dVertex
 10
100.9078827034032
 20
-131.0352485783524
 30
0.0
  0
VERTEX
  5
B9
330
B6
100
AcDbEntity
  8
_U+30EC_U+30A4_U+30E4_U+30FC 1
370
     0
100
AcDbVertex
100
AcDb2dVertex
 10
101.0553438107523
 20
-130.8877874672783
 30
0.0
  0
VERTEX
  5
BA
330
B6
100
AcDbEntity
  8
_U+30EC_U+30A4_U+30E4_U+30FC 1
370
     0
100
AcDbVertex
100
AcDb2dVertex
 10
101.4236110857552
 20
-131.403160522705
 30
0.0
  0
SEQEND
  5
BC
330
B6
100
AcDbEntity
  8
_U+30EC_U+30A4_U+30E4_U+30FC 1
370
     0
  0
HATCH
  5
BB
330
1F
100
AcDbEntity
  8
_U+30EC_U+30A4_U+30E4_U+30FC 1
 62
     7
420
 16777215
100
AcDbHatch
 10
0.0
 20
0.0
 30
0.0
210
0.0
220
0.0
230
1.0
  2
SOLID
 70
     1
 71
     0
 91
        1
 92
        1
 93
        3
 72
     1
 10
101.4236110857552
 20
-131.403160522705
 11
100.9078827034032
 21
-131.0352485783524
 72
     1
 10
100.9078827034032
 20
-131.0352485783524
 11
101.0553438107523
 21
-130.8877874672783
 72
     1
 10
101.0553438107523
 20
-130.8877874672783
 11
101.4236110857552
 21
-131.403160522705
 97
        0
 75
     2
 76
     1
 98
        0
  0
SPLINE
  5
BD
330
1F
100
AcDbEntity
  8
_U+30EC_U+30A4_U+30E4_U+30FC 1
 62
     7
420
 16777215
370
     9
100
AcDbSpline
210
0.0
220
0.0
230
1.0
 70
    27
 71
     3
 72
    14
 73
    10
 74
     0
 42
0.0000000001
 43
0.0000000001
 12
1.0
 22
0.0
 32
0.0
 13
1.0
 23
0.0
 33
0.0
 40
0.0
 40
0.0
 40
0.0
 40
0.0
 40
1.0
 40
1.0
 40
1.0
 40
2.0
 40
2.0
 40
2.0
 40
3.0
 40
3.0
 40
3.0
 40
3.0
 10
78.39416994444255
 20
-139.9538941316781
 30
0.0
 10
78.39416994444255
 20
-139.9538941316781
 30
0.0
 10
78.39416994444255
 20
-139.9538941316781
 30
0.0
 10
78.39416994444255
 20
-139.9538941316781
 30
0.0
 10
78.39416994444255
 20
-139.9538941316781
 30
0.0
 10
78.39385244445064
 20
-139.9538941316781
 30
0.0
 10
78.39385244445064
 20
-139.9538941316781
 30
0.0
 10
78.39385244445064
 20
-139.9538941316781
 30
0.0
 10
78.39416994444255
 20
-139.9538941316781
 30
0.0
 10
78.39416994444255
 20
-139.9538941316781
 30
0.0
  0
POLYLINE
  5
BE
330
1F
100
AcDbEntity
  8
_U+30EC_U+30A4_U+30E4_U+30FC 1
 62
     7
420
 16777215
370
     9
100
AcDb2dPolyline
 66
     1
 10
0.0
 20
0.0
 30
0.0
  0
VERTEX
  5
BF
330
BE
100
AcDbEntity
  8
_U+30EC_U+30A4_U+30E4_U+30FC 1
 62
     7
420
 16777215
370
     9
100
AcDbVertex
100
AcDb2dVertex
 10
101.4236110857552
 20
-131.403160522705
 30
0.0
  0
VERTEX
  5
C0
330
BE
100
AcDbEntity
  8
_U+30EC_U+30A4_U+30E4_U+30FC 1
 62
     7
420
 16777215
370
     9
100
AcDbVertex
100
AcDb2dVertex
 10
99.00376469642576
 20
-128.9833519121988
 30
0.0
  0
VERTEX
  5
C1
330
BE
100
AcDbEntity
  8
_U+30EC_U+30A4_U+30E4_U+30FC 1
 62
     7
420
 16777215
370
     9
100
AcDbVertex
100
AcDb2dVertex
 10
98.29958499216866
 20
-128.9833519121988
 30
0.0
  0
SEQEND
  5
C2
330
BE
100
AcDbEntity
  8
_U+30EC_U+30A4_U+30E4_U+30FC 1
 62
     7
420
 16777215
370
     9
  0
POLYLINE
  5
C3
330
1F
100
AcDbEntity
  8
_U+30EC_U+30A4_U+30E4_U+30FC 1
 62
     7
420
 16777215
370
     9
100
AcDb2dPolyline
 66
     1
 10
0.0
 20
0.0
 30
0.0
  0
VERTEX
  5
C4
330
C3
100
AcDbEntity
  8
_U+30EC_U+30A4_U+30E4_U+30FC 1
 62
     7
420
 16777215
370
     9
100
AcDbVertex
100
AcDb2dVertex
 10
98.29958499216866
 20
-128.9833519121988
 30
0.0
  0
VERTEX
  5
C5
330
C3
100
AcDbEntity
  8
_U+30EC_U+30A4_U+30E4_U+30FC 1
 62
     7
420
 16777215
370
     9
100
AcDbVertex
100
AcDb2dVertex
 10
87.32593860546304
 20
-128.9833519121988
 30
0.0
  0
SEQEND
  5
C6
330
C3
100
AcDbEntity
  8
_U+30EC_U+30A4_U+30E4_U+30FC 1
 62
     7
420
 16777215
370
     9
  0
POLYLINE
  5
C7
330
1F
100
AcDbEntity
  8
_U+30EC_U+30A4_U+30E4_U+30FC 1
370
     0
100
AcDb2dPolyline
 66
     1
 10
0.0
 20
0.0
 30
0.0
  0
VERTEX
  5
C8
330
C7
100
AcDbEntity
  8
_U+30EC_U+30A4_U+30E4_U+30FC 1
370
     0
100
AcDbVertex
100
AcDb2dVertex
 10
78.76451604610534
 20
-139.4398969095842
 30
0.0
  0
VERTEX
  5
C9
330
C7
100
AcDbEntity
  8
_U+30EC_U+30A4_U+30E4_U+30FC 1
370
     0
100
AcDbVertex
100
AcDb2dVertex
 10
78.91127159791685
 20
-139.587358020659
 30
0.0
  0
VERTEX
  5
CA
330
C7
100
AcDbEntity
  8
_U+30EC_U+30A4_U+30E4_U+30FC 1
370
     0
100
AcDbVertex
100
AcDb2dVertex
 10
78.39416994444255
 20
-139.9538941316781
 30
0.0
  0
VERTEX
  5
CB
330
C7
100
AcDbEntity
  8
_U+30EC_U+30A4_U+30E4_U+30FC 1
370
     0
100
AcDbVertex
100
AcDb2dVertex
 10
78.76451604610534
 20
-139.4398969095842
 30
0.0
  0
SEQEND
  5
CD
330
C7
100
AcDbEntity
  8
_U+30EC_U+30A4_U+30E4_U+30FC 1
370
     0
  0
HATCH
  5
CC
330
1F
100
AcDbEntity
  8
_U+30EC_U+30A4_U+30E4_U+30FC 1
 62
     7
420
 16777215
100
AcDbHatch
 10
0.0
 20
0.0
 30
0.0
210
0.0
220
0.0
230
1.0
  2
SOLID
 70
     1
 71
     0
 91
        1
 92
        1
 93
        3
 72
     1
 10
78.76451604610534
 20
-139.4398969095842
 11
78.91127159791685
 21
-139.587358020659
 72
     1
 10
78.91127159791685
 20
-139.587358020659
 11
78.39416994444255
 21
-139.9538941316781
 72
     1
 10
78.39416994444255
 20
-139.9538941316781
 11
78.76451604610534
 21
-139.4398969095842
 97
        0
 75
     2
 76
     1
 98
        0
  0
INSERT
  5
CF
330
1F
100
AcDbEntity
  8
_U+30EC_U+30A4_U+30E4_U+30FC 1
100
AcDbBlockReference
  2
block 11
 10
0.0
 20
0.0
 30
0.0
  0
INSERT
  5
D5
330
1F
100
AcDbEntity
  8
_U+30EC_U+30A4_U+30E4_U+30FC 1
100
AcDbBlockReference
  2
block 12
 10
0.0
 20
0.0
 30
0.0
  0
INSERT
  5
E1
330
1F
100
AcDbEntity
  8
_U+30EC_U+30A4_U+30E4_U+30FC 1
100
AcDbBlockReference
  2
block 13
 10
0.0
 20
0.0
 30
0.0
  0
INSERT
  5
E9
330
1F
100
AcDbEntity
  8
_U+30EC_U+30A4_U+30E4_U+30FC 1
100
AcDbBlockReference
  2
block 14
 10
0.0
 20
0.0
 30
0.0
  0
INSERT
  5
EF
330
1F
100
AcDbEntity
  8
_U+30EC_U+30A4_U+30E4_U+30FC 1
100
AcDbBlockReference
  2
block 15
 10
0.0
 20
0.0
 30
0.0
  0
SPLINE
  5
F5
330
1F
100
AcDbEntity
  8
_U+30EC_U+30A4_U+30E4_U+30FC 1
 62
     7
420
 16777215
370
     9
100
AcDbSpline
210
0.0
220
0.0
230
1.0
 70
    11
 71
     3
 72
    17
 73
    13
 74
     0
 42
0.0000000001
 43
0.0000000001
 12
1.0
 22
0.0
 32
0.0
 13
1.0
 23
0.0
 33
0.0
 40
0.0
 40
0.0
 40
0.0
 40
0.0
 40
1.0
 40
1.0
 40
1.0
 40
2.0
 40
2.0
 40
2.0
 40
3.0
 40
3.0
 40
3.0
 40
4.0
 40
4.0
 40
4.0
 40
4.0
 10
75.20058053675554
 20
-143.1840332975374
 30
0.0
 10
75.20058053675554
 20
-143.1833277419819
 30
0.0
 10
75.20058053675554
 20
-143.1833277419819
 30
0.0
 10
75.20022775897779
 20
-143.1833277419819
 30
0.0
 10
75.20022775897779
 20
-143.1833277419819
 30
0.0
 10
75.19987498120003
 20
-143.1833277419819
 30
0.0
 10
75.19987498120003
 20
-143.1840332975374
 30
0.0
 10
75.19987498120003
 20
-143.1840332975374
 30
0.0
 10
75.20022775897779
 20
-143.1840332975374
 30
0.0
 10
75.20022775897779
 20
-143.1840332975374
 30
0.0
 10
75.20022775897779
 20
-143.1840332975374
 30
0.0
 10
75.20058053675554
 20
-143.1840332975374
 30
0.0
 10
75.20058053675554
 20
-143.1840332975374
 30
0.0
  0
SPLINE
  5
F6
330
1F
100
AcDbEntity
  8
_U+30EC_U+30A4_U+30E4_U+30FC 1
 62
     7
420
 16777215
370
     9
100
AcDbSpline
210
0.0
220
0.0
230
1.0
 70
    11
 71
     3
 72
    14
 73
    10
 74
     0
 42
0.0000000001
 43
0.0000000001
 12
1.0
 22
0.0
 32
0.0
 13
1.0
 23
0.0
 33
0.0
 40
0.0
 40
0.0
 40
0.0
 40
0.0
 40
1.0
 40
1.0
 40
1.0
 40
2.0
 40
2.0
 40
2.0
 40
3.0
 40
3.0
 40
3.0
 40
3.0
 10
83.9504198026908
 20
-143.1840332975374
 30
0.0
 10
83.9504198026908
 20
-143.1840332975374
 30
0.0
 10
83.9504198026908
 20
-143.1833277419819
 30
0.0
 10
83.9504198026908
 20
-143.1833277419819
 30
0.0
 10
83.95010230269891
 20
-143.1833277419819
 30
0.0
 10
83.95010230269891
 20
-143.1833277419819
 30
0.0
 10
83.95010230269891
 20
-143.1840332975374
 30
0.0
 10
83.95010230269891
 20
-143.1840332975374
 30
0.0
 10
83.9504198026908
 20
-143.1840332975374
 30
0.0
 10
83.9504198026908
 20
-143.1840332975374
 30
0.0
  0
SPLINE
  5
F7
330
1F
100
AcDbEntity
  8
_U+30EC_U+30A4_U+30E4_U+30FC 1
 62
     7
420
 16777215
370
     9
100
AcDbSpline
210
0.0
220
0.0
230
1.0
 70
    11
 71
     3
 72
    14
 73
    10
 74
     0
 42
0.0000000001
 43
0.0000000001
 12
1.0
 22
0.0
 32
0.0
 13
1.0
 23
0.0
 33
0.0
 40
0.0
 40
0.0
 40
0.0
 40
0.0
 40
1.0
 40
1.0
 40
1.0
 40
2.0
 40
2.0
 40
2.0
 40
3.0
 40
3.0
 40
3.0
 40
3.0
 10
83.9504198026908
 20
-146.2797994078747
 30
0.0
 10
83.9504198026908
 20
-146.2797994078747
 30
0.0
 10
83.9504198026908
 20
-146.2790938523192
 30
0.0
 10
83.9504198026908
 20
-146.2790938523192
 30
0.0
 10
83.95010230269891
 20
-146.2790938523192
 30
0.0
 10
83.95010230269891
 20
-146.2790938523192
 30
0.0
 10
83.95010230269891
 20
-146.2797994078747
 30
0.0
 10
83.95010230269891
 20
-146.2797994078747
 30
0.0
 10
83.9504198026908
 20
-146.2797994078747
 30
0.0
 10
83.9504198026908
 20
-146.2797994078747
 30
0.0
  0
POLYLINE
  5
F8
330
1F
100
AcDbEntity
  8
_U+30EC_U+30A4_U+30E4_U+30FC 1
 62
     7
420
 16777215
370
     9
100
AcDb2dPolyline
 66
     1
 10
0.0
 20
0.0
 30
0.0
  0
VERTEX
  5
F9
330
F8
100
AcDbEntity
  8
_U+30EC_U+30A4_U+30E4_U+30FC 1
 62
     7
420
 16777215
370
     9
100
AcDbVertex
100
AcDb2dVertex
 10
83.44467759337114
 20
-134.8723771885039
 30
0.0
  0
VERTEX
  5
FA
330
F8
100
AcDbEntity
  8
_U+30EC_U+30A4_U+30E4_U+30FC 1
 62
     7
420
 16777215
370
     9
100
AcDbVertex
100
AcDb2dVertex
 10
78.8378938220111
 20
-139.5136274651216
 30
0.0
  0
SEQEND
  5
FB
330
F8
100
AcDbEntity
  8
_U+30EC_U+30A4_U+30E4_U+30FC 1
 62
     7
420
 16777215
370
     9
  0
INSERT
  5
FD
330
1F
100
AcDbEntity
  8
_U+30EC_U+30A4_U+30E4_U+30FC 1
100
AcDbBlockReference
  2
block 16
 10
0.0
 20
0.0
 30
0.0
  0
POLYLINE
  5
104
330
1F
100
AcDbEntity
  8
_U+30EC_U+30A4_U+30E4_U+30FC 1
370
     0
100
AcDb2dPolyline
 66
     1
 10
0.0
 20
0.0
 30
0.0
  0
VERTEX
  5
105
330
104
100
AcDbEntity
  8
_U+30EC_U+30A4_U+30E4_U+30FC 1
370
     0
100
AcDbVertex
100
AcDb2dVertex
 10
83.32547398530117
 20
-146.1750596856783
 30
0.0
  0
VERTEX
  5
106
330
104
100
AcDbEntity
  8
_U+30EC_U+30A4_U+30E4_U+30FC 1
370
     0
100
AcDbVertex
100
AcDb2dVertex
 10
83.32547398530117
 20
-146.383833574515
 30
0.0
  0
VERTEX
  5
107
330
104
100
AcDbEntity
  8
_U+30EC_U+30A4_U+30E4_U+30FC 1
370
     0
100
AcDbVertex
100
AcDb2dVertex
 10
83.9504198026908
 20
-146.2797994078747
 30
0.0
  0
VERTEX
  5
108
330
104
100
AcDbEntity
  8
_U+30EC_U+30A4_U+30E4_U+30FC 1
370
     0
100
AcDbVertex
100
AcDb2dVertex
 10
83.32547398530117
 20
-146.1750596856783
 30
0.0
  0
SEQEND
  5
10A
330
104
100
AcDbEntity
  8
_U+30EC_U+30A4_U+30E4_U+30FC 1
370
     0
  0
HATCH
  5
109
330
1F
100
AcDbEntity
  8
_U+30EC_U+30A4_U+30E4_U+30FC 1
 62
     7
420
 16777215
100
AcDbHatch
 10
0.0
 20
0.0
 30
0.0
210
0.0
220
0.0
230
1.0
  2
SOLID
 70
     1
 71
     0
 91
        1
 92
        1
 93
        3
 72
     1
 10
83.32547398530117
 20
-146.1750596856783
 11
83.32547398530117
 21
-146.383833574515
 72
     1
 10
83.32547398530117
 20
-146.383833574515
 11
83.9504198026908
 21
-146.2797994078747
 72
     1
 10
83.9504198026908
 20
-146.2797994078747
 11
83.32547398530117
 21
-146.1750596856783
 97
        0
 75
     2
 76
     1
 98
        0
  0
POLYLINE
  5
10B
330
1F
100
AcDbEntity
  8
_U+30EC_U+30A4_U+30E4_U+30FC 1
370
     0
100
AcDb2dPolyline
 66
     1
 10
0.0
 20
0.0
 30
0.0
  0
VERTEX
  5
10C
330
10B
100
AcDbEntity
  8
_U+30EC_U+30A4_U+30E4_U+30FC 1
370
     0
100
AcDbVertex
100
AcDb2dVertex
 10
75.8255244544186
 20
-146.1750596856783
 30
0.0
  0
VERTEX
  5
10D
330
10B
100
AcDbEntity
  8
_U+30EC_U+30A4_U+30E4_U+30FC 1
370
     0
100
AcDbVertex
100
AcDb2dVertex
 10
75.8255244544186
 20
-146.383833574515
 30
0.0
  0
VERTEX
  5
10E
330
10B
100
AcDbEntity
  8
_U+30EC_U+30A4_U+30E4_U+30FC 1
370
     0
100
AcDbVertex
100
AcDb2dVertex
 10
75.20022775897779
 20
-146.2797994078747
 30
0.0
  0
VERTEX
  5
10F
330
10B
100
AcDbEntity
  8
_U+30EC_U+30A4_U+30E4_U+30FC 1
370
     0
100
AcDbVertex
100
AcDb2dVertex
 10
75.8255244544186
 20
-146.1750596856783
 30
0.0
  0
SEQEND
  5
111
330
10B
100
AcDbEntity
  8
_U+30EC_U+30A4_U+30E4_U+30FC 1
370
     0
  0
HATCH
  5
110
330
1F
100
AcDbEntity
  8
_U+30EC_U+30A4_U+30E4_U+30FC 1
 62
     7
420
 16777215
100
AcDbHatch
 10
0.0
 20
0.0
 30
0.0
210
0.0
220
0.0
230
1.0
  2
SOLID
 70
     1
 71
     0
 91
        1
 92
        1
 93
        3
 72
     1
 10
75.8255244544186
 20
-146.1750596856783
 11
75.8255244544186
 21
-146.383833574515
 72
     1
 10
75.8255244544186
 20
-146.383833574515
 11
75.20022775897779
 21
-146.2797994078747
 72
     1
 10
75.20022775897779
 20
-146.2797994078747
 11
75.8255244544186
 21
-146.1750596856783
 97
        0
 75
     2
 76
     1
 98
        0
  0
SPLINE
  5
112
330
1F
100
AcDbEntity
  8
_U+30EC_U+30A4_U+30E4_U+30FC 1
 62
     7
420
 16777215
370
     9
100
AcDbSpline
210
0.0
220
0.0
230
1.0
 70
    11
 71
     3
 72
    14
 73
    10
 74
     0
 42
0.0000000001
 43
0.0000000001
 12
1.0
 22
0.0
 32
0.0
 13
1.0
 23
0.0
 33
0.0
 40
0.0
 40
0.0
 40
0.0
 40
0.0
 40
1.0
 40
1.0
 40
1.0
 40
2.0
 40
2.0
 40
2.0
 40
3.0
 40
3.0
 40
3.0
 40
3.0
 10
75.52545168429631
 20
-128.1840633012872
 30
0.0
 10
75.52545168429631
 20
-128.1833930235098
 30
0.0
 10
75.52545168429631
 20
-128.1833930235098
 30
0.0
 10
75.52509890652753
 20
-128.1833930235098
 30
0.0
 10
75.52509890652753
 20
-128.1833930235098
 30
0.0
 10
75.52509890652753
 20
-128.1840633012872
 30
0.0
 10
75.52509890652753
 20
-128.1840633012872
 30
0.0
 10
75.52509890652753
 20
-128.1840633012872
 30
0.0
 10
75.52545168429631
 20
-128.1840633012872
 30
0.0
 10
75.52545168429631
 20
-128.1840633012872
 30
0.0
  0
SPLINE
  5
113
330
1F
100
AcDbEntity
  8
_U+30EC_U+30A4_U+30E4_U+30FC 1
 62
     7
420
 16777215
370
     9
100
AcDbSpline
210
0.0
220
0.0
230
1.0
 70
    27
 71
     3
 72
    14
 73
    10
 74
     0
 42
0.0000000001
 43
0.0000000001
 12
1.0
 22
0.0
 32
0.0
 13
1.0
 23
0.0
 33
0.0
 40
0.0
 40
0.0
 40
0.0
 40
0.0
 40
1.0
 40
1.0
 40
1.0
 40
2.0
 40
2.0
 40
2.0
 40
3.0
 40
3.0
 40
3.0
 40
3.0
 10
76.8879852606463
 20
-131.9337383003497
 30
0.0
 10
76.8879852606463
 20
-131.9337383003497
 30
0.0
 10
76.8879852606463
 20
-131.9337383003497
 30
0.0
 10
76.8879852606463
 20
-131.9337383003497
 30
0.0
 10
76.8879852606463
 20
-131.9337383003497
 30
0.0
 10
76.88763248287752
 20
-131.9337383003497
 30
0.0
 10
76.88763248287752
 20
-131.9337383003497
 30
0.0
 10
76.88763248287752
 20
-131.9337383003497
 30
0.0
 10
76.8879852606463
 20
-131.9337383003497
 30
0.0
 10
76.8879852606463
 20
-131.9337383003497
 30
0.0
  0
SPLINE
  5
114
330
1F
100
AcDbEntity
  8
_U+30EC_U+30A4_U+30E4_U+30FC 1
 62
     7
420
 16777215
370
     9
100
AcDbSpline
210
0.0
220
0.0
230
1.0
 70
    27
 71
     3
 72
    11
 73
     7
 74
     0
 42
0.0000000001
 43
0.0000000001
 12
1.0
 22
0.0
 32
0.0
 13
1.0
 23
0.0
 33
0.0
 40
0.0
 40
0.0
 40
0.0
 40
0.0
 40
1.0
 40
1.0
 40
1.0
 40
2.0
 40
2.0
 40
2.0
 40
2.0
 10
78.97089104084027
 20
-131.9337383003497
 30
0.0
 10
78.97089104084027
 20
-131.9337383003497
 30
0.0
 10
78.9705382630715
 20
-131.9337383003497
 30
0.0
 10
78.9705382630715
 20
-131.9337383003497
 30
0.0
 10
78.9705382630715
 20
-131.9337383003497
 30
0.0
 10
78.97089104084027
 20
-131.9337383003497
 30
0.0
 10
78.97089104084027
 20
-131.9337383003497
 30
0.0
  0
POLYLINE
  5
115
330
1F
100
AcDbEntity
  8
_U+30EC_U+30A4_U+30E4_U+30FC 1
 62
     7
420
 16777215
370
     9
100
AcDb2dPolyline
 66
     1
 10
0.0
 20
0.0
 30
0.0
  0
VERTEX
  5
116
330
115
100
AcDbEntity
  8
_U+30EC_U+30A4_U+30E4_U+30FC 1
 62
     7
420
 16777215
370
     9
100
AcDbVertex
100
AcDb2dVertex
 10
75.20022775897779
 20
-143.6835666307456
 30
0.0
  0
VERTEX
  5
117
330
115
100
AcDbEntity
  8
_U+30EC_U+30A4_U+30E4_U+30FC 1
 62
     7
420
 16777215
370
     9
100
AcDbVertex
100
AcDb2dVertex
 10
75.20022775897779
 20
-146.4045063522877
 30
0.0
  0
SEQEND
  5
118
330
115
100
AcDbEntity
  8
_U+30EC_U+30A4_U+30E4_U+30FC 1
 62
     7
420
 16777215
370
     9
  0
POLYLINE
  5
119
330
1F
100
AcDbEntity
  8
_U+30EC_U+30A4_U+30E4_U+30FC 1
 62
     7
420
 16777215
370
     9
100
AcDb2dPolyline
 66
     1
 10
0.0
 20
0.0
 30
0.0
  0
VERTEX
  5
11A
330
119
100
AcDbEntity
  8
_U+30EC_U+30A4_U+30E4_U+30FC 1
 62
     7
420
 16777215
370
     9
100
AcDbVertex
100
AcDb2dVertex
 10
83.95077258045959
 20
-143.6835666307456
 30
0.0
  0
VERTEX
  5
11B
330
119
100
AcDbEntity
  8
_U+30EC_U+30A4_U+30E4_U+30FC 1
 62
     7
420
 16777215
370
     9
100
AcDbVertex
100
AcDb2dVertex
 10
83.95077258045959
 20
-146.4045063522877
 30
0.0
  0
SEQEND
  5
11C
330
119
100
AcDbEntity
  8
_U+30EC_U+30A4_U+30E4_U+30FC 1
 62
     7
420
 16777215
370
     9
  0
POLYLINE
  5
11D
330
1F
100
AcDbEntity
  8
_U+30EC_U+30A4_U+30E4_U+30FC 1
 62
     7
420
 16777215
370
     9
100
AcDb2dPolyline
 66
     1
 10
0.0
 20
0.0
 30
0.0
  0
VERTEX
  5
11E
330
11D
100
AcDbEntity
  8
_U+30EC_U+30A4_U+30E4_U+30FC 1
 62
     7
420
 16777215
370
     9
100
AcDbVertex
100
AcDb2dVertex
 10
75.8255244544186
 20
-146.2797994078747
 30
0.0
  0
VERTEX
  5
11F
330
11D
100
AcDbEntity
  8
_U+30EC_U+30A4_U+30E4_U+30FC 1
 62
     7
420
 16777215
370
     9
100
AcDbVertex
100
AcDb2dVertex
 10
83.32547398530117
 20
-146.2797994078747
 30
0.0
  0
SEQEND
  5
120
330
11D
100
AcDbEntity
  8
_U+30EC_U+30A4_U+30E4_U+30FC 1
 62
     7
420
 16777215
370
     9
  0
INSERT
  5
122
330
1F
100
AcDbEntity
  8
_U+30EC_U+30A4_U+30E4_U+30FC 1
100
AcDbBlockReference
  2
block 17
 10
0.0
 20
0.0
 30
0.0
  0
INSERT
  5
128
330
1F
100
AcDbEntity
  8
_U+30EC_U+30A4_U+30E4_U+30FC 1
100
AcDbBlockReference
  2
block 18
 10
0.0
 20
0.0
 30
0.0
  0
POLYLINE
  5
12D
330
1F
100
AcDbEntity
  8
_U+30EC_U+30A4_U+30E4_U+30FC 1
370
     0
100
AcDb2dPolyline
 66
     1
 10
0.0
 20
0.0
 30
0.0
  0
VERTEX
  5
12E
330
12D
100
AcDbEntity
  8
_U+30EC_U+30A4_U+30E4_U+30FC 1
370
     0
100
AcDbVertex
100
AcDb2dVertex
 10
78.86650409905897
 20
-131.308792467173
 30
0.0
  0
VERTEX
  5
12F
330
12D
100
AcDbEntity
  8
_U+30EC_U+30A4_U+30E4_U+30FC 1
370
     0
100
AcDbVertex
100
AcDb2dVertex
 10
79.07457242708404
 20
-131.308792467173
 30
0.0
  0
VERTEX
  5
130
330
12D
100
AcDbEntity
  8
_U+30EC_U+30A4_U+30E4_U+30FC 1
370
     0
100
AcDbVertex
100
AcDb2dVertex
 10
78.9705382630715
 20
-131.9337383003497
 30
0.0
  0
VERTEX
  5
131
330
12D
100
AcDbEntity
  8
_U+30EC_U+30A4_U+30E4_U+30FC 1
370
     0
100
AcDbVertex
100
AcDb2dVertex
 10
78.86650409905897
 20
-131.308792467173
 30
0.0
  0
SEQEND
  5
133
330
12D
100
AcDbEntity
  8
_U+30EC_U+30A4_U+30E4_U+30FC 1
370
     0
  0
HATCH
  5
132
330
1F
100
AcDbEntity
  8
_U+30EC_U+30A4_U+30E4_U+30FC 1
 62
     7
420
 16777215
100
AcDbHatch
 10
0.0
 20
0.0
 30
0.0
210
0.0
220
0.0
230
1.0
  2
SOLID
 70
     1
 71
     0
 91
        1
 92
        1
 93
        3
 72
     1
 10
78.86650409905897
 20
-131.308792467173
 11
79.07457242708404
 21
-131.308792467173
 72
     1
 10
79.07457242708404
 20
-131.308792467173
 11
78.9705382630715
 21
-131.9337383003497
 72
     1
 10
78.9705382630715
 20
-131.9337383003497
 11
78.86650409905897
 21
-131.308792467173
 97
        0
 75
     2
 76
     1
 98
        0
  0
POLYLINE
  5
134
330
1F
100
AcDbEntity
  8
_U+30EC_U+30A4_U+30E4_U+30FC 1
370
     0
100
AcDb2dPolyline
 66
     1
 10
0.0
 20
0.0
 30
0.0
  0
VERTEX
  5
135
330
134
100
AcDbEntity
  8
_U+30EC_U+30A4_U+30E4_U+30FC 1
370
     0
100
AcDbVertex
100
AcDb2dVertex
 10
78.86650409905897
 20
-128.8090091344642
 30
0.0
  0
VERTEX
  5
136
330
134
100
AcDbEntity
  8
_U+30EC_U+30A4_U+30E4_U+30FC 1
370
     0
100
AcDbVertex
100
AcDb2dVertex
 10
79.07457242708404
 20
-128.8090091344642
 30
0.0
  0
VERTEX
  5
137
330
134
100
AcDbEntity
  8
_U+30EC_U+30A4_U+30E4_U+30FC 1
370
     0
100
AcDbVertex
100
AcDb2dVertex
 10
78.9705382630715
 20
-128.1840633012872
 30
0.0
  0
VERTEX
  5
138
330
134
100
AcDbEntity
  8
_U+30EC_U+30A4_U+30E4_U+30FC 1
370
     0
100
AcDbVertex
100
AcDb2dVertex
 10
78.86650409905897
 20
-128.8090091344642
 30
0.0
  0
SEQEND
  5
13A
330
134
100
AcDbEntity
  8
_U+30EC_U+30A4_U+30E4_U+30FC 1
370
     0
  0
HATCH
  5
139
330
1F
100
AcDbEntity
  8
_U+30EC_U+30A4_U+30E4_U+30FC 1
 62
     7
420
 16777215
100
AcDbHatch
 10
0.0
 20
0.0
 30
0.0
210
0.0
220
0.0
230
1.0
  2
SOLID
 70
     1
 71
     0
 91
        1
 92
        1
 93
        3
 72
     1
 10
78.86650409905897
 20
-128.8090091344642
 11
79.07457242708404
 21
-128.8090091344642
 72
     1
 10
79.07457242708404
 20
-128.8090091344642
 11
78.9705382630715
 21
-128.1840633012872
 72
     1
 10
78.9705382630715
 20
-128.1840633012872
 11
78.86650409905897
 21
-128.8090091344642
 97
        0
 75
     2
 76
     1
 98
        0
  0
SPLINE
  5
13B
330
1F
100
AcDbEntity
  8
_U+30EC_U+30A4_U+30E4_U+30FC 1
 62
     7
420
 16777215
370
     9
100
AcDbSpline
210
0.0
220
0.0
230
1.0
 70
    11
 71
     3
 72
    14
 73
    10
 74
     0
 42
0.0000000001
 43
0.0000000001
 12
1.0
 22
0.0
 32
0.0
 13
1.0
 23
0.0
 33
0.0
 40
0.0
 40
0.0
 40
0.0
 40
0.0
 40
1.0
 40
1.0
 40
1.0
 40
2.0
 40
2.0
 40
2.0
 40
3.0
 40
3.0
 40
3.0
 40
3.0
 10
103.3046221963962
 20
-128.1840633012872
 30
0.0
 10
103.3046221963962
 20
-128.1840633012872
 30
0.0
 10
103.3046221963962
 20
-128.1833930235098
 30
0.0
 10
103.3046221963962
 20
-128.1833930235098
 30
0.0
 10
103.3046221963962
 20
-128.1833930235098
 30
0.0
 10
103.3049749741739
 20
-128.1833930235098
 30
0.0
 10
103.3049749741739
 20
-128.1840633012872
 30
0.0
 10
103.3049749741739
 20
-128.1840633012872
 30
0.0
 10
103.3046221963962
 20
-128.1840633012872
 30
0.0
 10
103.3046221963962
 20
-128.1840633012872
 30
0.0
  0
SPLINE
  5
13C
330
1F
100
AcDbEntity
  8
_U+30EC_U+30A4_U+30E4_U+30FC 1
 62
     7
420
 16777215
370
     9
100
AcDbSpline
210
0.0
220
0.0
230
1.0
 70
    11
 71
     3
 72
    14
 73
    10
 74
     0
 42
0.0000000001
 43
0.0000000001
 12
1.0
 22
0.0
 32
0.0
 13
1.0
 23
0.0
 33
0.0
 40
0.0
 40
0.0
 40
0.0
 40
0.0
 40
1.0
 40
1.0
 40
1.0
 40
2.0
 40
2.0
 40
2.0
 40
3.0
 40
3.0
 40
3.0
 40
3.0
 10
103.3046221963962
 20
-143.1840332975374
 30
0.0
 10
103.3046221963962
 20
-143.1840332975374
 30
0.0
 10
103.3046221963962
 20
-143.1833277419819
 30
0.0
 10
103.3046221963962
 20
-143.1833277419819
 30
0.0
 10
103.3046221963962
 20
-143.1833277419819
 30
0.0
 10
103.3049749741739
 20
-143.1833277419819
 30
0.0
 10
103.3049749741739
 20
-143.1840332975374
 30
0.0
 10
103.3049749741739
 20
-143.1840332975374
 30
0.0
 10
103.3046221963962
 20
-143.1840332975374
 30
0.0
 10
103.3046221963962
 20
-143.1840332975374
 30
0.0
  0
SPLINE
  5
13D
330
1F
100
AcDbEntity
  8
_U+30EC_U+30A4_U+30E4_U+30FC 1
 62
     7
420
 16777215
370
     9
100
AcDbSpline
210
0.0
220
0.0
230
1.0
 70
    11
 71
     3
 72
    17
 73
    13
 74
     0
 42
0.0000000001
 43
0.0000000001
 12
1.0
 22
0.0
 32
0.0
 13
1.0
 23
0.0
 33
0.0
 40
0.0
 40
0.0
 40
0.0
 40
0.0
 40
1.0
 40
1.0
 40
1.0
 40
2.0
 40
2.0
 40
2.0
 40
3.0
 40
3.0
 40
3.0
 40
4.0
 40
4.0
 40
4.0
 40
4.0
 10
106.8000122753047
 20
-143.1840332975374
 30
0.0
 10
106.8000122753047
 20
-143.1833277419819
 30
0.0
 10
106.8003650530735
 20
-143.1833277419819
 30
0.0
 10
106.8003650530735
 20
-143.1833277419819
 30
0.0
 10
106.8007178308422
 20
-143.1833277419819
 30
0.0
 10
106.8007178308422
 20
-143.1833277419819
 30
0.0
 10
106.8007178308422
 20
-143.1840332975374
 30
0.0
 10
106.8007178308422
 20
-143.1840332975374
 30
0.0
 10
106.8003650530735
 20
-143.1840332975374
 30
0.0
 10
106.8003650530735
 20
-143.1840332975374
 30
0.0
 10
106.8003650530735
 20
-143.1840332975374
 30
0.0
 10
106.8000122753047
 20
-143.1840332975374
 30
0.0
 10
106.8000122753047
 20
-143.1840332975374
 30
0.0
  0
POLYLINE
  5
13E
330
1F
100
AcDbEntity
  8
_U+30EC_U+30A4_U+30E4_U+30FC 1
 62
     7
420
 16777215
370
     9
100
AcDb2dPolyline
 66
     1
 10
0.0
 20
0.0
 30
0.0
  0
VERTEX
  5
13F
330
13E
100
AcDbEntity
  8
_U+30EC_U+30A4_U+30E4_U+30FC 1
 62
     7
420
 16777215
370
     9
100
AcDbVertex
100
AcDb2dVertex
 10
76.02533778265426
 20
-128.1840633012872
 30
0.0
  0
VERTEX
  5
140
330
13E
100
AcDbEntity
  8
_U+30EC_U+30A4_U+30E4_U+30FC 1
 62
     7
420
 16777215
370
     9
100
AcDbVertex
100
AcDb2dVertex
 10
79.09524720244853
 20
-128.1840633012872
 30
0.0
  0
SEQEND
  5
141
330
13E
100
AcDbEntity
  8
_U+30EC_U+30A4_U+30E4_U+30FC 1
 62
     7
420
 16777215
370
     9
  0
POLYLINE
  5
142
330
1F
100
AcDbEntity
  8
_U+30EC_U+30A4_U+30E4_U+30FC 1
 62
     7
420
 16777215
370
     9
100
AcDb2dPolyline
 66
     1
 10
0.0
 20
0.0
 30
0.0
  0
VERTEX
  5
143
330
142
100
AcDbEntity
  8
_U+30EC_U+30A4_U+30E4_U+30FC 1
 62
     7
420
 16777215
370
     9
100
AcDbVertex
100
AcDb2dVertex
 10
77.38787135900425
 20
-131.9337383003497
 30
0.0
  0
VERTEX
  5
144
330
142
100
AcDbEntity
  8
_U+30EC_U+30A4_U+30E4_U+30FC 1
 62
     7
420
 16777215
370
     9
100
AcDbVertex
100
AcDb2dVertex
 10
79.09524720244853
 20
-131.9337383003497
 30
0.0
  0
SEQEND
  5
145
330
142
100
AcDbEntity
  8
_U+30EC_U+30A4_U+30E4_U+30FC 1
 62
     7
420
 16777215
370
     9
  0
POLYLINE
  5
146
330
1F
100
AcDbEntity
  8
_U+30EC_U+30A4_U+30E4_U+30FC 1
 62
     7
420
 16777215
370
     9
100
AcDb2dPolyline
 66
     1
 10
0.0
 20
0.0
 30
0.0
  0
VERTEX
  5
147
330
146
100
AcDbEntity
  8
_U+30EC_U+30A4_U+30E4_U+30FC 1
 62
     7
420
 16777215
370
     9
100
AcDbVertex
100
AcDb2dVertex
 10
78.9705382630715
 20
-128.8090091344642
 30
0.0
  0
VERTEX
  5
148
330
146
100
AcDbEntity
  8
_U+30EC_U+30A4_U+30E4_U+30FC 1
 62
     7
420
 16777215
370
     9
100
AcDbVertex
100
AcDb2dVertex
 10
78.9705382630715
 20
-131.308792467173
 30
0.0
  0
SEQEND
  5
149
330
146
100
AcDbEntity
  8
_U+30EC_U+30A4_U+30E4_U+30FC 1
 62
     7
420
 16777215
370
     9
  0
INSERT
  5
14B
330
1F
100
AcDbEntity
  8
_U+30EC_U+30A4_U+30E4_U+30FC 1
100
AcDbBlockReference
  2
block 19
 10
0.0
 20
0.0
 30
0.0
  0
INSERT
  5
152
330
1F
100
AcDbEntity
  8
_U+30EC_U+30A4_U+30E4_U+30FC 1
100
AcDbBlockReference
  2
block 20
 10
0.0
 20
0.0
 30
0.0
  0
POLYLINE
  5
158
330
1F
100
AcDbEntity
  8
_U+30EC_U+30A4_U+30E4_U+30FC 1
370
     0
100
AcDb2dPolyline
 66
     1
 10
0.0
 20
0.0
 30
0.0
  0
VERTEX
  5
159
330
158
100
AcDbEntity
  8
_U+30EC_U+30A4_U+30E4_U+30FC 1
370
     0
100
AcDbVertex
100
AcDb2dVertex
 10
106.9047519948548
 20
-142.55908746436
 30
0.0
  0
VERTEX
  5
15A
330
158
100
AcDbEntity
  8
_U+30EC_U+30A4_U+30E4_U+30FC 1
370
     0
100
AcDbVertex
100
AcDb2dVertex
 10
106.6963308890609
 20
-142.55908746436
 30
0.0
  0
VERTEX
  5
15B
330
158
100
AcDbEntity
  8
_U+30EC_U+30A4_U+30E4_U+30FC 1
370
     0
100
AcDbVertex
100
AcDb2dVertex
 10
106.8003650530735
 20
-143.1840332975374
 30
0.0
  0
VERTEX
  5
15C
330
158
100
AcDbEntity
  8
_U+30EC_U+30A4_U+30E4_U+30FC 1
370
     0
100
AcDbVertex
100
AcDb2dVertex
 10
106.9047519948548
 20
-142.55908746436
 30
0.0
  0
SEQEND
  5
15E
330
158
100
AcDbEntity
  8
_U+30EC_U+30A4_U+30E4_U+30FC 1
370
     0
  0
HATCH
  5
15D
330
1F
100
AcDbEntity
  8
_U+30EC_U+30A4_U+30E4_U+30FC 1
 62
     7
420
 16777215
100
AcDbHatch
 10
0.0
 20
0.0
 30
0.0
210
0.0
220
0.0
230
1.0
  2
SOLID
 70
     1
 71
     0
 91
        1
 92
        1
 93
        3
 72
     1
 10
106.9047519948548
 20
-142.55908746436
 11
106.6963308890609
 21
-142.55908746436
 72
     1
 10
106.6963308890609
 20
-142.55908746436
 11
106.8003650530735
 21
-143.1840332975374
 72
     1
 10
106.8003650530735
 20
-143.1840332975374
 11
106.9047519948548
 21
-142.55908746436
 97
        0
 75
     2
 76
     1
 98
        0
  0
POLYLINE
  5
15F
330
1F
100
AcDbEntity
  8
_U+30EC_U+30A4_U+30E4_U+30FC 1
370
     0
100
AcDb2dPolyline
 66
     1
 10
0.0
 20
0.0
 30
0.0
  0
VERTEX
  5
160
330
15F
100
AcDbEntity
  8
_U+30EC_U+30A4_U+30E4_U+30FC 1
370
     0
100
AcDbVertex
100
AcDb2dVertex
 10
106.9047519948548
 20
-128.8090091344642
 30
0.0
  0
VERTEX
  5
161
330
15F
100
AcDbEntity
  8
_U+30EC_U+30A4_U+30E4_U+30FC 1
370
     0
100
AcDbVertex
100
AcDb2dVertex
 10
106.6963308890609
 20
-128.8090091344642
 30
0.0
  0
VERTEX
  5
162
330
15F
100
AcDbEntity
  8
_U+30EC_U+30A4_U+30E4_U+30FC 1
370
     0
100
AcDbVertex
100
AcDb2dVertex
 10
106.8003650530735
 20
-128.1840633012872
 30
0.0
  0
VERTEX
  5
163
330
15F
100
AcDbEntity
  8
_U+30EC_U+30A4_U+30E4_U+30FC 1
370
     0
100
AcDbVertex
100
AcDb2dVertex
 10
106.9047519948548
 20
-128.8090091344642
 30
0.0
  0
SEQEND
  5
165
330
15F
100
AcDbEntity
  8
_U+30EC_U+30A4_U+30E4_U+30FC 1
370
     0
  0
HATCH
  5
164
330
1F
100
AcDbEntity
  8
_U+30EC_U+30A4_U+30E4_U+30FC 1
 62
     7
420
 16777215
100
AcDbHatch
 10
0.0
 20
0.0
 30
0.0
210
0.0
220
0.0
230
1.0
  2
SOLID
 70
     1
 71
     0
 91
        1
 92
        1
 93
        3
 72
     1
 10
106.9047519948548
 20
-128.8090091344642
 11
106.6963308890609
 21
-128.8090091344642
 72
     1
 10
106.6963308890609
 20
-128.8090091344642
 11
106.8003650530735
 21
-128.1840633012872
 72
     1
 10
106.8003650530735
 20
-128.1840633012872
 11
106.9047519948548
 21
-128.8090091344642
 97
        0
 75
     2
 76
     1
 98
        0
  0
POLYLINE
  5
166
330
1F
100
AcDbEntity
  8
_U+30EC_U+30A4_U+30E4_U+30FC 1
 62
     7
420
 16777215
370
     9
100
AcDb2dPolyline
 66
     1
 10
0.0
 20
0.0
 30
0.0
  0
VERTEX
  5
167
330
166
100
AcDbEntity
  8
_U+30EC_U+30A4_U+30E4_U+30FC 1
 62
     7
420
 16777215
370
     9
100
AcDbVertex
100
AcDb2dVertex
 10
75.45034720335964
 20
-114.3671688602972
 30
0.0
  0
VERTEX
  5
168
330
166
100
AcDbEntity
  8
_U+30EC_U+30A4_U+30E4_U+30FC 1
 62
     7
420
 16777215
370
     9
100
AcDbVertex
100
AcDb2dVertex
 10
83.70065314239622
 20
-114.3671688602972
 30
0.0
  0
SEQEND
  5
169
330
166
100
AcDbEntity
  8
_U+30EC_U+30A4_U+30E4_U+30FC 1
 62
     7
420
 16777215
370
     9
  0
POLYLINE
  5
16A
330
1F
100
AcDbEntity
  8
_U+30EC_U+30A4_U+30E4_U+30FC 1
 62
     7
420
 16777215
370
     9
100
AcDb2dPolyline
 66
     1
 10
0.0
 20
0.0
 30
0.0
  0
VERTEX
  5
16B
330
16A
100
AcDbEntity
  8
_U+30EC_U+30A4_U+30E4_U+30FC 1
 62
     7
420
 16777215
370
     9
100
AcDbVertex
100
AcDb2dVertex
 10
75.45034720335964
 20
-116.8669521930054
 30
0.0
  0
VERTEX
  5
16C
330
16A
100
AcDbEntity
  8
_U+30EC_U+30A4_U+30E4_U+30FC 1
 62
     7
420
 16777215
370
     9
100
AcDbVertex
100
AcDb2dVertex
 10
83.70065314239622
 20
-116.8669521930054
 30
0.0
  0
SEQEND
  5
16D
330
16A
100
AcDbEntity
  8
_U+30EC_U+30A4_U+30E4_U+30FC 1
 62
     7
420
 16777215
370
     9
  0
POLYLINE
  5
16E
330
1F
100
AcDbEntity
  8
_U+30EC_U+30A4_U+30E4_U+30FC 1
 62
     7
420
 16777215
370
     9
100
AcDb2dPolyline
 66
     1
 10
0.0
 20
0.0
 30
0.0
  0
VERTEX
  5
16F
330
16E
100
AcDbEntity
  8
_U+30EC_U+30A4_U+30E4_U+30FC 1
 62
     7
420
 16777215
370
     9
100
AcDbVertex
100
AcDb2dVertex
 10
76.32505777500778
 20
-116.8669521930054
 30
0.0
  0
VERTEX
  5
170
330
16E
100
AcDbEntity
  8
_U+30EC_U+30A4_U+30E4_U+30FC 1
 62
     7
420
 16777215
370
     9
100
AcDbVertex
100
AcDb2dVertex
 10
76.32505777500778
 20
-114.3671688602972
 30
0.0
  0
SEQEND
  5
171
330
16E
100
AcDbEntity
  8
_U+30EC_U+30A4_U+30E4_U+30FC 1
 62
     7
420
 16777215
370
     9
  0
POLYLINE
  5
172
330
1F
100
AcDbEntity
  8
_U+30EC_U+30A4_U+30E4_U+30FC 1
 62
     7
420
 16777215
370
     9
100
AcDb2dPolyline
 66
     1
 10
0.0
 20
0.0
 30
0.0
  0
VERTEX
  5
173
330
172
100
AcDbEntity
  8
_U+30EC_U+30A4_U+30E4_U+30FC 1
 62
     7
420
 16777215
370
     9
100
AcDbVertex
100
AcDb2dVertex
 10
75.20022775897779
 20
-116.6168327486235
 30
0.0
  0
VERTEX
  5
174
330
172
100
AcDbEntity
  8
_U+30EC_U+30A4_U+30E4_U+30FC 1
 62
     7
420
 16777215
370
     9
100
AcDbVertex
100
AcDb2dVertex
 10
75.20022775897779
 20
-114.6172883046791
 30
0.0
  0
SEQEND
  5
175
330
172
100
AcDbEntity
  8
_U+30EC_U+30A4_U+30E4_U+30FC 1
 62
     7
420
 16777215
370
     9
  0
SPLINE
  5
176
330
1F
100
AcDbEntity
  8
_U+30EC_U+30A4_U+30E4_U+30FC 1
 62
     7
420
 16777215
370
     9
100
AcDbSpline
210
0.0
220
0.0
230
1.0
 70
     8
 71
     3
 72
    11
 73
     7
 74
     0
 42
0.0000000001
 43
0.0000000001
 12
1.0
 22
0.0
 32
0.0
 13
1.0
 23
0.0
 33
0.0
 40
0.0
 40
0.0
 40
0.0
 40
0.0
 40
1.0
 40
1.0
 40
1.0
 40
2.0
 40
2.0
 40
2.0
 40
2.0
 10
83.95077258045959
 20
-114.6172883046791
 30
0.0
 10
83.95077258045959
 20
-114.6172883046791
 30
0.0
 10
83.95077258045959
 20
-114.6172883046791
 30
0.0
 10
83.95077258045959
 20
-114.6172883046791
 30
0.0
 10
83.95077258045959
 20
-114.4787877491581
 30
0.0
 10
83.83844813888078
 20
-114.3671688602972
 30
0.0
 10
83.70065314239622
 20
-114.3671688602972
 30
0.0
  0
SPLINE
  5
177
330
1F
100
AcDbEntity
  8
_U+30EC_U+30A4_U+30E4_U+30FC 1
 62
     7
420
 16777215
370
     9
100
AcDbSpline
210
0.0
220
0.0
230
1.0
 70
     8
 71
     3
 72
    11
 73
     7
 74
     0
 42
0.0000000001
 43
0.0000000001
 12
1.0
 22
0.0
 32
0.0
 13
1.0
 23
0.0
 33
0.0
 40
0.0
 40
0.0
 40
0.0
 40
0.0
 40
1.0
 40
1.0
 40
1.0
 40
2.0
 40
2.0
 40
2.0
 40
2.0
 10
83.70065314239622
 20
-116.8669521930054
 30
0.0
 10
83.70065314239622
 20
-116.8669521930054
 30
0.0
 10
83.70065314239622
 20
-116.8669521930054
 30
0.0
 10
83.70065314239622
 20
-116.8669521930054
 30
0.0
 10
83.83844813888078
 20
-116.8669521930054
 30
0.0
 10
83.95077258045959
 20
-116.7553333041445
 30
0.0
 10
83.95077258045959
 20
-116.6168327486235
 30
0.0
  0
POLYLINE
  5
178
330
1F
100
AcDbEntity
  8
_U+30EC_U+30A4_U+30E4_U+30FC 1
 62
     7
420
 16777215
370
     9
100
AcDb2dPolyline
 66
     1
 10
0.0
 20
0.0
 30
0.0
  0
VERTEX
  5
179
330
178
100
AcDbEntity
  8
_U+30EC_U+30A4_U+30E4_U+30FC 1
 62
     7
420
 16777215
370
     9
100
AcDbVertex
100
AcDb2dVertex
 10
83.95077258045959
 20
-116.6168327486235
 30
0.0
  0
VERTEX
  5
17A
330
178
100
AcDbEntity
  8
_U+30EC_U+30A4_U+30E4_U+30FC 1
 62
     7
420
 16777215
370
     9
100
AcDbVertex
100
AcDb2dVertex
 10
83.95077258045959
 20
-114.6172883046791
 30
0.0
  0
SEQEND
  5
17B
330
178
100
AcDbEntity
  8
_U+30EC_U+30A4_U+30E4_U+30FC 1
 62
     7
420
 16777215
370
     9
  0
SPLINE
  5
17C
330
1F
100
AcDbEntity
  8
_U+30EC_U+30A4_U+30E4_U+30FC 1
 62
     7
420
 16777215
370
     9
100
AcDbSpline
210
0.0
220
0.0
230
1.0
 70
     8
 71
     3
 72
    11
 73
     7
 74
     0
 42
0.0000000001
 43
0.0000000001
 12
1.0
 22
0.0
 32
0.0
 13
1.0
 23
0.0
 33
0.0
 40
0.0
 40
0.0
 40
0.0
 40
0.0
 40
1.0
 40
1.0
 40
1.0
 40
2.0
 40
2.0
 40
2.0
 40
2.0
 10
75.45034720335964
 20
-114.3671688602972
 30
0.0
 10
75.45034720335964
 20
-114.3671688602972
 30
0.0
 10
75.45034720335964
 20
-114.3671688602972
 30
0.0
 10
75.45034720335964
 20
-114.3671688602972
 30
0.0
 10
75.31219752307021
 20
-114.3671688602972
 30
0.0
 10
75.20022775897779
 20
-114.4787877491581
 30
0.0
 10
75.20022775897779
 20
-114.6172883046791
 30
0.0
  0
SPLINE
  5
17D
330
1F
100
AcDbEntity
  8
_U+30EC_U+30A4_U+30E4_U+30FC 1
 62
     7
420
 16777215
370
     9
100
AcDbSpline
210
0.0
220
0.0
230
1.0
 70
     8
 71
     3
 72
    11
 73
     7
 74
     0
 42
0.0000000001
 43
0.0000000001
 12
1.0
 22
0.0
 32
0.0
 13
1.0
 23
0.0
 33
0.0
 40
0.0
 40
0.0
 40
0.0
 40
0.0
 40
1.0
 40
1.0
 40
1.0
 40
2.0
 40
2.0
 40
2.0
 40
2.0
 10
75.20022775897779
 20
-116.6168327486235
 30
0.0
 10
75.20022775897779
 20
-116.6168327486235
 30
0.0
 10
75.20022775897779
 20
-116.6168327486235
 30
0.0
 10
75.20022775897779
 20
-116.6168327486235
 30
0.0
 10
75.20022775897779
 20
-116.7553333041445
 30
0.0
 10
75.31219752307021
 20
-116.8669521930054
 30
0.0
 10
75.45034720335964
 20
-116.8669521930054
 30
0.0
  0
POLYLINE
  5
17E
330
1F
100
AcDbEntity
  8
_U+30EC_U+30A4_U+30E4_U+30FC 1
 62
     7
420
 16777215
370
     9
100
AcDb2dPolyline
 66
     1
 10
0.0
 20
0.0
 30
0.0
  0
VERTEX
  5
17F
330
17E
100
AcDbEntity
  8
_U+30EC_U+30A4_U+30E4_U+30FC 1
 62
     7
420
 16777215
370
     9
100
AcDbVertex
100
AcDb2dVertex
 10
103.8048610851599
 20
-128.1840633012872
 30
0.0
  0
VERTEX
  5
180
330
17E
100
AcDbEntity
  8
_U+30EC_U+30A4_U+30E4_U+30FC 1
 62
     7
420
 16777215
370
     9
100
AcDbVertex
100
AcDb2dVertex
 10
106.9254247721051
 20
-128.1840633012872
 30
0.0
  0
SEQEND
  5
181
330
17E
100
AcDbEntity
  8
_U+30EC_U+30A4_U+30E4_U+30FC 1
 62
     7
420
 16777215
370
     9
  0
POLYLINE
  5
182
330
1F
100
AcDbEntity
  8
_U+30EC_U+30A4_U+30E4_U+30FC 1
 62
     7
420
 16777215
370
     9
100
AcDb2dPolyline
 66
     1
 10
0.0
 20
0.0
 30
0.0
  0
VERTEX
  5
183
330
182
100
AcDbEntity
  8
_U+30EC_U+30A4_U+30E4_U+30FC 1
 62
     7
420
 16777215
370
     9
100
AcDbVertex
100
AcDb2dVertex
 10
103.8048610851599
 20
-143.1840332975374
 30
0.0
  0
VERTEX
  5
184
330
182
100
AcDbEntity
  8
_U+30EC_U+30A4_U+30E4_U+30FC 1
 62
     7
420
 16777215
370
     9
100
AcDbVertex
100
AcDb2dVertex
 10
106.9254247721051
 20
-143.1840332975374
 30
0.0
  0
SEQEND
  5
185
330
182
100
AcDbEntity
  8
_U+30EC_U+30A4_U+30E4_U+30FC 1
 62
     7
420
 16777215
370
     9
  0
POLYLINE
  5
186
330
1F
100
AcDbEntity
  8
_U+30EC_U+30A4_U+30E4_U+30FC 1
 62
     7
420
 16777215
370
     9
100
AcDb2dPolyline
 66
     1
 10
0.0
 20
0.0
 30
0.0
  0
VERTEX
  5
187
330
186
100
AcDbEntity
  8
_U+30EC_U+30A4_U+30E4_U+30FC 1
 62
     7
420
 16777215
370
     9
100
AcDbVertex
100
AcDb2dVertex
 10
106.8003650530735
 20
-128.8090091344642
 30
0.0
  0
VERTEX
  5
188
330
186
100
AcDbEntity
  8
_U+30EC_U+30A4_U+30E4_U+30FC 1
 62
     7
420
 16777215
370
     9
100
AcDbVertex
100
AcDb2dVertex
 10
106.8003650530735
 20
-142.55908746436
 30
0.0
  0
SEQEND
  5
189
330
186
100
AcDbEntity
  8
_U+30EC_U+30A4_U+30E4_U+30FC 1
 62
     7
420
 16777215
370
     9
  0
POLYLINE
  5
18A
330
1F
100
AcDbEntity
  8
_U+30EC_U+30A4_U+30E4_U+30FC 1
  6
AI-Linetype-3
 62
     7
420
 16777215
370
     9
100
AcDb2dPolyline
 66
     1
 10
0.0
 20
0.0
 30
0.0
  0
VERTEX
  5
18B
330
18A
100
AcDbEntity
  8
_U+30EC_U+30A4_U+30E4_U+30FC 1
  6
AI-Linetype-3
 62
     7
420
 16777215
370
     9
100
AcDbVertex
100
AcDb2dVertex
 10
74.63765115139044
 20
-115.6170605266513
 30
0.0
  0
VERTEX
  5
18C
330
18A
100
AcDbEntity
  8
_U+30EC_U+30A4_U+30E4_U+30FC 1
  6
AI-Linetype-3
 62
     7
420
 16777215
370
     9
100
AcDbVertex
100
AcDb2dVertex
 10
84.56365553441451
 20
-115.6170605266513
 30
0.0
  0
SEQEND
  5
18E
330
18A
100
AcDbEntity
  8
_U+30EC_U+30A4_U+30E4_U+30FC 1
  6
AI-Linetype-3
 62
     7
420
 16777215
370
     9
  0
POLYLINE
  5
18F
330
1F
100
AcDbEntity
  8
_U+30EC_U+30A4_U+30E4_U+30FC 1
  6
AI-Linetype-4
 62
     7
420
 16777215
370
     9
100
AcDb2dPolyline
 66
     1
 10
0.0
 20
0.0
 30
0.0
  0
VERTEX
  5
190
330
18F
100
AcDbEntity
  8
_U+30EC_U+30A4_U+30E4_U+30FC 1
  6
AI-Linetype-4
 62
     7
420
 16777215
370
     9
100
AcDbVertex
100
AcDb2dVertex
 10
75.8255244544186
 20
-115.0548033045698
 30
0.0
  0
VERTEX
  5
191
330
18F
100
AcDbEntity
  8
_U+30EC_U+30A4_U+30E4_U+30FC 1
  6
AI-Linetype-4
 62
     7
420
 16777215
370
     9
100
AcDbVertex
100
AcDb2dVertex
 10
75.8255244544186
 20
-116.1792824709553
 30
0.0
  0
SEQEND
  5
193
330
18F
100
AcDbEntity
  8
_U+30EC_U+30A4_U+30E4_U+30FC 1
  6
AI-Linetype-4
 62
     7
420
 16777215
370
     9
  0
POLYLINE
  5
194
330
1F
100
AcDbEntity
  8
_U+30EC_U+30A4_U+30E4_U+30FC 1
  6
AI-Linetype-5
 62
     7
420
 16777215
370
     9
100
AcDb2dPolyline
 66
     1
 10
0.0
 20
0.0
 30
0.0
  0
VERTEX
  5
195
330
194
100
AcDbEntity
  8
_U+30EC_U+30A4_U+30E4_U+30FC 1
  6
AI-Linetype-5
 62
     7
420
 16777215
370
     9
100
AcDbVertex
100
AcDb2dVertex
 10
75.20022775897779
 20
-115.0548033045698
 30
0.0
  0
VERTEX
  5
196
330
194
100
AcDbEntity
  8
_U+30EC_U+30A4_U+30E4_U+30FC 1
  6
AI-Linetype-5
 62
     7
420
 16777215
370
     9
100
AcDbVertex
100
AcDb2dVertex
 10
75.8255244544186
 20
-115.0548033045698
 30
0.0
  0
SEQEND
  5
198
330
194
100
AcDbEntity
  8
_U+30EC_U+30A4_U+30E4_U+30FC 1
  6
AI-Linetype-5
 62
     7
420
 16777215
370
     9
  0
POLYLINE
  5
199
330
1F
100
AcDbEntity
  8
_U+30EC_U+30A4_U+30E4_U+30FC 1
  6
AI-Linetype-6
 62
     7
420
 16777215
370
     9
100
AcDb2dPolyline
 66
     1
 10
0.0
 20
0.0
 30
0.0
  0
VERTEX
  5
19A
330
199
100
AcDbEntity
  8
_U+30EC_U+30A4_U+30E4_U+30FC 1
  6
AI-Linetype-6
 62
     7
420
 16777215
370
     9
100
AcDbVertex
100
AcDb2dVertex
 10
76.32505777500778
 20
-114.867407749061
 30
0.0
  0
VERTEX
  5
19B
330
199
100
AcDbEntity
  8
_U+30EC_U+30A4_U+30E4_U+30FC 1
  6
AI-Linetype-6
 62
     7
420
 16777215
370
     9
100
AcDbVertex
100
AcDb2dVertex
 10
75.8255244544186
 20
-115.0548033045698
 30
0.0
  0
SEQEND
  5
19D
330
199
100
AcDbEntity
  8
_U+30EC_U+30A4_U+30E4_U+30FC 1
  6
AI-Linetype-6
 62
     7
420
 16777215
370
     9
  0
POLYLINE
  5
19E
330
1F
100
AcDbEntity
  8
_U+30EC_U+30A4_U+30E4_U+30FC 1
  6
AI-Linetype-7
 62
     7
420
 16777215
370
     9
100
AcDb2dPolyline
 66
     1
 10
0.0
 20
0.0
 30
0.0
  0
VERTEX
  5
19F
330
19E
100
AcDbEntity
  8
_U+30EC_U+30A4_U+30E4_U+30FC 1
  6
AI-Linetype-7
 62
     7
420
 16777215
370
     9
100
AcDbVertex
100
AcDb2dVertex
 10
76.32505777500778
 20
-116.3674188597969
 30
0.0
  0
VERTEX
  5
1A0
330
19E
100
AcDbEntity
  8
_U+30EC_U+30A4_U+30E4_U+30FC 1
  6
AI-Linetype-7
 62
     7
420
 16777215
370
     9
100
AcDbVertex
100
AcDb2dVertex
 10
75.8255244544186
 20
-116.1792824709553
 30
0.0
  0
SEQEND
  5
1A2
330
19E
100
AcDbEntity
  8
_U+30EC_U+30A4_U+30E4_U+30FC 1
  6
AI-Linetype-7
 62
     7
420
 16777215
370
     9
  0
POLYLINE
  5
1A3
330
1F
100
AcDbEntity
  8
_U+30EC_U+30A4_U+30E4_U+30FC 1
  6
AI-Linetype-8
 62
     7
420
 16777215
370
     9
100
AcDb2dPolyline
 66
     1
 10
0.0
 20
0.0
 30
0.0
  0
VERTEX
  5
1A4
330
1A3
100
AcDbEntity
  8
_U+30EC_U+30A4_U+30E4_U+30FC 1
  6
AI-Linetype-8
 62
     7
420
 16777215
370
     9
100
AcDbVertex
100
AcDb2dVertex
 10
75.20022775897779
 20
-116.1792824709553
 30
0.0
  0
VERTEX
  5
1A5
330
1A3
100
AcDbEntity
  8
_U+30EC_U+30A4_U+30E4_U+30FC 1
  6
AI-Linetype-8
 62
     7
420
 16777215
370
     9
100
AcDbVertex
100
AcDb2dVertex
 10
75.8255244544186
 20
-116.1792824709553
 30
0.0
  0
SEQEND
  5
1A7
330
1A3
100
AcDbEntity
  8
_U+30EC_U+30A4_U+30E4_U+30FC 1
  6
AI-Linetype-8
 62
     7
420
 16777215
370
     9
  0
POLYLINE
  5
1A8
330
1F
100
AcDbEntity
  8
_U+30EC_U+30A4_U+30E4_U+30FC 1
 62
     7
420
 16777215
370
     9
100
AcDb2dPolyline
 66
     1
 10
0.0
 20
0.0
 30
0.0
  0
VERTEX
  5
1A9
330
1A8
100
AcDbEntity
  8
_U+30EC_U+30A4_U+30E4_U+30FC 1
 62
     7
420
 16777215
370
     9
100
AcDbVertex
100
AcDb2dVertex
 10
76.32505777500778
 20
-128.9840221899761
 30
0.0
  0
VERTEX
  5
1AA
330
1A8
100
AcDbEntity
  8
_U+30EC_U+30A4_U+30E4_U+30FC 1
 62
     7
420
 16777215
370
     9
100
AcDbVertex
100
AcDb2dVertex
 10
76.32505777500778
 20
-134.9337252440441
 30
0.0
  0
SEQEND
  5
1AB
330
1A8
100
AcDbEntity
  8
_U+30EC_U+30A4_U+30E4_U+30FC 1
 62
     7
420
 16777215
370
     9
  0
POLYLINE
  5
1AC
330
1F
100
AcDbEntity
  8
_U+30EC_U+30A4_U+30E4_U+30FC 1
 62
     7
420
 16777215
370
     9
100
AcDb2dPolyline
 66
     1
 10
0.0
 20
0.0
 30
0.0
  0
VERTEX
  5
1AD
330
1AC
100
AcDbEntity
  8
_U+30EC_U+30A4_U+30E4_U+30FC 1
 62
     7
420
 16777215
370
     9
100
AcDbVertex
100
AcDb2dVertex
 10
75.20022775897779
 20
-128.1840633012872
 30
0.0
  0
VERTEX
  5
1AE
330
1AC
100
AcDbEntity
  8
_U+30EC_U+30A4_U+30E4_U+30FC 1
 62
     7
420
 16777215
370
     9
100
AcDbVertex
100
AcDb2dVertex
 10
75.20022775897779
 20
-143.1840332975374
 30
0.0
  0
SEQEND
  5
1AF
330
1AC
100
AcDbEntity
  8
_U+30EC_U+30A4_U+30E4_U+30FC 1
 62
     7
420
 16777215
370
     9
  0
SPLINE
  5
1B0
330
1F
100
AcDbEntity
  8
_U+30EC_U+30A4_U+30E4_U+30FC 1
 62
     7
420
 16777215
370
     9
100
AcDbSpline
210
0.0
220
0.0
230
1.0
 70
     8
 71
     3
 72
    11
 73
     7
 74
     0
 42
0.0000000001
 43
0.0000000001
 12
1.0
 22
0.0
 32
0.0
 13
1.0
 23
0.0
 33
0.0
 40
0.0
 40
0.0
 40
0.0
 40
0.0
 40
1.0
 40
1.0
 40
1.0
 40
2.0
 40
2.0
 40
2.0
 40
2.0
 10
76.32505777500778
 20
-134.9337252440441
 30
0.0
 10
76.32505777500778
 20
-134.9337252440441
 30
0.0
 10
76.32505777500778
 20
-134.9337252440441
 30
0.0
 10
76.32505777500778
 20
-134.9337252440441
 30
0.0
 10
76.32505777500778
 20
-138.7639746875313
 30
0.0
 10
79.35330214219528
 20
-141.9086357978564
 30
0.0
 10
83.18079982232544
 20
-142.0533452422642
 30
0.0
  0
POLYLINE
  5
1B1
330
1F
100
AcDbEntity
  8
_U+30EC_U+30A4_U+30E4_U+30FC 1
 62
     7
420
 16777215
370
     9
100
AcDb2dPolyline
 66
     1
 10
0.0
 20
0.0
 30
0.0
  0
VERTEX
  5
1B2
330
1B1
100
AcDbEntity
  8
_U+30EC_U+30A4_U+30E4_U+30FC 1
 62
     7
420
 16777215
370
     9
100
AcDbVertex
100
AcDb2dVertex
 10
83.9504198026908
 20
-143.1840332975374
 30
0.0
  0
VERTEX
  5
1B3
330
1B1
100
AcDbEntity
  8
_U+30EC_U+30A4_U+30E4_U+30FC 1
 62
     7
420
 16777215
370
     9
100
AcDbVertex
100
AcDb2dVertex
 10
75.20022775897779
 20
-143.1840332975374
 30
0.0
  0
SEQEND
  5
1B4
330
1B1
100
AcDbEntity
  8
_U+30EC_U+30A4_U+30E4_U+30FC 1
 62
     7
420
 16777215
370
     9
  0
SPLINE
  5
1B5
330
1F
100
AcDbEntity
  8
_U+30EC_U+30A4_U+30E4_U+30FC 1
 62
     7
420
 16777215
370
     9
100
AcDbSpline
210
0.0
220
0.0
230
1.0
 70
     8
 71
     3
 72
    11
 73
     7
 74
     0
 42
0.0000000001
 43
0.0000000001
 12
1.0
 22
0.0
 32
0.0
 13
1.0
 23
0.0
 33
0.0
 40
0.0
 40
0.0
 40
0.0
 40
0.0
 40
1.0
 40
1.0
 40
1.0
 40
2.0
 40
2.0
 40
2.0
 40
2.0
 10
83.9504198026908
 20
-142.8533041309534
 30
0.0
 10
83.9504198026908
 20
-142.8533041309534
 30
0.0
 10
83.9504198026908
 20
-142.8533041309534
 30
0.0
 10
83.9504198026908
 20
-142.8533041309534
 30
0.0
 10
83.9504198026908
 20
-142.4233385755052
 30
0.0
 10
83.61005981137411
 20
-142.0698905200382
 30
0.0
 10
83.18079982232544
 20
-142.0533452422642
 30
0.0
  0
POLYLINE
  5
1B6
330
1F
100
AcDbEntity
  8
_U+30EC_U+30A4_U+30E4_U+30FC 1
 62
     7
420
 16777215
370
     9
100
AcDb2dPolyline
 66
     1
 10
0.0
 20
0.0
 30
0.0
  0
VERTEX
  5
1B7
330
1B6
100
AcDbEntity
  8
_U+30EC_U+30A4_U+30E4_U+30FC 1
 62
     7
420
 16777215
370
     9
100
AcDbVertex
100
AcDb2dVertex
 10
83.9504198026908
 20
-143.1840332975374
 30
0.0
  0
VERTEX
  5
1B8
330
1B6
100
AcDbEntity
  8
_U+30EC_U+30A4_U+30E4_U+30FC 1
 62
     7
420
 16777215
370
     9
100
AcDbVertex
100
AcDb2dVertex
 10
83.9504198026908
 20
-142.8533041309534
 30
0.0
  0
SEQEND
  5
1B9
330
1B6
100
AcDbEntity
  8
_U+30EC_U+30A4_U+30E4_U+30FC 1
 62
     7
420
 16777215
370
     9
  0
POLYLINE
  5
1BA
330
1F
100
AcDbEntity
  8
_U+30EC_U+30A4_U+30E4_U+30FC 1
 62
     7
420
 16777215
370
     9
100
AcDb2dPolyline
 66
     1
 10
0.0
 20
0.0
 30
0.0
  0
VERTEX
  5
1BB
330
1BA
100
AcDbEntity
  8
_U+30EC_U+30A4_U+30E4_U+30FC 1
 62
     7
420
 16777215
370
     9
100
AcDbVertex
100
AcDb2dVertex
 10
76.32505777500778
 20
-128.9840221899761
 30
0.0
  0
VERTEX
  5
1BC
330
1BA
100
AcDbEntity
  8
_U+30EC_U+30A4_U+30E4_U+30FC 1
 62
     7
420
 16777215
370
     9
100
AcDbVertex
100
AcDb2dVertex
 10
75.52509890652753
 20
-128.1840633012872
 30
0.0
  0
SEQEND
  5
1BD
330
1BA
100
AcDbEntity
  8
_U+30EC_U+30A4_U+30E4_U+30FC 1
 62
     7
420
 16777215
370
     9
  0
POLYLINE
  5
1BE
330
1F
100
AcDbEntity
  8
_U+30EC_U+30A4_U+30E4_U+30FC 1
 62
     7
420
 16777215
370
     9
100
AcDb2dPolyline
 66
     1
 10
0.0
 20
0.0
 30
0.0
  0
VERTEX
  5
1BF
330
1BE
100
AcDbEntity
  8
_U+30EC_U+30A4_U+30E4_U+30FC 1
 62
     7
420
 16777215
370
     9
100
AcDbVertex
100
AcDb2dVertex
 10
75.52509890652753
 20
-128.1840633012872
 30
0.0
  0
VERTEX
  5
1C0
330
1BE
100
AcDbEntity
  8
_U+30EC_U+30A4_U+30E4_U+30FC 1
 62
     7
420
 16777215
370
     9
100
AcDbVertex
100
AcDb2dVertex
 10
75.20022775897779
 20
-128.1840633012872
 30
0.0
  0
SEQEND
  5
1C1
330
1BE
100
AcDbEntity
  8
_U+30EC_U+30A4_U+30E4_U+30FC 1
 62
     7
420
 16777215
370
     9
  0
POLYLINE
  5
1C2
330
1F
100
AcDbEntity
  8
_U+30EC_U+30A4_U+30E4_U+30FC 1
  6
AI-Linetype-9
 62
     7
420
 16777215
370
     9
100
AcDb2dPolyline
 66
     1
 10
0.0
 20
0.0
 30
0.0
  0
VERTEX
  5
1C3
330
1C2
100
AcDbEntity
  8
_U+30EC_U+30A4_U+30E4_U+30FC 1
  6
AI-Linetype-9
 62
     7
420
 16777215
370
     9
100
AcDbVertex
100
AcDb2dVertex
 10
74.63765115139044
 20
-131.9337383003497
 30
0.0
  0
VERTEX
  5
1C4
330
1C2
100
AcDbEntity
  8
_U+30EC_U+30A4_U+30E4_U+30FC 1
  6
AI-Linetype-9
 62
     7
420
 16777215
370
     9
100
AcDbVertex
100
AcDb2dVertex
 10
76.8879852606463
 20
-131.9337383003497
 30
0.0
  0
SEQEND
  5
1C6
330
1C2
100
AcDbEntity
  8
_U+30EC_U+30A4_U+30E4_U+30FC 1
  6
AI-Linetype-9
 62
     7
420
 16777215
370
     9
  0
POLYLINE
  5
1C7
330
1F
100
AcDbEntity
  8
_U+30EC_U+30A4_U+30E4_U+30FC 1
  6
AI-Linetype-10
 62
     7
420
 16777215
370
     9
100
AcDb2dPolyline
 66
     1
 10
0.0
 20
0.0
 30
0.0
  0
VERTEX
  5
1C8
330
1C7
100
AcDbEntity
  8
_U+30EC_U+30A4_U+30E4_U+30FC 1
  6
AI-Linetype-10
 62
     7
420
 16777215
370
     9
100
AcDbVertex
100
AcDb2dVertex
 10
76.32505777500778
 20
-131.1840855227594
 30
0.0
  0
VERTEX
  5
1C9
330
1C7
100
AcDbEntity
  8
_U+30EC_U+30A4_U+30E4_U+30FC 1
  6
AI-Linetype-10
 62
     7
420
 16777215
370
     9
100
AcDbVertex
100
AcDb2dVertex
 10
75.8255244544186
 20
-131.3718338560457
 30
0.0
  0
SEQEND
  5
1CB
330
1C7
100
AcDbEntity
  8
_U+30EC_U+30A4_U+30E4_U+30FC 1
  6
AI-Linetype-10
 62
     7
420
 16777215
370
     9
  0
POLYLINE
  5
1CC
330
1F
100
AcDbEntity
  8
_U+30EC_U+30A4_U+30E4_U+30FC 1
  6
AI-Linetype-11
 62
     7
420
 16777215
370
     9
100
AcDb2dPolyline
 66
     1
 10
0.0
 20
0.0
 30
0.0
  0
VERTEX
  5
1CD
330
1CC
100
AcDbEntity
  8
_U+30EC_U+30A4_U+30E4_U+30FC 1
  6
AI-Linetype-11
 62
     7
420
 16777215
370
     9
100
AcDbVertex
100
AcDb2dVertex
 10
75.20022775897779
 20
-131.3718338560457
 30
0.0
  0
VERTEX
  5
1CE
330
1CC
100
AcDbEntity
  8
_U+30EC_U+30A4_U+30E4_U+30FC 1
  6
AI-Linetype-11
 62
     7
420
 16777215
370
     9
100
AcDbVertex
100
AcDb2dVertex
 10
75.8255244544186
 20
-131.3718338560457
 30
0.0
  0
SEQEND
  5
1D0
330
1CC
100
AcDbEntity
  8
_U+30EC_U+30A4_U+30E4_U+30FC 1
  6
AI-Linetype-11
 62
     7
420
 16777215
370
     9
  0
POLYLINE
  5
1D1
330
1F
100
AcDbEntity
  8
_U+30EC_U+30A4_U+30E4_U+30FC 1
  6
AI-Linetype-12
 62
     7
420
 16777215
370
     9
100
AcDb2dPolyline
 66
     1
 10
0.0
 20
0.0
 30
0.0
  0
VERTEX
  5
1D2
330
1D1
100
AcDbEntity
  8
_U+30EC_U+30A4_U+30E4_U+30FC 1
  6
AI-Linetype-12
 62
     7
420
 16777215
370
     9
100
AcDbVertex
100
AcDb2dVertex
 10
75.20022775897779
 20
-132.4959602446541
 30
0.0
  0
VERTEX
  5
1D3
330
1D1
100
AcDbEntity
  8
_U+30EC_U+30A4_U+30E4_U+30FC 1
  6
AI-Linetype-12
 62
     7
420
 16777215
370
     9
100
AcDbVertex
100
AcDb2dVertex
 10
75.8255244544186
 20
-132.4959602446541
 30
0.0
  0
SEQEND
  5
1D5
330
1D1
100
AcDbEntity
  8
_U+30EC_U+30A4_U+30E4_U+30FC 1
  6
AI-Linetype-12
 62
     7
420
 16777215
370
     9
  0
POLYLINE
  5
1D6
330
1F
100
AcDbEntity
  8
_U+30EC_U+30A4_U+30E4_U+30FC 1
  6
AI-Linetype-13
 62
     7
420
 16777215
370
     9
100
AcDb2dPolyline
 66
     1
 10
0.0
 20
0.0
 30
0.0
  0
VERTEX
  5
1D7
330
1D6
100
AcDbEntity
  8
_U+30EC_U+30A4_U+30E4_U+30FC 1
  6
AI-Linetype-13
 62
     7
420
 16777215
370
     9
100
AcDbVertex
100
AcDb2dVertex
 10
76.32505777500778
 20
-132.6840613557181
 30
0.0
  0
VERTEX
  5
1D8
330
1D6
100
AcDbEntity
  8
_U+30EC_U+30A4_U+30E4_U+30FC 1
  6
AI-Linetype-13
 62
     7
420
 16777215
370
     9
100
AcDbVertex
100
AcDb2dVertex
 10
75.8255244544186
 20
-132.4959602446541
 30
0.0
  0
SEQEND
  5
1DA
330
1D6
100
AcDbEntity
  8
_U+30EC_U+30A4_U+30E4_U+30FC 1
  6
AI-Linetype-13
 62
     7
420
 16777215
370
     9
  0
POLYLINE
  5
1DB
330
1F
100
AcDbEntity
  8
_U+30EC_U+30A4_U+30E4_U+30FC 1
  6
AI-Linetype-14
 62
     7
420
 16777215
370
     9
100
AcDb2dPolyline
 66
     1
 10
0.0
 20
0.0
 30
0.0
  0
VERTEX
  5
1DC
330
1DB
100
AcDbEntity
  8
_U+30EC_U+30A4_U+30E4_U+30FC 1
  6
AI-Linetype-14
 62
     7
420
 16777215
370
     9
100
AcDbVertex
100
AcDb2dVertex
 10
75.8255244544186
 20
-131.3718338560457
 30
0.0
  0
VERTEX
  5
1DD
330
1DB
100
AcDbEntity
  8
_U+30EC_U+30A4_U+30E4_U+30FC 1
  6
AI-Linetype-14
 62
     7
420
 16777215
370
     9
100
AcDbVertex
100
AcDb2dVertex
 10
75.8255244544186
 20
-132.4959602446541
 30
0.0
  0
SEQEND
  5
1DF
330
1DB
100
AcDbEntity
  8
_U+30EC_U+30A4_U+30E4_U+30FC 1
  6
AI-Linetype-14
 62
     7
420
 16777215
370
     9
  0
SPLINE
  5
1E0
330
1F
100
AcDbEntity
  8
_U+30EC_U+30A4_U+30E4_U+30FC 1
 62
     7
420
 16777215
370
     9
100
AcDbSpline
210
0.0
220
0.0
230
1.0
 70
    11
 71
     3
 72
    14
 73
    10
 74
     0
 42
0.0000000001
 43
0.0000000001
 12
1.0
 22
0.0
 32
0.0
 13
1.0
 23
0.0
 33
0.0
 40
0.0
 40
0.0
 40
0.0
 40
0.0
 40
1.0
 40
1.0
 40
1.0
 40
2.0
 40
2.0
 40
2.0
 40
3.0
 40
3.0
 40
3.0
 40
3.0
 10
86.74717139800639
 20
-116.8669521930054
 30
0.0
 10
86.74717139800639
 20
-116.8662466374502
 30
0.0
 10
86.74717139800639
 20
-116.8662466374502
 30
0.0
 10
86.74681862023762
 20
-116.8662466374502
 30
0.0
 10
86.74681862023762
 20
-116.8662466374502
 30
0.0
 10
86.74681862023762
 20
-116.8669521930054
 30
0.0
 10
86.74681862023762
 20
-116.8669521930054
 30
0.0
 10
86.74681862023762
 20
-116.8669521930054
 30
0.0
 10
86.74717139800639
 20
-116.8669521930054
 30
0.0
 10
86.74717139800639
 20
-116.8669521930054
 30
0.0
  0
POLYLINE
  5
1E1
330
1F
100
AcDbEntity
  8
_U+30EC_U+30A4_U+30E4_U+30FC 1
370
     0
100
AcDb2dPolyline
 66
     1
 10
0.0
 20
0.0
 30
0.0
  0
VERTEX
  5
1E2
330
1E1
100
AcDbEntity
  8
_U+30EC_U+30A4_U+30E4_U+30FC 1
370
     0
100
AcDbVertex
100
AcDb2dVertex
 10
86.64278445622509
 20
-117.4918980261824
 30
0.0
  0
VERTEX
  5
1E3
330
1E1
100
AcDbEntity
  8
_U+30EC_U+30A4_U+30E4_U+30FC 1
370
     0
100
AcDbVertex
100
AcDb2dVertex
 10
86.85120556201893
 20
-117.4918980261824
 30
0.0
  0
VERTEX
  5
1E4
330
1E1
100
AcDbEntity
  8
_U+30EC_U+30A4_U+30E4_U+30FC 1
370
     0
100
AcDbVertex
100
AcDb2dVertex
 10
86.74681862023762
 20
-116.8669521930054
 30
0.0
  0
VERTEX
  5
1E5
330
1E1
100
AcDbEntity
  8
_U+30EC_U+30A4_U+30E4_U+30FC 1
370
     0
100
AcDbVertex
100
AcDb2dVertex
 10
86.64278445622509
 20
-117.4918980261824
 30
0.0
  0
SEQEND
  5
1E7
330
1E1
100
AcDbEntity
  8
_U+30EC_U+30A4_U+30E4_U+30FC 1
370
     0
  0
HATCH
  5
1E6
330
1F
100
AcDbEntity
  8
_U+30EC_U+30A4_U+30E4_U+30FC 1
 62
     7
420
 16777215
100
AcDbHatch
 10
0.0
 20
0.0
 30
0.0
210
0.0
220
0.0
230
1.0
  2
SOLID
 70
     1
 71
     0
 91
        1
 92
        1
 93
        3
 72
     1
 10
86.64278445622509
 20
-117.4918980261824
 11
86.85120556201893
 21
-117.4918980261824
 72
     1
 10
86.85120556201893
 20
-117.4918980261824
 11
86.74681862023762
 21
-116.8669521930054
 72
     1
 10
86.74681862023762
 20
-116.8669521930054
 11
86.64278445622509
 21
-117.4918980261824
 97
        0
 75
     2
 76
     1
 98
        0
  0
POLYLINE
  5
1E8
330
1F
100
AcDbEntity
  8
_U+30EC_U+30A4_U+30E4_U+30FC 1
370
     0
100
AcDb2dPolyline
 66
     1
 10
0.0
 20
0.0
 30
0.0
  0
VERTEX
  5
1E9
330
1E8
100
AcDbEntity
  8
_U+30EC_U+30A4_U+30E4_U+30FC 1
370
     0
100
AcDbVertex
100
AcDb2dVertex
 10
86.64278445622509
 20
-113.7422230271199
 30
0.0
  0
VERTEX
  5
1EA
330
1E8
100
AcDbEntity
  8
_U+30EC_U+30A4_U+30E4_U+30FC 1
370
     0
100
AcDbVertex
100
AcDb2dVertex
 10
86.85120556201893
 20
-113.7422230271199
 30
0.0
  0
VERTEX
  5
1EB
330
1E8
100
AcDbEntity
  8
_U+30EC_U+30A4_U+30E4_U+30FC 1
370
     0
100
AcDbVertex
100
AcDb2dVertex
 10
86.74681862023762
 20
-114.3671688602972
 30
0.0
  0
VERTEX
  5
1EC
330
1E8
100
AcDbEntity
  8
_U+30EC_U+30A4_U+30E4_U+30FC 1
370
     0
100
AcDbVertex
100
AcDb2dVertex
 10
86.64278445622509
 20
-113.7422230271199
 30
0.0
  0
SEQEND
  5
1EE
330
1E8
100
AcDbEntity
  8
_U+30EC_U+30A4_U+30E4_U+30FC 1
370
     0
  0
HATCH
  5
1ED
330
1F
100
AcDbEntity
  8
_U+30EC_U+30A4_U+30E4_U+30FC 1
 62
     7
420
 16777215
100
AcDbHatch
 10
0.0
 20
0.0
 30
0.0
210
0.0
220
0.0
230
1.0
  2
SOLID
 70
     1
 71
     0
 91
        1
 92
        1
 93
        3
 72
     1
 10
86.64278445622509
 20
-113.7422230271199
 11
86.85120556201893
 21
-113.7422230271199
 72
     1
 10
86.85120556201893
 20
-113.7422230271199
 11
86.74681862023762
 21
-114.3671688602972
 72
     1
 10
86.74681862023762
 20
-114.3671688602972
 11
86.64278445622509
 21
-113.7422230271199
 97
        0
 75
     2
 76
     1
 98
        0
  0
POLYLINE
  5
1EF
330
1F
100
AcDbEntity
  8
_U+30EC_U+30A4_U+30E4_U+30FC 1
 62
     7
420
 16777215
370
     9
100
AcDb2dPolyline
 66
     1
 10
0.0
 20
0.0
 30
0.0
  0
VERTEX
  5
1F0
330
1EF
100
AcDbEntity
  8
_U+30EC_U+30A4_U+30E4_U+30FC 1
 62
     7
420
 16777215
370
     9
100
AcDbVertex
100
AcDb2dVertex
 10
86.74681862023762
 20
-114.3671688602972
 30
0.0
  0
VERTEX
  5
1F1
330
1EF
100
AcDbEntity
  8
_U+30EC_U+30A4_U+30E4_U+30FC 1
 62
     7
420
 16777215
370
     9
100
AcDbVertex
100
AcDb2dVertex
 10
86.74681862023762
 20
-116.8669521930054
 30
0.0
  0
SEQEND
  5
1F2
330
1EF
100
AcDbEntity
  8
_U+30EC_U+30A4_U+30E4_U+30FC 1
 62
     7
420
 16777215
370
     9
  0
INSERT
  5
1F4
330
1F
100
AcDbEntity
  8
_U+30EC_U+30A4_U+30E4_U+30FC 1
100
AcDbBlockReference
  2
block 21
 10
0.0
 20
0.0
 30
0.0
  0
INSERT
  5
1FB
330
1F
100
AcDbEntity
  8
_U+30EC_U+30A4_U+30E4_U+30FC 1
100
AcDbBlockReference
  2
block 22
 10
0.0
 20
0.0
 30
0.0
  0
SPLINE
  5
200
330
1F
100
AcDbEntity
  8
_U+30EC_U+30A4_U+30E4_U+30FC 1
 62
     7
420
 16777215
370
     9
100
AcDbSpline
210
0.0
220
0.0
230
1.0
 70
    11
 71
     3
 72
    17
 73
    13
 74
     0
 42
0.0000000001
 43
0.0000000001
 12
1.0
 22
0.0
 32
0.0
 13
1.0
 23
0.0
 33
0.0
 40
0.0
 40
0.0
 40
0.0
 40
0.0
 40
1.0
 40
1.0
 40
1.0
 40
2.0
 40
2.0
 40
2.0
 40
3.0
 40
3.0
 40
3.0
 40
4.0
 40
4.0
 40
4.0
 40
4.0
 10
100.8045188171514
 20
-146.2797994078747
 30
0.0
 10
100.8045188171514
 20
-146.2797994078747
 30
0.0
 10
100.8048715949201
 20
-146.2797994078747
 30
0.0
 10
100.8048715949201
 20
-146.2797994078747
 30
0.0
 10
100.8048715949201
 20
-146.2790938523192
 30
0.0
 10
100.8048715949201
 20
-146.2790938523192
 30
0.0
 10
100.8045188171514
 20
-146.2790938523192
 30
0.0
 10
100.8045188171514
 20
-146.2790938523192
 30
0.0
 10
100.8041660393826
 20
-146.2790938523192
 30
0.0
 10
100.8041660393826
 20
-146.2797994078747
 30
0.0
 10
100.8041660393826
 20
-146.2797994078747
 30
0.0
 10
100.8045188171514
 20
-146.2797994078747
 30
0.0
 10
100.8045188171514
 20
-146.2797994078747
 30
0.0
  0
POLYLINE
  5
201
330
1F
100
AcDbEntity
  8
_U+30EC_U+30A4_U+30E4_U+30FC 1
 62
     7
420
 16777215
370
     9
100
AcDb2dPolyline
 66
     1
 10
0.0
 20
0.0
 30
0.0
  0
VERTEX
  5
202
330
201
100
AcDbEntity
  8
_U+30EC_U+30A4_U+30E4_U+30FC 1
 62
     7
420
 16777215
370
     9
100
AcDbVertex
100
AcDb2dVertex
 10
84.45030590104876
 20
-114.3671688602972
 30
0.0
  0
VERTEX
  5
203
330
201
100
AcDbEntity
  8
_U+30EC_U+30A4_U+30E4_U+30FC 1
 62
     7
420
 16777215
370
     9
100
AcDbVertex
100
AcDb2dVertex
 10
86.87188053383767
 20
-114.3671688602972
 30
0.0
  0
SEQEND
  5
204
330
201
100
AcDbEntity
  8
_U+30EC_U+30A4_U+30E4_U+30FC 1
 62
     7
420
 16777215
370
     9
  0
POLYLINE
  5
205
330
1F
100
AcDbEntity
  8
_U+30EC_U+30A4_U+30E4_U+30FC 1
 62
     7
420
 16777215
370
     9
100
AcDb2dPolyline
 66
     1
 10
0.0
 20
0.0
 30
0.0
  0
VERTEX
  5
206
330
205
100
AcDbEntity
  8
_U+30EC_U+30A4_U+30E4_U+30FC 1
 62
     7
420
 16777215
370
     9
100
AcDbVertex
100
AcDb2dVertex
 10
84.45030590104876
 20
-116.8669521930054
 30
0.0
  0
VERTEX
  5
207
330
205
100
AcDbEntity
  8
_U+30EC_U+30A4_U+30E4_U+30FC 1
 62
     7
420
 16777215
370
     9
100
AcDbVertex
100
AcDb2dVertex
 10
86.87188053383767
 20
-116.8669521930054
 30
0.0
  0
SEQEND
  5
208
330
205
100
AcDbEntity
  8
_U+30EC_U+30A4_U+30E4_U+30FC 1
 62
     7
420
 16777215
370
     9
  0
POLYLINE
  5
209
330
1F
100
AcDbEntity
  8
_U+30EC_U+30A4_U+30E4_U+30FC 1
 62
     7
420
 16777215
370
     9
100
AcDb2dPolyline
 66
     1
 10
0.0
 20
0.0
 30
0.0
  0
VERTEX
  5
20A
330
209
100
AcDbEntity
  8
_U+30EC_U+30A4_U+30E4_U+30FC 1
 62
     7
420
 16777215
370
     9
100
AcDbVertex
100
AcDb2dVertex
 10
86.74681862023762
 20
-113.7422230271199
 30
0.0
  0
VERTEX
  5
20B
330
209
100
AcDbEntity
  8
_U+30EC_U+30A4_U+30E4_U+30FC 1
 62
     7
420
 16777215
370
     9
100
AcDbVertex
100
AcDb2dVertex
 10
86.74681862023762
 20
-113.1179827494984
 30
0.0
  0
SEQEND
  5
20C
330
209
100
AcDbEntity
  8
_U+30EC_U+30A4_U+30E4_U+30FC 1
 62
     7
420
 16777215
370
     9
  0
POLYLINE
  5
20D
330
1F
100
AcDbEntity
  8
_U+30EC_U+30A4_U+30E4_U+30FC 1
 62
     7
420
 16777215
370
     9
100
AcDb2dPolyline
 66
     1
 10
0.0
 20
0.0
 30
0.0
  0
VERTEX
  5
20E
330
20D
100
AcDbEntity
  8
_U+30EC_U+30A4_U+30E4_U+30FC 1
 62
     7
420
 16777215
370
     9
100
AcDbVertex
100
AcDb2dVertex
 10
86.74681862023762
 20
-117.4918980261824
 30
0.0
  0
VERTEX
  5
20F
330
20D
100
AcDbEntity
  8
_U+30EC_U+30A4_U+30E4_U+30FC 1
 62
     7
420
 16777215
370
     9
100
AcDbVertex
100
AcDb2dVertex
 10
86.74681862023762
 20
-118.1161383038043
 30
0.0
  0
SEQEND
  5
210
330
20D
100
AcDbEntity
  8
_U+30EC_U+30A4_U+30E4_U+30FC 1
 62
     7
420
 16777215
370
     9
  0
POLYLINE
  5
211
330
1F
100
AcDbEntity
  8
_U+30EC_U+30A4_U+30E4_U+30FC 1
370
     0
100
AcDb2dPolyline
 66
     1
 10
0.0
 20
0.0
 30
0.0
  0
VERTEX
  5
212
330
211
100
AcDbEntity
  8
_U+30EC_U+30A4_U+30E4_U+30FC 1
370
     0
100
AcDbVertex
100
AcDb2dVertex
 10
100.1799257775305
 20
-146.1750596856783
 30
0.0
  0
VERTEX
  5
213
330
211
100
AcDbEntity
  8
_U+30EC_U+30A4_U+30E4_U+30FC 1
370
     0
100
AcDbVertex
100
AcDb2dVertex
 10
100.1799257775305
 20
-146.383833574515
 30
0.0
  0
VERTEX
  5
214
330
211
100
AcDbEntity
  8
_U+30EC_U+30A4_U+30E4_U+30FC 1
370
     0
100
AcDbVertex
100
AcDb2dVertex
 10
100.8045188171514
 20
-146.2797994078747
 30
0.0
  0
VERTEX
  5
215
330
211
100
AcDbEntity
  8
_U+30EC_U+30A4_U+30E4_U+30FC 1
370
     0
100
AcDbVertex
100
AcDb2dVertex
 10
100.1799257775305
 20
-146.1750596856783
 30
0.0
  0
SEQEND
  5
217
330
211
100
AcDbEntity
  8
_U+30EC_U+30A4_U+30E4_U+30FC 1
370
     0
  0
HATCH
  5
216
330
1F
100
AcDbEntity
  8
_U+30EC_U+30A4_U+30E4_U+30FC 1
 62
     7
420
 16777215
100
AcDbHatch
 10
0.0
 20
0.0
 30
0.0
210
0.0
220
0.0
230
1.0
  2
SOLID
 70
     1
 71
     0
 91
        1
 92
        1
 93
        3
 72
     1
 10
100.1799257775305
 20
-146.1750596856783
 11
100.1799257775305
 21
-146.383833574515
 72
     1
 10
100.1799257775305
 20
-146.383833574515
 11
100.8045188171514
 21
-146.2797994078747
 72
     1
 10
100.8045188171514
 20
-146.2797994078747
 11
100.1799257775305
 21
-146.1750596856783
 97
        0
 75
     2
 76
     1
 98
        0
  0
POLYLINE
  5
218
330
1F
100
AcDbEntity
  8
_U+30EC_U+30A4_U+30E4_U+30FC 1
370
     0
100
AcDb2dPolyline
 66
     1
 10
0.0
 20
0.0
 30
0.0
  0
VERTEX
  5
219
330
218
100
AcDbEntity
  8
_U+30EC_U+30A4_U+30E4_U+30FC 1
370
     0
100
AcDbVertex
100
AcDb2dVertex
 10
103.9292126263227
 20
-146.1750596856783
 30
0.0
  0
VERTEX
  5
21A
330
218
100
AcDbEntity
  8
_U+30EC_U+30A4_U+30E4_U+30FC 1
370
     0
100
AcDbVertex
100
AcDb2dVertex
 10
103.9292126263227
 20
-146.383833574515
 30
0.0
  0
VERTEX
  5
21B
330
218
100
AcDbEntity
  8
_U+30EC_U+30A4_U+30E4_U+30FC 1
370
     0
100
AcDbVertex
100
AcDb2dVertex
 10
103.3043020867099
 20
-146.2797994078747
 30
0.0
  0
VERTEX
  5
21C
330
218
100
AcDbEntity
  8
_U+30EC_U+30A4_U+30E4_U+30FC 1
370
     0
100
AcDbVertex
100
AcDb2dVertex
 10
103.9292126263227
 20
-146.1750596856783
 30
0.0
  0
SEQEND
  5
21E
330
218
100
AcDbEntity
  8
_U+30EC_U+30A4_U+30E4_U+30FC 1
370
     0
  0
HATCH
  5
21D
330
1F
100
AcDbEntity
  8
_U+30EC_U+30A4_U+30E4_U+30FC 1
 62
     7
420
 16777215
100
AcDbHatch
 10
0.0
 20
0.0
 30
0.0
210
0.0
220
0.0
230
1.0
  2
SOLID
 70
     1
 71
     0
 91
        1
 92
        1
 93
        3
 72
     1
 10
103.9292126263227
 20
-146.1750596856783
 11
103.9292126263227
 21
-146.383833574515
 72
     1
 10
103.9292126263227
 20
-146.383833574515
 11
103.3043020867099
 21
-146.2797994078747
 72
     1
 10
103.3043020867099
 20
-146.2797994078747
 11
103.9292126263227
 21
-146.1750596856783
 97
        0
 75
     2
 76
     1
 98
        0
  0
POLYLINE
  5
21F
330
1F
100
AcDbEntity
  8
_U+30EC_U+30A4_U+30E4_U+30FC 1
 62
     7
420
 16777215
370
     9
100
AcDb2dPolyline
 66
     1
 10
0.0
 20
0.0
 30
0.0
  0
VERTEX
  5
220
330
21F
100
AcDbEntity
  8
_U+30EC_U+30A4_U+30E4_U+30FC 1
 62
     7
420
 16777215
370
     9
100
AcDbVertex
100
AcDb2dVertex
 10
103.3043020867099
 20
-146.2797994078747
 30
0.0
  0
VERTEX
  5
221
330
21F
100
AcDbEntity
  8
_U+30EC_U+30A4_U+30E4_U+30FC 1
 62
     7
420
 16777215
370
     9
100
AcDbVertex
100
AcDb2dVertex
 10
100.8045188171514
 20
-146.2797994078747
 30
0.0
  0
SEQEND
  5
222
330
21F
100
AcDbEntity
  8
_U+30EC_U+30A4_U+30E4_U+30FC 1
 62
     7
420
 16777215
370
     9
  0
INSERT
  5
224
330
1F
100
AcDbEntity
  8
_U+30EC_U+30A4_U+30E4_U+30FC 1
100
AcDbBlockReference
  2
block 23
 10
0.0
 20
0.0
 30
0.0
  0
POLYLINE
  5
22C
330
1F
100
AcDbEntity
  8
_U+30EC_U+30A4_U+30E4_U+30FC 1
 62
     7
420
 16777215
370
     9
100
AcDb2dPolyline
 66
     1
 10
0.0
 20
0.0
 30
0.0
  0
VERTEX
  5
22D
330
22C
100
AcDbEntity
  8
_U+30EC_U+30A4_U+30E4_U+30FC 1
 62
     7
420
 16777215
370
     9
100
AcDbVertex
100
AcDb2dVertex
 10
103.3043020867099
 20
-143.6835666307456
 30
0.0
  0
VERTEX
  5
22E
330
22C
100
AcDbEntity
  8
_U+30EC_U+30A4_U+30E4_U+30FC 1
 62
     7
420
 16777215
370
     9
100
AcDbVertex
100
AcDb2dVertex
 10
103.3043020867099
 20
-146.4045063522877
 30
0.0
  0
SEQEND
  5
22F
330
22C
100
AcDbEntity
  8
_U+30EC_U+30A4_U+30E4_U+30FC 1
 62
     7
420
 16777215
370
     9
  0
POLYLINE
  5
230
330
1F
100
AcDbEntity
  8
_U+30EC_U+30A4_U+30E4_U+30FC 1
 62
     7
420
 16777215
370
     9
100
AcDb2dPolyline
 66
     1
 10
0.0
 20
0.0
 30
0.0
  0
VERTEX
  5
231
330
230
100
AcDbEntity
  8
_U+30EC_U+30A4_U+30E4_U+30FC 1
 62
     7
420
 16777215
370
     9
100
AcDbVertex
100
AcDb2dVertex
 10
100.8045188171514
 20
-143.6835666307456
 30
0.0
  0
VERTEX
  5
232
330
230
100
AcDbEntity
  8
_U+30EC_U+30A4_U+30E4_U+30FC 1
 62
     7
420
 16777215
370
     9
100
AcDbVertex
100
AcDb2dVertex
 10
100.8045188171514
 20
-146.4045063522877
 30
0.0
  0
SEQEND
  5
233
330
230
100
AcDbEntity
  8
_U+30EC_U+30A4_U+30E4_U+30FC 1
 62
     7
420
 16777215
370
     9
  0
POLYLINE
  5
234
330
1F
100
AcDbEntity
  8
_U+30EC_U+30A4_U+30E4_U+30FC 1
 62
     7
420
 16777215
370
     9
100
AcDb2dPolyline
 66
     1
 10
0.0
 20
0.0
 30
0.0
  0
VERTEX
  5
235
330
234
100
AcDbEntity
  8
_U+30EC_U+30A4_U+30E4_U+30FC 1
 62
     7
420
 16777215
370
     9
100
AcDbVertex
100
AcDb2dVertex
 10
103.9292126263227
 20
-146.2797994078747
 30
0.0
  0
VERTEX
  5
236
330
234
100
AcDbEntity
  8
_U+30EC_U+30A4_U+30E4_U+30FC 1
 62
     7
420
 16777215
370
     9
100
AcDbVertex
100
AcDb2dVertex
 10
104.5534881659516
 20
-146.2797994078747
 30
0.0
  0
SEQEND
  5
237
330
234
100
AcDbEntity
  8
_U+30EC_U+30A4_U+30E4_U+30FC 1
 62
     7
420
 16777215
370
     9
  0
POLYLINE
  5
238
330
1F
100
AcDbEntity
  8
_U+30EC_U+30A4_U+30E4_U+30FC 1
 62
     7
420
 16777215
370
     9
100
AcDb2dPolyline
 66
     1
 10
0.0
 20
0.0
 30
0.0
  0
VERTEX
  5
239
330
238
100
AcDbEntity
  8
_U+30EC_U+30A4_U+30E4_U+30FC 1
 62
     7
420
 16777215
370
     9
100
AcDbVertex
100
AcDb2dVertex
 10
100.1799257775305
 20
-146.2797994078747
 30
0.0
  0
VERTEX
  5
23A
330
238
100
AcDbEntity
  8
_U+30EC_U+30A4_U+30E4_U+30FC 1
 62
     7
420
 16777215
370
     9
100
AcDbVertex
100
AcDb2dVertex
 10
99.55497996014087
 20
-146.2797994078747
 30
0.0
  0
SEQEND
  5
23B
330
238
100
AcDbEntity
  8
_U+30EC_U+30A4_U+30E4_U+30FC 1
 62
     7
420
 16777215
370
     9
  0
ENDSEC
  0
SECTION
  2
OBJECTS
  0
DICTIONARY
  5
C
330
0
100
AcDbDictionary
281
     1
  3
ACAD_GROUP
350
D
  3
ACAD_LAYOUT
350
1A
  3
ACAD_MATERIAL
350
3B
  3
ACAD_MLEADERSTYLE
350
23D
  3
ACAD_MLINESTYLE
350
17
  3
ACAD_PLOTSETTINGS
350
19
  3
ACAD_PLOTSTYLENAME
350
E
  3
ACAD_TABLESTYLE
350
23C
  3
ACAD_VISUALSTYLE
350
2A
  0
SUN
  5
3F
330
29
100
AcDbSun
 90
        1
290
     0
 63
     7
421
 16777215
 40
1.0
291
     1
 91
  2455826
 92
 54000000
292
     0
 70
     2
 71
   256
280
     1
  0
DICTIONARY
  5
D
102
{ACAD_REACTORS
330
C
102
}
330
C
100
AcDbDictionary
281
     1
  0
DICTIONARY
  5
1A
102
{ACAD_REACTORS
330
C
102
}
330
C
100
AcDbDictionary
281
     1
  3
Layout1
350
1E
  3
Layout2
350
26
  3
Model
350
22
  0
DICTIONARY
  5
3B
102
{ACAD_REACTORS
330
C
102
}
330
C
100
AcDbDictionary
281
     1
  3
ByBlock
350
3D
  3
ByLayer
350
3C
  3
Global
350
3E
  0
DICTIONARY
  5
23D
102
{ACAD_REACTORS
330
C
102
}
330
C
100
AcDbDictionary
281
     1
  0
DICTIONARY
  5
17
102
{ACAD_REACTORS
330
C
102
}
330
C
100
AcDbDictionary
281
     1
  3
Standard
350
18
  0
DICTIONARY
  5
19
102
{ACAD_REACTORS
330
C
102
}
330
C
100
AcDbDictionary
281
     1
  0
ACDBDICTIONARYWDFLT
  5
E
102
{ACAD_REACTORS
330
C
102
}
330
C
100
AcDbDictionary
281
     1
  3
Normal
350
F
100
AcDbDictionaryWithDefault
340
F
  0
DICTIONARY
  5
23C
102
{ACAD_REACTORS
330
C
102
}
330
C
100
AcDbDictionary
281
     1
  0
DICTIONARY
  5
2A
102
{ACAD_REACTORS
330
C
102
}
330
C
100
AcDbDictionary
281
     1
  3
2dWireframe
350
2F
  3
3D Hidden
350
31
  3
3dWireframe
350
30
  3
Basic
350
32
  3
Brighten
350
36
  3
ColorChange
350
3A
  3
Conceptual
350
34
  3
Dim
350
35
  3
Facepattern
350
39
  3
Flat
350
2B
  3
FlatWithEdges
350
2C
  3
Gouraud
350
2D
  3
GouraudWithEdges
350
2E
  3
Linepattern
350
38
  3
Realistic
350
33
  3
Thicken
350
37
  0
LAYOUT
  5
1E
102
{ACAD_REACTORS
330
1A
102
}
330
1A
100
AcDbPlotSettings
  1

  2
none_device
  4

  6

 40
0.0
 41
0.0
 42
0.0
 43
0.0
 44
0.0
 45
0.0
 46
0.0
 47
0.0
 48
0.0
 49
0.0
140
0.0
141
0.0
142
1.0
143
1.0
 70
   688
 72
     0
 73
     0
 74
     5
  7

 75
    16
 76
     0
 77
     2
 78
   300
147
1.0
148
0.0
149
0.0
100
AcDbLayout
  1
Layout1
 70
     1
 71
     1
 10
0.0
 20
0.0
 11
12.0
 21
9.0
 12
0.0
 22
0.0
 32
0.0
 14
1.000000000000000E+20
 24
1.000000000000000E+20
 34
1.000000000000000E+20
 15
-1.000000000000000E+20
 25
-1.000000000000000E+20
 35
-1.000000000000000E+20
146
0.0
 13
0.0
 23
0.0
 33
0.0
 16
1.0
 26
0.0
 36
0.0
 17
0.0
 27
1.0
 37
0.0
 76
     0
330
1B
  0
LAYOUT
  5
26
102
{ACAD_REACTORS
330
1A
102
}
330
1A
100
AcDbPlotSettings
  1

  2
none_device
  4

  6

 40
0.0
 41
0.0
 42
0.0
 43
0.0
 44
0.0
 45
0.0
 46
0.0
 47
0.0
 48
0.0
 49
0.0
140
0.0
141
0.0
142
1.0
143
1.0
 70
   688
 72
     0
 73
     0
 74
     5
  7

 75
    16
 76
     0
 77
     2
 78
   300
147
1.0
148
0.0
149
0.0
100
AcDbLayout
  1
Layout2
 70
     1
 71
     2
 10
0.0
 20
0.0
 11
0.0
 21
0.0
 12
0.0
 22
0.0
 32
0.0
 14
0.0
 24
0.0
 34
0.0
 15
0.0
 25
0.0
 35
0.0
146
0.0
 13
0.0
 23
0.0
 33
0.0
 16
1.0
 26
0.0
 36
0.0
 17
0.0
 27
1.0
 37
0.0
 76
     0
330
23
  0
LAYOUT
  5
22
102
{ACAD_REACTORS
330
1A
102
}
330
1A
100
AcDbPlotSettings
  1

  2
none_device
  4

  6

 40
0.0
 41
0.0
 42
0.0
 43
0.0
 44
0.0
 45
0.0
 46
0.0
 47
0.0
 48
0.0
 49
0.0
140
0.0
141
0.0
142
1.0
143
1.0
 70
  1712
 72
     0
 73
     0
 74
     0
  7

 75
     0
 76
     0
 77
     2
 78
   300
147
1.0
148
0.0
149
0.0
100
AcDbLayout
  1
Model
 70
     1
 71
     0
 10
0.0
 20
0.0
 11
12.0
 21
9.0
 12
0.0
 22
0.0
 32
0.0
 14
1.000000000000000E+20
 24
1.000000000000000E+20
 34
1.000000000000000E+20
 15
-1.000000000000000E+20
 25
-1.000000000000000E+20
 35
-1.000000000000000E+20
146
0.0
 13
0.0
 23
0.0
 33
0.0
 16
1.0
 26
0.0
 36
0.0
 17
0.0
 27
1.0
 37
0.0
 76
     0
330
1F
331
29
  0
MATERIAL
  5
3D
102
{ACAD_REACTORS
330
3B
102
}
330
3B
100
AcDbMaterial
  1
ByBlock
 72
     1
 94
      127
  0
MATERIAL
  5
3C
102
{ACAD_REACTORS
330
3B
102
}
330
3B
100
AcDbMaterial
  1
ByLayer
 72
     1
 94
      127
  0
MATERIAL
  5
3E
102
{ACAD_REACTORS
330
3B
102
}
330
3B
100
AcDbMaterial
  1
Global
 72
     1
 94
      127
  0
MLINESTYLE
  5
18
102
{ACAD_REACTORS
330
17
102
}
330
17
100
AcDbMlineStyle
  2
Standard
 70
     0
  3

 62
   256
 51
90.0
 52
90.0
 71
     2
 49
0.5
 62
   256
  6
BYLAYER
 49
-0.5
 62
   256
  6
BYLAYER
  0
ACDBPLACEHOLDER
  5
F
102
{ACAD_REACTORS
330
E
102
}
330
E
  0
VISUALSTYLE
  5
2F
102
{ACAD_REACTORS
330
2A
102
}
330
2A
100
AcDbVisualStyle
  2
2dWireframe
 70
     4
177
     2
291
     0
 71
     0
176
     1
 72
     2
176
     1
 73
     0
176
     1
 90
        0
176
     1
 40
-0.6
176
     1
 41
-30.0
176
     1
 62
     5
 63
     7
421
 16777215
176
     1
 74
     1
176
     1
 91
        4
176
     1
 64
     7
176
     1
 65
   257
176
     1
 75
     1
176
     1
175
     1
176
     1
 42
1.0
176
     1
 92
        0
176
     1
 66
   257
176
     1
 43
1.0
176
     1
 76
     1
176
     1
 77
     6
176
     1
 78
     2
176
     1
 67
     7
176
     1
 79
     5
176
     1
170
     0
176
     1
171
     0
176
     1
290
     0
176
     1
 93
        1
176
     1
 44
0.0
176
     1
173
     0
176
     1
  0
VISUALSTYLE
  5
31
102
{ACAD_REACTORS
330
2A
102
}
330
2A
100
AcDbVisualStyle
  2
3D Hidden
 70
     6
177
     2
291
     0
 71
     1
176
     1
 72
     2
176
     1
 73
     2
176
     1
 90
        0
176
     1
 40
-0.6
176
     1
 41
-30.0
176
     1
 62
     5
 63
     7
421
 16777215
176
     1
 74
     2
176
     1
 91
        2
176
     1
 64
     7
176
     1
 65
   257
176
     1
 75
     2
176
     1
175
     1
176
     1
 42
40.0
176
     1
 92
        0
176
     1
 66
   257
176
     1
 43
1.0
176
     1
 76
     1
176
     1
 77
     6
176
     1
 78
     2
176
     1
 67
     7
176
     1
 79
     3
176
     1
170
     0
176
     1
171
     0
176
     1
290
     0
176
     1
 93
        1
176
     1
 44
0.0
176
     1
173
     0
176
     1
  0
VISUALSTYLE
  5
30
102
{ACAD_REACTORS
330
2A
102
}
330
2A
100
AcDbVisualStyle
  2
3dWireframe
 70
     5
177
     2
291
     0
 71
     0
176
     1
 72
     2
176
     1
 73
     0
176
     1
 90
        0
176
     1
 40
-0.6
176
     1
 41
-30.0
176
     1
 62
     5
 63
     7
421
 16777215
176
     1
 74
     1
176
     1
 91
        4
176
     1
 64
     7
176
     1
 65
   257
176
     1
 75
     1
176
     1
175
     1
176
     1
 42
1.0
176
     1
 92
        0
176
     1
 66
   257
176
     1
 43
1.0
176
     1
 76
     1
176
     1
 77
     6
176
     1
 78
     2
176
     1
 67
     7
176
     1
 79
     5
176
     1
170
     0
176
     1
171
     0
176
     1
290
     0
176
     1
 93
        1
176
     1
 44
0.0
176
     1
173
     0
176
     1
  0
VISUALSTYLE
  5
32
102
{ACAD_REACTORS
330
2A
102
}
330
2A
100
AcDbVisualStyle
  2
Basic
 70
     7
177
     2
291
     1
 71
     1
176
     1
 72
     0
176
     1
 73
     1
176
     1
 90
        0
176
     1
 40
-0.6
176
     1
 41
-30.0
176
     1
 62
     5
 63
     7
421
 16777215
176
     1
 74
     0
176
     1
 91
        4
176
     1
 64
     7
176
     1
 65
   257
176
     1
 75
     1
176
     1
175
     1
176
     1
 42
1.0
176
     1
 92
        8
176
     1
 66
     7
176
     1
 43
1.0
176
     1
 76
     1
176
     1
 77
     6
176
     1
 78
     2
176
     1
 67
     7
176
     1
 79
     5
176
     1
170
     0
176
     1
171
     0
176
     1
290
     0
176
     1
 93
        1
176
     1
 44
0.0
176
     1
173
     0
176
     1
  0
VISUALSTYLE
  5
36
102
{ACAD_REACTORS
330
2A
102
}
330
2A
100
AcDbVisualStyle
  2
Brighten
 70
    12
177
     2
291
     1
 71
     2
176
     1
 72
     2
176
     1
 73
     0
176
     1
 90
        0
176
     1
 40
-0.6
176
     1
 41
-30.0
176
     1
 62
     5
 63
     7
421
 16777215
176
     1
 74
     1
176
     1
 91
        4
176
     1
 64
     7
176
     1
 65
   257
176
     1
 75
     1
176
     1
175
     1
176
     1
 42
1.0
176
     1
 92
        8
176
     1
 66
     7
176
     1
 43
1.0
176
     1
 76
     1
176
     1
 77
     6
176
     1
 78
     2
176
     1
 67
     7
176
     1
 79
     5
176
     1
170
     0
176
     1
171
     0
176
     1
290
     0
176
     1
 93
        1
176
     1
 44
50.0
176
     1
173
     0
176
     1
  0
VISUALSTYLE
  5
3A
102
{ACAD_REACTORS
330
2A
102
}
330
2A
100
AcDbVisualStyle
  2
ColorChange
 70
    16
177
     2
291
     1
 71
     2
176
     1
 72
     2
176
     1
 73
     3
176
     1
 90
        0
176
     1
 40
-0.6
176
     1
 41
-30.0
176
     1
 62
     5
 63
     8
421
  8421504
176
     1
 74
     1
176
     1
 91
        4
176
     1
 64
     7
176
     1
 65
   257
176
     1
 75
     1
176
     1
175
     1
176
     1
 42
1.0
176
     1
 92
        8
176
     1
 66
     8
424
  8421504
176
     1
 43
1.0
176
     1
 76
     1
176
     1
 77
     6
176
     1
 78
     2
176
     1
 67
     7
176
     1
 79
     5
176
     1
170
     0
176
     1
171
     0
176
     1
290
     0
176
     1
 93
        1
176
     1
 44
0.0
176
     1
173
     0
176
     1
  0
VISUALSTYLE
  5
34
102
{ACAD_REACTORS
330
2A
102
}
330
2A
100
AcDbVisualStyle
  2
Conceptual
 70
     9
177
     2
291
     0
 71
     3
176
     1
 72
     2
176
     1
 73
     0
176
     1
 90
        0
176
     1
 40
-0.6
176
     1
 41
-30.0
176
     1
 62
     5
 63
     7
421
 16777215
176
     1
 74
     2
176
     1
 91
        2
176
     1
 64
     7
176
     1
 65
   257
176
     1
 75
     1
176
     1
175
     1
176
     1
 42
40.0
176
     1
 92
        8
176
     1
 66
     7
176
     1
 43
1.0
176
     1
 76
     1
176
     1
 77
     6
176
     1
 78
     2
176
     1
 67
     7
176
     1
 79
     3
176
     1
170
     0
176
     1
171
     0
176
     1
290
     0
176
     1
 93
        1
176
     1
 44
0.0
176
     1
173
     0
176
     1
  0
VISUALSTYLE
  5
35
102
{ACAD_REACTORS
330
2A
102
}
330
2A
100
AcDbVisualStyle
  2
Dim
 70
    11
177
     2
291
     1
 71
     2
176
     1
 72
     2
176
     1
 73
     0
176
     1
 90
        0
176
     1
 40
-0.6
176
     1
 41
-30.0
176
     1
 62
     5
 63
     7
421
 16777215
176
     1
 74
     1
176
     1
 91
        4
176
     1
 64
     7
176
     1
 65
   257
176
     1
 75
     1
176
     1
175
     1
176
     1
 42
1.0
176
     1
 92
        8
176
     1
 66
     7
176
     1
 43
1.0
176
     1
 76
     1
176
     1
 77
     6
176
     1
 78
     2
176
     1
 67
     7
176
     1
 79
     5
176
     1
170
     0
176
     1
171
     0
176
     1
290
     0
176
     1
 93
        1
176
     1
 44
-50.0
176
     1
173
     0
176
     1
  0
VISUALSTYLE
  5
39
102
{ACAD_REACTORS
330
2A
102
}
330
2A
100
AcDbVisualStyle
  2
Facepattern
 70
    15
177
     2
291
     1
 71
     2
176
     1
 72
     2
176
     1
 73
     0
176
     1
 90
        0
176
     1
 40
-0.6
176
     1
 41
-30.0
176
     1
 62
     5
 63
     7
421
 16777215
176
     1
 74
     1
176
     1
 91
        4
176
     1
 64
     7
176
     1
 65
   257
176
     1
 75
     1
176
     1
175
     1
176
     1
 42
1.0
176
     1
 92
        8
176
     1
 66
     7
176
     1
 43
1.0
176
     1
 76
     1
176
     1
 77
     6
176
     1
 78
     2
176
     1
 67
     7
176
     1
 79
     5
176
     1
170
     0
176
     1
171
     0
176
     1
290
     0
176
     1
 93
        1
176
     1
 44
0.0
176
     1
173
     0
176
     1
  0
VISUALSTYLE
  5
2B
102
{ACAD_REACTORS
330
2A
102
}
330
2A
100
AcDbVisualStyle
  2
Flat
 70
     0
177
     2
291
     1
 71
     2
176
     1
 72
     1
176
     1
 73
     1
176
     1
 90
        2
176
     1
 40
-0.6
176
     1
 41
30.0
176
     1
 62
     5
 63
     7
421
 16777215
176
     1
 74
     0
176
     1
 91
        4
176
     1
 64
     7
176
     1
 65
   257
176
     1
 75
     1
176
     1
175
     1
176
     1
 42
1.0
176
     1
 92
        8
176
     1
 66
     7
176
     1
 43
1.0
176
     1
 76
     1
176
     1
 77
     6
176
     1
 78
     2
176
     1
 67
     7
176
     1
 79
     5
176
     1
170
     0
176
     1
171
     0
176
     1
290
     0
176
     1
 93
       13
176
     1
 44
0.0
176
     1
173
     0
176
     1
  0
VISUALSTYLE
  5
2C
102
{ACAD_REACTORS
330
2A
102
}
330
2A
100
AcDbVisualStyle
  2
FlatWithEdges
 70
     1
177
     2
291
     1
 71
     2
176
     1
 72
     1
176
     1
 73
     1
176
     1
 90
        2
176
     1
 40
-0.6
176
     1
 41
30.0
176
     1
 62
     5
 63
     7
421
 16777215
176
     1
 74
     1
176
     1
 91
        4
176
     1
 64
     7
176
     1
 65
   257
176
     1
 75
     1
176
     1
175
     1
176
     1
 42
1.0
176
     1
 92
        0
176
     1
 66
   257
176
     1
 43
1.0
176
     1
 76
     1
176
     1
 77
     6
176
     1
 78
     2
176
     1
 67
     7
176
     1
 79
     5
176
     1
170
     0
176
     1
171
     0
176
     1
290
     0
176
     1
 93
       13
176
     1
 44
0.0
176
     1
173
     0
176
     1
  0
VISUALSTYLE
  5
2D
102
{ACAD_REACTORS
330
2A
102
}
330
2A
100
AcDbVisualStyle
  2
Gouraud
 70
     2
177
     2
291
     1
 71
     2
176
     1
 72
     2
176
     1
 73
     1
176
     1
 90
        2
176
     1
 40
-0.6
176
     1
 41
30.0
176
     1
 62
     5
 63
     7
421
 16777215
176
     1
 74
     0
176
     1
 91
        4
176
     1
 64
     7
176
     1
 65
   257
176
     1
 75
     1
176
     1
175
     1
176
     1
 42
1.0
176
     1
 92
        0
176
     1
 66
     7
176
     1
 43
1.0
176
     1
 76
     1
176
     1
 77
     6
176
     1
 78
     2
176
     1
 67
     7
176
     1
 79
     5
176
     1
170
     0
176
     1
171
     0
176
     1
290
     0
176
     1
 93
       13
176
     1
 44
0.0
176
     1
173
     0
176
     1
  0
VISUALSTYLE
  5
2E
102
{ACAD_REACTORS
330
2A
102
}
330
2A
100
AcDbVisualStyle
  2
GouraudWithEdges
 70
     3
177
     2
291
     1
 71
     2
176
     1
 72
     2
176
     1
 73
     1
176
     1
 90
        2
176
     1
 40
-0.6
176
     1
 41
30.0
176
     1
 62
     5
 63
     7
421
 16777215
176
     1
 74
     1
176
     1
 91
        4
176
     1
 64
     7
176
     1
 65
   257
176
     1
 75
     1
176
     1
175
     1
176
     1
 42
1.0
176
     1
 92
        0
176
     1
 66
   257
176
     1
 43
1.0
176
     1
 76
     1
176
     1
 77
     6
176
     1
 78
     2
176
     1
 67
     7
176
     1
 79
     5
176
     1
170
     0
176
     1
171
     0
176
     1
290
     0
176
     1
 93
       13
176
     1
 44
0.0
176
     1
173
     0
176
     1
  0
VISUALSTYLE
  5
38
102
{ACAD_REACTORS
330
2A
102
}
330
2A
100
AcDbVisualStyle
  2
Linepattern
 70
    14
177
     2
291
     1
 71
     2
176
     1
 72
     2
176
     1
 73
     0
176
     1
 90
        0
176
     1
 40
-0.6
176
     1
 41
-30.0
176
     1
 62
     5
 63
     7
421
 16777215
176
     1
 74
     1
176
     1
 91
        4
176
     1
 64
     7
176
     1
 65
   257
176
     1
 75
     7
176
     1
175
     7
176
     1
 42
1.0
176
     1
 92
        8
176
     1
 66
     7
176
     1
 43
1.0
176
     1
 76
     1
176
     1
 77
     6
176
     1
 78
     2
176
     1
 67
     7
176
     1
 79
     5
176
     1
170
     0
176
     1
171
     0
176
     1
290
     0
176
     1
 93
        1
176
     1
 44
0.0
176
     1
173
     0
176
     1
  0
VISUALSTYLE
  5
33
102
{ACAD_REACTORS
330
2A
102
}
330
2A
100
AcDbVisualStyle
  2
Realistic
 70
     8
177
     2
291
     0
 71
     2
176
     1
 72
     2
176
     1
 73
     0
176
     1
 90
        0
176
     1
 40
-0.6
176
     1
 41
-30.0
176
     1
 62
     5
 63
     7
421
 16777215
176
     1
 74
     1
176
     1
 91
        0
176
     1
 64
     7
176
     1
 65
   257
176
     1
 75
     1
176
     1
175
     1
176
     1
 42
1.0
176
     1
 92
        8
176
     1
 66
     8
424
  7895160
176
     1
 43
1.0
176
     1
 76
     1
176
     1
 77
     6
176
     1
 78
     2
176
     1
 67
     7
176
     1
 79
     5
176
     1
170
     0
176
     1
171
     0
176
     1
290
     0
176
     1
 93
       13
176
     1
 44
0.0
176
     1
173
     0
176
     1
  0
VISUALSTYLE
  5
37
102
{ACAD_REACTORS
330
2A
102
}
330
2A
100
AcDbVisualStyle
  2
Thicken
 70
    13
177
     2
291
     1
 71
     2
176
     1
 72
     2
176
     1
 73
     0
176
     1
 90
        0
176
     1
 40
-0.6
176
     1
 41
-30.0
176
     1
 62
     5
 63
     7
421
 16777215
176
     1
 74
     1
176
     1
 91
        4
176
     1
 64
     7
176
     1
 65
   257
176
     1
 75
     1
176
     1
175
     1
176
     1
 42
1.0
176
     1
 92
       12
176
     1
 66
     7
176
     1
 43
1.0
176
     1
 76
     1
176
     1
 77
     6
176
     1
 78
     2
176
     1
 67
     7
176
     1
 79
     5
176
     1
170
     0
176
     1
171
     0
176
     1
290
     0
176
     1
 93
        1
176
     1
 44
0.0
176
     1
173
     0
176
     1
  0
ENDSEC
  0
EOF
