  0
SECTION
  2
HEADER
  9
$ACADVER
  1
AC1024
  9
$ACADMAINTVER
 70
     6
  9
$DWGCODEPAGE
  3
UNDEFINED
  9
$INSBASE
 10
0.0
 20
0.0
 30
0.0
  9
$EXTMIN
 10
1.000000000000000E+20
 20
1.000000000000000E+20
 30
1.000000000000000E+20
  9
$EXTMAX
 10
-1.000000000000000E+20
 20
-1.000000000000000E+20
 30
-1.000000000000000E+20
  9
$LIMMIN
 10
0.0
 20
0.0
  9
$LIMMAX
 10
12.0
 20
9.0
  9
$ORTHOMODE
 70
     0
  9
$REGENMODE
 70
     1
  9
$FILLMODE
 70
     1
  9
$QTEXTMODE
 70
     0
  9
$MIRRTEXT
 70
     1
  9
$LTSCALE
 40
1.0
  9
$ATTMODE
 70
     1
  9
$TEXTSIZE
 40
0.2
  9
$TRACEWID
 40
0.05
  9
$TEXTSTYLE
  7
Standard
  9
$CLAYER
  8
0
  9
$CELTYPE
  6
ByLayer
  9
$CECOLOR
 62
   256
  9
$CELTSCALE
 40
1.0
  9
$DISPSILH
 70
     0
  9
$DIMSCALE
 40
1.0
  9
$DIMASZ
 40
0.18
  9
$DIMEXO
 40
0.0625
  9
$DIMDLI
 40
0.38
  9
$DIMRND
 40
0.0
  9
$DIMDLE
 40
0.0
  9
$DIMEXE
 40
0.18
  9
$DIMTP
 40
0.0
  9
$DIMTM
 40
0.0
  9
$DIMTXT
 40
0.18
  9
$DIMCEN
 40
0.09
  9
$DIMTSZ
 40
0.0
  9
$DIMTOL
 70
     0
  9
$DIMLIM
 70
     0
  9
$DIMTIH
 70
     1
  9
$DIMTOH
 70
     1
  9
$DIMSE1
 70
     0
  9
$DIMSE2
 70
     0
  9
$DIMTAD
 70
     0
  9
$DIMZIN
 70
     0
  9
$DIMBLK
  1

  9
$DIMASO
 70
     1
  9
$DIMSHO
 70
     1
  9
$DIMPOST
  1

  9
$DIMAPOST
  1

  9
$DIMALT
 70
     0
  9
$DIMALTD
 70
     2
  9
$DIMALTF
 40
25.4
  9
$DIMLFAC
 40
1.0
  9
$DIMTOFL
 70
     0
  9
$DIMTVP
 40
0.0
  9
$DIMTIX
 70
     0
  9
$DIMSOXD
 70
     0
  9
$DIMSAH
 70
     0
  9
$DIMBLK1
  1

  9
$DIMBLK2
  1

  9
$DIMSTYLE
  2
Standard
  9
$DIMCLRD
 70
     0
  9
$DIMCLRE
 70
     0
  9
$DIMCLRT
 70
     0
  9
$DIMTFAC
 40
1.0
  9
$DIMGAP
 40
0.09
  9
$DIMJUST
 70
     0
  9
$DIMSD1
 70
     0
  9
$DIMSD2
 70
     0
  9
$DIMTOLJ
 70
     1
  9
$DIMTZIN
 70
     0
  9
$DIMALTZ
 70
     0
  9
$DIMALTTZ
 70
     0
  9
$DIMUPT
 70
     0
  9
$DIMDEC
 70
     4
  9
$DIMTDEC
 70
     4
  9
$DIMALTU
 70
     2
  9
$DIMALTTD
 70
     2
  9
$DIMTXSTY
  7
Standard
  9
$DIMAUNIT
 70
     0
  9
$DIMADEC
 70
     0
  9
$DIMALTRND
 40
0.0
  9
$DIMAZIN
 70
     0
  9
$DIMDSEP
 70
    46
  9
$DIMATFIT
 70
     3
  9
$DIMFRAC
 70
     0
  9
$DIMLDRBLK
  1

  9
$DIMLUNIT
 70
     2
  9
$DIMLWD
 70
    -2
  9
$DIMLWE
 70
    -2
  9
$DIMTMOVE
 70
     0
  9
$DIMFXL
 40
1.0
  9
$DIMFXLON
 70
     0
  9
$DIMJOGANG
 40
0.7853981633974483
  9
$DIMTFILL
 70
     0
  9
$DIMTFILLCLR
 70
     0
  9
$DIMARCSYM
 70
     0
  9
$DIMLTYPE
  6

  9
$DIMLTEX1
  6

  9
$DIMLTEX2
  6

  9
$DIMTXTDIRECTION
 70
     0
  9
$LUNITS
 70
     2
  9
$LUPREC
 70
     4
  9
$SKETCHINC
 40
0.1
  9
$FILLETRAD
 40
0.5
  9
$AUNITS
 70
     0
  9
$AUPREC
 70
     0
  9
$MENU
  1
.
  9
$ELEVATION
 40
0.0
  9
$PELEVATION
 40
0.0
  9
$THICKNESS
 40
0.0
  9
$LIMCHECK
 70
     0
  9
$CHAMFERA
 40
0.5
  9
$CHAMFERB
 40
0.5
  9
$CHAMFERC
 40
1.0
  9
$CHAMFERD
 40
0.0
  9
$SKPOLY
 70
     0
  9
$TDCREATE
 40
2457917.617337963
  9
$TDUCREATE
 40
2457917.242337963
  9
$TDUPDATE
 40
2457917.617337963
  9
$TDUUPDATE
 40
2457917.242337963
  9
$TDINDWG
 40
0.0000000116
  9
$TDUSRTIMER
 40
0.0000000116
  9
$USRTIMER
 70
     1
  9
$ANGBASE
 50
0.0
  9
$ANGDIR
 70
     0
  9
$PDMODE
 70
     0
  9
$PDSIZE
 40
0.0
  9
$PLINEWID
 40
0.0
  9
$SPLFRAME
 70
     0
  9
$SPLINETYPE
 70
     6
  9
$SPLINESEGS
 70
     8
  9
$HANDSEED
  5
372
  9
$SURFTAB1
 70
     6
  9
$SURFTAB2
 70
     6
  9
$SURFTYPE
 70
     6
  9
$SURFU
 70
     6
  9
$SURFV
 70
     6
  9
$UCSBASE
  2

  9
$UCSNAME
  2

  9
$UCSORG
 10
0.0
 20
0.0
 30
0.0
  9
$UCSXDIR
 10
1.0
 20
0.0
 30
0.0
  9
$UCSYDIR
 10
0.0
 20
1.0
 30
0.0
  9
$UCSORTHOREF
  2

  9
$UCSORTHOVIEW
 70
     0
  9
$UCSORGTOP
 10
0.0
 20
0.0
 30
0.0
  9
$UCSORGBOTTOM
 10
0.0
 20
0.0
 30
0.0
  9
$UCSORGLEFT
 10
0.0
 20
0.0
 30
0.0
  9
$UCSORGRIGHT
 10
0.0
 20
0.0
 30
0.0
  9
$UCSORGFRONT
 10
0.0
 20
0.0
 30
0.0
  9
$UCSORGBACK
 10
0.0
 20
0.0
 30
0.0
  9
$PUCSBASE
  2

  9
$PUCSNAME
  2

  9
$PUCSORG
 10
0.0
 20
0.0
 30
0.0
  9
$PUCSXDIR
 10
1.0
 20
0.0
 30
0.0
  9
$PUCSYDIR
 10
0.0
 20
1.0
 30
0.0
  9
$PUCSORTHOREF
  2

  9
$PUCSORTHOVIEW
 70
     0
  9
$PUCSORGTOP
 10
0.0
 20
0.0
 30
0.0
  9
$PUCSORGBOTTOM
 10
0.0
 20
0.0
 30
0.0
  9
$PUCSORGLEFT
 10
0.0
 20
0.0
 30
0.0
  9
$PUCSORGRIGHT
 10
0.0
 20
0.0
 30
0.0
  9
$PUCSORGFRONT
 10
0.0
 20
0.0
 30
0.0
  9
$PUCSORGBACK
 10
0.0
 20
0.0
 30
0.0
  9
$USERI1
 70
     0
  9
$USERI2
 70
     0
  9
$USERI3
 70
     0
  9
$USERI4
 70
     0
  9
$USERI5
 70
     0
  9
$USERR1
 40
0.0
  9
$USERR2
 40
0.0
  9
$USERR3
 40
0.0
  9
$USERR4
 40
0.0
  9
$USERR5
 40
0.0
  9
$WORLDVIEW
 70
     1
  9
$SHADEDGE
 70
     3
  9
$SHADEDIF
 70
    70
  9
$TILEMODE
 70
     1
  9
$MAXACTVP
 70
    64
  9
$PINSBASE
 10
0.0
 20
0.0
 30
0.0
  9
$PLIMCHECK
 70
     0
  9
$PEXTMIN
 10
1.000000000000000E+20
 20
1.000000000000000E+20
 30
1.000000000000000E+20
  9
$PEXTMAX
 10
-1.000000000000000E+20
 20
-1.000000000000000E+20
 30
-1.000000000000000E+20
  9
$PLIMMIN
 10
0.0
 20
0.0
  9
$PLIMMAX
 10
12.0
 20
9.0
  9
$UNITMODE
 70
     0
  9
$VISRETAIN
 70
     1
  9
$PLINEGEN
 70
     0
  9
$PSLTSCALE
 70
     1
  9
$TREEDEPTH
 70
  3020
  9
$CMLSTYLE
  2
Standard
  9
$CMLJUST
 70
     0
  9
$CMLSCALE
 40
1.0
  9
$PROXYGRAPHICS
 70
     1
  9
$MEASUREMENT
 70
     0
  9
$CELWEIGHT
370
    -1
  9
$ENDCAPS
280
     0
  9
$JOINSTYLE
280
     0
  9
$LWDISPLAY
290
     1
  9
$INSUNITS
 70
     1
  9
$HYPERLINKBASE
  1

  9
$STYLESHEET
  1

  9
$XEDIT
290
     1
  9
$CEPSNTYPE
380
     0
  9
$PSTYLEMODE
290
     1
  9
$FINGERPRINTGUID
  2
{24D6757B-A613-8B45-DCAA-3504174EB144}
  9
$VERSIONGUID
  2
{FAEB1C32-E019-11D5-929B-00C0DF256EC4}
  9
$EXTNAMES
290
     1
  9
$PSVPSCALE
 40
0.0
  9
$OLESTARTUP
290
     0
  9
$SORTENTS
280
   127
  9
$INDEXCTL
280
     0
  9
$HIDETEXT
280
     1
  9
$XCLIPFRAME
280
     2
  9
$HALOGAP
280
     0
  9
$OBSCOLOR
 70
   257
  9
$OBSLTYPE
280
     0
  9
$INTERSECTIONDISPLAY
280
     0
  9
$INTERSECTIONCOLOR
 70
   257
  9
$DIMASSOC
280
     2
  9
$PROJECTNAME
  1

  9
$CAMERADISPLAY
290
     0
  9
$LENSLENGTH
 40
50.0
  9
$CAMERAHEIGHT
 40
0.0
  9
$STEPSPERSEC
 40
2.0
  9
$STEPSIZE
 40
6.0
  9
$3DDWFPREC
 40
2.0
  9
$PSOLWIDTH
 40
0.25
  9
$PSOLHEIGHT
 40
4.0
  9
$LOFTANG1
 40
1.570796326794897
  9
$LOFTANG2
 40
1.570796326794897
  9
$LOFTMAG1
 40
0.0
  9
$LOFTMAG2
 40
0.0
  9
$LOFTPARAM
 70
     7
  9
$LOFTNORMALS
280
     1
  9
$LATITUDE
 40
37.795
  9
$LONGITUDE
 40
-122.394
  9
$NORTHDIRECTION
 40
0.0
  9
$TIMEZONE
 70
 -8000
  9
$LIGHTGLYPHDISPLAY
280
     1
  9
$TILEMODELIGHTSYNCH
280
     1
  9
$CMATERIAL
347
3C
  9
$SOLIDHIST
280
     1
  9
$SHOWHIST
280
     1
  9
$DWFFRAME
280
     2
  9
$DGNFRAME
280
     2
  9
$REALWORLDSCALE
290
     1
  9
$INTERFERECOLOR
 62
   256
  9
$CSHADOW
280
     0
  9
$SHADOWPLANELOCATION
 40
0.0
  0
ENDSEC
  0
SECTION
  2
CLASSES
  0
CLASS
  1
ACDBDICTIONARYWDFLT
  2
AcDbDictionaryWithDefault
  3
ObjectDBX Classes
 90
        0
 91
        4
280
     0
281
     0
  0
CLASS
  1
VISUALSTYLE
  2
AcDbVisualStyle
  3
ObjectDBX Classes
 90
     4095
 91
        4
280
     0
281
     0
  0
CLASS
  1
MATERIAL
  2
AcDbMaterial
  3
ObjectDBX Classes
 90
     1153
 91
        4
280
     0
281
     0
  0
CLASS
  1
SUN
  2
AcDbSun
  3
SCENEOE
 90
     1024
 91
        4
280
     0
281
     0
  0
ENDSEC
  0
SECTION
  2
TABLES
  0
TABLE
  2
VPORT
  5
8
330
0
100
AcDbSymbolTable
 70
     1
  0
VPORT
  5
29
330
8
100
AcDbSymbolTableRecord
100
AcDbViewportTableRecord
  2
*Active
 70
     0
 10
0.0
 20
0.0
 11
1.0
 21
1.0
 12
0.0
 22
0.0
 13
0.0
 23
0.0
 14
0.5
 24
0.5
 15
0.5
 25
0.5
 16
0.0
 26
0.0
 36
1.0
 17
91.00082462281999
 27
-128.4993055234307
 37
0.0
 40
256.9986110468615
 41
0.7081814508812795
 42
50.0
 43
0.0
 44
0.0
 50
0.0
 51
0.0
 71
     0
 72
   100
 73
     1
 74
     3
 75
     0
 76
     0
 77
     0
 78
     0
281
     0
 65
     1
110
0.0
120
0.0
130
0.0
111
1.0
121
0.0
131
0.0
112
0.0
122
1.0
132
0.0
 79
     0
146
0.0
 60
     3
 61
     5
292
     1
282
     1
141
0.0
142
0.0
 63
   250
361
3F
  0
ENDTAB
  0
TABLE
  2
LTYPE
  5
5
330
0
100
AcDbSymbolTable
 70
    39
  0
LTYPE
  5
14
330
5
100
AcDbSymbolTableRecord
100
AcDbLinetypeTableRecord
  2
ByBlock
 70
     0
  3

 72
    65
 73
     0
 40
0.0
  0
LTYPE
  5
15
330
5
100
AcDbSymbolTableRecord
100
AcDbLinetypeTableRecord
  2
ByLayer
 70
     0
  3

 72
    65
 73
     0
 40
0.0
  0
LTYPE
  5
16
330
5
100
AcDbSymbolTableRecord
100
AcDbLinetypeTableRecord
  2
Continuous
 70
     0
  3
Solid line
 72
    65
 73
     0
 40
0.0
  0
LTYPE
  5
265
330
5
100
AcDbSymbolTableRecord
100
AcDbLinetypeTableRecord
  2
AI-Linetype-1
 70
     0
  3
Adobe Illustrator Linetype No. 1
 72
    65
 73
     4
 40
2.822222221516667
 49
1.763888888447917
 74
     0
 49
-0.3527777776895833
 74
     0
 49
0.3527777776895833
 74
     0
 49
-0.3527777776895833
 74
     0
  0
LTYPE
  5
26A
330
5
100
AcDbSymbolTableRecord
100
AcDbLinetypeTableRecord
  2
AI-Linetype-2
 70
     0
  3
Adobe Illustrator Linetype No. 2
 72
    65
 73
     4
 40
2.822222221516667
 49
1.763888888447917
 74
     0
 49
-0.3527777776895833
 74
     0
 49
0.3527777776895833
 74
     0
 49
-0.3527777776895833
 74
     0
  0
LTYPE
  5
26F
330
5
100
AcDbSymbolTableRecord
100
AcDbLinetypeTableRecord
  2
AI-Linetype-3
 70
     0
  3
Adobe Illustrator Linetype No. 3
 72
    65
 73
     4
 40
2.822222221516667
 49
1.763888888447917
 74
     0
 49
-0.3527777776895833
 74
     0
 49
0.3527777776895833
 74
     0
 49
-0.3527777776895833
 74
     0
  0
LTYPE
  5
274
330
5
100
AcDbSymbolTableRecord
100
AcDbLinetypeTableRecord
  2
AI-Linetype-4
 70
     0
  3
Adobe Illustrator Linetype No. 4
 72
    65
 73
     2
 40
0.7055555553791667
 49
0.3527777776895833
 74
     0
 49
-0.3527777776895833
 74
     0
  0
LTYPE
  5
279
330
5
100
AcDbSymbolTableRecord
100
AcDbLinetypeTableRecord
  2
AI-Linetype-5
 70
     0
  3
Adobe Illustrator Linetype No. 5
 72
    65
 73
     2
 40
0.7055555553791667
 49
0.3527777776895833
 74
     0
 49
-0.3527777776895833
 74
     0
  0
LTYPE
  5
27E
330
5
100
AcDbSymbolTableRecord
100
AcDbLinetypeTableRecord
  2
AI-Linetype-6
 70
     0
  3
Adobe Illustrator Linetype No. 6
 72
    65
 73
     2
 40
0.7055555553791667
 49
0.3527777776895833
 74
     0
 49
-0.3527777776895833
 74
     0
  0
LTYPE
  5
283
330
5
100
AcDbSymbolTableRecord
100
AcDbLinetypeTableRecord
  2
AI-Linetype-7
 70
     0
  3
Adobe Illustrator Linetype No. 7
 72
    65
 73
     2
 40
0.7055555553791667
 49
0.3527777776895833
 74
     0
 49
-0.3527777776895833
 74
     0
  0
LTYPE
  5
288
330
5
100
AcDbSymbolTableRecord
100
AcDbLinetypeTableRecord
  2
AI-Linetype-8
 70
     0
  3
Adobe Illustrator Linetype No. 8
 72
    65
 73
     2
 40
0.7055555553791667
 49
0.3527777776895833
 74
     0
 49
-0.3527777776895833
 74
     0
  0
LTYPE
  5
28D
330
5
100
AcDbSymbolTableRecord
100
AcDbLinetypeTableRecord
  2
AI-Linetype-9
 70
     0
  3
Adobe Illustrator Linetype No. 9
 72
    65
 73
     2
 40
0.7055555553791667
 49
0.3527777776895833
 74
     0
 49
-0.3527777776895833
 74
     0
  0
LTYPE
  5
292
330
5
100
AcDbSymbolTableRecord
100
AcDbLinetypeTableRecord
  2
AI-Linetype-10
 70
     0
  3
Adobe Illustrator Linetype No. 10
 72
    65
 73
     2
 40
1.945569480965914
 49
1.297163904713483
 74
     0
 49
-0.6484055762524308
 74
     0
  0
LTYPE
  5
297
330
5
100
AcDbSymbolTableRecord
100
AcDbLinetypeTableRecord
  2
AI-Linetype-11
 70
     0
  3
Adobe Illustrator Linetype No. 11
 72
    65
 73
     2
 40
0.7055555553791667
 49
0.3527777776895833
 74
     0
 49
-0.3527777776895833
 74
     0
  0
LTYPE
  5
2BA
330
5
100
AcDbSymbolTableRecord
100
AcDbLinetypeTableRecord
  2
AI-Linetype-12
 70
     0
  3
Adobe Illustrator Linetype No. 12
 72
    65
 73
     4
 40
2.822222221516667
 49
1.763888888447917
 74
     0
 49
-0.3527777776895833
 74
     0
 49
0.3527777776895833
 74
     0
 49
-0.3527777776895833
 74
     0
  0
LTYPE
  5
2BF
330
5
100
AcDbSymbolTableRecord
100
AcDbLinetypeTableRecord
  2
AI-Linetype-13
 70
     0
  3
Adobe Illustrator Linetype No. 13
 72
    65
 73
     4
 40
2.822222221516667
 49
1.763888888447917
 74
     0
 49
-0.3527777776895833
 74
     0
 49
0.3527777776895833
 74
     0
 49
-0.3527777776895833
 74
     0
  0
LTYPE
  5
2C4
330
5
100
AcDbSymbolTableRecord
100
AcDbLinetypeTableRecord
  2
AI-Linetype-14
 70
     0
  3
Adobe Illustrator Linetype No. 14
 72
    65
 73
     2
 40
0.7055555553791667
 49
0.3527777776895833
 74
     0
 49
-0.3527777776895833
 74
     0
  0
LTYPE
  5
2C9
330
5
100
AcDbSymbolTableRecord
100
AcDbLinetypeTableRecord
  2
AI-Linetype-15
 70
     0
  3
Adobe Illustrator Linetype No. 15
 72
    65
 73
     2
 40
0.7055555553791667
 49
0.3527777776895833
 74
     0
 49
-0.3527777776895833
 74
     0
  0
LTYPE
  5
2CE
330
5
100
AcDbSymbolTableRecord
100
AcDbLinetypeTableRecord
  2
AI-Linetype-16
 70
     0
  3
Adobe Illustrator Linetype No. 16
 72
    65
 73
     2
 40
0.7055555553791667
 49
0.3527777776895833
 74
     0
 49
-0.3527777776895833
 74
     0
  0
LTYPE
  5
2D3
330
5
100
AcDbSymbolTableRecord
100
AcDbLinetypeTableRecord
  2
AI-Linetype-17
 70
     0
  3
Adobe Illustrator Linetype No. 17
 72
    65
 73
     2
 40
0.7055555553791667
 49
0.3527777776895833
 74
     0
 49
-0.3527777776895833
 74
     0
  0
LTYPE
  5
2D8
330
5
100
AcDbSymbolTableRecord
100
AcDbLinetypeTableRecord
  2
AI-Linetype-18
 70
     0
  3
Adobe Illustrator Linetype No. 18
 72
    65
 73
     2
 40
0.7055555553791667
 49
0.3527777776895833
 74
     0
 49
-0.3527777776895833
 74
     0
  0
LTYPE
  5
2DD
330
5
100
AcDbSymbolTableRecord
100
AcDbLinetypeTableRecord
  2
AI-Linetype-19
 70
     0
  3
Adobe Illustrator Linetype No. 19
 72
    65
 73
     2
 40
0.7055555553791667
 49
0.3527777776895833
 74
     0
 49
-0.3527777776895833
 74
     0
  0
LTYPE
  5
2E2
330
5
100
AcDbSymbolTableRecord
100
AcDbLinetypeTableRecord
  2
AI-Linetype-20
 70
     0
  3
Adobe Illustrator Linetype No. 20
 72
    65
 73
     2
 40
0.7055555553791667
 49
0.3527777776895833
 74
     0
 49
-0.3527777776895833
 74
     0
  0
LTYPE
  5
2E7
330
5
100
AcDbSymbolTableRecord
100
AcDbLinetypeTableRecord
  2
AI-Linetype-21
 70
     0
  3
Adobe Illustrator Linetype No. 21
 72
    65
 73
     2
 40
0.7055555553791667
 49
0.3527777776895833
 74
     0
 49
-0.3527777776895833
 74
     0
  0
LTYPE
  5
2EC
330
5
100
AcDbSymbolTableRecord
100
AcDbLinetypeTableRecord
  2
AI-Linetype-22
 70
     0
  3
Adobe Illustrator Linetype No. 22
 72
    65
 73
     2
 40
0.7055555553791667
 49
0.3527777776895833
 74
     0
 49
-0.3527777776895833
 74
     0
  0
LTYPE
  5
2F1
330
5
100
AcDbSymbolTableRecord
100
AcDbLinetypeTableRecord
  2
AI-Linetype-23
 70
     0
  3
Adobe Illustrator Linetype No. 23
 72
    65
 73
     2
 40
0.7055555553791667
 49
0.3527777776895833
 74
     0
 49
-0.3527777776895833
 74
     0
  0
LTYPE
  5
2F6
330
5
100
AcDbSymbolTableRecord
100
AcDbLinetypeTableRecord
  2
AI-Linetype-24
 70
     0
  3
Adobe Illustrator Linetype No. 24
 72
    65
 73
     2
 40
0.7055555553791667
 49
0.3527777776895833
 74
     0
 49
-0.3527777776895833
 74
     0
  0
LTYPE
  5
2FB
330
5
100
AcDbSymbolTableRecord
100
AcDbLinetypeTableRecord
  2
AI-Linetype-25
 70
     0
  3
Adobe Illustrator Linetype No. 25
 72
    65
 73
     2
 40
0.7055555553791667
 49
0.3527777776895833
 74
     0
 49
-0.3527777776895833
 74
     0
  0
LTYPE
  5
300
330
5
100
AcDbSymbolTableRecord
100
AcDbLinetypeTableRecord
  2
AI-Linetype-26
 70
     0
  3
Adobe Illustrator Linetype No. 26
 72
    65
 73
     2
 40
0.7055555553791667
 49
0.3527777776895833
 74
     0
 49
-0.3527777776895833
 74
     0
  0
LTYPE
  5
305
330
5
100
AcDbSymbolTableRecord
100
AcDbLinetypeTableRecord
  2
AI-Linetype-27
 70
     0
  3
Adobe Illustrator Linetype No. 27
 72
    65
 73
     2
 40
0.7055555553791667
 49
0.3527777776895833
 74
     0
 49
-0.3527777776895833
 74
     0
  0
LTYPE
  5
33C
330
5
100
AcDbSymbolTableRecord
100
AcDbLinetypeTableRecord
  2
AI-Linetype-28
 70
     0
  3
Adobe Illustrator Linetype No. 28
 72
    65
 73
     4
 40
2.822222221516667
 49
1.763888888447917
 74
     0
 49
-0.3527777776895833
 74
     0
 49
0.3527777776895833
 74
     0
 49
-0.3527777776895833
 74
     0
  0
LTYPE
  5
341
330
5
100
AcDbSymbolTableRecord
100
AcDbLinetypeTableRecord
  2
AI-Linetype-29
 70
     0
  3
Adobe Illustrator Linetype No. 29
 72
    65
 73
     4
 40
2.822222221516667
 49
1.763888888447917
 74
     0
 49
-0.3527777776895833
 74
     0
 49
0.3527777776895833
 74
     0
 49
-0.3527777776895833
 74
     0
  0
LTYPE
  5
346
330
5
100
AcDbSymbolTableRecord
100
AcDbLinetypeTableRecord
  2
AI-Linetype-30
 70
     0
  3
Adobe Illustrator Linetype No. 30
 72
    65
 73
     4
 40
2.822222221516667
 49
1.763888888447917
 74
     0
 49
-0.3527777776895833
 74
     0
 49
0.3527777776895833
 74
     0
 49
-0.3527777776895833
 74
     0
  0
LTYPE
  5
34B
330
5
100
AcDbSymbolTableRecord
100
AcDbLinetypeTableRecord
  2
AI-Linetype-31
 70
     0
  3
Adobe Illustrator Linetype No. 31
 72
    65
 73
     2
 40
0.7055555553791667
 49
0.3527777776895833
 74
     0
 49
-0.3527777776895833
 74
     0
  0
LTYPE
  5
350
330
5
100
AcDbSymbolTableRecord
100
AcDbLinetypeTableRecord
  2
AI-Linetype-32
 70
     0
  3
Adobe Illustrator Linetype No. 32
 72
    65
 73
     2
 40
0.7055555553791667
 49
0.3527777776895833
 74
     0
 49
-0.3527777776895833
 74
     0
  0
LTYPE
  5
355
330
5
100
AcDbSymbolTableRecord
100
AcDbLinetypeTableRecord
  2
AI-Linetype-33
 70
     0
  3
Adobe Illustrator Linetype No. 33
 72
    65
 73
     2
 40
0.7055555553791667
 49
0.3527777776895833
 74
     0
 49
-0.3527777776895833
 74
     0
  0
LTYPE
  5
35A
330
5
100
AcDbSymbolTableRecord
100
AcDbLinetypeTableRecord
  2
AI-Linetype-34
 70
     0
  3
Adobe Illustrator Linetype No. 34
 72
    65
 73
     2
 40
0.7055555553791667
 49
0.3527777776895833
 74
     0
 49
-0.3527777776895833
 74
     0
  0
LTYPE
  5
35F
330
5
100
AcDbSymbolTableRecord
100
AcDbLinetypeTableRecord
  2
AI-Linetype-35
 70
     0
  3
Adobe Illustrator Linetype No. 35
 72
    65
 73
     2
 40
0.7055555553791667
 49
0.3527777776895833
 74
     0
 49
-0.3527777776895833
 74
     0
  0
LTYPE
  5
364
330
5
100
AcDbSymbolTableRecord
100
AcDbLinetypeTableRecord
  2
AI-Linetype-36
 70
     0
  3
Adobe Illustrator Linetype No. 36
 72
    65
 73
     2
 40
0.7055555553791667
 49
0.3527777776895833
 74
     0
 49
-0.3527777776895833
 74
     0
  0
LTYPE
  5
369
330
5
100
AcDbSymbolTableRecord
100
AcDbLinetypeTableRecord
  2
AI-Linetype-37
 70
     0
  3
Adobe Illustrator Linetype No. 37
 72
    65
 73
     2
 40
0.7055555553791667
 49
0.3527777776895833
 74
     0
 49
-0.3527777776895833
 74
     0
  0
LTYPE
  5
36E
330
5
100
AcDbSymbolTableRecord
100
AcDbLinetypeTableRecord
  2
AI-Linetype-38
 70
     0
  3
Adobe Illustrator Linetype No. 38
 72
    65
 73
     2
 40
0.7055555553791667
 49
0.3527777776895833
 74
     0
 49
-0.3527777776895833
 74
     0
  0
ENDTAB
  0
TABLE
  2
LAYER
  5
2
330
0
100
AcDbSymbolTable
 70
     2
  0
LAYER
  5
10
330
2
100
AcDbSymbolTableRecord
100
AcDbLayerTableRecord
  2
0
 70
     0
 62
     7
  6
Continuous
370
    -3
390
F
347
3E
  0
LAYER
  5
40
330
2
100
AcDbSymbolTableRecord
100
AcDbLayerTableRecord
  2
_U+30EC_U+30A4_U+30E4_U+30FC 1
 70
     0
 62
     7
  6
Continuous
370
    -3
390
F
347
3E
  0
ENDTAB
  0
TABLE
  2
STYLE
  5
3
330
0
100
AcDbSymbolTable
 70
     1
  0
STYLE
  5
11
330
3
100
AcDbSymbolTableRecord
100
AcDbTextStyleTableRecord
  2
Standard
 70
     0
 40
0.0
 41
1.0
 50
0.0
 71
     0
 42
0.2
  3
txt
  4

  0
ENDTAB
  0
TABLE
  2
VIEW
  5
6
330
0
100
AcDbSymbolTable
 70
     0
  0
ENDTAB
  0
TABLE
  2
UCS
  5
7
330
0
100
AcDbSymbolTable
 70
     0
  0
ENDTAB
  0
TABLE
  2
APPID
  5
9
330
0
100
AcDbSymbolTable
 70
     1
  0
APPID
  5
12
330
9
100
AcDbSymbolTableRecord
100
AcDbRegAppTableRecord
  2
ACAD
 70
     0
  0
ENDTAB
  0
TABLE
  2
DIMSTYLE
  5
A
330
0
100
AcDbSymbolTable
 70
     1
100
AcDbDimStyleTable
  0
DIMSTYLE
105
27
330
A
100
AcDbSymbolTableRecord
100
AcDbDimStyleTableRecord
  2
Standard
 70
     0
178
     0
340
11
  0
ENDTAB
  0
TABLE
  2
BLOCK_RECORD
  5
1
330
0
100
AcDbSymbolTable
 70
    20
  0
BLOCK_RECORD
  5
1F
330
1
100
AcDbSymbolTableRecord
100
AcDbBlockTableRecord
  2
*Model_Space
340
22
 70
     0
280
     1
281
     0
  0
BLOCK_RECORD
  5
1B
330
1
100
AcDbSymbolTableRecord
100
AcDbBlockTableRecord
  2
*Paper_Space
340
1E
 70
     0
280
     1
281
     0
  0
BLOCK_RECORD
  5
23
330
1
100
AcDbSymbolTableRecord
100
AcDbBlockTableRecord
  2
*Paper_Space0
340
26
 70
     0
280
     1
281
     0
  0
BLOCK_RECORD
  5
4A
330
1
100
AcDbSymbolTableRecord
100
AcDbBlockTableRecord
  2
block 2
340
0
102
{BLKREFS
331
4B
102
}
 70
     0
280
     1
281
     0
  0
BLOCK_RECORD
  5
50
330
1
100
AcDbSymbolTableRecord
100
AcDbBlockTableRecord
  2
block 3
340
0
102
{BLKREFS
331
51
102
}
 70
     0
280
     1
281
     0
  0
BLOCK_RECORD
  5
5C
330
1
100
AcDbSymbolTableRecord
100
AcDbBlockTableRecord
  2
block 4
340
0
102
{BLKREFS
331
5D
102
}
 70
     0
280
     1
281
     0
  0
BLOCK_RECORD
  5
64
330
1
100
AcDbSymbolTableRecord
100
AcDbBlockTableRecord
  2
block 5
340
0
102
{BLKREFS
331
65
102
}
 70
     0
280
     1
281
     0
  0
BLOCK_RECORD
  5
6A
330
1
100
AcDbSymbolTableRecord
100
AcDbBlockTableRecord
  2
block 6
340
0
102
{BLKREFS
331
6B
102
}
 70
     0
280
     1
281
     0
  0
BLOCK_RECORD
  5
8A
330
1
100
AcDbSymbolTableRecord
100
AcDbBlockTableRecord
  2
block 7
340
0
102
{BLKREFS
331
8B
102
}
 70
     0
280
     1
281
     0
  0
BLOCK_RECORD
  5
DD
330
1
100
AcDbSymbolTableRecord
100
AcDbBlockTableRecord
  2
block 8
340
0
102
{BLKREFS
331
DE
102
}
 70
     0
280
     1
281
     0
  0
BLOCK_RECORD
  5
E3
330
1
100
AcDbSymbolTableRecord
100
AcDbBlockTableRecord
  2
block 9
340
0
102
{BLKREFS
331
E4
102
}
 70
     0
280
     1
281
     0
  0
BLOCK_RECORD
  5
EF
330
1
100
AcDbSymbolTableRecord
100
AcDbBlockTableRecord
  2
block 10
340
0
102
{BLKREFS
331
F0
102
}
 70
     0
280
     1
281
     0
  0
BLOCK_RECORD
  5
11B
330
1
100
AcDbSymbolTableRecord
100
AcDbBlockTableRecord
  2
block 11
340
0
102
{BLKREFS
331
11C
102
}
 70
     0
280
     1
281
     0
  0
BLOCK_RECORD
  5
141
330
1
100
AcDbSymbolTableRecord
100
AcDbBlockTableRecord
  2
block 12
340
0
102
{BLKREFS
331
142
102
}
 70
     0
280
     1
281
     0
  0
BLOCK_RECORD
  5
147
330
1
100
AcDbSymbolTableRecord
100
AcDbBlockTableRecord
  2
block 13
340
0
102
{BLKREFS
331
148
102
}
 70
     0
280
     1
281
     0
  0
BLOCK_RECORD
  5
16A
330
1
100
AcDbSymbolTableRecord
100
AcDbBlockTableRecord
  2
block 14
340
0
102
{BLKREFS
331
16B
102
}
 70
     0
280
     1
281
     0
  0
BLOCK_RECORD
  5
171
330
1
100
AcDbSymbolTableRecord
100
AcDbBlockTableRecord
  2
block 15
340
0
102
{BLKREFS
331
172
102
}
 70
     0
280
     1
281
     0
  0
BLOCK_RECORD
  5
19A
330
1
100
AcDbSymbolTableRecord
100
AcDbBlockTableRecord
  2
block 16
340
0
102
{BLKREFS
331
19B
102
}
 70
     0
280
     1
281
     0
  0
BLOCK_RECORD
  5
1C4
330
1
100
AcDbSymbolTableRecord
100
AcDbBlockTableRecord
  2
block 17
340
0
102
{BLKREFS
331
1C5
102
}
 70
     0
280
     1
281
     0
  0
BLOCK_RECORD
  5
1E7
330
1
100
AcDbSymbolTableRecord
100
AcDbBlockTableRecord
  2
block 18
340
0
102
{BLKREFS
331
1E8
102
}
 70
     0
280
     1
281
     0
  0
BLOCK_RECORD
  5
20A
330
1
100
AcDbSymbolTableRecord
100
AcDbBlockTableRecord
  2
block 19
340
0
102
{BLKREFS
331
20B
102
}
 70
     0
280
     1
281
     0
  0
BLOCK_RECORD
  5
210
330
1
100
AcDbSymbolTableRecord
100
AcDbBlockTableRecord
  2
block 20
340
0
102
{BLKREFS
331
211
102
}
 70
     0
280
     1
281
     0
  0
ENDTAB
  0
ENDSEC
  0
SECTION
  2
BLOCKS
  0
BLOCK
  5
20
330
1F
100
AcDbEntity
  8
0
100
AcDbBlockBegin
  2
*Model_Space
 70
     0
 10
0.0
 20
0.0
 30
0.0
  3
*Model_Space
  1

  0
ENDBLK
  5
21
330
1F
100
AcDbEntity
  8
0
100
AcDbBlockEnd
  0
BLOCK
  5
1C
330
1B
100
AcDbEntity
 67
     1
  8
0
100
AcDbBlockBegin
  2
*Paper_Space
 70
     0
 10
0.0
 20
0.0
 30
0.0
  3
*Paper_Space
  1

  0
ENDBLK
  5
1D
330
1B
100
AcDbEntity
 67
     1
  8
0
100
AcDbBlockEnd
  0
BLOCK
  5
24
330
23
100
AcDbEntity
  8
0
100
AcDbBlockBegin
  2
*Paper_Space0
 70
     0
 10
0.0
 20
0.0
 30
0.0
  3
*Paper_Space0
  1

  0
ENDBLK
  5
25
330
23
100
AcDbEntity
  8
0
100
AcDbBlockEnd
  0
BLOCK
  5
4C
330
4A
100
AcDbEntity
  8
0
100
AcDbBlockBegin
  2
block 2
 70
     0
 10
0.0
 20
0.0
 30
0.0
  3
block 2
  1

  0
SPLINE
  5
4E
330
4A
100
AcDbEntity
  8
_U+30EC_U+30A4_U+30E4_U+30FC 1
370
     0
100
AcDbSpline
210
0.0
220
0.0
230
1.0
 70
    11
 71
     3
 72
    53
 73
    49
 74
     0
 42
0.0000000001
 43
0.0000000001
 12
1.0
 22
0.0
 32
0.0
 13
1.0
 23
0.0
 33
0.0
 40
0.0
 40
0.0
 40
0.0
 40
0.0
 40
1.0
 40
1.0
 40
1.0
 40
2.0
 40
2.0
 40
2.0
 40
3.0
 40
3.0
 40
3.0
 40
4.0
 40
4.0
 40
4.0
 40
5.0
 40
5.0
 40
5.0
 40
6.0
 40
6.0
 40
6.0
 40
7.0
 40
7.0
 40
7.0
 40
8.0
 40
8.0
 40
8.0
 40
9.0
 40
9.0
 40
9.0
 40
10.0
 40
10.0
 40
10.0
 40
11.0
 40
11.0
 40
11.0
 40
12.0
 40
12.0
 40
12.0
 40
13.0
 40
13.0
 40
13.0
 40
14.0
 40
14.0
 40
14.0
 40
15.0
 40
15.0
 40
15.0
 40
16.0
 40
16.0
 40
16.0
 40
16.0
 10
102.5033040108325
 20
-139.879144930308
 30
0.0
 10
102.4447373875833
 20
-139.8271239884807
 30
0.0
 10
102.3799695924606
 20
-139.7471977732229
 30
0.0
 10
102.3462076567051
 20
-139.6324760935641
 30
0.0
 10
102.28901907165
 20
-139.4350721222593
 30
0.0
 10
102.3606770577432
 20
-139.3227620094401
 30
0.0
 10
102.4178656427983
 20
-139.2297444313384
 30
0.0
 10
102.4178656427983
 20
-139.2297444313384
 30
0.0
 10
102.5839192451874
 20
-139.3771945181071
 30
0.0
 10
102.5839192451874
 20
-139.3771945181071
 30
0.0
 10
102.4929687243768
 20
-139.5618516361165
 30
0.0
 10
102.5684163155037
 20
-139.6686495961592
 30
0.0
 10
102.6380072443058
 20
-139.7303168053452
 30
0.0
 10
102.7423936375089
 20
-139.8229898738984
 30
0.0
 10
102.9222276218389
 20
-139.8495171091348
 30
0.0
 10
103.0765678995781
 20
-139.6755397871297
 30
0.0
 10
103.2467556165494
 20
-139.4839924781498
 30
0.0
 10
103.158561172127
 20
-139.3124267229844
 30
0.0
 10
103.0682996704135
 20
-139.2325005077266
 30
0.0
 10
103.0448730211138
 20
-139.2114854252666
 30
0.0
 10
102.9387640801681
 20
-139.1174343185193
 30
0.0
 10
102.78649085972
 20
-139.155330368857
 30
0.0
 10
102.78649085972
 20
-139.155330368857
 30
0.0
 10
102.6676350654789
 20
-139.0244167404175
 30
0.0
 10
102.6676350654789
 20
-139.0244167404175
 30
0.0
 10
102.6676350654789
 20
-139.0244167404175
 30
0.0
 10
103.3197916408367
 20
-138.4711344054864
 30
0.0
 10
103.3197916408367
 20
-138.4711344054864
 30
0.0
 10
103.3197916408367
 20
-138.4711344054864
 30
0.0
 10
103.902012777844
 20
-138.9878987282739
 30
0.0
 10
103.902012777844
 20
-138.9878987282739
 30
0.0
 10
103.902012777844
 20
-138.9878987282739
 30
0.0
 10
103.7728216971471
 20
-139.1332817577514
 30
0.0
 10
103.7728216971471
 20
-139.1332817577514
 30
0.0
 10
103.7728216971471
 20
-139.1332817577514
 30
0.0
 10
103.3122124307692
 20
-138.7246934332008
 30
0.0
 10
103.3122124307692
 20
-138.7246934332008
 30
0.0
 10
103.3122124307692
 20
-138.7246934332008
 30
0.0
 10
102.9825167928308
 20
-138.9978895051811
 30
0.0
 10
102.9825167928308
 20
-138.9978895051811
 30
0.0
 10
103.0507296834387
 20
-139.0133924348647
 30
0.0
 10
103.1392686374096
 20
-139.0375081032615
 30
0.0
 10
103.2281521009291
 20
-139.1164007898737
 30
0.0
 10
103.4176323526178
 20
-139.2848659591024
 30
0.0
 10
103.4713758421877
 20
-139.5818331899309
 30
0.0
 10
103.2632920748786
 20
-139.8160996829279
 30
0.0
 10
103.0531412502784
 20
-140.0531222523131
 30
0.0
 10
102.7296467842134
 20
-140.0799939970981
 30
0.0
 10
102.5033040108325
 20
-139.879144930308
 30
0.0
  0
HATCH
  5
4F
330
4A
100
AcDbEntity
  8
_U+30EC_U+30A4_U+30E4_U+30FC 1
 62
     7
420
 16777215
100
AcDbHatch
 10
0.0
 20
0.0
 30
0.0
210
0.0
220
0.0
230
1.0
  2
SOLID
 70
     1
 71
     0
 91
        1
 92
        1
 93
        1
 72
     4
 94
        3
 73
     0
 74
     1
 95
       53
 96
       49
 40
0.0
 40
0.0
 40
0.0
 40
0.0
 40
1.0
 40
1.0
 40
1.0
 40
2.0
 40
2.0
 40
2.0
 40
3.0
 40
3.0
 40
3.0
 40
4.0
 40
4.0
 40
4.0
 40
5.0
 40
5.0
 40
5.0
 40
6.0
 40
6.0
 40
6.0
 40
7.0
 40
7.0
 40
7.0
 40
8.0
 40
8.0
 40
8.0
 40
9.0
 40
9.0
 40
9.0
 40
10.0
 40
10.0
 40
10.0
 40
11.0
 40
11.0
 40
11.0
 40
12.0
 40
12.0
 40
12.0
 40
13.0
 40
13.0
 40
13.0
 40
14.0
 40
14.0
 40
14.0
 40
15.0
 40
15.0
 40
15.0
 40
16.0
 40
16.0
 40
16.0
 40
16.0
 10
102.5033040108325
 20
-139.879144930308
 10
102.4447373875833
 20
-139.8271239884807
 10
102.3799695924606
 20
-139.7471977732229
 10
102.3462076567051
 20
-139.6324760935641
 10
102.28901907165
 20
-139.4350721222593
 10
102.3606770577432
 20
-139.3227620094401
 10
102.4178656427983
 20
-139.2297444313384
 10
102.4178656427983
 20
-139.2297444313384
 10
102.5839192451874
 20
-139.3771945181071
 10
102.5839192451874
 20
-139.3771945181071
 10
102.4929687243768
 20
-139.5618516361165
 10
102.5684163155037
 20
-139.6686495961592
 10
102.6380072443058
 20
-139.7303168053452
 10
102.7423936375089
 20
-139.8229898738984
 10
102.9222276218389
 20
-139.8495171091348
 10
103.0765678995781
 20
-139.6755397871297
 10
103.2467556165494
 20
-139.4839924781498
 10
103.158561172127
 20
-139.3124267229844
 10
103.0682996704135
 20
-139.2325005077266
 10
103.0448730211138
 20
-139.2114854252666
 10
102.9387640801681
 20
-139.1174343185193
 10
102.78649085972
 20
-139.155330368857
 10
102.78649085972
 20
-139.155330368857
 10
102.6676350654789
 20
-139.0244167404175
 10
102.6676350654789
 20
-139.0244167404175
 10
102.6676350654789
 20
-139.0244167404175
 10
103.3197916408367
 20
-138.4711344054864
 10
103.3197916408367
 20
-138.4711344054864
 10
103.3197916408367
 20
-138.4711344054864
 10
103.902012777844
 20
-138.9878987282739
 10
103.902012777844
 20
-138.9878987282739
 10
103.902012777844
 20
-138.9878987282739
 10
103.7728216971471
 20
-139.1332817577514
 10
103.7728216971471
 20
-139.1332817577514
 10
103.7728216971471
 20
-139.1332817577514
 10
103.3122124307692
 20
-138.7246934332008
 10
103.3122124307692
 20
-138.7246934332008
 10
103.3122124307692
 20
-138.7246934332008
 10
102.9825167928308
 20
-138.9978895051811
 10
102.9825167928308
 20
-138.9978895051811
 10
103.0507296834387
 20
-139.0133924348647
 10
103.1392686374096
 20
-139.0375081032615
 10
103.2281521009291
 20
-139.1164007898737
 10
103.4176323526178
 20
-139.2848659591024
 10
103.4713758421877
 20
-139.5818331899309
 10
103.2632920748786
 20
-139.8160996829279
 10
103.0531412502784
 20
-140.0531222523131
 10
102.7296467842134
 20
-140.0799939970981
 10
102.5033040108325
 20
-139.879144930308
 97
        0
 97
        0
 75
     2
 76
     1
 98
        0
  0
ENDBLK
  5
4D
330
4A
100
AcDbEntity
  8
0
100
AcDbBlockEnd
  0
BLOCK
  5
52
330
50
100
AcDbEntity
  8
0
100
AcDbBlockBegin
  2
block 3
 70
     0
 10
0.0
 20
0.0
 30
0.0
  3
block 3
  1

  0
POLYLINE
  5
54
330
50
100
AcDbEntity
  8
_U+30EC_U+30A4_U+30E4_U+30FC 1
370
     0
100
AcDb2dPolyline
 66
     1
 10
0.0
 20
0.0
 30
0.0
  0
VERTEX
  5
55
330
54
100
AcDbEntity
  8
_U+30EC_U+30A4_U+30E4_U+30FC 1
370
     0
100
AcDbVertex
100
AcDb2dVertex
 10
101.8118733469429
 20
-139.1980495528741
 30
0.0
  0
VERTEX
  5
56
330
54
100
AcDbEntity
  8
_U+30EC_U+30A4_U+30E4_U+30FC 1
370
     0
100
AcDbVertex
100
AcDb2dVertex
 10
101.9789604779775
 20
-139.0099473393795
 30
0.0
  0
VERTEX
  5
57
330
54
100
AcDbEntity
  8
_U+30EC_U+30A4_U+30E4_U+30FC 1
370
     0
100
AcDbVertex
100
AcDb2dVertex
 10
102.1674072010207
 20
-139.1770344704141
 30
0.0
  0
VERTEX
  5
58
330
54
100
AcDbEntity
  8
_U+30EC_U+30A4_U+30E4_U+30FC 1
370
     0
100
AcDbVertex
100
AcDb2dVertex
 10
102.000320069986
 20
-139.3654811934572
 30
0.0
  0
VERTEX
  5
59
330
54
100
AcDbEntity
  8
_U+30EC_U+30A4_U+30E4_U+30FC 1
370
     0
100
AcDbVertex
100
AcDb2dVertex
 10
101.8118733469429
 20
-139.1980495528741
 30
0.0
  0
SEQEND
  5
5A
330
54
100
AcDbEntity
  8
_U+30EC_U+30A4_U+30E4_U+30FC 1
370
     0
  0
HATCH
  5
5B
330
50
100
AcDbEntity
  8
_U+30EC_U+30A4_U+30E4_U+30FC 1
 62
     7
420
 16777215
100
AcDbHatch
 10
0.0
 20
0.0
 30
0.0
210
0.0
220
0.0
230
1.0
  2
SOLID
 70
     1
 71
     0
 91
        1
 92
        1
 93
        4
 72
     1
 10
101.8118733469429
 20
-139.1980495528741
 11
101.9789604779775
 21
-139.0099473393795
 72
     1
 10
101.9789604779775
 20
-139.0099473393795
 11
102.1674072010207
 21
-139.1770344704141
 72
     1
 10
102.1674072010207
 20
-139.1770344704141
 11
102.000320069986
 21
-139.3654811934572
 72
     1
 10
102.000320069986
 20
-139.3654811934572
 11
101.8118733469429
 21
-139.1980495528741
 97
        0
 75
     2
 76
     1
 98
        0
  0
ENDBLK
  5
53
330
50
100
AcDbEntity
  8
0
100
AcDbBlockEnd
  0
BLOCK
  5
5E
330
5C
100
AcDbEntity
  8
0
100
AcDbBlockBegin
  2
block 4
 70
     0
 10
0.0
 20
0.0
 30
0.0
  3
block 4
  1

  0
SPLINE
  5
60
330
5C
100
AcDbEntity
  8
_U+30EC_U+30A4_U+30E4_U+30FC 1
370
     0
100
AcDbSpline
210
0.0
220
0.0
230
1.0
 70
    11
 71
     3
 72
    29
 73
    25
 74
     0
 42
0.0000000001
 43
0.0000000001
 12
1.0
 22
0.0
 32
0.0
 13
1.0
 23
0.0
 33
0.0
 40
0.0
 40
0.0
 40
0.0
 40
0.0
 40
1.0
 40
1.0
 40
1.0
 40
2.0
 40
2.0
 40
2.0
 40
3.0
 40
3.0
 40
3.0
 40
4.0
 40
4.0
 40
4.0
 40
5.0
 40
5.0
 40
5.0
 40
6.0
 40
6.0
 40
6.0
 40
7.0
 40
7.0
 40
7.0
 40
8.0
 40
8.0
 40
8.0
 40
8.0
 10
101.109762887049
 20
-138.6427001606518
 30
0.0
 10
100.910291858453
 20
-138.46562225271
 30
0.0
 10
100.8117621275748
 20
-138.1944932380208
 30
0.0
 10
101.0432725441836
 20
-137.9336995097874
 30
0.0
 10
101.2131157516065
 20
-137.7421522008075
 30
0.0
 10
101.3822699399322
 20
-137.7648898310102
 30
0.0
 10
101.5021592628189
 20
-137.7893500089554
 30
0.0
 10
101.448415773249
 20
-137.6622259855497
 30
0.0
 10
101.4673637984179
 20
-137.5261447138824
 30
0.0
 10
101.5738172489121
 20
-137.4059108814471
 30
0.0
 10
101.7564073096303
 20
-137.2002386809777
 30
0.0
 10
101.9948079172096
 20
-137.2309000307964
 30
0.0
 10
102.2008246272276
 20
-137.4134900915147
 30
0.0
 10
102.4126979995704
 20
-137.6015923050093
 30
0.0
 10
102.4598958077184
 20
-137.8358587980063
 30
0.0
 10
102.2828178997765
 20
-138.0349853170538
 30
0.0
 10
102.1760199397338
 20
-138.155219149489
 30
0.0
 10
102.041661215809
 20
-138.1886365756959
 30
0.0
 10
101.9090250396269
 20
-138.1500515062611
 30
0.0
 10
101.9417534467368
 20
-138.2472031989452
 30
0.0
 10
101.9975639935978
 20
-138.4235920877899
 30
0.0
 10
101.8232421620442
 20
-138.6199625304492
 30
0.0
 10
101.5745062680092
 20
-138.9000487934
 30
0.0
 10
101.2885633427334
 20
-138.8011745529733
 30
0.0
 10
101.109762887049
 20
-138.6427001606518
 30
0.0
  0
SPLINE
  5
61
330
5C
100
AcDbEntity
  8
_U+30EC_U+30A4_U+30E4_U+30FC 1
370
     0
100
AcDbSpline
210
0.0
220
0.0
230
1.0
 70
    11
 71
     3
 72
    17
 73
    13
 74
     0
 42
0.0000000001
 43
0.0000000001
 12
1.0
 22
0.0
 32
0.0
 13
1.0
 23
0.0
 33
0.0
 40
0.0
 40
0.0
 40
0.0
 40
0.0
 40
1.0
 40
1.0
 40
1.0
 40
2.0
 40
2.0
 40
2.0
 40
3.0
 40
3.0
 40
3.0
 40
4.0
 40
4.0
 40
4.0
 40
4.0
 10
101.634795439001
 20
-138.0508327562859
 30
0.0
 10
101.5273084598612
 20
-137.955748120893
 30
0.0
 10
101.3553981951473
 20
-137.9192301087494
 30
0.0
 10
101.2210394712225
 20
-138.0715033291974
 30
0.0
 10
101.0846136900066
 20
-138.224810078291
 30
0.0
 10
101.1121744538886
 20
-138.3850070183551
 30
0.0
 10
101.2389539677458
 20
-138.4973171311743
 30
0.0
 10
101.3781358253499
 20
-138.6206515495462
 30
0.0
 10
101.5421223704478
 20
-138.6020480339259
 30
0.0
 10
101.6599446360433
 20
-138.4690673481952
 30
0.0
 10
101.807394722812
 20
-138.3030137458062
 30
0.0
 10
101.7343586985247
 20
-138.1397162198054
 30
0.0
 10
101.634795439001
 20
-138.0508327562859
 30
0.0
  0
SPLINE
  5
62
330
5C
100
AcDbEntity
  8
_U+30EC_U+30A4_U+30E4_U+30FC 1
370
     0
100
AcDbSpline
210
0.0
220
0.0
230
1.0
 70
    11
 71
     3
 72
    17
 73
    13
 74
     0
 42
0.0000000001
 43
0.0000000001
 12
1.0
 22
0.0
 32
0.0
 13
1.0
 23
0.0
 33
0.0
 40
0.0
 40
0.0
 40
0.0
 40
0.0
 40
1.0
 40
1.0
 40
1.0
 40
2.0
 40
2.0
 40
2.0
 40
3.0
 40
3.0
 40
3.0
 40
4.0
 40
4.0
 40
4.0
 40
4.0
 10
102.0726670751763
 20
-137.5574950827981
 30
0.0
 10
101.9493326568043
 20
-137.4479410463672
 30
0.0
 10
101.8228976524957
 20
-137.4627549569538
 30
0.0
 10
101.7329806603307
 20
-137.5640407642201
 30
0.0
 10
101.6516764068787
 20
-137.6560248136763
 30
0.0
 10
101.626871719385
 20
-137.7921060853436
 30
0.0
 10
101.7598524051156
 20
-137.9102728604877
 30
0.0
 10
101.8928330908462
 20
-138.0280951260833
 30
0.0
 10
102.0251247574798
 20
-137.9874429993573
 30
0.0
 10
102.1064290109317
 20
-137.8958034594497
 30
0.0
 10
102.1966905126453
 20
-137.7945176521833
 30
0.0
 10
102.1946234553541
 20
-137.665671081035
 30
0.0
 10
102.0726670751763
 20
-137.5574950827981
 30
0.0
  0
HATCH
  5
63
330
5C
100
AcDbEntity
  8
_U+30EC_U+30A4_U+30E4_U+30FC 1
 62
     7
420
 16777215
100
AcDbHatch
 10
0.0
 20
0.0
 30
0.0
210
0.0
220
0.0
230
1.0
  2
SOLID
 70
     1
 71
     0
 91
        3
 92
        1
 93
        1
 72
     4
 94
        3
 73
     0
 74
     1
 95
       29
 96
       25
 40
0.0
 40
0.0
 40
0.0
 40
0.0
 40
1.0
 40
1.0
 40
1.0
 40
2.0
 40
2.0
 40
2.0
 40
3.0
 40
3.0
 40
3.0
 40
4.0
 40
4.0
 40
4.0
 40
5.0
 40
5.0
 40
5.0
 40
6.0
 40
6.0
 40
6.0
 40
7.0
 40
7.0
 40
7.0
 40
8.0
 40
8.0
 40
8.0
 40
8.0
 10
101.109762887049
 20
-138.6427001606518
 10
100.910291858453
 20
-138.46562225271
 10
100.8117621275748
 20
-138.1944932380208
 10
101.0432725441836
 20
-137.9336995097874
 10
101.2131157516065
 20
-137.7421522008075
 10
101.3822699399322
 20
-137.7648898310102
 10
101.5021592628189
 20
-137.7893500089554
 10
101.448415773249
 20
-137.6622259855497
 10
101.4673637984179
 20
-137.5261447138824
 10
101.5738172489121
 20
-137.4059108814471
 10
101.7564073096303
 20
-137.2002386809777
 10
101.9948079172096
 20
-137.2309000307964
 10
102.2008246272276
 20
-137.4134900915147
 10
102.4126979995704
 20
-137.6015923050093
 10
102.4598958077184
 20
-137.8358587980063
 10
102.2828178997765
 20
-138.0349853170538
 10
102.1760199397338
 20
-138.155219149489
 10
102.041661215809
 20
-138.1886365756959
 10
101.9090250396269
 20
-138.1500515062611
 10
101.9417534467368
 20
-138.2472031989452
 10
101.9975639935978
 20
-138.4235920877899
 10
101.8232421620442
 20
-138.6199625304492
 10
101.5745062680092
 20
-138.9000487934
 10
101.2885633427334
 20
-138.8011745529733
 10
101.109762887049
 20
-138.6427001606518
 97
        0
 97
        0
 92
        1
 93
        1
 72
     4
 94
        3
 73
     0
 74
     1
 95
       17
 96
       13
 40
0.0
 40
0.0
 40
0.0
 40
0.0
 40
1.0
 40
1.0
 40
1.0
 40
2.0
 40
2.0
 40
2.0
 40
3.0
 40
3.0
 40
3.0
 40
4.0
 40
4.0
 40
4.0
 40
4.0
 10
101.634795439001
 20
-138.0508327562859
 10
101.5273084598612
 20
-137.955748120893
 10
101.3553981951473
 20
-137.9192301087494
 10
101.2210394712225
 20
-138.0715033291974
 10
101.0846136900066
 20
-138.224810078291
 10
101.1121744538886
 20
-138.3850070183551
 10
101.2389539677458
 20
-138.4973171311743
 10
101.3781358253499
 20
-138.6206515495462
 10
101.5421223704478
 20
-138.6020480339259
 10
101.6599446360433
 20
-138.4690673481952
 10
101.807394722812
 20
-138.3030137458062
 10
101.7343586985247
 20
-138.1397162198054
 10
101.634795439001
 20
-138.0508327562859
 97
        0
 97
        0
 92
        1
 93
        1
 72
     4
 94
        3
 73
     0
 74
     1
 95
       17
 96
       13
 40
0.0
 40
0.0
 40
0.0
 40
0.0
 40
1.0
 40
1.0
 40
1.0
 40
2.0
 40
2.0
 40
2.0
 40
3.0
 40
3.0
 40
3.0
 40
4.0
 40
4.0
 40
4.0
 40
4.0
 10
102.0726670751763
 20
-137.5574950827981
 10
101.9493326568043
 20
-137.4479410463672
 10
101.8228976524957
 20
-137.4627549569538
 10
101.7329806603307
 20
-137.5640407642201
 10
101.6516764068787
 20
-137.6560248136763
 10
101.626871719385
 20
-137.7921060853436
 10
101.7598524051156
 20
-137.9102728604877
 10
101.8928330908462
 20
-138.0280951260833
 10
102.0251247574798
 20
-137.9874429993573
 10
102.1064290109317
 20
-137.8958034594497
 10
102.1966905126453
 20
-137.7945176521833
 10
102.1946234553541
 20
-137.665671081035
 10
102.0726670751763
 20
-137.5574950827981
 97
        0
 97
        0
 75
     2
 76
     1
 98
        0
  0
ENDBLK
  5
5F
330
5C
100
AcDbEntity
  8
0
100
AcDbBlockEnd
  0
BLOCK
  5
66
330
64
100
AcDbEntity
  8
0
100
AcDbBlockBegin
  2
block 5
 70
     0
 10
0.0
 20
0.0
 30
0.0
  3
block 5
  1

  0
SPLINE
  5
68
330
64
100
AcDbEntity
  8
_U+30EC_U+30A4_U+30E4_U+30FC 1
370
     0
100
AcDbSpline
210
0.0
220
0.0
230
1.0
 70
    11
 71
     3
 72
    44
 73
    40
 74
     0
 42
0.0000000001
 43
0.0000000001
 12
1.0
 22
0.0
 32
0.0
 13
1.0
 23
0.0
 33
0.0
 40
0.0
 40
0.0
 40
0.0
 40
0.0
 40
1.0
 40
1.0
 40
1.0
 40
2.0
 40
2.0
 40
2.0
 40
3.0
 40
3.0
 40
3.0
 40
4.0
 40
4.0
 40
4.0
 40
5.0
 40
5.0
 40
5.0
 40
6.0
 40
6.0
 40
6.0
 40
7.0
 40
7.0
 40
7.0
 40
8.0
 40
8.0
 40
8.0
 40
9.0
 40
9.0
 40
9.0
 40
10.0
 40
10.0
 40
10.0
 40
11.0
 40
11.0
 40
11.0
 40
12.0
 40
12.0
 40
12.0
 40
13.0
 40
13.0
 40
13.0
 40
13.0
 10
100.6016113029746
 20
-137.3463107295523
 30
0.0
 10
100.3335828742222
 20
-137.3204725134129
 30
0.0
 10
100.2143825704325
 20
-137.3142713415395
 30
0.0
 10
100.082779922896
 20
-137.3893744231179
 30
0.0
 10
100.082779922896
 20
-137.3893744231179
 30
0.0
 10
100.6650010599032
 20
-137.9061387459054
 30
0.0
 10
100.6650010599032
 20
-137.9061387459054
 30
0.0
 10
100.6650010599032
 20
-137.9061387459054
 30
0.0
 10
100.5289197882358
 20
-138.0597900045476
 30
0.0
 10
100.5289197882358
 20
-138.0597900045476
 30
0.0
 10
100.5289197882358
 20
-138.0597900045476
 30
0.0
 10
99.75997447592806
 20
-137.3773165889196
 30
0.0
 10
99.75997447592806
 20
-137.3773165889196
 30
0.0
 10
100.0207682041615
 20
-137.1309922617242
 30
0.0
 10
100.1220540114278
 20
-137.1158338415891
 30
0.0
 10
100.607812474848
 20
-137.1482177391505
 30
0.0
 10
100.931306940913
 20
-137.169577331159
 30
0.0
 10
101.0253580476603
 20
-137.1619981210914
 30
0.0
 10
101.1163085684709
 20
-137.059334275631
 30
0.0
 10
101.1952012550831
 20
-136.9707953216601
 30
0.0
 10
101.227929662193
 20
-136.825067782634
 30
0.0
 10
101.0811685945214
 20
-136.6941541541945
 30
0.0
 10
100.8865206996048
 20
-136.521899379932
 30
0.0
 10
100.7273572881862
 20
-136.6886420014181
 30
0.0
 10
100.6467420538314
 20
-136.7727023312582
 30
0.0
 10
100.6467420538314
 20
-136.7727023312582
 30
0.0
 10
100.4789659036997
 20
-136.6238742062954
 30
0.0
 10
100.4789659036997
 20
-136.6238742062954
 30
0.0
 10
100.5699164245103
 20
-136.5346462332274
 30
0.0
 10
100.6519096970593
 20
-136.4578206039064
 30
0.0
 10
100.7910915546633
 20
-136.4226806299568
 30
0.0
 10
100.979882787255
 20
-136.3751383122604
 30
0.0
 10
101.1418022750618
 20
-136.4736680431385
 30
0.0
 10
101.2286186812901
 20
-136.5508381820081
 30
0.0
 10
101.4360134295021
 20
-136.7348062809205
 30
0.0
 10
101.4690863461605
 20
-137.0097249006434
 30
0.0
 10
101.2878743236364
 20
-137.2140190629187
 30
0.0
 10
101.1359456127368
 20
-137.3852403085356
 30
0.0
 10
100.9833278827403
 20
-137.3824842321474
 30
0.0
 10
100.6016113029746
 20
-137.3463107295523
 30
0.0
  0
HATCH
  5
69
330
64
100
AcDbEntity
  8
_U+30EC_U+30A4_U+30E4_U+30FC 1
 62
     7
420
 16777215
100
AcDbHatch
 10
0.0
 20
0.0
 30
0.0
210
0.0
220
0.0
230
1.0
  2
SOLID
 70
     1
 71
     0
 91
        1
 92
        1
 93
        1
 72
     4
 94
        3
 73
     0
 74
     1
 95
       44
 96
       40
 40
0.0
 40
0.0
 40
0.0
 40
0.0
 40
1.0
 40
1.0
 40
1.0
 40
2.0
 40
2.0
 40
2.0
 40
3.0
 40
3.0
 40
3.0
 40
4.0
 40
4.0
 40
4.0
 40
5.0
 40
5.0
 40
5.0
 40
6.0
 40
6.0
 40
6.0
 40
7.0
 40
7.0
 40
7.0
 40
8.0
 40
8.0
 40
8.0
 40
9.0
 40
9.0
 40
9.0
 40
10.0
 40
10.0
 40
10.0
 40
11.0
 40
11.0
 40
11.0
 40
12.0
 40
12.0
 40
12.0
 40
13.0
 40
13.0
 40
13.0
 40
13.0
 10
100.6016113029746
 20
-137.3463107295523
 10
100.3335828742222
 20
-137.3204725134129
 10
100.2143825704325
 20
-137.3142713415395
 10
100.082779922896
 20
-137.3893744231179
 10
100.082779922896
 20
-137.3893744231179
 10
100.6650010599032
 20
-137.9061387459054
 10
100.6650010599032
 20
-137.9061387459054
 10
100.6650010599032
 20
-137.9061387459054
 10
100.5289197882358
 20
-138.0597900045476
 10
100.5289197882358
 20
-138.0597900045476
 10
100.5289197882358
 20
-138.0597900045476
 10
99.75997447592806
 20
-137.3773165889196
 10
99.75997447592806
 20
-137.3773165889196
 10
100.0207682041615
 20
-137.1309922617242
 10
100.1220540114278
 20
-137.1158338415891
 10
100.607812474848
 20
-137.1482177391505
 10
100.931306940913
 20
-137.169577331159
 10
101.0253580476603
 20
-137.1619981210914
 10
101.1163085684709
 20
-137.059334275631
 10
101.1952012550831
 20
-136.9707953216601
 10
101.227929662193
 20
-136.825067782634
 10
101.0811685945214
 20
-136.6941541541945
 10
100.8865206996048
 20
-136.521899379932
 10
100.7273572881862
 20
-136.6886420014181
 10
100.6467420538314
 20
-136.7727023312582
 10
100.6467420538314
 20
-136.7727023312582
 10
100.4789659036997
 20
-136.6238742062954
 10
100.4789659036997
 20
-136.6238742062954
 10
100.5699164245103
 20
-136.5346462332274
 10
100.6519096970593
 20
-136.4578206039064
 10
100.7910915546633
 20
-136.4226806299568
 10
100.979882787255
 20
-136.3751383122604
 10
101.1418022750618
 20
-136.4736680431385
 10
101.2286186812901
 20
-136.5508381820081
 10
101.4360134295021
 20
-136.7348062809205
 10
101.4690863461605
 20
-137.0097249006434
 10
101.2878743236364
 20
-137.2140190629187
 10
101.1359456127368
 20
-137.3852403085356
 10
100.9833278827403
 20
-137.3824842321474
 10
100.6016113029746
 20
-137.3463107295523
 97
        0
 97
        0
 75
     2
 76
     1
 98
        0
  0
ENDBLK
  5
67
330
64
100
AcDbEntity
  8
0
100
AcDbBlockEnd
  0
BLOCK
  5
6C
330
6A
100
AcDbEntity
  8
0
100
AcDbBlockBegin
  2
block 6
 70
     0
 10
0.0
 20
0.0
 30
0.0
  3
block 6
  1

  0
SPLINE
  5
6E
330
6A
100
AcDbEntity
  8
_U+30EC_U+30A4_U+30E4_U+30FC 1
370
     0
100
AcDbSpline
210
0.0
220
0.0
230
1.0
 70
    11
 71
     3
 72
    44
 73
    40
 74
     0
 42
0.0000000001
 43
0.0000000001
 12
1.0
 22
0.0
 32
0.0
 13
1.0
 23
0.0
 33
0.0
 40
0.0
 40
0.0
 40
0.0
 40
0.0
 40
1.0
 40
1.0
 40
1.0
 40
2.0
 40
2.0
 40
2.0
 40
3.0
 40
3.0
 40
3.0
 40
4.0
 40
4.0
 40
4.0
 40
5.0
 40
5.0
 40
5.0
 40
6.0
 40
6.0
 40
6.0
 40
7.0
 40
7.0
 40
7.0
 40
8.0
 40
8.0
 40
8.0
 40
9.0
 40
9.0
 40
9.0
 40
10.0
 40
10.0
 40
10.0
 40
11.0
 40
11.0
 40
11.0
 40
12.0
 40
12.0
 40
12.0
 40
13.0
 40
13.0
 40
13.0
 40
13.0
 10
99.44578176767328
 20
-137.0989528737114
 30
0.0
 10
99.45783960187165
 20
-137.0503770273694
 30
0.0
 10
99.47713213658905
 20
-136.9966335377995
 30
0.0
 10
99.62871633794005
 20
-136.8230007253429
 30
0.0
 10
99.78719073026154
 20
-136.637999097785
 30
0.0
 10
99.78925778755269
 20
-136.5467040674258
 30
0.0
 10
99.65627710182204
 20
-136.4285372922818
 30
0.0
 10
99.65627710182204
 20
-136.4285372922818
 30
0.0
 10
99.35069713228039
 20
-136.1574082775926
 30
0.0
 10
99.35069713228039
 20
-136.1574082775926
 30
0.0
 10
99.35069713228039
 20
-136.1574082775926
 30
0.0
 10
98.92522783985203
 20
-136.6369655691394
 30
0.0
 10
98.92522783985203
 20
-136.6369655691394
 30
0.0
 10
98.92522783985203
 20
-136.6369655691394
 30
0.0
 10
98.7495279701043
 20
-136.4812472532061
 30
0.0
 10
98.7495279701043
 20
-136.4812472532061
 30
0.0
 10
98.7495279701043
 20
-136.4812472532061
 30
0.0
 10
99.77478838651464
 20
-135.3257622274533
 30
0.0
 10
99.77478838651464
 20
-135.3257622274533
 30
0.0
 10
99.77478838651464
 20
-135.3257622274533
 30
0.0
 10
100.2794948751037
 20
-135.7736246405358
 30
0.0
 10
100.2794948751037
 20
-135.7736246405358
 30
0.0
 10
100.5092827439699
 20
-135.9775742932626
 30
0.0
 10
100.5203070495227
 20
-136.2166639199389
 30
0.0
 10
100.3501193325514
 20
-136.4082112289188
 30
0.0
 10
100.3163573967959
 20
-136.4461072792565
 30
0.0
 10
100.255379206707
 20
-136.5022623356661
 30
0.0
 10
100.1689073100272
 20
-136.5329236854848
 30
0.0
 10
100.055908178111
 20
-136.5711642453711
 30
0.0
 10
99.99389645937653
 20
-136.5418809337465
 30
0.0
 10
99.93705238386991
 20
-136.5136311507674
 30
0.0
 10
100.0118109558998
 20
-136.6366210595909
 30
0.0
 10
100.0297254524231
 20
-136.7175808034942
 30
0.0
 10
99.82439776150224
 20
-136.9566704301706
 30
0.0
 10
99.64766436310892
 20
-137.1619981210914
 30
0.0
 10
99.65317651588532
 20
-137.2091959292394
 30
0.0
 10
99.66730140737485
 20
-137.2956678259191
 30
0.0
 10
99.66730140737485
 20
-137.2956678259191
 30
0.0
 10
99.44578176767328
 20
-137.0989528737114
 30
0.0
 10
99.44578176767328
 20
-137.0989528737114
 30
0.0
  0
SPLINE
  5
6F
330
6A
100
AcDbEntity
  8
_U+30EC_U+30A4_U+30E4_U+30FC 1
370
     0
100
AcDbSpline
210
0.0
220
0.0
230
1.0
 70
    11
 71
     3
 72
    20
 73
    16
 74
     0
 42
0.0000000001
 43
0.0000000001
 12
1.0
 22
0.0
 32
0.0
 13
1.0
 23
0.0
 33
0.0
 40
0.0
 40
0.0
 40
0.0
 40
0.0
 40
1.0
 40
1.0
 40
1.0
 40
2.0
 40
2.0
 40
2.0
 40
3.0
 40
3.0
 40
3.0
 40
4.0
 40
4.0
 40
4.0
 40
5.0
 40
5.0
 40
5.0
 40
5.0
 10
100.1423800747908
 20
-135.9348551092455
 30
0.0
 10
100.1423800747908
 20
-135.9348551092455
 30
0.0
 10
99.80992836046418
 20
-135.6399549357081
 30
0.0
 10
99.80992836046418
 20
-135.6399549357081
 30
0.0
 10
99.80992836046418
 20
-135.6399549357081
 30
0.0
 10
99.49091251853005
 20
-135.9992783948196
 30
0.0
 10
99.49091251853005
 20
-135.9992783948196
 30
0.0
 10
99.49091251853005
 20
-135.9992783948196
 30
0.0
 10
99.82164168511405
 20
-136.2924560206144
 30
0.0
 10
99.82164168511405
 20
-136.2924560206144
 30
0.0
 10
99.89605574759544
 20
-136.3586018539312
 30
0.0
 10
100.0483289680435
 20
-136.3916747705896
 30
0.0
 10
100.1616726095082
 20
-136.2635172185383
 30
0.0
 10
100.2136935513355
 20
-136.204950595289
 30
0.0
 10
100.2912081997536
 20
-136.0671467758791
 30
0.0
 10
100.1423800747908
 20
-135.9348551092455
 30
0.0
  0
HATCH
  5
70
330
6A
100
AcDbEntity
  8
_U+30EC_U+30A4_U+30E4_U+30FC 1
 62
     7
420
 16777215
100
AcDbHatch
 10
0.0
 20
0.0
 30
0.0
210
0.0
220
0.0
230
1.0
  2
SOLID
 70
     1
 71
     0
 91
        2
 92
        1
 93
        1
 72
     4
 94
        3
 73
     0
 74
     1
 95
       44
 96
       40
 40
0.0
 40
0.0
 40
0.0
 40
0.0
 40
1.0
 40
1.0
 40
1.0
 40
2.0
 40
2.0
 40
2.0
 40
3.0
 40
3.0
 40
3.0
 40
4.0
 40
4.0
 40
4.0
 40
5.0
 40
5.0
 40
5.0
 40
6.0
 40
6.0
 40
6.0
 40
7.0
 40
7.0
 40
7.0
 40
8.0
 40
8.0
 40
8.0
 40
9.0
 40
9.0
 40
9.0
 40
10.0
 40
10.0
 40
10.0
 40
11.0
 40
11.0
 40
11.0
 40
12.0
 40
12.0
 40
12.0
 40
13.0
 40
13.0
 40
13.0
 40
13.0
 10
99.44578176767328
 20
-137.0989528737114
 10
99.45783960187165
 20
-137.0503770273694
 10
99.47713213658905
 20
-136.9966335377995
 10
99.62871633794005
 20
-136.8230007253429
 10
99.78719073026154
 20
-136.637999097785
 10
99.78925778755269
 20
-136.5467040674258
 10
99.65627710182204
 20
-136.4285372922818
 10
99.65627710182204
 20
-136.4285372922818
 10
99.35069713228039
 20
-136.1574082775926
 10
99.35069713228039
 20
-136.1574082775926
 10
99.35069713228039
 20
-136.1574082775926
 10
98.92522783985203
 20
-136.6369655691394
 10
98.92522783985203
 20
-136.6369655691394
 10
98.92522783985203
 20
-136.6369655691394
 10
98.7495279701043
 20
-136.4812472532061
 10
98.7495279701043
 20
-136.4812472532061
 10
98.7495279701043
 20
-136.4812472532061
 10
99.77478838651464
 20
-135.3257622274533
 10
99.77478838651464
 20
-135.3257622274533
 10
99.77478838651464
 20
-135.3257622274533
 10
100.2794948751037
 20
-135.7736246405358
 10
100.2794948751037
 20
-135.7736246405358
 10
100.5092827439699
 20
-135.9775742932626
 10
100.5203070495227
 20
-136.2166639199389
 10
100.3501193325514
 20
-136.4082112289188
 10
100.3163573967959
 20
-136.4461072792565
 10
100.255379206707
 20
-136.5022623356661
 10
100.1689073100272
 20
-136.5329236854848
 10
100.055908178111
 20
-136.5711642453711
 10
99.99389645937653
 20
-136.5418809337465
 10
99.93705238386991
 20
-136.5136311507674
 10
100.0118109558998
 20
-136.6366210595909
 10
100.0297254524231
 20
-136.7175808034942
 10
99.82439776150224
 20
-136.9566704301706
 10
99.64766436310892
 20
-137.1619981210914
 10
99.65317651588532
 20
-137.2091959292394
 10
99.66730140737485
 20
-137.2956678259191
 10
99.66730140737485
 20
-137.2956678259191
 10
99.44578176767328
 20
-137.0989528737114
 10
99.44578176767328
 20
-137.0989528737114
 97
        0
 97
        0
 92
        1
 93
        1
 72
     4
 94
        3
 73
     0
 74
     1
 95
       20
 96
       16
 40
0.0
 40
0.0
 40
0.0
 40
0.0
 40
1.0
 40
1.0
 40
1.0
 40
2.0
 40
2.0
 40
2.0
 40
3.0
 40
3.0
 40
3.0
 40
4.0
 40
4.0
 40
4.0
 40
5.0
 40
5.0
 40
5.0
 40
5.0
 10
100.1423800747908
 20
-135.9348551092455
 10
100.1423800747908
 20
-135.9348551092455
 10
99.80992836046418
 20
-135.6399549357081
 10
99.80992836046418
 20
-135.6399549357081
 10
99.80992836046418
 20
-135.6399549357081
 10
99.49091251853005
 20
-135.9992783948196
 10
99.49091251853005
 20
-135.9992783948196
 10
99.49091251853005
 20
-135.9992783948196
 10
99.82164168511405
 20
-136.2924560206144
 10
99.82164168511405
 20
-136.2924560206144
 10
99.89605574759544
 20
-136.3586018539312
 10
100.0483289680435
 20
-136.3916747705896
 10
100.1616726095082
 20
-136.2635172185383
 10
100.2136935513355
 20
-136.204950595289
 10
100.2912081997536
 20
-136.0671467758791
 10
100.1423800747908
 20
-135.9348551092455
 97
        0
 97
        0
 75
     2
 76
     1
 98
        0
  0
ENDBLK
  5
6D
330
6A
100
AcDbEntity
  8
0
100
AcDbBlockEnd
  0
BLOCK
  5
8C
330
8A
100
AcDbEntity
  8
0
100
AcDbBlockBegin
  2
block 7
 70
     0
 10
0.0
 20
0.0
 30
0.0
  3
block 7
  1

  0
POLYLINE
  5
8E
330
8A
100
AcDbEntity
  8
_U+30EC_U+30A4_U+30E4_U+30FC 1
370
     0
100
AcDb2dPolyline
 66
     1
 10
0.0
 20
0.0
 30
0.0
  0
VERTEX
  5
8F
330
8E
100
AcDbEntity
  8
_U+30EC_U+30A4_U+30E4_U+30FC 1
370
     0
100
AcDbVertex
100
AcDb2dVertex
 10
74.59475773959784
 20
-124.8137423733105
 30
0.0
  0
VERTEX
  5
90
330
8E
100
AcDbEntity
  8
_U+30EC_U+30A4_U+30E4_U+30FC 1
370
     0
100
AcDbVertex
100
AcDb2dVertex
 10
74.59475773959784
 20
-125.1606634886751
 30
0.0
  0
VERTEX
  5
91
330
8E
100
AcDbEntity
  8
_U+30EC_U+30A4_U+30E4_U+30FC 1
370
     0
100
AcDbVertex
100
AcDb2dVertex
 10
74.37685545015579
 20
-125.1606634886751
 30
0.0
  0
VERTEX
  5
92
330
8E
100
AcDbEntity
  8
_U+30EC_U+30A4_U+30E4_U+30FC 1
370
     0
100
AcDbVertex
100
AcDb2dVertex
 10
74.37685545015579
 20
-124.8137423733105
 30
0.0
  0
VERTEX
  5
93
330
8E
100
AcDbEntity
  8
_U+30EC_U+30A4_U+30E4_U+30FC 1
370
     0
100
AcDbVertex
100
AcDb2dVertex
 10
73.72108152453848
 20
-124.8137423733105
 30
0.0
  0
VERTEX
  5
94
330
8E
100
AcDbEntity
  8
_U+30EC_U+30A4_U+30E4_U+30FC 1
370
     0
100
AcDbVertex
100
AcDb2dVertex
 10
73.72108152453848
 20
-124.5894666572207
 30
0.0
  0
VERTEX
  5
95
330
8E
100
AcDbEntity
  8
_U+30EC_U+30A4_U+30E4_U+30FC 1
370
     0
100
AcDbVertex
100
AcDb2dVertex
 10
74.40010984468123
 20
-123.6162271826376
 30
0.0
  0
VERTEX
  5
96
330
8E
100
AcDbEntity
  8
_U+30EC_U+30A4_U+30E4_U+30FC 1
370
     0
100
AcDbVertex
100
AcDb2dVertex
 10
74.59475773959784
 20
-123.6162271826376
 30
0.0
  0
VERTEX
  5
97
330
8E
100
AcDbEntity
  8
_U+30EC_U+30A4_U+30E4_U+30FC 1
370
     0
100
AcDbVertex
100
AcDb2dVertex
 10
74.59475773959784
 20
-124.6149603638115
 30
0.0
  0
VERTEX
  5
98
330
8E
100
AcDbEntity
  8
_U+30EC_U+30A4_U+30E4_U+30FC 1
370
     0
100
AcDbVertex
100
AcDb2dVertex
 10
74.80215248780988
 20
-124.6149603638115
 30
0.0
  0
VERTEX
  5
99
330
8E
100
AcDbEntity
  8
_U+30EC_U+30A4_U+30E4_U+30FC 1
370
     0
100
AcDbVertex
100
AcDb2dVertex
 10
74.80215248780988
 20
-124.8137423733105
 30
0.0
  0
VERTEX
  5
9A
330
8E
100
AcDbEntity
  8
_U+30EC_U+30A4_U+30E4_U+30FC 1
370
     0
100
AcDbVertex
100
AcDb2dVertex
 10
74.59475773959784
 20
-124.8137423733105
 30
0.0
  0
SEQEND
  5
9B
330
8E
100
AcDbEntity
  8
_U+30EC_U+30A4_U+30E4_U+30FC 1
370
     0
  0
POLYLINE
  5
9C
330
8A
100
AcDbEntity
  8
_U+30EC_U+30A4_U+30E4_U+30FC 1
370
     0
100
AcDb2dPolyline
 66
     1
 10
0.0
 20
0.0
 30
0.0
  0
VERTEX
  5
9D
330
9C
100
AcDbEntity
  8
_U+30EC_U+30A4_U+30E4_U+30FC 1
370
     0
100
AcDbVertex
100
AcDb2dVertex
 10
74.37685545015579
 20
-123.95901418342
 30
0.0
  0
VERTEX
  5
9E
330
9C
100
AcDbEntity
  8
_U+30EC_U+30A4_U+30E4_U+30FC 1
370
     0
100
AcDbVertex
100
AcDb2dVertex
 10
73.92003578881166
 20
-124.6149603638115
 30
0.0
  0
VERTEX
  5
9F
330
9C
100
AcDbEntity
  8
_U+30EC_U+30A4_U+30E4_U+30FC 1
370
     0
100
AcDbVertex
100
AcDb2dVertex
 10
74.37685545015579
 20
-124.6149603638115
 30
0.0
  0
VERTEX
  5
A0
330
9C
100
AcDbEntity
  8
_U+30EC_U+30A4_U+30E4_U+30FC 1
370
     0
100
AcDbVertex
100
AcDb2dVertex
 10
74.37685545015579
 20
-123.95901418342
 30
0.0
  0
SEQEND
  5
A1
330
9C
100
AcDbEntity
  8
_U+30EC_U+30A4_U+30E4_U+30FC 1
370
     0
  0
HATCH
  5
A2
330
8A
100
AcDbEntity
  8
_U+30EC_U+30A4_U+30E4_U+30FC 1
 62
     7
420
 16777215
100
AcDbHatch
 10
0.0
 20
0.0
 30
0.0
210
0.0
220
0.0
230
1.0
  2
SOLID
 70
     1
 71
     0
 91
        2
 92
        1
 93
       11
 72
     1
 10
74.59475773959784
 20
-124.8137423733105
 11
74.59475773959784
 21
-125.1606634886751
 72
     1
 10
74.59475773959784
 20
-125.1606634886751
 11
74.37685545015579
 21
-125.1606634886751
 72
     1
 10
74.37685545015579
 20
-125.1606634886751
 11
74.37685545015579
 21
-124.8137423733105
 72
     1
 10
74.37685545015579
 20
-124.8137423733105
 11
73.72108152453848
 21
-124.8137423733105
 72
     1
 10
73.72108152453848
 20
-124.8137423733105
 11
73.72108152453848
 21
-124.5894666572207
 72
     1
 10
73.72108152453848
 20
-124.5894666572207
 11
74.40010984468123
 21
-123.6162271826376
 72
     1
 10
74.40010984468123
 20
-123.6162271826376
 11
74.59475773959784
 21
-123.6162271826376
 72
     1
 10
74.59475773959784
 20
-123.6162271826376
 11
74.59475773959784
 21
-124.6149603638115
 72
     1
 10
74.59475773959784
 20
-124.6149603638115
 11
74.80215248780988
 21
-124.6149603638115
 72
     1
 10
74.80215248780988
 20
-124.6149603638115
 11
74.80215248780988
 21
-124.8137423733105
 72
     1
 10
74.80215248780988
 20
-124.8137423733105
 11
74.59475773959784
 21
-124.8137423733105
 97
        0
 92
        1
 93
        3
 72
     1
 10
74.37685545015579
 20
-123.95901418342
 11
73.92003578881166
 21
-124.6149603638115
 72
     1
 10
73.92003578881166
 20
-124.6149603638115
 11
74.37685545015579
 21
-124.6149603638115
 72
     1
 10
74.37685545015579
 20
-124.6149603638115
 11
74.37685545015579
 21
-123.95901418342
 97
        0
 75
     2
 76
     1
 98
        0
  0
POLYLINE
  5
A3
330
8A
100
AcDbEntity
  8
_U+30EC_U+30A4_U+30E4_U+30FC 1
370
     0
100
AcDb2dPolyline
 66
     1
 10
0.0
 20
0.0
 30
0.0
  0
VERTEX
  5
A4
330
A3
100
AcDbEntity
  8
_U+30EC_U+30A4_U+30E4_U+30FC 1
370
     0
100
AcDbVertex
100
AcDb2dVertex
 10
74.9995564591147
 20
-125.1606634886751
 30
0.0
  0
VERTEX
  5
A5
330
A3
100
AcDbEntity
  8
_U+30EC_U+30A4_U+30E4_U+30FC 1
370
     0
100
AcDbVertex
100
AcDb2dVertex
 10
74.9995564591147
 20
-124.9088270087034
 30
0.0
  0
VERTEX
  5
A6
330
A3
100
AcDbEntity
  8
_U+30EC_U+30A4_U+30E4_U+30FC 1
370
     0
100
AcDbVertex
100
AcDb2dVertex
 10
75.2512206843122
 20
-124.9088270087034
 30
0.0
  0
VERTEX
  5
A7
330
A3
100
AcDbEntity
  8
_U+30EC_U+30A4_U+30E4_U+30FC 1
370
     0
100
AcDbVertex
100
AcDb2dVertex
 10
75.2512206843122
 20
-125.1606634886751
 30
0.0
  0
VERTEX
  5
A8
330
A3
100
AcDbEntity
  8
_U+30EC_U+30A4_U+30E4_U+30FC 1
370
     0
100
AcDbVertex
100
AcDb2dVertex
 10
74.9995564591147
 20
-125.1606634886751
 30
0.0
  0
SEQEND
  5
A9
330
A3
100
AcDbEntity
  8
_U+30EC_U+30A4_U+30E4_U+30FC 1
370
     0
  0
HATCH
  5
AA
330
8A
100
AcDbEntity
  8
_U+30EC_U+30A4_U+30E4_U+30FC 1
 62
     7
420
 16777215
100
AcDbHatch
 10
0.0
 20
0.0
 30
0.0
210
0.0
220
0.0
230
1.0
  2
SOLID
 70
     1
 71
     0
 91
        1
 92
        1
 93
        4
 72
     1
 10
74.9995564591147
 20
-125.1606634886751
 11
74.9995564591147
 21
-124.9088270087034
 72
     1
 10
74.9995564591147
 20
-124.9088270087034
 11
75.2512206843122
 21
-124.9088270087034
 72
     1
 10
75.2512206843122
 20
-124.9088270087034
 11
75.2512206843122
 21
-125.1606634886751
 72
     1
 10
75.2512206843122
 20
-125.1606634886751
 11
74.9995564591147
 21
-125.1606634886751
 97
        0
 75
     2
 76
     1
 98
        0
  0
SPLINE
  5
AB
330
8A
100
AcDbEntity
  8
_U+30EC_U+30A4_U+30E4_U+30FC 1
370
     0
100
AcDbSpline
210
0.0
220
0.0
230
1.0
 70
    11
 71
     3
 72
    53
 73
    49
 74
     0
 42
0.0000000001
 43
0.0000000001
 12
1.0
 22
0.0
 32
0.0
 13
1.0
 23
0.0
 33
0.0
 40
0.0
 40
0.0
 40
0.0
 40
0.0
 40
1.0
 40
1.0
 40
1.0
 40
2.0
 40
2.0
 40
2.0
 40
3.0
 40
3.0
 40
3.0
 40
4.0
 40
4.0
 40
4.0
 40
5.0
 40
5.0
 40
5.0
 40
6.0
 40
6.0
 40
6.0
 40
7.0
 40
7.0
 40
7.0
 40
8.0
 40
8.0
 40
8.0
 40
9.0
 40
9.0
 40
9.0
 40
10.0
 40
10.0
 40
10.0
 40
11.0
 40
11.0
 40
11.0
 40
12.0
 40
12.0
 40
12.0
 40
13.0
 40
13.0
 40
13.0
 40
14.0
 40
14.0
 40
14.0
 40
15.0
 40
15.0
 40
15.0
 40
16.0
 40
16.0
 40
16.0
 40
16.0
 10
75.96883407388974
 20
-125.2113063923083
 30
0.0
 10
75.8904581516003
 20
-125.2113063923083
 30
0.0
 10
75.78900008955969
 20
-125.1944254244306
 30
0.0
 10
75.68736977274483
 20
-125.131035667502
 30
0.0
 10
75.5139092150625
 20
-125.0211371215225
 30
0.0
 10
75.49272187782822
 20
-124.8898789835345
 30
0.0
 10
75.47377385265933
 20
-124.7820474948462
 30
0.0
 10
75.47377385265933
 20
-124.7820474948462
 30
0.0
 10
75.69581025668369
 20
-124.7820474948462
 30
0.0
 10
75.69581025668369
 20
-124.7820474948462
 30
0.0
 10
75.75093178444769
 20
-124.9808295043451
 30
0.0
 10
75.87788355307914
 20
-125.0104573255182
 30
0.0
 10
75.9709011311809
 20
-125.0104573255182
 30
0.0
 10
76.11042749833351
 20
-125.0104573255182
 30
0.0
 10
76.26287297355582
 20
-124.9108940659945
 30
0.0
 10
76.26287297355582
 20
-124.6783501207401
 30
0.0
 10
76.26287297355582
 20
-124.4223795261861
 30
0.0
 10
76.08303898922577
 20
-124.3524440878355
 30
0.0
 10
75.96246064724203
 20
-124.3524440878355
 30
0.0
 10
75.93076576877773
 20
-124.3524440878355
 30
0.0
 10
75.78900008955969
 20
-124.3524440878355
 30
0.0
 10
75.70011662604026
 20
-124.4816351685324
 30
0.0
 10
75.70011662604026
 20
-124.4816351685324
 30
0.0
 10
75.52458901106677
 20
-124.4626871433635
 30
0.0
 10
75.52458901106677
 20
-124.4626871433635
 30
0.0
 10
75.52458901106677
 20
-124.4626871433635
 30
0.0
 10
75.64516735305051
 20
-123.6162271826376
 30
0.0
 10
75.64516735305051
 20
-123.6162271826376
 30
0.0
 10
75.64516735305051
 20
-123.6162271826376
 30
0.0
 10
76.42358667794272
 20
-123.6162271826376
 30
0.0
 10
76.42358667794272
 20
-123.6162271826376
 30
0.0
 10
76.42358667794272
 20
-123.6162271826376
 30
0.0
 10
76.42358667794272
 20
-123.8108750775542
 30
0.0
 10
76.42358667794272
 20
-123.8108750775542
 30
0.0
 10
76.42358667794272
 20
-123.8108750775542
 30
0.0
 10
75.80794811472857
 20
-123.8108750775542
 30
0.0
 10
75.80794811472857
 20
-123.8108750775542
 30
0.0
 10
75.80794811472857
 20
-123.8108750775542
 30
0.0
 10
75.74249130050883
 20
-124.2339328031429
 30
0.0
 10
75.74249130050883
 20
-124.2339328031429
 30
0.0
 10
75.80381400014628
 20
-124.2001708673875
 30
0.0
 10
75.886324037018
 20
-124.15986325021
 30
0.0
 10
76.00466306693633
 20
-124.15986325021
 30
0.0
 10
76.25856660419925
 20
-124.15986325021
 30
0.0
 10
76.49558917358443
 20
-124.3462429159621
 30
0.0
 10
76.49558917358443
 20
-124.6594020955713
 30
0.0
 10
76.49558917358443
 20
-124.9766953897628
 30
0.0
 10
76.27131345749467
 20
-125.2113063923083
 30
0.0
 10
75.96883407388974
 20
-125.2113063923083
 30
0.0
  0
HATCH
  5
AC
330
8A
100
AcDbEntity
  8
_U+30EC_U+30A4_U+30E4_U+30FC 1
 62
     7
420
 16777215
100
AcDbHatch
 10
0.0
 20
0.0
 30
0.0
210
0.0
220
0.0
230
1.0
  2
SOLID
 70
     1
 71
     0
 91
        1
 92
        1
 93
        1
 72
     4
 94
        3
 73
     0
 74
     1
 95
       53
 96
       49
 40
0.0
 40
0.0
 40
0.0
 40
0.0
 40
1.0
 40
1.0
 40
1.0
 40
2.0
 40
2.0
 40
2.0
 40
3.0
 40
3.0
 40
3.0
 40
4.0
 40
4.0
 40
4.0
 40
5.0
 40
5.0
 40
5.0
 40
6.0
 40
6.0
 40
6.0
 40
7.0
 40
7.0
 40
7.0
 40
8.0
 40
8.0
 40
8.0
 40
9.0
 40
9.0
 40
9.0
 40
10.0
 40
10.0
 40
10.0
 40
11.0
 40
11.0
 40
11.0
 40
12.0
 40
12.0
 40
12.0
 40
13.0
 40
13.0
 40
13.0
 40
14.0
 40
14.0
 40
14.0
 40
15.0
 40
15.0
 40
15.0
 40
16.0
 40
16.0
 40
16.0
 40
16.0
 10
75.96883407388974
 20
-125.2113063923083
 10
75.8904581516003
 20
-125.2113063923083
 10
75.78900008955969
 20
-125.1944254244306
 10
75.68736977274483
 20
-125.131035667502
 10
75.5139092150625
 20
-125.0211371215225
 10
75.49272187782822
 20
-124.8898789835345
 10
75.47377385265933
 20
-124.7820474948462
 10
75.47377385265933
 20
-124.7820474948462
 10
75.69581025668369
 20
-124.7820474948462
 10
75.69581025668369
 20
-124.7820474948462
 10
75.75093178444769
 20
-124.9808295043451
 10
75.87788355307914
 20
-125.0104573255182
 10
75.9709011311809
 20
-125.0104573255182
 10
76.11042749833351
 20
-125.0104573255182
 10
76.26287297355582
 20
-124.9108940659945
 10
76.26287297355582
 20
-124.6783501207401
 10
76.26287297355582
 20
-124.4223795261861
 10
76.08303898922577
 20
-124.3524440878355
 10
75.96246064724203
 20
-124.3524440878355
 10
75.93076576877773
 20
-124.3524440878355
 10
75.78900008955969
 20
-124.3524440878355
 10
75.70011662604026
 20
-124.4816351685324
 10
75.70011662604026
 20
-124.4816351685324
 10
75.52458901106677
 20
-124.4626871433635
 10
75.52458901106677
 20
-124.4626871433635
 10
75.52458901106677
 20
-124.4626871433635
 10
75.64516735305051
 20
-123.6162271826376
 10
75.64516735305051
 20
-123.6162271826376
 10
75.64516735305051
 20
-123.6162271826376
 10
76.42358667794272
 20
-123.6162271826376
 10
76.42358667794272
 20
-123.6162271826376
 10
76.42358667794272
 20
-123.6162271826376
 10
76.42358667794272
 20
-123.8108750775542
 10
76.42358667794272
 20
-123.8108750775542
 10
76.42358667794272
 20
-123.8108750775542
 10
75.80794811472857
 20
-123.8108750775542
 10
75.80794811472857
 20
-123.8108750775542
 10
75.80794811472857
 20
-123.8108750775542
 10
75.74249130050883
 20
-124.2339328031429
 10
75.74249130050883
 20
-124.2339328031429
 10
75.80381400014628
 20
-124.2001708673875
 10
75.886324037018
 20
-124.15986325021
 10
76.00466306693633
 20
-124.15986325021
 10
76.25856660419925
 20
-124.15986325021
 10
76.49558917358443
 20
-124.3462429159621
 10
76.49558917358443
 20
-124.6594020955713
 10
76.49558917358443
 20
-124.9766953897628
 10
76.27131345749467
 20
-125.2113063923083
 10
75.96883407388974
 20
-125.2113063923083
 97
        0
 97
        0
 75
     2
 76
     1
 98
        0
  0
ENDBLK
  5
8D
330
8A
100
AcDbEntity
  8
0
100
AcDbBlockEnd
  0
BLOCK
  5
DF
330
DD
100
AcDbEntity
  8
0
100
AcDbBlockBegin
  2
block 8
 70
     0
 10
0.0
 20
0.0
 30
0.0
  3
block 8
  1

  0
SPLINE
  5
E1
330
DD
100
AcDbEntity
  8
_U+30EC_U+30A4_U+30E4_U+30FC 1
370
     0
100
AcDbSpline
210
0.0
220
0.0
230
1.0
 70
    11
 71
     3
 72
    53
 73
    49
 74
     0
 42
0.0000000001
 43
0.0000000001
 12
1.0
 22
0.0
 32
0.0
 13
1.0
 23
0.0
 33
0.0
 40
0.0
 40
0.0
 40
0.0
 40
0.0
 40
1.0
 40
1.0
 40
1.0
 40
2.0
 40
2.0
 40
2.0
 40
3.0
 40
3.0
 40
3.0
 40
4.0
 40
4.0
 40
4.0
 40
5.0
 40
5.0
 40
5.0
 40
6.0
 40
6.0
 40
6.0
 40
7.0
 40
7.0
 40
7.0
 40
8.0
 40
8.0
 40
8.0
 40
9.0
 40
9.0
 40
9.0
 40
10.0
 40
10.0
 40
10.0
 40
11.0
 40
11.0
 40
11.0
 40
12.0
 40
12.0
 40
12.0
 40
13.0
 40
13.0
 40
13.0
 40
14.0
 40
14.0
 40
14.0
 40
15.0
 40
15.0
 40
15.0
 40
16.0
 40
16.0
 40
16.0
 40
16.0
 10
88.48331567883403
 20
-111.6274671487424
 30
0.0
 10
88.48331567883403
 20
-111.7058430710319
 30
0.0
 10
88.4664347109563
 20
-111.8073011330725
 30
0.0
 10
88.40304495402772
 20
-111.9089314498874
 30
0.0
 10
88.29314640804824
 20
-112.0823920075697
 30
0.0
 10
88.16188827006023
 20
-112.103579344804
 30
0.0
 10
88.05405678137191
 20
-112.1225273699728
 30
0.0
 10
88.05405678137191
 20
-112.1225273699728
 30
0.0
 10
88.05405678137191
 20
-111.9004909659485
 30
0.0
 10
88.05405678137191
 20
-111.9004909659485
 30
0.0
 10
88.25283879087083
 20
-111.8453694381845
 30
0.0
 10
88.28246661204398
 20
-111.718417669553
 30
0.0
 10
88.28246661204398
 20
-111.6254000914513
 30
0.0
 10
88.28246661204398
 20
-111.4857014695244
 30
0.0
 10
88.18290335252026
 20
-111.3334282490764
 30
0.0
 10
87.95035940726589
 20
-111.3334282490764
 30
0.0
 10
87.69438881271182
 20
-111.3334282490764
 30
0.0
 10
87.62445337436125
 20
-111.5132622334064
 30
0.0
 10
87.62445337436125
 20
-111.6338405753902
 30
0.0
 10
87.62445337436125
 20
-111.6655354538545
 30
0.0
 10
87.62445337436125
 20
-111.8073011330725
 30
0.0
 10
87.75364445505812
 20
-111.8961845965919
 30
0.0
 10
87.75364445505812
 20
-111.8961845965919
 30
0.0
 10
87.73469642988924
 20
-112.0717122115654
 30
0.0
 10
87.73469642988924
 20
-112.0717122115654
 30
0.0
 10
87.73469642988924
 20
-112.0717122115654
 30
0.0
 10
86.88823646916336
 20
-111.9511338695817
 30
0.0
 10
86.88823646916336
 20
-111.9511338695817
 30
0.0
 10
86.88823646916336
 20
-111.9511338695817
 30
0.0
 10
86.88823646916336
 20
-111.1725422899152
 30
0.0
 10
86.88823646916336
 20
-111.1725422899152
 30
0.0
 10
86.88823646916336
 20
-111.1725422899152
 30
0.0
 10
87.08288436407997
 20
-111.1725422899152
 30
0.0
 10
87.08288436407997
 20
-111.1725422899152
 30
0.0
 10
87.08288436407997
 20
-111.1725422899152
 30
0.0
 10
87.08288436407997
 20
-111.7883531079036
 30
0.0
 10
87.08288436407997
 20
-111.7883531079036
 30
0.0
 10
87.08288436407997
 20
-111.7883531079036
 30
0.0
 10
87.50594208966865
 20
-111.8538099221234
 30
0.0
 10
87.50594208966865
 20
-111.8538099221234
 30
0.0
 10
87.47218015391321
 20
-111.7924872224859
 30
0.0
 10
87.43187253673578
 20
-111.7099771856142
 30
0.0
 10
87.43187253673578
 20
-111.5916381556958
 30
0.0
 10
87.43187253673578
 20
-111.3377346184329
 30
0.0
 10
87.6182522024878
 20
-111.100884303822
 30
0.0
 10
87.93141138209701
 20
-111.100884303822
 30
0.0
 10
88.24870467628853
 20
-111.100884303822
 30
0.0
 10
88.48331567883403
 20
-111.3249877651375
 30
0.0
 10
88.48331567883403
 20
-111.6274671487424
 30
0.0
  0
HATCH
  5
E2
330
DD
100
AcDbEntity
  8
_U+30EC_U+30A4_U+30E4_U+30FC 1
 62
     7
420
 16777215
100
AcDbHatch
 10
0.0
 20
0.0
 30
0.0
210
0.0
220
0.0
230
1.0
  2
SOLID
 70
     1
 71
     0
 91
        1
 92
        1
 93
        1
 72
     4
 94
        3
 73
     0
 74
     1
 95
       53
 96
       49
 40
0.0
 40
0.0
 40
0.0
 40
0.0
 40
1.0
 40
1.0
 40
1.0
 40
2.0
 40
2.0
 40
2.0
 40
3.0
 40
3.0
 40
3.0
 40
4.0
 40
4.0
 40
4.0
 40
5.0
 40
5.0
 40
5.0
 40
6.0
 40
6.0
 40
6.0
 40
7.0
 40
7.0
 40
7.0
 40
8.0
 40
8.0
 40
8.0
 40
9.0
 40
9.0
 40
9.0
 40
10.0
 40
10.0
 40
10.0
 40
11.0
 40
11.0
 40
11.0
 40
12.0
 40
12.0
 40
12.0
 40
13.0
 40
13.0
 40
13.0
 40
14.0
 40
14.0
 40
14.0
 40
15.0
 40
15.0
 40
15.0
 40
16.0
 40
16.0
 40
16.0
 40
16.0
 10
88.48331567883403
 20
-111.6274671487424
 10
88.48331567883403
 20
-111.7058430710319
 10
88.4664347109563
 20
-111.8073011330725
 10
88.40304495402772
 20
-111.9089314498874
 10
88.29314640804824
 20
-112.0823920075697
 10
88.16188827006023
 20
-112.103579344804
 10
88.05405678137191
 20
-112.1225273699728
 10
88.05405678137191
 20
-112.1225273699728
 10
88.05405678137191
 20
-111.9004909659485
 10
88.05405678137191
 20
-111.9004909659485
 10
88.25283879087083
 20
-111.8453694381845
 10
88.28246661204398
 20
-111.718417669553
 10
88.28246661204398
 20
-111.6254000914513
 10
88.28246661204398
 20
-111.4857014695244
 10
88.18290335252026
 20
-111.3334282490764
 10
87.95035940726589
 20
-111.3334282490764
 10
87.69438881271182
 20
-111.3334282490764
 10
87.62445337436125
 20
-111.5132622334064
 10
87.62445337436125
 20
-111.6338405753902
 10
87.62445337436125
 20
-111.6655354538545
 10
87.62445337436125
 20
-111.8073011330725
 10
87.75364445505812
 20
-111.8961845965919
 10
87.75364445505812
 20
-111.8961845965919
 10
87.73469642988924
 20
-112.0717122115654
 10
87.73469642988924
 20
-112.0717122115654
 10
87.73469642988924
 20
-112.0717122115654
 10
86.88823646916336
 20
-111.9511338695817
 10
86.88823646916336
 20
-111.9511338695817
 10
86.88823646916336
 20
-111.9511338695817
 10
86.88823646916336
 20
-111.1725422899152
 10
86.88823646916336
 20
-111.1725422899152
 10
86.88823646916336
 20
-111.1725422899152
 10
87.08288436407997
 20
-111.1725422899152
 10
87.08288436407997
 20
-111.1725422899152
 10
87.08288436407997
 20
-111.1725422899152
 10
87.08288436407997
 20
-111.7883531079036
 10
87.08288436407997
 20
-111.7883531079036
 10
87.08288436407997
 20
-111.7883531079036
 10
87.50594208966865
 20
-111.8538099221234
 10
87.50594208966865
 20
-111.8538099221234
 10
87.47218015391321
 20
-111.7924872224859
 10
87.43187253673578
 20
-111.7099771856142
 10
87.43187253673578
 20
-111.5916381556958
 10
87.43187253673578
 20
-111.3377346184329
 10
87.6182522024878
 20
-111.100884303822
 10
87.93141138209701
 20
-111.100884303822
 10
88.24870467628853
 20
-111.100884303822
 10
88.48331567883403
 20
-111.3249877651375
 10
88.48331567883403
 20
-111.6274671487424
 97
        0
 97
        0
 75
     2
 76
     1
 98
        0
  0
ENDBLK
  5
E0
330
DD
100
AcDbEntity
  8
0
100
AcDbBlockEnd
  0
BLOCK
  5
E5
330
E3
100
AcDbEntity
  8
0
100
AcDbBlockBegin
  2
block 9
 70
     0
 10
0.0
 20
0.0
 30
0.0
  3
block 9
  1

  0
POLYLINE
  5
E7
330
E3
100
AcDbEntity
  8
_U+30EC_U+30A4_U+30E4_U+30FC 1
370
     0
100
AcDb2dPolyline
 66
     1
 10
0.0
 20
0.0
 30
0.0
  0
VERTEX
  5
E8
330
E7
100
AcDbEntity
  8
_U+30EC_U+30A4_U+30E4_U+30FC 1
370
     0
100
AcDbVertex
100
AcDb2dVertex
 10
88.4325005204266
 20
-112.5969170182917
 30
0.0
  0
VERTEX
  5
E9
330
E7
100
AcDbEntity
  8
_U+30EC_U+30A4_U+30E4_U+30FC 1
370
     0
100
AcDbVertex
100
AcDb2dVertex
 10
88.18066404045484
 20
-112.5969170182917
 30
0.0
  0
VERTEX
  5
EA
330
E7
100
AcDbEntity
  8
_U+30EC_U+30A4_U+30E4_U+30FC 1
370
     0
100
AcDbVertex
100
AcDb2dVertex
 10
88.18066404045484
 20
-112.3452527930942
 30
0.0
  0
VERTEX
  5
EB
330
E7
100
AcDbEntity
  8
_U+30EC_U+30A4_U+30E4_U+30FC 1
370
     0
100
AcDbVertex
100
AcDb2dVertex
 10
88.4325005204266
 20
-112.3452527930942
 30
0.0
  0
VERTEX
  5
EC
330
E7
100
AcDbEntity
  8
_U+30EC_U+30A4_U+30E4_U+30FC 1
370
     0
100
AcDbVertex
100
AcDb2dVertex
 10
88.4325005204266
 20
-112.5969170182917
 30
0.0
  0
SEQEND
  5
ED
330
E7
100
AcDbEntity
  8
_U+30EC_U+30A4_U+30E4_U+30FC 1
370
     0
  0
HATCH
  5
EE
330
E3
100
AcDbEntity
  8
_U+30EC_U+30A4_U+30E4_U+30FC 1
 62
     7
420
 16777215
100
AcDbHatch
 10
0.0
 20
0.0
 30
0.0
210
0.0
220
0.0
230
1.0
  2
SOLID
 70
     1
 71
     0
 91
        1
 92
        1
 93
        4
 72
     1
 10
88.4325005204266
 20
-112.5969170182917
 11
88.18066404045484
 21
-112.5969170182917
 72
     1
 10
88.18066404045484
 20
-112.5969170182917
 11
88.18066404045484
 21
-112.3452527930942
 72
     1
 10
88.18066404045484
 20
-112.3452527930942
 11
88.4325005204266
 21
-112.3452527930942
 72
     1
 10
88.4325005204266
 20
-112.3452527930942
 11
88.4325005204266
 21
-112.5969170182917
 97
        0
 75
     2
 76
     1
 98
        0
  0
ENDBLK
  5
E6
330
E3
100
AcDbEntity
  8
0
100
AcDbBlockEnd
  0
BLOCK
  5
F1
330
EF
100
AcDbEntity
  8
0
100
AcDbBlockBegin
  2
block 10
 70
     0
 10
0.0
 20
0.0
 30
0.0
  3
block 10
  1

  0
POLYLINE
  5
F3
330
EF
100
AcDbEntity
  8
_U+30EC_U+30A4_U+30E4_U+30FC 1
370
     0
100
AcDb2dPolyline
 66
     1
 10
0.0
 20
0.0
 30
0.0
  0
VERTEX
  5
F4
330
F3
100
AcDbEntity
  8
_U+30EC_U+30A4_U+30E4_U+30FC 1
370
     0
100
AcDbVertex
100
AcDb2dVertex
 10
88.0857516598362
 20
-113.1581230728389
 30
0.0
  0
VERTEX
  5
F5
330
F3
100
AcDbEntity
  8
_U+30EC_U+30A4_U+30E4_U+30FC 1
370
     0
100
AcDbVertex
100
AcDb2dVertex
 10
88.43267277520086
 20
-113.1581230728389
 30
0.0
  0
VERTEX
  5
F6
330
F3
100
AcDbEntity
  8
_U+30EC_U+30A4_U+30E4_U+30FC 1
370
     0
100
AcDbVertex
100
AcDb2dVertex
 10
88.43267277520086
 20
-113.376025362281
 30
0.0
  0
VERTEX
  5
F7
330
F3
100
AcDbEntity
  8
_U+30EC_U+30A4_U+30E4_U+30FC 1
370
     0
100
AcDbVertex
100
AcDb2dVertex
 10
88.0857516598362
 20
-113.376025362281
 30
0.0
  0
VERTEX
  5
F8
330
F3
100
AcDbEntity
  8
_U+30EC_U+30A4_U+30E4_U+30FC 1
370
     0
100
AcDbVertex
100
AcDb2dVertex
 10
88.0857516598362
 20
-114.0317992878983
 30
0.0
  0
VERTEX
  5
F9
330
F3
100
AcDbEntity
  8
_U+30EC_U+30A4_U+30E4_U+30FC 1
370
     0
100
AcDbVertex
100
AcDb2dVertex
 10
87.86147594374644
 20
-114.0317992878983
 30
0.0
  0
VERTEX
  5
FA
330
F3
100
AcDbEntity
  8
_U+30EC_U+30A4_U+30E4_U+30FC 1
370
     0
100
AcDbVertex
100
AcDb2dVertex
 10
86.88823646916336
 20
-113.3527709677556
 30
0.0
  0
VERTEX
  5
FB
330
F3
100
AcDbEntity
  8
_U+30EC_U+30A4_U+30E4_U+30FC 1
370
     0
100
AcDbVertex
100
AcDb2dVertex
 10
86.88823646916336
 20
-113.1581230728389
 30
0.0
  0
VERTEX
  5
FC
330
F3
100
AcDbEntity
  8
_U+30EC_U+30A4_U+30E4_U+30FC 1
370
     0
100
AcDbVertex
100
AcDb2dVertex
 10
87.88696965033729
 20
-113.1581230728389
 30
0.0
  0
VERTEX
  5
FD
330
F3
100
AcDbEntity
  8
_U+30EC_U+30A4_U+30E4_U+30FC 1
370
     0
100
AcDbVertex
100
AcDb2dVertex
 10
87.88696965033729
 20
-112.9509005794012
 30
0.0
  0
VERTEX
  5
FE
330
F3
100
AcDbEntity
  8
_U+30EC_U+30A4_U+30E4_U+30FC 1
370
     0
100
AcDbVertex
100
AcDb2dVertex
 10
88.0857516598362
 20
-112.9509005794012
 30
0.0
  0
VERTEX
  5
FF
330
F3
100
AcDbEntity
  8
_U+30EC_U+30A4_U+30E4_U+30FC 1
370
     0
100
AcDbVertex
100
AcDb2dVertex
 10
88.0857516598362
 20
-113.1581230728389
 30
0.0
  0
SEQEND
  5
100
330
F3
100
AcDbEntity
  8
_U+30EC_U+30A4_U+30E4_U+30FC 1
370
     0
  0
POLYLINE
  5
101
330
EF
100
AcDbEntity
  8
_U+30EC_U+30A4_U+30E4_U+30FC 1
370
     0
100
AcDb2dPolyline
 66
     1
 10
0.0
 20
0.0
 30
0.0
  0
VERTEX
  5
102
330
101
100
AcDbEntity
  8
_U+30EC_U+30A4_U+30E4_U+30FC 1
370
     0
100
AcDbVertex
100
AcDb2dVertex
 10
87.23102346994573
 20
-113.376025362281
 30
0.0
  0
VERTEX
  5
103
330
101
100
AcDbEntity
  8
_U+30EC_U+30A4_U+30E4_U+30FC 1
370
     0
100
AcDbVertex
100
AcDb2dVertex
 10
87.88696965033729
 20
-113.8328450236251
 30
0.0
  0
VERTEX
  5
104
330
101
100
AcDbEntity
  8
_U+30EC_U+30A4_U+30E4_U+30FC 1
370
     0
100
AcDbVertex
100
AcDb2dVertex
 10
87.88696965033729
 20
-113.376025362281
 30
0.0
  0
VERTEX
  5
105
330
101
100
AcDbEntity
  8
_U+30EC_U+30A4_U+30E4_U+30FC 1
370
     0
100
AcDbVertex
100
AcDb2dVertex
 10
87.23102346994573
 20
-113.376025362281
 30
0.0
  0
SEQEND
  5
106
330
101
100
AcDbEntity
  8
_U+30EC_U+30A4_U+30E4_U+30FC 1
370
     0
  0
HATCH
  5
107
330
EF
100
AcDbEntity
  8
_U+30EC_U+30A4_U+30E4_U+30FC 1
 62
     7
420
 16777215
100
AcDbHatch
 10
0.0
 20
0.0
 30
0.0
210
0.0
220
0.0
230
1.0
  2
SOLID
 70
     1
 71
     0
 91
        2
 92
        1
 93
       11
 72
     1
 10
88.0857516598362
 20
-113.1581230728389
 11
88.43267277520086
 21
-113.1581230728389
 72
     1
 10
88.43267277520086
 20
-113.1581230728389
 11
88.43267277520086
 21
-113.376025362281
 72
     1
 10
88.43267277520086
 20
-113.376025362281
 11
88.0857516598362
 21
-113.376025362281
 72
     1
 10
88.0857516598362
 20
-113.376025362281
 11
88.0857516598362
 21
-114.0317992878983
 72
     1
 10
88.0857516598362
 20
-114.0317992878983
 11
87.86147594374644
 21
-114.0317992878983
 72
     1
 10
87.86147594374644
 20
-114.0317992878983
 11
86.88823646916336
 21
-113.3527709677556
 72
     1
 10
86.88823646916336
 20
-113.3527709677556
 11
86.88823646916336
 21
-113.1581230728389
 72
     1
 10
86.88823646916336
 20
-113.1581230728389
 11
87.88696965033729
 21
-113.1581230728389
 72
     1
 10
87.88696965033729
 20
-113.1581230728389
 11
87.88696965033729
 21
-112.9509005794012
 72
     1
 10
87.88696965033729
 20
-112.9509005794012
 11
88.0857516598362
 21
-112.9509005794012
 72
     1
 10
88.0857516598362
 20
-112.9509005794012
 11
88.0857516598362
 21
-113.1581230728389
 97
        0
 92
        1
 93
        3
 72
     1
 10
87.23102346994573
 20
-113.376025362281
 11
87.88696965033729
 21
-113.8328450236251
 72
     1
 10
87.88696965033729
 20
-113.8328450236251
 11
87.88696965033729
 21
-113.376025362281
 72
     1
 10
87.88696965033729
 20
-113.376025362281
 11
87.23102346994573
 21
-113.376025362281
 97
        0
 75
     2
 76
     1
 98
        0
  0
ENDBLK
  5
F2
330
EF
100
AcDbEntity
  8
0
100
AcDbBlockEnd
  0
BLOCK
  5
11D
330
11B
100
AcDbEntity
  8
0
100
AcDbBlockBegin
  2
block 11
 70
     0
 10
0.0
 20
0.0
 30
0.0
  3
block 11
  1

  0
SPLINE
  5
11F
330
11B
100
AcDbEntity
  8
_U+30EC_U+30A4_U+30E4_U+30FC 1
370
     0
100
AcDbSpline
210
0.0
220
0.0
230
1.0
 70
    11
 71
     3
 72
    26
 73
    22
 74
     0
 42
0.0000000001
 43
0.0000000001
 12
1.0
 22
0.0
 32
0.0
 13
1.0
 23
0.0
 33
0.0
 40
0.0
 40
0.0
 40
0.0
 40
0.0
 40
1.0
 40
1.0
 40
1.0
 40
2.0
 40
2.0
 40
2.0
 40
3.0
 40
3.0
 40
3.0
 40
4.0
 40
4.0
 40
4.0
 40
5.0
 40
5.0
 40
5.0
 40
6.0
 40
6.0
 40
6.0
 40
7.0
 40
7.0
 40
7.0
 40
7.0
 10
97.73770342608641
 20
-126.9700276375283
 30
0.0
 10
97.73770342608641
 20
-126.9700276375283
 30
0.0
 10
97.73770342608641
 20
-125.8658745345058
 30
0.0
 10
97.73770342608641
 20
-125.8658745345058
 30
0.0
 10
97.73770342608641
 20
-125.8658745345058
 30
0.0
 10
97.40766327859947
 20
-125.8658745345058
 30
0.0
 10
97.40766327859947
 20
-125.8658745345058
 30
0.0
 10
97.40766327859947
 20
-125.8658745345058
 30
0.0
 10
97.40766327859947
 20
-125.71773542864
 30
0.0
 10
97.40766327859947
 20
-125.71773542864
 30
0.0
 10
97.73977048337755
 20
-125.7029215180534
 30
0.0
 10
97.78627927242843
 20
-125.5399685016011
 30
0.0
 10
97.81590709360158
 20
-125.4255913314908
 30
0.0
 10
97.81590709360158
 20
-125.4255913314908
 30
0.0
 10
97.96197914217618
 20
-125.4255913314908
 30
0.0
 10
97.96197914217618
 20
-125.4255913314908
 30
0.0
 10
97.96197914217618
 20
-125.4255913314908
 30
0.0
 10
97.96197914217618
 20
-126.9700276375283
 30
0.0
 10
97.96197914217618
 20
-126.9700276375283
 30
0.0
 10
97.96197914217618
 20
-126.9700276375283
 30
0.0
 10
97.73770342608641
 20
-126.9700276375283
 30
0.0
 10
97.73770342608641
 20
-126.9700276375283
 30
0.0
  0
HATCH
  5
120
330
11B
100
AcDbEntity
  8
_U+30EC_U+30A4_U+30E4_U+30FC 1
 62
     7
420
 16777215
100
AcDbHatch
 10
0.0
 20
0.0
 30
0.0
210
0.0
220
0.0
230
1.0
  2
SOLID
 70
     1
 71
     0
 91
        1
 92
        1
 93
        1
 72
     4
 94
        3
 73
     0
 74
     1
 95
       26
 96
       22
 40
0.0
 40
0.0
 40
0.0
 40
0.0
 40
1.0
 40
1.0
 40
1.0
 40
2.0
 40
2.0
 40
2.0
 40
3.0
 40
3.0
 40
3.0
 40
4.0
 40
4.0
 40
4.0
 40
5.0
 40
5.0
 40
5.0
 40
6.0
 40
6.0
 40
6.0
 40
7.0
 40
7.0
 40
7.0
 40
7.0
 10
97.73770342608641
 20
-126.9700276375283
 10
97.73770342608641
 20
-126.9700276375283
 10
97.73770342608641
 20
-125.8658745345058
 10
97.73770342608641
 20
-125.8658745345058
 10
97.73770342608641
 20
-125.8658745345058
 10
97.40766327859947
 20
-125.8658745345058
 10
97.40766327859947
 20
-125.8658745345058
 10
97.40766327859947
 20
-125.8658745345058
 10
97.40766327859947
 20
-125.71773542864
 10
97.40766327859947
 20
-125.71773542864
 10
97.73977048337755
 20
-125.7029215180534
 10
97.78627927242843
 20
-125.5399685016011
 10
97.81590709360158
 20
-125.4255913314908
 10
97.81590709360158
 20
-125.4255913314908
 10
97.96197914217618
 20
-125.4255913314908
 10
97.96197914217618
 20
-125.4255913314908
 10
97.96197914217618
 20
-125.4255913314908
 10
97.96197914217618
 20
-126.9700276375283
 10
97.96197914217618
 20
-126.9700276375283
 10
97.96197914217618
 20
-126.9700276375283
 10
97.73770342608641
 20
-126.9700276375283
 10
97.73770342608641
 20
-126.9700276375283
 97
        0
 97
        0
 75
     2
 76
     1
 98
        0
  0
SPLINE
  5
121
330
11B
100
AcDbEntity
  8
_U+30EC_U+30A4_U+30E4_U+30FC 1
370
     0
100
AcDbSpline
210
0.0
220
0.0
230
1.0
 70
    11
 71
     3
 72
    29
 73
    25
 74
     0
 42
0.0000000001
 43
0.0000000001
 12
1.0
 22
0.0
 32
0.0
 13
1.0
 23
0.0
 33
0.0
 40
0.0
 40
0.0
 40
0.0
 40
0.0
 40
1.0
 40
1.0
 40
1.0
 40
2.0
 40
2.0
 40
2.0
 40
3.0
 40
3.0
 40
3.0
 40
4.0
 40
4.0
 40
4.0
 40
5.0
 40
5.0
 40
5.0
 40
6.0
 40
6.0
 40
6.0
 40
7.0
 40
7.0
 40
7.0
 40
8.0
 40
8.0
 40
8.0
 40
8.0
 10
99.36103241873613
 20
-126.7922607104894
 30
0.0
 10
99.25285642049928
 20
-127.0017225159926
 30
0.0
 10
99.07956811759122
 20
-127.0206705411615
 30
0.0
 10
98.96312389018978
 20
-127.0206705411615
 30
0.0
 10
98.80223793102861
 20
-127.0206705411615
 30
0.0
 10
98.66064450658484
 20
-126.9741617521106
 30
0.0
 10
98.56555987119195
 20
-126.7922607104894
 30
0.0
 10
98.46186249708593
 20
-126.5976128155728
 30
0.0
 10
98.44291447191705
 20
-126.3605902461876
 30
0.0
 10
98.44291447191705
 20
-126.1979817392838
 30
0.0
 10
98.44291447191705
 20
-126.0539767480004
 30
0.0
 10
98.45979543979477
 20
-125.8021402680286
 30
0.0
 10
98.56555987119195
 20
-125.6033582585297
 30
0.0
 10
98.67339135988027
 20
-125.4004421344485
 30
0.0
 10
98.83427731904143
 20
-125.3770154851488
 30
0.0
 10
98.96312389018978
 20
-125.3770154851488
 30
0.0
 10
99.1219427920598
 20
-125.3770154851488
 30
0.0
 10
99.26560327379471
 20
-125.4214572169085
 30
0.0
 10
99.36103241873613
 20
-125.6033582585297
 30
0.0
 10
99.46025116871132
 20
-125.7959390961552
 30
0.0
 10
99.48367781801103
 20
-126.0243489268273
 30
0.0
 10
99.48367781801103
 20
-126.1979817392838
 30
0.0
 10
99.48367781801103
 20
-126.3692029849008
 30
0.0
 10
99.46231822600248
 20
-126.599679872864
 30
0.0
 10
99.36103241873613
 20
-126.7922607104894
 30
0.0
  0
SPLINE
  5
122
330
11B
100
AcDbEntity
  8
_U+30EC_U+30A4_U+30E4_U+30FC 1
370
     0
100
AcDbSpline
210
0.0
220
0.0
230
1.0
 70
    11
 71
     3
 72
    17
 73
    13
 74
     0
 42
0.0000000001
 43
0.0000000001
 12
1.0
 22
0.0
 32
0.0
 13
1.0
 23
0.0
 33
0.0
 40
0.0
 40
0.0
 40
0.0
 40
0.0
 40
1.0
 40
1.0
 40
1.0
 40
2.0
 40
2.0
 40
2.0
 40
3.0
 40
3.0
 40
3.0
 40
4.0
 40
4.0
 40
4.0
 40
4.0
 10
98.96312389018978
 20
-125.5695963227743
 30
0.0
 10
98.71369897705769
 20
-125.5695963227743
 30
0.0
 10
98.66684567845829
 20
-125.8531276812103
 30
0.0
 10
98.66684567845829
 20
-126.1979817392838
 30
0.0
 10
98.66684567845829
 20
-126.5173420907665
 30
0.0
 10
98.70301918105342
 20
-126.8260226462449
 30
0.0
 10
98.96312389018978
 20
-126.8260226462449
 30
0.0
 10
99.21082625557925
 20
-126.8260226462449
 30
0.0
 10
99.25940210192127
 20
-126.5449028546485
 30
0.0
 10
99.25940210192127
 20
-126.1979817392838
 30
0.0
 10
99.25940210192127
 20
-125.8782768782527
 30
0.0
 10
99.22116154203499
 20
-125.5695963227743
 30
0.0
 10
98.96312389018978
 20
-125.5695963227743
 30
0.0
  0
HATCH
  5
123
330
11B
100
AcDbEntity
  8
_U+30EC_U+30A4_U+30E4_U+30FC 1
 62
     7
420
 16777215
100
AcDbHatch
 10
0.0
 20
0.0
 30
0.0
210
0.0
220
0.0
230
1.0
  2
SOLID
 70
     1
 71
     0
 91
        2
 92
        1
 93
        1
 72
     4
 94
        3
 73
     0
 74
     1
 95
       29
 96
       25
 40
0.0
 40
0.0
 40
0.0
 40
0.0
 40
1.0
 40
1.0
 40
1.0
 40
2.0
 40
2.0
 40
2.0
 40
3.0
 40
3.0
 40
3.0
 40
4.0
 40
4.0
 40
4.0
 40
5.0
 40
5.0
 40
5.0
 40
6.0
 40
6.0
 40
6.0
 40
7.0
 40
7.0
 40
7.0
 40
8.0
 40
8.0
 40
8.0
 40
8.0
 10
99.36103241873613
 20
-126.7922607104894
 10
99.25285642049928
 20
-127.0017225159926
 10
99.07956811759122
 20
-127.0206705411615
 10
98.96312389018978
 20
-127.0206705411615
 10
98.80223793102861
 20
-127.0206705411615
 10
98.66064450658484
 20
-126.9741617521106
 10
98.56555987119195
 20
-126.7922607104894
 10
98.46186249708593
 20
-126.5976128155728
 10
98.44291447191705
 20
-126.3605902461876
 10
98.44291447191705
 20
-126.1979817392838
 10
98.44291447191705
 20
-126.0539767480004
 10
98.45979543979477
 20
-125.8021402680286
 10
98.56555987119195
 20
-125.6033582585297
 10
98.67339135988027
 20
-125.4004421344485
 10
98.83427731904143
 20
-125.3770154851488
 10
98.96312389018978
 20
-125.3770154851488
 10
99.1219427920598
 20
-125.3770154851488
 10
99.26560327379471
 20
-125.4214572169085
 10
99.36103241873613
 20
-125.6033582585297
 10
99.46025116871132
 20
-125.7959390961552
 10
99.48367781801103
 20
-126.0243489268273
 10
99.48367781801103
 20
-126.1979817392838
 10
99.48367781801103
 20
-126.3692029849008
 10
99.46231822600248
 20
-126.599679872864
 10
99.36103241873613
 20
-126.7922607104894
 97
        0
 97
        0
 92
        1
 93
        1
 72
     4
 94
        3
 73
     0
 74
     1
 95
       17
 96
       13
 40
0.0
 40
0.0
 40
0.0
 40
0.0
 40
1.0
 40
1.0
 40
1.0
 40
2.0
 40
2.0
 40
2.0
 40
3.0
 40
3.0
 40
3.0
 40
4.0
 40
4.0
 40
4.0
 40
4.0
 10
98.96312389018978
 20
-125.5695963227743
 10
98.71369897705769
 20
-125.5695963227743
 10
98.66684567845829
 20
-125.8531276812103
 10
98.66684567845829
 20
-126.1979817392838
 10
98.66684567845829
 20
-126.5173420907665
 10
98.70301918105342
 20
-126.8260226462449
 10
98.96312389018978
 20
-126.8260226462449
 10
99.21082625557925
 20
-126.8260226462449
 10
99.25940210192127
 20
-126.5449028546485
 10
99.25940210192127
 20
-126.1979817392838
 10
99.25940210192127
 20
-125.8782768782527
 10
99.22116154203499
 20
-125.5695963227743
 10
98.96312389018978
 20
-125.5695963227743
 97
        0
 97
        0
 75
     2
 76
     1
 98
        0
  0
ENDBLK
  5
11E
330
11B
100
AcDbEntity
  8
0
100
AcDbBlockEnd
  0
BLOCK
  5
143
330
141
100
AcDbEntity
  8
0
100
AcDbBlockBegin
  2
block 12
 70
     0
 10
0.0
 20
0.0
 30
0.0
  3
block 12
  1

  0
SPLINE
  5
145
330
141
100
AcDbEntity
  8
_U+30EC_U+30A4_U+30E4_U+30FC 1
370
     0
100
AcDbSpline
210
0.0
220
0.0
230
1.0
 70
    11
 71
     3
 72
    53
 73
    49
 74
     0
 42
0.0000000001
 43
0.0000000001
 12
1.0
 22
0.0
 32
0.0
 13
1.0
 23
0.0
 33
0.0
 40
0.0
 40
0.0
 40
0.0
 40
0.0
 40
1.0
 40
1.0
 40
1.0
 40
2.0
 40
2.0
 40
2.0
 40
3.0
 40
3.0
 40
3.0
 40
4.0
 40
4.0
 40
4.0
 40
5.0
 40
5.0
 40
5.0
 40
6.0
 40
6.0
 40
6.0
 40
7.0
 40
7.0
 40
7.0
 40
8.0
 40
8.0
 40
8.0
 40
9.0
 40
9.0
 40
9.0
 40
10.0
 40
10.0
 40
10.0
 40
11.0
 40
11.0
 40
11.0
 40
12.0
 40
12.0
 40
12.0
 40
13.0
 40
13.0
 40
13.0
 40
14.0
 40
14.0
 40
14.0
 40
15.0
 40
15.0
 40
15.0
 40
16.0
 40
16.0
 40
16.0
 40
16.0
 10
94.00149737233296
 20
-130.7513644421386
 30
0.0
 10
94.00149737233296
 20
-130.8295681096537
 30
0.0
 10
93.98427189490671
 20
-130.9311984264686
 30
0.0
 10
93.92088213797811
 20
-131.0328287432835
 30
0.0
 10
93.81132810154718
 20
-131.2061170461915
 30
0.0
 10
93.67972545401062
 20
-131.2274766382001
 30
0.0
 10
93.57223847487083
 20
-131.2464246633689
 30
0.0
 10
93.57223847487083
 20
-131.2464246633689
 30
0.0
 10
93.57223847487083
 20
-131.0242160045703
 30
0.0
 10
93.57223847487083
 20
-131.0242160045703
 30
0.0
 10
93.77067597482123
 20
-130.9694389863549
 30
0.0
 10
93.80030379599437
 20
-130.8423149629492
 30
0.0
 10
93.80030379599437
 20
-130.7492973848474
 30
0.0
 10
93.80030379599437
 20
-130.6097710176948
 30
0.0
 10
93.70108504601917
 20
-130.4574977972467
 30
0.0
 10
93.46819659121628
 20
-130.4574977972467
 30
0.0
 10
93.21257050621075
 20
-130.4574977972467
 30
0.0
 10
93.14229055831166
 20
-130.6373317815768
 30
0.0
 10
93.14229055831166
 20
-130.7579101235605
 30
0.0
 10
93.14229055831166
 20
-130.7896050020248
 30
0.0
 10
93.14229055831166
 20
-130.9311984264686
 30
0.0
 10
93.27182614855705
 20
-131.020081889988
 30
0.0
 10
93.27182614855705
 20
-131.020081889988
 30
0.0
 10
93.25253361383965
 20
-131.1957817597358
 30
0.0
 10
93.25253361383965
 20
-131.1957817597358
 30
0.0
 10
93.25253361383965
 20
-131.1957817597358
 30
0.0
 10
92.40641816266229
 20
-131.075203417752
 30
0.0
 10
92.40641816266229
 20
-131.075203417752
 30
0.0
 10
92.40641816266229
 20
-131.075203417752
 30
0.0
 10
92.40641816266229
 20
-130.2966118380856
 30
0.0
 10
92.40641816266229
 20
-130.2966118380856
 30
0.0
 10
92.40641816266229
 20
-130.2966118380856
 30
0.0
 10
92.60072154803038
 20
-130.2966118380856
 30
0.0
 10
92.60072154803038
 20
-130.2966118380856
 30
0.0
 10
92.60072154803038
 20
-130.2966118380856
 30
0.0
 10
92.60072154803038
 20
-130.9122504012997
 30
0.0
 10
92.60072154803038
 20
-130.9122504012997
 30
0.0
 10
92.60072154803038
 20
-130.9122504012997
 30
0.0
 10
93.02377927361906
 20
-130.9777072155195
 30
0.0
 10
93.02377927361906
 20
-130.9777072155195
 30
0.0
 10
92.9900173378636
 20
-130.916384515882
 30
0.0
 10
92.95005423023471
 20
-130.8340467337846
 30
0.0
 10
92.95005423023471
 20
-130.715535449092
 30
0.0
 10
92.95005423023471
 20
-130.461631911829
 30
0.0
 10
93.1360893864382
 20
-130.2246093424438
 30
0.0
 10
93.44959307559594
 20
-130.2246093424438
 30
0.0
 10
93.76654186023893
 20
-130.2246093424438
 30
0.0
 10
94.00149737233296
 20
-130.4488850585336
 30
0.0
 10
94.00149737233296
 20
-130.7513644421386
 30
0.0
  0
HATCH
  5
146
330
141
100
AcDbEntity
  8
_U+30EC_U+30A4_U+30E4_U+30FC 1
 62
     7
420
 16777215
100
AcDbHatch
 10
0.0
 20
0.0
 30
0.0
210
0.0
220
0.0
230
1.0
  2
SOLID
 70
     1
 71
     0
 91
        1
 92
        1
 93
        1
 72
     4
 94
        3
 73
     0
 74
     1
 95
       53
 96
       49
 40
0.0
 40
0.0
 40
0.0
 40
0.0
 40
1.0
 40
1.0
 40
1.0
 40
2.0
 40
2.0
 40
2.0
 40
3.0
 40
3.0
 40
3.0
 40
4.0
 40
4.0
 40
4.0
 40
5.0
 40
5.0
 40
5.0
 40
6.0
 40
6.0
 40
6.0
 40
7.0
 40
7.0
 40
7.0
 40
8.0
 40
8.0
 40
8.0
 40
9.0
 40
9.0
 40
9.0
 40
10.0
 40
10.0
 40
10.0
 40
11.0
 40
11.0
 40
11.0
 40
12.0
 40
12.0
 40
12.0
 40
13.0
 40
13.0
 40
13.0
 40
14.0
 40
14.0
 40
14.0
 40
15.0
 40
15.0
 40
15.0
 40
16.0
 40
16.0
 40
16.0
 40
16.0
 10
94.00149737233296
 20
-130.7513644421386
 10
94.00149737233296
 20
-130.8295681096537
 10
93.98427189490671
 20
-130.9311984264686
 10
93.92088213797811
 20
-131.0328287432835
 10
93.81132810154718
 20
-131.2061170461915
 10
93.67972545401062
 20
-131.2274766382001
 10
93.57223847487083
 20
-131.2464246633689
 10
93.57223847487083
 20
-131.2464246633689
 10
93.57223847487083
 20
-131.0242160045703
 10
93.57223847487083
 20
-131.0242160045703
 10
93.77067597482123
 20
-130.9694389863549
 10
93.80030379599437
 20
-130.8423149629492
 10
93.80030379599437
 20
-130.7492973848474
 10
93.80030379599437
 20
-130.6097710176948
 10
93.70108504601917
 20
-130.4574977972467
 10
93.46819659121628
 20
-130.4574977972467
 10
93.21257050621075
 20
-130.4574977972467
 10
93.14229055831166
 20
-130.6373317815768
 10
93.14229055831166
 20
-130.7579101235605
 10
93.14229055831166
 20
-130.7896050020248
 10
93.14229055831166
 20
-130.9311984264686
 10
93.27182614855705
 20
-131.020081889988
 10
93.27182614855705
 20
-131.020081889988
 10
93.25253361383965
 20
-131.1957817597358
 10
93.25253361383965
 20
-131.1957817597358
 10
93.25253361383965
 20
-131.1957817597358
 10
92.40641816266229
 20
-131.075203417752
 10
92.40641816266229
 20
-131.075203417752
 10
92.40641816266229
 20
-131.075203417752
 10
92.40641816266229
 20
-130.2966118380856
 10
92.40641816266229
 20
-130.2966118380856
 10
92.40641816266229
 20
-130.2966118380856
 10
92.60072154803038
 20
-130.2966118380856
 10
92.60072154803038
 20
-130.2966118380856
 10
92.60072154803038
 20
-130.2966118380856
 10
92.60072154803038
 20
-130.9122504012997
 10
92.60072154803038
 20
-130.9122504012997
 10
92.60072154803038
 20
-130.9122504012997
 10
93.02377927361906
 20
-130.9777072155195
 10
93.02377927361906
 20
-130.9777072155195
 10
92.9900173378636
 20
-130.916384515882
 10
92.95005423023471
 20
-130.8340467337846
 10
92.95005423023471
 20
-130.715535449092
 10
92.95005423023471
 20
-130.461631911829
 10
93.1360893864382
 20
-130.2246093424438
 10
93.44959307559594
 20
-130.2246093424438
 10
93.76654186023893
 20
-130.2246093424438
 10
94.00149737233296
 20
-130.4488850585336
 10
94.00149737233296
 20
-130.7513644421386
 97
        0
 97
        0
 75
     2
 76
     1
 98
        0
  0
ENDBLK
  5
144
330
141
100
AcDbEntity
  8
0
100
AcDbBlockEnd
  0
BLOCK
  5
149
330
147
100
AcDbEntity
  8
0
100
AcDbBlockBegin
  2
block 13
 70
     0
 10
0.0
 20
0.0
 30
0.0
  3
block 13
  1

  0
SPLINE
  5
14B
330
147
100
AcDbEntity
  8
_U+30EC_U+30A4_U+30E4_U+30FC 1
370
     0
100
AcDbSpline
210
0.0
220
0.0
230
1.0
 70
    11
 71
     3
 72
    26
 73
    22
 74
     0
 42
0.0000000001
 43
0.0000000001
 12
1.0
 22
0.0
 32
0.0
 13
1.0
 23
0.0
 33
0.0
 40
0.0
 40
0.0
 40
0.0
 40
0.0
 40
1.0
 40
1.0
 40
1.0
 40
2.0
 40
2.0
 40
2.0
 40
3.0
 40
3.0
 40
3.0
 40
4.0
 40
4.0
 40
4.0
 40
5.0
 40
5.0
 40
5.0
 40
6.0
 40
6.0
 40
6.0
 40
7.0
 40
7.0
 40
7.0
 40
7.0
 10
93.95085446869979
 20
-132.1142442161034
 30
0.0
 10
93.95085446869979
 20
-132.1142442161034
 30
0.0
 10
92.84670136567722
 20
-132.1142442161034
 30
0.0
 10
92.84670136567722
 20
-132.1142442161034
 30
0.0
 10
92.84670136567722
 20
-132.1142442161034
 30
0.0
 10
92.84670136567722
 20
-132.4442843635903
 30
0.0
 10
92.84670136567722
 20
-132.4442843635903
 30
0.0
 10
92.84670136567722
 20
-132.4442843635903
 30
0.0
 10
92.69856225981148
 20
-132.4442843635903
 30
0.0
 10
92.69856225981148
 20
-132.4442843635903
 30
0.0
 10
92.6837483492249
 20
-132.1121771588122
 30
0.0
 10
92.52079533277258
 20
-132.0656683697614
 30
0.0
 10
92.40641816266229
 20
-132.0360405485882
 30
0.0
 10
92.40641816266229
 20
-132.0360405485882
 30
0.0
 10
92.40641816266229
 20
-131.8899685000136
 30
0.0
 10
92.40641816266229
 20
-131.8899685000136
 30
0.0
 10
92.40641816266229
 20
-131.8899685000136
 30
0.0
 10
93.95085446869979
 20
-131.8899685000136
 30
0.0
 10
93.95085446869979
 20
-131.8899685000136
 30
0.0
 10
93.95085446869979
 20
-131.8899685000136
 30
0.0
 10
93.95085446869979
 20
-132.1142442161034
 30
0.0
 10
93.95085446869979
 20
-132.1142442161034
 30
0.0
  0
HATCH
  5
14C
330
147
100
AcDbEntity
  8
_U+30EC_U+30A4_U+30E4_U+30FC 1
 62
     7
420
 16777215
100
AcDbHatch
 10
0.0
 20
0.0
 30
0.0
210
0.0
220
0.0
230
1.0
  2
SOLID
 70
     1
 71
     0
 91
        1
 92
        1
 93
        1
 72
     4
 94
        3
 73
     0
 74
     1
 95
       26
 96
       22
 40
0.0
 40
0.0
 40
0.0
 40
0.0
 40
1.0
 40
1.0
 40
1.0
 40
2.0
 40
2.0
 40
2.0
 40
3.0
 40
3.0
 40
3.0
 40
4.0
 40
4.0
 40
4.0
 40
5.0
 40
5.0
 40
5.0
 40
6.0
 40
6.0
 40
6.0
 40
7.0
 40
7.0
 40
7.0
 40
7.0
 10
93.95085446869979
 20
-132.1142442161034
 10
93.95085446869979
 20
-132.1142442161034
 10
92.84670136567722
 20
-132.1142442161034
 10
92.84670136567722
 20
-132.1142442161034
 10
92.84670136567722
 20
-132.1142442161034
 10
92.84670136567722
 20
-132.4442843635903
 10
92.84670136567722
 20
-132.4442843635903
 10
92.84670136567722
 20
-132.4442843635903
 10
92.69856225981148
 20
-132.4442843635903
 10
92.69856225981148
 20
-132.4442843635903
 10
92.6837483492249
 20
-132.1121771588122
 10
92.52079533277258
 20
-132.0656683697614
 10
92.40641816266229
 20
-132.0360405485882
 10
92.40641816266229
 20
-132.0360405485882
 10
92.40641816266229
 20
-131.8899685000136
 10
92.40641816266229
 20
-131.8899685000136
 10
92.40641816266229
 20
-131.8899685000136
 10
93.95085446869979
 20
-131.8899685000136
 10
93.95085446869979
 20
-131.8899685000136
 10
93.95085446869979
 20
-131.8899685000136
 10
93.95085446869979
 20
-132.1142442161034
 10
93.95085446869979
 20
-132.1142442161034
 97
        0
 97
        0
 75
     2
 76
     1
 98
        0
  0
ENDBLK
  5
14A
330
147
100
AcDbEntity
  8
0
100
AcDbBlockEnd
  0
BLOCK
  5
16C
330
16A
100
AcDbEntity
  8
0
100
AcDbBlockBegin
  2
block 14
 70
     0
 10
0.0
 20
0.0
 30
0.0
  3
block 14
  1

  0
SPLINE
  5
16E
330
16A
100
AcDbEntity
  8
_U+30EC_U+30A4_U+30E4_U+30FC 1
370
     0
100
AcDbSpline
210
0.0
220
0.0
230
1.0
 70
    11
 71
     3
 72
    29
 73
    25
 74
     0
 42
0.0000000001
 43
0.0000000001
 12
1.0
 22
0.0
 32
0.0
 13
1.0
 23
0.0
 33
0.0
 40
0.0
 40
0.0
 40
0.0
 40
0.0
 40
1.0
 40
1.0
 40
1.0
 40
2.0
 40
2.0
 40
2.0
 40
3.0
 40
3.0
 40
3.0
 40
4.0
 40
4.0
 40
4.0
 40
5.0
 40
5.0
 40
5.0
 40
6.0
 40
6.0
 40
6.0
 40
7.0
 40
7.0
 40
7.0
 40
8.0
 40
8.0
 40
8.0
 40
8.0
 10
109.666346543764
 20
-135.9596597967393
 30
0.0
 10
109.8758083492672
 20
-136.0678357949761
 30
0.0
 10
109.8944118648875
 20
-136.2411240978842
 30
0.0
 10
109.8944118648875
 20
-136.3575683252856
 30
0.0
 10
109.8944118648875
 20
-136.5184542844468
 30
0.0
 10
109.8482475853852
 20
-136.6600477088905
 30
0.0
 10
109.666346543764
 20
-136.7551323442835
 30
0.0
 10
109.4713541392988
 20
-136.8588297183895
 30
0.0
 10
109.2343315699136
 20
-136.8777777435583
 30
0.0
 10
109.0717230630099
 20
-136.8777777435583
 30
0.0
 10
108.9277180717264
 20
-136.8777777435583
 30
0.0
 10
108.6762261013032
 20
-136.8608967756806
 30
0.0
 10
108.4770995822557
 20
-136.7551323442835
 30
0.0
 10
108.274527967723
 20
-136.6473008555951
 30
0.0
 10
108.2511013184233
 20
-136.486414896434
 30
0.0
 10
108.2511013184233
 20
-136.3575683252856
 30
0.0
 10
108.2511013184233
 20
-136.1987494234156
 30
0.0
 10
108.2951985406345
 20
-136.0550889416807
 30
0.0
 10
108.4770995822557
 20
-135.9596597967393
 30
0.0
 10
108.6700249294297
 20
-135.8604410467641
 30
0.0
 10
108.8980902505533
 20
-135.8370143974644
 30
0.0
 10
109.0717230630099
 20
-135.8370143974644
 30
0.0
 10
109.2432888181753
 20
-135.8370143974644
 30
0.0
 10
109.47342119659
 20
-135.8583739894729
 30
0.0
 10
109.666346543764
 20
-135.9596597967393
 30
0.0
  0
SPLINE
  5
16F
330
16A
100
AcDbEntity
  8
_U+30EC_U+30A4_U+30E4_U+30FC 1
370
     0
100
AcDbSpline
210
0.0
220
0.0
230
1.0
 70
    11
 71
     3
 72
    17
 73
    13
 74
     0
 42
0.0000000001
 43
0.0000000001
 12
1.0
 22
0.0
 32
0.0
 13
1.0
 23
0.0
 33
0.0
 40
0.0
 40
0.0
 40
0.0
 40
0.0
 40
1.0
 40
1.0
 40
1.0
 40
2.0
 40
2.0
 40
2.0
 40
3.0
 40
3.0
 40
3.0
 40
4.0
 40
4.0
 40
4.0
 40
4.0
 10
108.4433376465003
 20
-136.3575683252856
 30
0.0
 10
108.4433376465003
 20
-136.6069932384177
 30
0.0
 10
108.7272135144849
 20
-136.6538465370171
 30
0.0
 10
109.0717230630099
 20
-136.6538465370171
 30
0.0
 10
109.391427924041
 20
-136.6538465370171
 30
0.0
 10
109.7001084795194
 20
-136.617673034422
 30
0.0
 10
109.7001084795194
 20
-136.3575683252856
 30
0.0
 10
109.7001084795194
 20
-136.1098659598962
 30
0.0
 10
109.418988687923
 20
-136.0612901135541
 30
0.0
 10
109.0717230630099
 20
-136.0612901135541
 30
0.0
 10
108.7520182019787
 20
-136.0612901135541
 30
0.0
 10
108.4433376465003
 20
-136.0995306734404
 30
0.0
 10
108.4433376465003
 20
-136.3575683252856
 30
0.0
  0
HATCH
  5
170
330
16A
100
AcDbEntity
  8
_U+30EC_U+30A4_U+30E4_U+30FC 1
 62
     7
420
 16777215
100
AcDbHatch
 10
0.0
 20
0.0
 30
0.0
210
0.0
220
0.0
230
1.0
  2
SOLID
 70
     1
 71
     0
 91
        2
 92
        1
 93
        1
 72
     4
 94
        3
 73
     0
 74
     1
 95
       29
 96
       25
 40
0.0
 40
0.0
 40
0.0
 40
0.0
 40
1.0
 40
1.0
 40
1.0
 40
2.0
 40
2.0
 40
2.0
 40
3.0
 40
3.0
 40
3.0
 40
4.0
 40
4.0
 40
4.0
 40
5.0
 40
5.0
 40
5.0
 40
6.0
 40
6.0
 40
6.0
 40
7.0
 40
7.0
 40
7.0
 40
8.0
 40
8.0
 40
8.0
 40
8.0
 10
109.666346543764
 20
-135.9596597967393
 10
109.8758083492672
 20
-136.0678357949761
 10
109.8944118648875
 20
-136.2411240978842
 10
109.8944118648875
 20
-136.3575683252856
 10
109.8944118648875
 20
-136.5184542844468
 10
109.8482475853852
 20
-136.6600477088905
 10
109.666346543764
 20
-136.7551323442835
 10
109.4713541392988
 20
-136.8588297183895
 10
109.2343315699136
 20
-136.8777777435583
 10
109.0717230630099
 20
-136.8777777435583
 10
108.9277180717264
 20
-136.8777777435583
 10
108.6762261013032
 20
-136.8608967756806
 10
108.4770995822557
 20
-136.7551323442835
 10
108.274527967723
 20
-136.6473008555951
 10
108.2511013184233
 20
-136.486414896434
 10
108.2511013184233
 20
-136.3575683252856
 10
108.2511013184233
 20
-136.1987494234156
 10
108.2951985406345
 20
-136.0550889416807
 10
108.4770995822557
 20
-135.9596597967393
 10
108.6700249294297
 20
-135.8604410467641
 10
108.8980902505533
 20
-135.8370143974644
 10
109.0717230630099
 20
-135.8370143974644
 10
109.2432888181753
 20
-135.8370143974644
 10
109.47342119659
 20
-135.8583739894729
 10
109.666346543764
 20
-135.9596597967393
 97
        0
 97
        0
 92
        1
 93
        1
 72
     4
 94
        3
 73
     0
 74
     1
 95
       17
 96
       13
 40
0.0
 40
0.0
 40
0.0
 40
0.0
 40
1.0
 40
1.0
 40
1.0
 40
2.0
 40
2.0
 40
2.0
 40
3.0
 40
3.0
 40
3.0
 40
4.0
 40
4.0
 40
4.0
 40
4.0
 10
108.4433376465003
 20
-136.3575683252856
 10
108.4433376465003
 20
-136.6069932384177
 10
108.7272135144849
 20
-136.6538465370171
 10
109.0717230630099
 20
-136.6538465370171
 10
109.391427924041
 20
-136.6538465370171
 10
109.7001084795194
 20
-136.617673034422
 10
109.7001084795194
 20
-136.3575683252856
 10
109.7001084795194
 20
-136.1098659598962
 10
109.418988687923
 20
-136.0612901135541
 10
109.0717230630099
 20
-136.0612901135541
 10
108.7520182019787
 20
-136.0612901135541
 10
108.4433376465003
 20
-136.0995306734404
 10
108.4433376465003
 20
-136.3575683252856
 97
        0
 97
        0
 75
     2
 76
     1
 98
        0
  0
ENDBLK
  5
16D
330
16A
100
AcDbEntity
  8
0
100
AcDbBlockEnd
  0
BLOCK
  5
173
330
171
100
AcDbEntity
  8
0
100
AcDbBlockBegin
  2
block 15
 70
     0
 10
0.0
 20
0.0
 30
0.0
  3
block 15
  1

  0
SPLINE
  5
175
330
171
100
AcDbEntity
  8
_U+30EC_U+30A4_U+30E4_U+30FC 1
370
     0
100
AcDbSpline
210
0.0
220
0.0
230
1.0
 70
    11
 71
     3
 72
    32
 73
    28
 74
     0
 42
0.0000000001
 43
0.0000000001
 12
1.0
 22
0.0
 32
0.0
 13
1.0
 23
0.0
 33
0.0
 40
0.0
 40
0.0
 40
0.0
 40
0.0
 40
1.0
 40
1.0
 40
1.0
 40
2.0
 40
2.0
 40
2.0
 40
3.0
 40
3.0
 40
3.0
 40
4.0
 40
4.0
 40
4.0
 40
5.0
 40
5.0
 40
5.0
 40
6.0
 40
6.0
 40
6.0
 40
7.0
 40
7.0
 40
7.0
 40
8.0
 40
8.0
 40
8.0
 40
9.0
 40
9.0
 40
9.0
 40
9.0
 10
109.8944118648875
 20
-137.686686163495
 30
0.0
 10
109.8944118648875
 20
-138.2027614671854
 30
0.0
 10
109.3404405108593
 20
-138.21102969635
 30
0.0
 10
109.1261555716768
 20
-138.21102969635
 30
0.0
 10
108.8960231932621
 20
-138.21102969635
 30
0.0
 10
108.2483452420351
 20
-138.1920816711811
 30
0.0
 10
108.2483452420351
 20
-137.6484456036087
 30
0.0
 10
108.2483452420351
 20
-137.4751573007007
 30
0.0
 10
108.3186251899342
 20
-137.2295219926023
 30
0.0
 10
108.6507323947123
 20
-137.1916259422646
 30
0.0
 10
108.6507323947123
 20
-137.1916259422646
 30
0.0
 10
108.6507323947123
 20
-137.4052218623501
 30
0.0
 10
108.6507323947123
 20
-137.4052218623501
 30
0.0
 10
108.5935438096572
 20
-137.4159016583544
 30
0.0
 10
108.4454047037914
 20
-137.4475965368187
 30
0.0
 10
108.4454047037914
 20
-137.6505126608999
 30
0.0
 10
108.4454047037914
 20
-137.9426567580491
 30
0.0
 10
108.7733777939872
 20
-137.982619865678
 30
0.0
 10
108.9780164658111
 20
-137.9953667189734
 30
0.0
 10
108.9001573078444
 20
-137.9023491408716
 30
0.0
 10
108.8409016654981
 20
-137.8344807598122
 30
0.0
 10
108.8409016654981
 20
-137.652579718191
 30
0.0
 10
108.8409016654981
 20
-137.472745733861
 30
0.0
 10
108.949077663735
 20
-137.170266350256
 30
0.0
 10
109.3549099118974
 20
-137.170266350256
 30
0.0
 10
109.6746147729286
 20
-137.170266350256
 30
0.0
 10
109.8944118648875
 20
-137.3693928693035
 30
0.0
 10
109.8944118648875
 20
-137.686686163495
 30
0.0
  0
SPLINE
  5
176
330
171
100
AcDbEntity
  8
_U+30EC_U+30A4_U+30E4_U+30FC 1
370
     0
100
AcDbSpline
210
0.0
220
0.0
230
1.0
 70
    11
 71
     3
 72
    17
 73
    13
 74
     0
 42
0.0000000001
 43
0.0000000001
 12
1.0
 22
0.0
 32
0.0
 13
1.0
 23
0.0
 33
0.0
 40
0.0
 40
0.0
 40
0.0
 40
0.0
 40
1.0
 40
1.0
 40
1.0
 40
2.0
 40
2.0
 40
2.0
 40
3.0
 40
3.0
 40
3.0
 40
4.0
 40
4.0
 40
4.0
 40
4.0
 10
109.0352050508662
 20
-137.6694606860688
 30
0.0
 10
109.0352050508662
 20
-137.9319769620448
 30
0.0
 10
109.2467339136605
 20
-137.9698730123825
 30
0.0
 10
109.363178141062
 20
-137.9698730123825
 30
0.0
 10
109.5388780108097
 20
-137.9698730123825
 30
0.0
 10
109.7021755368106
 20
-137.8747883769896
 30
0.0
 10
109.7021755368106
 20
-137.6908202780773
 30
0.0
 10
109.7021755368106
 20
-137.5702419360936
 30
0.0
 10
109.6429198944643
 20
-137.3945420663458
 30
0.0
 10
109.3569769691885
 20
-137.3945420663458
 30
0.0
 10
109.1330457626473
 20
-137.3945420663458
 30
0.0
 10
109.0352050508662
 20
-137.534412943047
 30
0.0
 10
109.0352050508662
 20
-137.6694606860688
 30
0.0
  0
HATCH
  5
177
330
171
100
AcDbEntity
  8
_U+30EC_U+30A4_U+30E4_U+30FC 1
 62
     7
420
 16777215
100
AcDbHatch
 10
0.0
 20
0.0
 30
0.0
210
0.0
220
0.0
230
1.0
  2
SOLID
 70
     1
 71
     0
 91
        2
 92
        1
 93
        1
 72
     4
 94
        3
 73
     0
 74
     1
 95
       32
 96
       28
 40
0.0
 40
0.0
 40
0.0
 40
0.0
 40
1.0
 40
1.0
 40
1.0
 40
2.0
 40
2.0
 40
2.0
 40
3.0
 40
3.0
 40
3.0
 40
4.0
 40
4.0
 40
4.0
 40
5.0
 40
5.0
 40
5.0
 40
6.0
 40
6.0
 40
6.0
 40
7.0
 40
7.0
 40
7.0
 40
8.0
 40
8.0
 40
8.0
 40
9.0
 40
9.0
 40
9.0
 40
9.0
 10
109.8944118648875
 20
-137.686686163495
 10
109.8944118648875
 20
-138.2027614671854
 10
109.3404405108593
 20
-138.21102969635
 10
109.1261555716768
 20
-138.21102969635
 10
108.8960231932621
 20
-138.21102969635
 10
108.2483452420351
 20
-138.1920816711811
 10
108.2483452420351
 20
-137.6484456036087
 10
108.2483452420351
 20
-137.4751573007007
 10
108.3186251899342
 20
-137.2295219926023
 10
108.6507323947123
 20
-137.1916259422646
 10
108.6507323947123
 20
-137.1916259422646
 10
108.6507323947123
 20
-137.4052218623501
 10
108.6507323947123
 20
-137.4052218623501
 10
108.5935438096572
 20
-137.4159016583544
 10
108.4454047037914
 20
-137.4475965368187
 10
108.4454047037914
 20
-137.6505126608999
 10
108.4454047037914
 20
-137.9426567580491
 10
108.7733777939872
 20
-137.982619865678
 10
108.9780164658111
 20
-137.9953667189734
 10
108.9001573078444
 20
-137.9023491408716
 10
108.8409016654981
 20
-137.8344807598122
 10
108.8409016654981
 20
-137.652579718191
 10
108.8409016654981
 20
-137.472745733861
 10
108.949077663735
 20
-137.170266350256
 10
109.3549099118974
 20
-137.170266350256
 10
109.6746147729286
 20
-137.170266350256
 10
109.8944118648875
 20
-137.3693928693035
 10
109.8944118648875
 20
-137.686686163495
 97
        0
 97
        0
 92
        1
 93
        1
 72
     4
 94
        3
 73
     0
 74
     1
 95
       17
 96
       13
 40
0.0
 40
0.0
 40
0.0
 40
0.0
 40
1.0
 40
1.0
 40
1.0
 40
2.0
 40
2.0
 40
2.0
 40
3.0
 40
3.0
 40
3.0
 40
4.0
 40
4.0
 40
4.0
 40
4.0
 10
109.0352050508662
 20
-137.6694606860688
 10
109.0352050508662
 20
-137.9319769620448
 10
109.2467339136605
 20
-137.9698730123825
 10
109.363178141062
 20
-137.9698730123825
 10
109.5388780108097
 20
-137.9698730123825
 10
109.7021755368106
 20
-137.8747883769896
 10
109.7021755368106
 20
-137.6908202780773
 10
109.7021755368106
 20
-137.5702419360936
 10
109.6429198944643
 20
-137.3945420663458
 10
109.3569769691885
 20
-137.3945420663458
 10
109.1330457626473
 20
-137.3945420663458
 10
109.0352050508662
 20
-137.534412943047
 10
109.0352050508662
 20
-137.6694606860688
 97
        0
 97
        0
 75
     2
 76
     1
 98
        0
  0
ENDBLK
  5
174
330
171
100
AcDbEntity
  8
0
100
AcDbBlockEnd
  0
BLOCK
  5
19C
330
19A
100
AcDbEntity
  8
0
100
AcDbBlockBegin
  2
block 16
 70
     0
 10
0.0
 20
0.0
 30
0.0
  3
block 16
  1

  0
SPLINE
  5
19E
330
19A
100
AcDbEntity
  8
_U+30EC_U+30A4_U+30E4_U+30FC 1
370
     0
100
AcDbSpline
210
0.0
220
0.0
230
1.0
 70
    11
 71
     3
 72
    62
 73
    58
 74
     0
 42
0.0000000001
 43
0.0000000001
 12
1.0
 22
0.0
 32
0.0
 13
1.0
 23
0.0
 33
0.0
 40
0.0
 40
0.0
 40
0.0
 40
0.0
 40
1.0
 40
1.0
 40
1.0
 40
2.0
 40
2.0
 40
2.0
 40
3.0
 40
3.0
 40
3.0
 40
4.0
 40
4.0
 40
4.0
 40
5.0
 40
5.0
 40
5.0
 40
6.0
 40
6.0
 40
6.0
 40
7.0
 40
7.0
 40
7.0
 40
8.0
 40
8.0
 40
8.0
 40
9.0
 40
9.0
 40
9.0
 40
10.0
 40
10.0
 40
10.0
 40
11.0
 40
11.0
 40
11.0
 40
12.0
 40
12.0
 40
12.0
 40
13.0
 40
13.0
 40
13.0
 40
14.0
 40
14.0
 40
14.0
 40
15.0
 40
15.0
 40
15.0
 40
16.0
 40
16.0
 40
16.0
 40
17.0
 40
17.0
 40
17.0
 40
18.0
 40
18.0
 40
18.0
 40
19.0
 40
19.0
 40
19.0
 40
19.0
 10
100.9023681388369
 20
-147.5844454926178
 30
0.0
 10
100.8069389938955
 20
-147.5844454926178
 30
0.0
 10
100.5892089592277
 20
-147.5634304101578
 30
0.0
 10
100.4641519931131
 20
-147.3773952539543
 30
0.0
 10
100.3900824401803
 20
-147.2650851411351
 30
0.0
 10
100.385948325598
 20
-147.1658663911599
 30
0.0
 10
100.3818142110157
 20
-147.0811170422228
 30
0.0
 10
100.3818142110157
 20
-147.0811170422228
 30
0.0
 10
100.6019558125231
 20
-147.0811170422228
 30
0.0
 10
100.6019558125231
 20
-147.0811170422228
 30
0.0
 10
100.6040228698143
 20
-147.1551865951556
 30
0.0
 10
100.61435815627
 20
-147.3897975977012
 30
0.0
 10
100.8978895147061
 20
-147.3897975977012
 30
0.0
 10
101.0353488245675
 20
-147.3897975977012
 30
0.0
 10
101.1879665545641
 20
-147.3202066688991
 30
0.0
 10
101.1879665545641
 20
-147.0917968382271
 30
0.0
 10
101.1879665545641
 20
-146.9753526108256
 30
0.0
 10
101.1497259946779
 20
-146.9267767644836
 30
0.0
 10
101.1180311162136
 20
-146.8950818860193
 30
0.0
 10
101.0439615632807
 20
-146.8210123330864
 30
0.0
 10
100.9275173358792
 20
-146.808265479791
 30
0.0
 10
100.8727403176638
 20
-146.808265479791
 30
0.0
 10
100.8534477829464
 20
-146.808265479791
 30
0.0
 10
100.8176187898998
 20
-146.8103325370821
 30
0.0
 10
100.7900580260178
 20
-146.8144666516644
 30
0.0
 10
100.7900580260178
 20
-146.8144666516644
 30
0.0
 10
100.7900580260178
 20
-146.6198187567478
 30
0.0
 10
100.7900580260178
 20
-146.6198187567478
 30
0.0
 10
100.828298585904
 20
-146.6263644381698
 30
0.0
 10
100.8703287508241
 20
-146.6284314954609
 30
0.0
 10
100.8768744322461
 20
-146.6284314954609
 30
0.0
 10
100.9423312464658
 20
-146.6284314954609
 30
0.0
 10
101.1411132559647
 20
-146.6070719034524
 30
0.0
 10
101.1411132559647
 20
-146.3703938436157
 30
0.0
 10
101.1411132559647
 20
-146.1926269165768
 30
0.0
 10
101.0101996275252
 20
-146.1375053888129
 30
0.0
 10
100.8999565719972
 20
-146.1375053888129
 30
0.0
 10
100.6357177482786
 20
-146.1375053888129
 30
0.0
 10
100.6271050095655
 20
-146.3703938436157
 30
0.0
 10
100.6229708949832
 20
-146.4420518297089
 30
0.0
 10
100.6229708949832
 20
-146.4420518297089
 30
0.0
 10
100.4197102613534
 20
-146.4420518297089
 30
0.0
 10
100.4197102613534
 20
-146.4420518297089
 30
0.0
 10
100.4283230000665
 20
-146.3173393731429
 30
0.0
 10
100.4558837639485
 20
-145.9407904366051
 30
0.0
 10
100.9127034252927
 20
-145.9407904366051
 30
0.0
 10
101.1369791413824
 20
-145.9407904366051
 30
0.0
 10
101.3781358253499
 20
-146.0679144600108
 30
0.0
 10
101.3781358253499
 20
-146.3638481621938
 30
0.0
 10
101.3781358253499
 20
-146.5502278279458
 30
0.0
 10
101.283051189957
 20
-146.6325656100433
 30
0.0
 10
101.1834879304333
 20
-146.6938883096807
 30
0.0
 10
101.2448106300707
 20
-146.7214490735627
 30
0.0
 10
101.4267116716919
 20
-146.801719798369
 30
0.0
 10
101.4267116716919
 20
-147.0790499849316
 30
0.0
 10
101.4267116716919
 20
-147.4173583615832
 30
0.0
 10
101.179353815851
 20
-147.5844454926178
 30
0.0
 10
100.9023681388369
 20
-147.5844454926178
 30
0.0
  0
HATCH
  5
19F
330
19A
100
AcDbEntity
  8
_U+30EC_U+30A4_U+30E4_U+30FC 1
 62
     7
420
 16777215
100
AcDbHatch
 10
0.0
 20
0.0
 30
0.0
210
0.0
220
0.0
230
1.0
  2
SOLID
 70
     1
 71
     0
 91
        1
 92
        1
 93
        1
 72
     4
 94
        3
 73
     0
 74
     1
 95
       62
 96
       58
 40
0.0
 40
0.0
 40
0.0
 40
0.0
 40
1.0
 40
1.0
 40
1.0
 40
2.0
 40
2.0
 40
2.0
 40
3.0
 40
3.0
 40
3.0
 40
4.0
 40
4.0
 40
4.0
 40
5.0
 40
5.0
 40
5.0
 40
6.0
 40
6.0
 40
6.0
 40
7.0
 40
7.0
 40
7.0
 40
8.0
 40
8.0
 40
8.0
 40
9.0
 40
9.0
 40
9.0
 40
10.0
 40
10.0
 40
10.0
 40
11.0
 40
11.0
 40
11.0
 40
12.0
 40
12.0
 40
12.0
 40
13.0
 40
13.0
 40
13.0
 40
14.0
 40
14.0
 40
14.0
 40
15.0
 40
15.0
 40
15.0
 40
16.0
 40
16.0
 40
16.0
 40
17.0
 40
17.0
 40
17.0
 40
18.0
 40
18.0
 40
18.0
 40
19.0
 40
19.0
 40
19.0
 40
19.0
 10
100.9023681388369
 20
-147.5844454926178
 10
100.8069389938955
 20
-147.5844454926178
 10
100.5892089592277
 20
-147.5634304101578
 10
100.4641519931131
 20
-147.3773952539543
 10
100.3900824401803
 20
-147.2650851411351
 10
100.385948325598
 20
-147.1658663911599
 10
100.3818142110157
 20
-147.0811170422228
 10
100.3818142110157
 20
-147.0811170422228
 10
100.6019558125231
 20
-147.0811170422228
 10
100.6019558125231
 20
-147.0811170422228
 10
100.6040228698143
 20
-147.1551865951556
 10
100.61435815627
 20
-147.3897975977012
 10
100.8978895147061
 20
-147.3897975977012
 10
101.0353488245675
 20
-147.3897975977012
 10
101.1879665545641
 20
-147.3202066688991
 10
101.1879665545641
 20
-147.0917968382271
 10
101.1879665545641
 20
-146.9753526108256
 10
101.1497259946779
 20
-146.9267767644836
 10
101.1180311162136
 20
-146.8950818860193
 10
101.0439615632807
 20
-146.8210123330864
 10
100.9275173358792
 20
-146.808265479791
 10
100.8727403176638
 20
-146.808265479791
 10
100.8534477829464
 20
-146.808265479791
 10
100.8176187898998
 20
-146.8103325370821
 10
100.7900580260178
 20
-146.8144666516644
 10
100.7900580260178
 20
-146.8144666516644
 10
100.7900580260178
 20
-146.6198187567478
 10
100.7900580260178
 20
-146.6198187567478
 10
100.828298585904
 20
-146.6263644381698
 10
100.8703287508241
 20
-146.6284314954609
 10
100.8768744322461
 20
-146.6284314954609
 10
100.9423312464658
 20
-146.6284314954609
 10
101.1411132559647
 20
-146.6070719034524
 10
101.1411132559647
 20
-146.3703938436157
 10
101.1411132559647
 20
-146.1926269165768
 10
101.0101996275252
 20
-146.1375053888129
 10
100.8999565719972
 20
-146.1375053888129
 10
100.6357177482786
 20
-146.1375053888129
 10
100.6271050095655
 20
-146.3703938436157
 10
100.6229708949832
 20
-146.4420518297089
 10
100.6229708949832
 20
-146.4420518297089
 10
100.4197102613534
 20
-146.4420518297089
 10
100.4197102613534
 20
-146.4420518297089
 10
100.4283230000665
 20
-146.3173393731429
 10
100.4558837639485
 20
-145.9407904366051
 10
100.9127034252927
 20
-145.9407904366051
 10
101.1369791413824
 20
-145.9407904366051
 10
101.3781358253499
 20
-146.0679144600108
 10
101.3781358253499
 20
-146.3638481621938
 10
101.3781358253499
 20
-146.5502278279458
 10
101.283051189957
 20
-146.6325656100433
 10
101.1834879304333
 20
-146.6938883096807
 10
101.2448106300707
 20
-146.7214490735627
 10
101.4267116716919
 20
-146.801719798369
 10
101.4267116716919
 20
-147.0790499849316
 10
101.4267116716919
 20
-147.4173583615832
 10
101.179353815851
 20
-147.5844454926178
 10
100.9023681388369
 20
-147.5844454926178
 97
        0
 97
        0
 75
     2
 76
     1
 98
        0
  0
SPLINE
  5
1A0
330
19A
100
AcDbEntity
  8
_U+30EC_U+30A4_U+30E4_U+30FC 1
370
     0
100
AcDbSpline
210
0.0
220
0.0
230
1.0
 70
    11
 71
     3
 72
    53
 73
    49
 74
     0
 42
0.0000000001
 43
0.0000000001
 12
1.0
 22
0.0
 32
0.0
 13
1.0
 23
0.0
 33
0.0
 40
0.0
 40
0.0
 40
0.0
 40
0.0
 40
1.0
 40
1.0
 40
1.0
 40
2.0
 40
2.0
 40
2.0
 40
3.0
 40
3.0
 40
3.0
 40
4.0
 40
4.0
 40
4.0
 40
5.0
 40
5.0
 40
5.0
 40
6.0
 40
6.0
 40
6.0
 40
7.0
 40
7.0
 40
7.0
 40
8.0
 40
8.0
 40
8.0
 40
9.0
 40
9.0
 40
9.0
 40
10.0
 40
10.0
 40
10.0
 40
11.0
 40
11.0
 40
11.0
 40
12.0
 40
12.0
 40
12.0
 40
13.0
 40
13.0
 40
13.0
 40
14.0
 40
14.0
 40
14.0
 40
15.0
 40
15.0
 40
15.0
 40
16.0
 40
16.0
 40
16.0
 40
16.0
 10
102.068532960594
 20
-147.5844454926178
 30
0.0
 10
101.9903292930788
 20
-147.5844454926178
 30
0.0
 10
101.8886989762639
 20
-147.56756452474
 30
0.0
 10
101.7870686594491
 20
-147.5041747678115
 30
0.0
 10
101.613780356541
 20
-147.394276221832
 30
0.0
 10
101.5924207645324
 20
-147.263018083844
 30
0.0
 10
101.5734727393636
 20
-147.1551865951556
 30
0.0
 10
101.5734727393636
 20
-147.1551865951556
 30
0.0
 10
101.7956813981622
 20
-147.1551865951556
 30
0.0
 10
101.7956813981622
 20
-147.1551865951556
 30
0.0
 10
101.8504584163777
 20
-147.3539686046546
 30
0.0
 10
101.9775824397834
 20
-147.3835964258277
 30
0.0
 10
102.0706000178851
 20
-147.3835964258277
 30
0.0
 10
102.2101263850378
 20
-147.3835964258277
 30
0.0
 10
102.3623996054858
 20
-147.284033166304
 30
0.0
 10
102.3623996054858
 20
-147.0514892210496
 30
0.0
 10
102.3623996054858
 20
-146.7955186264956
 30
0.0
 10
102.1825656211557
 20
-146.725583188145
 30
0.0
 10
102.061987279172
 20
-146.725583188145
 30
0.0
 10
102.0302924007077
 20
-146.725583188145
 30
0.0
 10
101.8886989762639
 20
-146.725583188145
 30
0.0
 10
101.7998155127445
 20
-146.8547742688419
 30
0.0
 10
101.7998155127445
 20
-146.8547742688419
 30
0.0
 10
101.6241156429968
 20
-146.835826243673
 30
0.0
 10
101.6241156429968
 20
-146.835826243673
 30
0.0
 10
101.6241156429968
 20
-146.835826243673
 30
0.0
 10
101.7446939849805
 20
-145.9893662829471
 30
0.0
 10
101.7446939849805
 20
-145.9893662829471
 30
0.0
 10
101.7446939849805
 20
-145.9893662829471
 30
0.0
 10
102.523285564647
 20
-145.9893662829471
 30
0.0
 10
102.523285564647
 20
-145.9893662829471
 30
0.0
 10
102.523285564647
 20
-145.9893662829471
 30
0.0
 10
102.523285564647
 20
-146.1840141778637
 30
0.0
 10
102.523285564647
 20
-146.1840141778637
 30
0.0
 10
102.523285564647
 20
-146.1840141778637
 30
0.0
 10
101.9076470014328
 20
-146.1840141778637
 30
0.0
 10
101.9076470014328
 20
-146.1840141778637
 30
0.0
 10
101.9076470014328
 20
-146.1840141778637
 30
0.0
 10
101.8421901872131
 20
-146.6070719034524
 30
0.0
 10
101.8421901872131
 20
-146.6070719034524
 30
0.0
 10
101.9035128868505
 20
-146.573309967697
 30
0.0
 10
101.985850668948
 20
-146.5330023505195
 30
0.0
 10
102.1043619536406
 20
-146.5330023505195
 30
0.0
 10
102.3582654909035
 20
-146.5330023505195
 30
0.0
 10
102.5952880602887
 20
-146.7193820162715
 30
0.0
 10
102.5952880602887
 20
-147.0325411958808
 30
0.0
 10
102.5952880602887
 20
-147.3498344900723
 30
0.0
 10
102.3710123441989
 20
-147.5844454926178
 30
0.0
 10
102.068532960594
 20
-147.5844454926178
 30
0.0
  0
HATCH
  5
1A1
330
19A
100
AcDbEntity
  8
_U+30EC_U+30A4_U+30E4_U+30FC 1
 62
     7
420
 16777215
100
AcDbHatch
 10
0.0
 20
0.0
 30
0.0
210
0.0
220
0.0
230
1.0
  2
SOLID
 70
     1
 71
     0
 91
        1
 92
        1
 93
        1
 72
     4
 94
        3
 73
     0
 74
     1
 95
       53
 96
       49
 40
0.0
 40
0.0
 40
0.0
 40
0.0
 40
1.0
 40
1.0
 40
1.0
 40
2.0
 40
2.0
 40
2.0
 40
3.0
 40
3.0
 40
3.0
 40
4.0
 40
4.0
 40
4.0
 40
5.0
 40
5.0
 40
5.0
 40
6.0
 40
6.0
 40
6.0
 40
7.0
 40
7.0
 40
7.0
 40
8.0
 40
8.0
 40
8.0
 40
9.0
 40
9.0
 40
9.0
 40
10.0
 40
10.0
 40
10.0
 40
11.0
 40
11.0
 40
11.0
 40
12.0
 40
12.0
 40
12.0
 40
13.0
 40
13.0
 40
13.0
 40
14.0
 40
14.0
 40
14.0
 40
15.0
 40
15.0
 40
15.0
 40
16.0
 40
16.0
 40
16.0
 40
16.0
 10
102.068532960594
 20
-147.5844454926178
 10
101.9903292930788
 20
-147.5844454926178
 10
101.8886989762639
 20
-147.56756452474
 10
101.7870686594491
 20
-147.5041747678115
 10
101.613780356541
 20
-147.394276221832
 10
101.5924207645324
 20
-147.263018083844
 10
101.5734727393636
 20
-147.1551865951556
 10
101.5734727393636
 20
-147.1551865951556
 10
101.7956813981622
 20
-147.1551865951556
 10
101.7956813981622
 20
-147.1551865951556
 10
101.8504584163777
 20
-147.3539686046546
 10
101.9775824397834
 20
-147.3835964258277
 10
102.0706000178851
 20
-147.3835964258277
 10
102.2101263850378
 20
-147.3835964258277
 10
102.3623996054858
 20
-147.284033166304
 10
102.3623996054858
 20
-147.0514892210496
 10
102.3623996054858
 20
-146.7955186264956
 10
102.1825656211557
 20
-146.725583188145
 10
102.061987279172
 20
-146.725583188145
 10
102.0302924007077
 20
-146.725583188145
 10
101.8886989762639
 20
-146.725583188145
 10
101.7998155127445
 20
-146.8547742688419
 10
101.7998155127445
 20
-146.8547742688419
 10
101.6241156429968
 20
-146.835826243673
 10
101.6241156429968
 20
-146.835826243673
 10
101.6241156429968
 20
-146.835826243673
 10
101.7446939849805
 20
-145.9893662829471
 10
101.7446939849805
 20
-145.9893662829471
 10
101.7446939849805
 20
-145.9893662829471
 10
102.523285564647
 20
-145.9893662829471
 10
102.523285564647
 20
-145.9893662829471
 10
102.523285564647
 20
-145.9893662829471
 10
102.523285564647
 20
-146.1840141778637
 10
102.523285564647
 20
-146.1840141778637
 10
102.523285564647
 20
-146.1840141778637
 10
101.9076470014328
 20
-146.1840141778637
 10
101.9076470014328
 20
-146.1840141778637
 10
101.9076470014328
 20
-146.1840141778637
 10
101.8421901872131
 20
-146.6070719034524
 10
101.8421901872131
 20
-146.6070719034524
 10
101.9035128868505
 20
-146.573309967697
 10
101.985850668948
 20
-146.5330023505195
 10
102.1043619536406
 20
-146.5330023505195
 10
102.3582654909035
 20
-146.5330023505195
 10
102.5952880602887
 20
-146.7193820162715
 10
102.5952880602887
 20
-147.0325411958808
 10
102.5952880602887
 20
-147.3498344900723
 10
102.3710123441989
 20
-147.5844454926178
 10
102.068532960594
 20
-147.5844454926178
 97
        0
 97
        0
 75
     2
 76
     1
 98
        0
  0
ENDBLK
  5
19D
330
19A
100
AcDbEntity
  8
0
100
AcDbBlockEnd
  0
BLOCK
  5
1C6
330
1C4
100
AcDbEntity
  8
0
100
AcDbBlockBegin
  2
block 17
 70
     0
 10
0.0
 20
0.0
 30
0.0
  3
block 17
  1

  0
SPLINE
  5
1C8
330
1C4
100
AcDbEntity
  8
_U+30EC_U+30A4_U+30E4_U+30FC 1
370
     0
100
AcDbSpline
210
0.0
220
0.0
230
1.0
 70
    11
 71
     3
 72
    62
 73
    58
 74
     0
 42
0.0000000001
 43
0.0000000001
 12
1.0
 22
0.0
 32
0.0
 13
1.0
 23
0.0
 33
0.0
 40
0.0
 40
0.0
 40
0.0
 40
0.0
 40
1.0
 40
1.0
 40
1.0
 40
2.0
 40
2.0
 40
2.0
 40
3.0
 40
3.0
 40
3.0
 40
4.0
 40
4.0
 40
4.0
 40
5.0
 40
5.0
 40
5.0
 40
6.0
 40
6.0
 40
6.0
 40
7.0
 40
7.0
 40
7.0
 40
8.0
 40
8.0
 40
8.0
 40
9.0
 40
9.0
 40
9.0
 40
10.0
 40
10.0
 40
10.0
 40
11.0
 40
11.0
 40
11.0
 40
12.0
 40
12.0
 40
12.0
 40
13.0
 40
13.0
 40
13.0
 40
14.0
 40
14.0
 40
14.0
 40
15.0
 40
15.0
 40
15.0
 40
16.0
 40
16.0
 40
16.0
 40
17.0
 40
17.0
 40
17.0
 40
18.0
 40
18.0
 40
18.0
 40
19.0
 40
19.0
 40
19.0
 40
19.0
 10
80.84019909003301
 20
-147.5844454926178
 30
0.0
 10
80.74494219986585
 20
-147.5844454926178
 30
0.0
 10
80.5270399104238
 20
-147.5634304101578
 30
0.0
 10
80.40232745385775
 20
-147.3773952539543
 30
0.0
 10
80.32825790092488
 20
-147.2650851411351
 30
0.0
 10
80.32395153156833
 20
-147.1658663911599
 30
0.0
 10
80.31981741698603
 20
-147.0811170422228
 30
0.0
 10
80.31981741698603
 20
-147.0811170422228
 30
0.0
 10
80.53978676371922
 20
-147.0811170422228
 30
0.0
 10
80.53978676371922
 20
-147.0811170422228
 30
0.0
 10
80.54185382101038
 20
-147.1551865951556
 30
0.0
 10
80.55253361701465
 20
-147.3897975977012
 30
0.0
 10
80.83606497545071
 20
-147.3897975977012
 30
0.0
 10
80.97352428531218
 20
-147.3897975977012
 30
0.0
 10
81.12579750576022
 20
-147.3202066688991
 30
0.0
 10
81.12579750576022
 20
-147.0917968382271
 30
0.0
 10
81.12579750576022
 20
-146.9753526108256
 30
0.0
 10
81.08772920064821
 20
-146.9267767644836
 30
0.0
 10
81.0560343221839
 20
-146.8950818860193
 30
0.0
 10
80.98196476925104
 20
-146.8210123330864
 30
0.0
 10
80.86552054184959
 20
-146.808265479791
 30
0.0
 10
80.81057126885986
 20
-146.808265479791
 30
0.0
 10
80.79162324369099
 20
-146.808265479791
 30
0.0
 10
80.75562199587013
 20
-146.8103325370821
 30
0.0
 10
80.72806123198812
 20
-146.8144666516644
 30
0.0
 10
80.72806123198812
 20
-146.8144666516644
 30
0.0
 10
80.72806123198812
 20
-146.6198187567478
 30
0.0
 10
80.72806123198812
 20
-146.6198187567478
 30
0.0
 10
80.76612953710014
 20
-146.6263644381698
 30
0.0
 10
80.80850421156872
 20
-146.6284314954609
 30
0.0
 10
80.81487763821643
 20
-146.6284314954609
 30
0.0
 10
80.88033445243617
 20
-146.6284314954609
 30
0.0
 10
81.07928871670934
 20
-146.6070719034524
 30
0.0
 10
81.07928871670934
 20
-146.3703938436157
 30
0.0
 10
81.07928871670934
 20
-146.1926269165768
 30
0.0
 10
80.94803057872133
 20
-146.1375053888129
 30
0.0
 10
80.83813203274185
 20
-146.1375053888129
 30
0.0
 10
80.57372095424894
 20
-146.1375053888129
 30
0.0
 10
80.56528047031007
 20
-146.3703938436157
 30
0.0
 10
80.56097410095352
 20
-146.4420518297089
 30
0.0
 10
80.56097410095352
 20
-146.4420518297089
 30
0.0
 10
80.35788572209803
 20
-146.4420518297089
 30
0.0
 10
80.35788572209803
 20
-146.4420518297089
 30
0.0
 10
80.36632620603689
 20
-146.3173393731429
 30
0.0
 10
80.3938869699189
 20
-145.9407904366051
 30
0.0
 10
80.85070663126302
 20
-145.9407904366051
 30
0.0
 10
81.07498234735279
 20
-145.9407904366051
 30
0.0
 10
81.31613903132028
 20
-146.0679144600108
 30
0.0
 10
81.31613903132028
 20
-146.3638481621938
 30
0.0
 10
81.31613903132028
 20
-146.5502278279458
 30
0.0
 10
81.22105439592738
 20
-146.6325656100433
 30
0.0
 10
81.12149113640366
 20
-146.6938883096807
 30
0.0
 10
81.18298609081536
 20
-146.7214490735627
 30
0.0
 10
81.36488713243656
 20
-146.801719798369
 30
0.0
 10
81.36488713243656
 20
-147.0790499849316
 30
0.0
 10
81.36488713243656
 20
-147.4173583615832
 30
0.0
 10
81.11735702182136
 20
-147.5844454926178
 30
0.0
 10
80.84019909003301
 20
-147.5844454926178
 30
0.0
  0
HATCH
  5
1C9
330
1C4
100
AcDbEntity
  8
_U+30EC_U+30A4_U+30E4_U+30FC 1
 62
     7
420
 16777215
100
AcDbHatch
 10
0.0
 20
0.0
 30
0.0
210
0.0
220
0.0
230
1.0
  2
SOLID
 70
     1
 71
     0
 91
        1
 92
        1
 93
        1
 72
     4
 94
        3
 73
     0
 74
     1
 95
       62
 96
       58
 40
0.0
 40
0.0
 40
0.0
 40
0.0
 40
1.0
 40
1.0
 40
1.0
 40
2.0
 40
2.0
 40
2.0
 40
3.0
 40
3.0
 40
3.0
 40
4.0
 40
4.0
 40
4.0
 40
5.0
 40
5.0
 40
5.0
 40
6.0
 40
6.0
 40
6.0
 40
7.0
 40
7.0
 40
7.0
 40
8.0
 40
8.0
 40
8.0
 40
9.0
 40
9.0
 40
9.0
 40
10.0
 40
10.0
 40
10.0
 40
11.0
 40
11.0
 40
11.0
 40
12.0
 40
12.0
 40
12.0
 40
13.0
 40
13.0
 40
13.0
 40
14.0
 40
14.0
 40
14.0
 40
15.0
 40
15.0
 40
15.0
 40
16.0
 40
16.0
 40
16.0
 40
17.0
 40
17.0
 40
17.0
 40
18.0
 40
18.0
 40
18.0
 40
19.0
 40
19.0
 40
19.0
 40
19.0
 10
80.84019909003301
 20
-147.5844454926178
 10
80.74494219986585
 20
-147.5844454926178
 10
80.5270399104238
 20
-147.5634304101578
 10
80.40232745385775
 20
-147.3773952539543
 10
80.32825790092488
 20
-147.2650851411351
 10
80.32395153156833
 20
-147.1658663911599
 10
80.31981741698603
 20
-147.0811170422228
 10
80.31981741698603
 20
-147.0811170422228
 10
80.53978676371922
 20
-147.0811170422228
 10
80.53978676371922
 20
-147.0811170422228
 10
80.54185382101038
 20
-147.1551865951556
 10
80.55253361701465
 20
-147.3897975977012
 10
80.83606497545071
 20
-147.3897975977012
 10
80.97352428531218
 20
-147.3897975977012
 10
81.12579750576022
 20
-147.3202066688991
 10
81.12579750576022
 20
-147.0917968382271
 10
81.12579750576022
 20
-146.9753526108256
 10
81.08772920064821
 20
-146.9267767644836
 10
81.0560343221839
 20
-146.8950818860193
 10
80.98196476925104
 20
-146.8210123330864
 10
80.86552054184959
 20
-146.808265479791
 10
80.81057126885986
 20
-146.808265479791
 10
80.79162324369099
 20
-146.808265479791
 10
80.75562199587013
 20
-146.8103325370821
 10
80.72806123198812
 20
-146.8144666516644
 10
80.72806123198812
 20
-146.8144666516644
 10
80.72806123198812
 20
-146.6198187567478
 10
80.72806123198812
 20
-146.6198187567478
 10
80.76612953710014
 20
-146.6263644381698
 10
80.80850421156872
 20
-146.6284314954609
 10
80.81487763821643
 20
-146.6284314954609
 10
80.88033445243617
 20
-146.6284314954609
 10
81.07928871670934
 20
-146.6070719034524
 10
81.07928871670934
 20
-146.3703938436157
 10
81.07928871670934
 20
-146.1926269165768
 10
80.94803057872133
 20
-146.1375053888129
 10
80.83813203274185
 20
-146.1375053888129
 10
80.57372095424894
 20
-146.1375053888129
 10
80.56528047031007
 20
-146.3703938436157
 10
80.56097410095352
 20
-146.4420518297089
 10
80.56097410095352
 20
-146.4420518297089
 10
80.35788572209803
 20
-146.4420518297089
 10
80.35788572209803
 20
-146.4420518297089
 10
80.36632620603689
 20
-146.3173393731429
 10
80.3938869699189
 20
-145.9407904366051
 10
80.85070663126302
 20
-145.9407904366051
 10
81.07498234735279
 20
-145.9407904366051
 10
81.31613903132028
 20
-146.0679144600108
 10
81.31613903132028
 20
-146.3638481621938
 10
81.31613903132028
 20
-146.5502278279458
 10
81.22105439592738
 20
-146.6325656100433
 10
81.12149113640366
 20
-146.6938883096807
 10
81.18298609081536
 20
-146.7214490735627
 10
81.36488713243656
 20
-146.801719798369
 10
81.36488713243656
 20
-147.0790499849316
 10
81.36488713243656
 20
-147.4173583615832
 10
81.11735702182136
 20
-147.5844454926178
 10
80.84019909003301
 20
-147.5844454926178
 97
        0
 97
        0
 75
     2
 76
     1
 98
        0
  0
SPLINE
  5
1CA
330
1C4
100
AcDbEntity
  8
_U+30EC_U+30A4_U+30E4_U+30FC 1
370
     0
100
AcDbSpline
210
0.0
220
0.0
230
1.0
 70
    11
 71
     3
 72
    53
 73
    49
 74
     0
 42
0.0000000001
 43
0.0000000001
 12
1.0
 22
0.0
 32
0.0
 13
1.0
 23
0.0
 33
0.0
 40
0.0
 40
0.0
 40
0.0
 40
0.0
 40
1.0
 40
1.0
 40
1.0
 40
2.0
 40
2.0
 40
2.0
 40
3.0
 40
3.0
 40
3.0
 40
4.0
 40
4.0
 40
4.0
 40
5.0
 40
5.0
 40
5.0
 40
6.0
 40
6.0
 40
6.0
 40
7.0
 40
7.0
 40
7.0
 40
8.0
 40
8.0
 40
8.0
 40
9.0
 40
9.0
 40
9.0
 40
10.0
 40
10.0
 40
10.0
 40
11.0
 40
11.0
 40
11.0
 40
12.0
 40
12.0
 40
12.0
 40
13.0
 40
13.0
 40
13.0
 40
14.0
 40
14.0
 40
14.0
 40
15.0
 40
15.0
 40
15.0
 40
16.0
 40
16.0
 40
16.0
 40
16.0
 10
82.00653616656435
 20
-147.5844454926178
 30
0.0
 10
81.9281602442749
 20
-147.5844454926178
 30
0.0
 10
81.8267021822343
 20
-147.56756452474
 30
0.0
 10
81.72507186541944
 20
-147.5041747678115
 30
0.0
 10
81.5516113077371
 20
-147.394276221832
 30
0.0
 10
81.53042397050281
 20
-147.263018083844
 30
0.0
 10
81.51147594533394
 20
-147.1551865951556
 30
0.0
 10
81.51147594533394
 20
-147.1551865951556
 30
0.0
 10
81.73351234935829
 20
-147.1551865951556
 30
0.0
 10
81.73351234935829
 20
-147.1551865951556
 30
0.0
 10
81.7886338771223
 20
-147.3539686046546
 30
0.0
 10
81.91558564575375
 20
-147.3835964258277
 30
0.0
 10
82.00860322385549
 20
-147.3835964258277
 30
0.0
 10
82.14830184578237
 20
-147.3835964258277
 30
0.0
 10
82.30057506623042
 20
-147.284033166304
 30
0.0
 10
82.30057506623042
 20
-147.0514892210496
 30
0.0
 10
82.30057506623042
 20
-146.7955186264956
 30
0.0
 10
82.12074108190038
 20
-146.725583188145
 30
0.0
 10
82.00016273991663
 20
-146.725583188145
 30
0.0
 10
81.96846786145232
 20
-146.725583188145
 30
0.0
 10
81.8267021822343
 20
-146.725583188145
 30
0.0
 10
81.73781871871485
 20
-146.8547742688419
 30
0.0
 10
81.73781871871485
 20
-146.8547742688419
 30
0.0
 10
81.56229110374137
 20
-146.835826243673
 30
0.0
 10
81.56229110374137
 20
-146.835826243673
 30
0.0
 10
81.56229110374137
 20
-146.835826243673
 30
0.0
 10
81.68286944572512
 20
-145.9893662829471
 30
0.0
 10
81.68286944572512
 20
-145.9893662829471
 30
0.0
 10
81.68286944572512
 20
-145.9893662829471
 30
0.0
 10
82.46128877061732
 20
-145.9893662829471
 30
0.0
 10
82.46128877061732
 20
-145.9893662829471
 30
0.0
 10
82.46128877061732
 20
-145.9893662829471
 30
0.0
 10
82.46128877061732
 20
-146.1840141778637
 30
0.0
 10
82.46128877061732
 20
-146.1840141778637
 30
0.0
 10
82.46128877061732
 20
-146.1840141778637
 30
0.0
 10
81.84565020740317
 20
-146.1840141778637
 30
0.0
 10
81.84565020740317
 20
-146.1840141778637
 30
0.0
 10
81.84565020740317
 20
-146.1840141778637
 30
0.0
 10
81.78019339318342
 20
-146.6070719034524
 30
0.0
 10
81.78019339318342
 20
-146.6070719034524
 30
0.0
 10
81.84151609282087
 20
-146.573309967697
 30
0.0
 10
81.9240261296926
 20
-146.5330023505195
 30
0.0
 10
82.04236515961094
 20
-146.5330023505195
 30
0.0
 10
82.29626869687385
 20
-146.5330023505195
 30
0.0
 10
82.53329126625904
 20
-146.7193820162715
 30
0.0
 10
82.53329126625904
 20
-147.0325411958808
 30
0.0
 10
82.53329126625904
 20
-147.3498344900723
 30
0.0
 10
82.30901555016928
 20
-147.5844454926178
 30
0.0
 10
82.00653616656435
 20
-147.5844454926178
 30
0.0
  0
HATCH
  5
1CB
330
1C4
100
AcDbEntity
  8
_U+30EC_U+30A4_U+30E4_U+30FC 1
 62
     7
420
 16777215
100
AcDbHatch
 10
0.0
 20
0.0
 30
0.0
210
0.0
220
0.0
230
1.0
  2
SOLID
 70
     1
 71
     0
 91
        1
 92
        1
 93
        1
 72
     4
 94
        3
 73
     0
 74
     1
 95
       53
 96
       49
 40
0.0
 40
0.0
 40
0.0
 40
0.0
 40
1.0
 40
1.0
 40
1.0
 40
2.0
 40
2.0
 40
2.0
 40
3.0
 40
3.0
 40
3.0
 40
4.0
 40
4.0
 40
4.0
 40
5.0
 40
5.0
 40
5.0
 40
6.0
 40
6.0
 40
6.0
 40
7.0
 40
7.0
 40
7.0
 40
8.0
 40
8.0
 40
8.0
 40
9.0
 40
9.0
 40
9.0
 40
10.0
 40
10.0
 40
10.0
 40
11.0
 40
11.0
 40
11.0
 40
12.0
 40
12.0
 40
12.0
 40
13.0
 40
13.0
 40
13.0
 40
14.0
 40
14.0
 40
14.0
 40
15.0
 40
15.0
 40
15.0
 40
16.0
 40
16.0
 40
16.0
 40
16.0
 10
82.00653616656435
 20
-147.5844454926178
 10
81.9281602442749
 20
-147.5844454926178
 10
81.8267021822343
 20
-147.56756452474
 10
81.72507186541944
 20
-147.5041747678115
 10
81.5516113077371
 20
-147.394276221832
 10
81.53042397050281
 20
-147.263018083844
 10
81.51147594533394
 20
-147.1551865951556
 10
81.51147594533394
 20
-147.1551865951556
 10
81.73351234935829
 20
-147.1551865951556
 10
81.73351234935829
 20
-147.1551865951556
 10
81.7886338771223
 20
-147.3539686046546
 10
81.91558564575375
 20
-147.3835964258277
 10
82.00860322385549
 20
-147.3835964258277
 10
82.14830184578237
 20
-147.3835964258277
 10
82.30057506623042
 20
-147.284033166304
 10
82.30057506623042
 20
-147.0514892210496
 10
82.30057506623042
 20
-146.7955186264956
 10
82.12074108190038
 20
-146.725583188145
 10
82.00016273991663
 20
-146.725583188145
 10
81.96846786145232
 20
-146.725583188145
 10
81.8267021822343
 20
-146.725583188145
 10
81.73781871871485
 20
-146.8547742688419
 10
81.73781871871485
 20
-146.8547742688419
 10
81.56229110374137
 20
-146.835826243673
 10
81.56229110374137
 20
-146.835826243673
 10
81.56229110374137
 20
-146.835826243673
 10
81.68286944572512
 20
-145.9893662829471
 10
81.68286944572512
 20
-145.9893662829471
 10
81.68286944572512
 20
-145.9893662829471
 10
82.46128877061732
 20
-145.9893662829471
 10
82.46128877061732
 20
-145.9893662829471
 10
82.46128877061732
 20
-145.9893662829471
 10
82.46128877061732
 20
-146.1840141778637
 10
82.46128877061732
 20
-146.1840141778637
 10
82.46128877061732
 20
-146.1840141778637
 10
81.84565020740317
 20
-146.1840141778637
 10
81.84565020740317
 20
-146.1840141778637
 10
81.84565020740317
 20
-146.1840141778637
 10
81.78019339318342
 20
-146.6070719034524
 10
81.78019339318342
 20
-146.6070719034524
 10
81.84151609282087
 20
-146.573309967697
 10
81.9240261296926
 20
-146.5330023505195
 10
82.04236515961094
 20
-146.5330023505195
 10
82.29626869687385
 20
-146.5330023505195
 10
82.53329126625904
 20
-146.7193820162715
 10
82.53329126625904
 20
-147.0325411958808
 10
82.53329126625904
 20
-147.3498344900723
 10
82.30901555016928
 20
-147.5844454926178
 10
82.00653616656435
 20
-147.5844454926178
 97
        0
 97
        0
 75
     2
 76
     1
 98
        0
  0
ENDBLK
  5
1C7
330
1C4
100
AcDbEntity
  8
0
100
AcDbBlockEnd
  0
BLOCK
  5
1E9
330
1E7
100
AcDbEntity
  8
0
100
AcDbBlockBegin
  2
block 18
 70
     0
 10
0.0
 20
0.0
 30
0.0
  3
block 18
  1

  0
SPLINE
  5
1EB
330
1E7
100
AcDbEntity
  8
_U+30EC_U+30A4_U+30E4_U+30FC 1
370
     0
100
AcDbSpline
210
0.0
220
0.0
230
1.0
 70
    11
 71
     3
 72
    62
 73
    58
 74
     0
 42
0.0000000001
 43
0.0000000001
 12
1.0
 22
0.0
 32
0.0
 13
1.0
 23
0.0
 33
0.0
 40
0.0
 40
0.0
 40
0.0
 40
0.0
 40
1.0
 40
1.0
 40
1.0
 40
2.0
 40
2.0
 40
2.0
 40
3.0
 40
3.0
 40
3.0
 40
4.0
 40
4.0
 40
4.0
 40
5.0
 40
5.0
 40
5.0
 40
6.0
 40
6.0
 40
6.0
 40
7.0
 40
7.0
 40
7.0
 40
8.0
 40
8.0
 40
8.0
 40
9.0
 40
9.0
 40
9.0
 40
10.0
 40
10.0
 40
10.0
 40
11.0
 40
11.0
 40
11.0
 40
12.0
 40
12.0
 40
12.0
 40
13.0
 40
13.0
 40
13.0
 40
14.0
 40
14.0
 40
14.0
 40
15.0
 40
15.0
 40
15.0
 40
16.0
 40
16.0
 40
16.0
 40
17.0
 40
17.0
 40
17.0
 40
18.0
 40
18.0
 40
18.0
 40
19.0
 40
19.0
 40
19.0
 40
19.0
 10
80.84019909003301
 20
-110.7033202848242
 30
0.0
 10
80.74494219986585
 20
-110.7033202848242
 30
0.0
 10
80.5270399104238
 20
-110.6823052023641
 30
0.0
 10
80.40232745385775
 20
-110.4962700461607
 30
0.0
 10
80.32825790092488
 20
-110.3839599333415
 30
0.0
 10
80.32395153156833
 20
-110.2847411833663
 30
0.0
 10
80.31981741698603
 20
-110.1999918344292
 30
0.0
 10
80.31981741698603
 20
-110.1999918344292
 30
0.0
 10
80.53978676371922
 20
-110.1999918344292
 30
0.0
 10
80.53978676371922
 20
-110.1999918344292
 30
0.0
 10
80.54185382101038
 20
-110.274061387362
 30
0.0
 10
80.55253361701465
 20
-110.5086723899076
 30
0.0
 10
80.83606497545071
 20
-110.5086723899076
 30
0.0
 10
80.97352428531218
 20
-110.5086723899076
 30
0.0
 10
81.12579750576022
 20
-110.4390814611055
 30
0.0
 10
81.12579750576022
 20
-110.2106716304335
 30
0.0
 10
81.12579750576022
 20
-110.094227403032
 30
0.0
 10
81.08772920064821
 20
-110.04565155669
 30
0.0
 10
81.0560343221839
 20
-110.0139566782257
 30
0.0
 10
80.98196476925104
 20
-109.9398871252928
 30
0.0
 10
80.86552054184959
 20
-109.9271402719974
 30
0.0
 10
80.81057126885986
 20
-109.9271402719974
 30
0.0
 10
80.79162324369099
 20
-109.9271402719974
 30
0.0
 10
80.75562199587013
 20
-109.9292073292885
 30
0.0
 10
80.72806123198812
 20
-109.9333414438708
 30
0.0
 10
80.72806123198812
 20
-109.9333414438708
 30
0.0
 10
80.72806123198812
 20
-109.7386935489542
 30
0.0
 10
80.72806123198812
 20
-109.7386935489542
 30
0.0
 10
80.76612953710014
 20
-109.7452392303762
 30
0.0
 10
80.80850421156872
 20
-109.7473062876673
 30
0.0
 10
80.81487763821643
 20
-109.7473062876673
 30
0.0
 10
80.88033445243617
 20
-109.7473062876673
 30
0.0
 10
81.07928871670934
 20
-109.7259466956588
 30
0.0
 10
81.07928871670934
 20
-109.4892686358221
 30
0.0
 10
81.07928871670934
 20
-109.3115017087832
 30
0.0
 10
80.94803057872133
 20
-109.2563801810192
 30
0.0
 10
80.83813203274185
 20
-109.2563801810192
 30
0.0
 10
80.57372095424894
 20
-109.2563801810192
 30
0.0
 10
80.56528047031007
 20
-109.4892686358221
 30
0.0
 10
80.56097410095352
 20
-109.5609266219153
 30
0.0
 10
80.56097410095352
 20
-109.5609266219153
 30
0.0
 10
80.35788572209803
 20
-109.5609266219153
 30
0.0
 10
80.35788572209803
 20
-109.5609266219153
 30
0.0
 10
80.36632620603689
 20
-109.4362141653493
 30
0.0
 10
80.3938869699189
 20
-109.0596652288115
 30
0.0
 10
80.85070663126302
 20
-109.0596652288115
 30
0.0
 10
81.07498234735279
 20
-109.0596652288115
 30
0.0
 10
81.31613903132028
 20
-109.1867892522172
 30
0.0
 10
81.31613903132028
 20
-109.4827229544002
 30
0.0
 10
81.31613903132028
 20
-109.6691026201522
 30
0.0
 10
81.22105439592738
 20
-109.7514404022496
 30
0.0
 10
81.12149113640366
 20
-109.8127631018871
 30
0.0
 10
81.18298609081536
 20
-109.8403238657691
 30
0.0
 10
81.36488713243656
 20
-109.9205945905754
 30
0.0
 10
81.36488713243656
 20
-110.197924777138
 30
0.0
 10
81.36488713243656
 20
-110.5362331537896
 30
0.0
 10
81.11735702182136
 20
-110.7033202848242
 30
0.0
 10
80.84019909003301
 20
-110.7033202848242
 30
0.0
  0
HATCH
  5
1EC
330
1E7
100
AcDbEntity
  8
_U+30EC_U+30A4_U+30E4_U+30FC 1
 62
     7
420
 16777215
100
AcDbHatch
 10
0.0
 20
0.0
 30
0.0
210
0.0
220
0.0
230
1.0
  2
SOLID
 70
     1
 71
     0
 91
        1
 92
        1
 93
        1
 72
     4
 94
        3
 73
     0
 74
     1
 95
       62
 96
       58
 40
0.0
 40
0.0
 40
0.0
 40
0.0
 40
1.0
 40
1.0
 40
1.0
 40
2.0
 40
2.0
 40
2.0
 40
3.0
 40
3.0
 40
3.0
 40
4.0
 40
4.0
 40
4.0
 40
5.0
 40
5.0
 40
5.0
 40
6.0
 40
6.0
 40
6.0
 40
7.0
 40
7.0
 40
7.0
 40
8.0
 40
8.0
 40
8.0
 40
9.0
 40
9.0
 40
9.0
 40
10.0
 40
10.0
 40
10.0
 40
11.0
 40
11.0
 40
11.0
 40
12.0
 40
12.0
 40
12.0
 40
13.0
 40
13.0
 40
13.0
 40
14.0
 40
14.0
 40
14.0
 40
15.0
 40
15.0
 40
15.0
 40
16.0
 40
16.0
 40
16.0
 40
17.0
 40
17.0
 40
17.0
 40
18.0
 40
18.0
 40
18.0
 40
19.0
 40
19.0
 40
19.0
 40
19.0
 10
80.84019909003301
 20
-110.7033202848242
 10
80.74494219986585
 20
-110.7033202848242
 10
80.5270399104238
 20
-110.6823052023641
 10
80.40232745385775
 20
-110.4962700461607
 10
80.32825790092488
 20
-110.3839599333415
 10
80.32395153156833
 20
-110.2847411833663
 10
80.31981741698603
 20
-110.1999918344292
 10
80.31981741698603
 20
-110.1999918344292
 10
80.53978676371922
 20
-110.1999918344292
 10
80.53978676371922
 20
-110.1999918344292
 10
80.54185382101038
 20
-110.274061387362
 10
80.55253361701465
 20
-110.5086723899076
 10
80.83606497545071
 20
-110.5086723899076
 10
80.97352428531218
 20
-110.5086723899076
 10
81.12579750576022
 20
-110.4390814611055
 10
81.12579750576022
 20
-110.2106716304335
 10
81.12579750576022
 20
-110.094227403032
 10
81.08772920064821
 20
-110.04565155669
 10
81.0560343221839
 20
-110.0139566782257
 10
80.98196476925104
 20
-109.9398871252928
 10
80.86552054184959
 20
-109.9271402719974
 10
80.81057126885986
 20
-109.9271402719974
 10
80.79162324369099
 20
-109.9271402719974
 10
80.75562199587013
 20
-109.9292073292885
 10
80.72806123198812
 20
-109.9333414438708
 10
80.72806123198812
 20
-109.9333414438708
 10
80.72806123198812
 20
-109.7386935489542
 10
80.72806123198812
 20
-109.7386935489542
 10
80.76612953710014
 20
-109.7452392303762
 10
80.80850421156872
 20
-109.7473062876673
 10
80.81487763821643
 20
-109.7473062876673
 10
80.88033445243617
 20
-109.7473062876673
 10
81.07928871670934
 20
-109.7259466956588
 10
81.07928871670934
 20
-109.4892686358221
 10
81.07928871670934
 20
-109.3115017087832
 10
80.94803057872133
 20
-109.2563801810192
 10
80.83813203274185
 20
-109.2563801810192
 10
80.57372095424894
 20
-109.2563801810192
 10
80.56528047031007
 20
-109.4892686358221
 10
80.56097410095352
 20
-109.5609266219153
 10
80.56097410095352
 20
-109.5609266219153
 10
80.35788572209803
 20
-109.5609266219153
 10
80.35788572209803
 20
-109.5609266219153
 10
80.36632620603689
 20
-109.4362141653493
 10
80.3938869699189
 20
-109.0596652288115
 10
80.85070663126302
 20
-109.0596652288115
 10
81.07498234735279
 20
-109.0596652288115
 10
81.31613903132028
 20
-109.1867892522172
 10
81.31613903132028
 20
-109.4827229544002
 10
81.31613903132028
 20
-109.6691026201522
 10
81.22105439592738
 20
-109.7514404022496
 10
81.12149113640366
 20
-109.8127631018871
 10
81.18298609081536
 20
-109.8403238657691
 10
81.36488713243656
 20
-109.9205945905754
 10
81.36488713243656
 20
-110.197924777138
 10
81.36488713243656
 20
-110.5362331537896
 10
81.11735702182136
 20
-110.7033202848242
 10
80.84019909003301
 20
-110.7033202848242
 97
        0
 97
        0
 75
     2
 76
     1
 98
        0
  0
SPLINE
  5
1ED
330
1E7
100
AcDbEntity
  8
_U+30EC_U+30A4_U+30E4_U+30FC 1
370
     0
100
AcDbSpline
210
0.0
220
0.0
230
1.0
 70
    11
 71
     3
 72
    53
 73
    49
 74
     0
 42
0.0000000001
 43
0.0000000001
 12
1.0
 22
0.0
 32
0.0
 13
1.0
 23
0.0
 33
0.0
 40
0.0
 40
0.0
 40
0.0
 40
0.0
 40
1.0
 40
1.0
 40
1.0
 40
2.0
 40
2.0
 40
2.0
 40
3.0
 40
3.0
 40
3.0
 40
4.0
 40
4.0
 40
4.0
 40
5.0
 40
5.0
 40
5.0
 40
6.0
 40
6.0
 40
6.0
 40
7.0
 40
7.0
 40
7.0
 40
8.0
 40
8.0
 40
8.0
 40
9.0
 40
9.0
 40
9.0
 40
10.0
 40
10.0
 40
10.0
 40
11.0
 40
11.0
 40
11.0
 40
12.0
 40
12.0
 40
12.0
 40
13.0
 40
13.0
 40
13.0
 40
14.0
 40
14.0
 40
14.0
 40
15.0
 40
15.0
 40
15.0
 40
16.0
 40
16.0
 40
16.0
 40
16.0
 10
82.00653616656435
 20
-110.7033202848242
 30
0.0
 10
81.9281602442749
 20
-110.7033202848242
 30
0.0
 10
81.8267021822343
 20
-110.6864393169464
 30
0.0
 10
81.72507186541944
 20
-110.6230495600178
 30
0.0
 10
81.5516113077371
 20
-110.5131510140384
 30
0.0
 10
81.53042397050281
 20
-110.3818928760504
 30
0.0
 10
81.51147594533394
 20
-110.274061387362
 30
0.0
 10
81.51147594533394
 20
-110.274061387362
 30
0.0
 10
81.73351234935829
 20
-110.274061387362
 30
0.0
 10
81.73351234935829
 20
-110.274061387362
 30
0.0
 10
81.7886338771223
 20
-110.472843396861
 30
0.0
 10
81.91558564575375
 20
-110.5024712180341
 30
0.0
 10
82.00860322385549
 20
-110.5024712180341
 30
0.0
 10
82.14830184578237
 20
-110.5024712180341
 30
0.0
 10
82.30057506623042
 20
-110.4029079585104
 30
0.0
 10
82.30057506623042
 20
-110.170364013256
 30
0.0
 10
82.30057506623042
 20
-109.914393418702
 30
0.0
 10
82.12074108190038
 20
-109.8444579803514
 30
0.0
 10
82.00016273991663
 20
-109.8444579803514
 30
0.0
 10
81.96846786145232
 20
-109.8444579803514
 30
0.0
 10
81.8267021822343
 20
-109.8444579803514
 30
0.0
 10
81.73781871871485
 20
-109.9736490610483
 30
0.0
 10
81.73781871871485
 20
-109.9736490610483
 30
0.0
 10
81.56229110374137
 20
-109.9547010358794
 30
0.0
 10
81.56229110374137
 20
-109.9547010358794
 30
0.0
 10
81.56229110374137
 20
-109.9547010358794
 30
0.0
 10
81.68286944572512
 20
-109.1082410751535
 30
0.0
 10
81.68286944572512
 20
-109.1082410751535
 30
0.0
 10
81.68286944572512
 20
-109.1082410751535
 30
0.0
 10
82.46128877061732
 20
-109.1082410751535
 30
0.0
 10
82.46128877061732
 20
-109.1082410751535
 30
0.0
 10
82.46128877061732
 20
-109.1082410751535
 30
0.0
 10
82.46128877061732
 20
-109.3028889700701
 30
0.0
 10
82.46128877061732
 20
-109.3028889700701
 30
0.0
 10
82.46128877061732
 20
-109.3028889700701
 30
0.0
 10
81.84565020740317
 20
-109.3028889700701
 30
0.0
 10
81.84565020740317
 20
-109.3028889700701
 30
0.0
 10
81.84565020740317
 20
-109.3028889700701
 30
0.0
 10
81.78019339318342
 20
-109.7259466956588
 30
0.0
 10
81.78019339318342
 20
-109.7259466956588
 30
0.0
 10
81.84151609282087
 20
-109.6921847599033
 30
0.0
 10
81.9240261296926
 20
-109.6518771427259
 30
0.0
 10
82.04236515961094
 20
-109.6518771427259
 30
0.0
 10
82.29626869687385
 20
-109.6518771427259
 30
0.0
 10
82.53329126625904
 20
-109.8382568084779
 30
0.0
 10
82.53329126625904
 20
-110.1514159880872
 30
0.0
 10
82.53329126625904
 20
-110.4687092822787
 30
0.0
 10
82.30901555016928
 20
-110.7033202848242
 30
0.0
 10
82.00653616656435
 20
-110.7033202848242
 30
0.0
  0
HATCH
  5
1EE
330
1E7
100
AcDbEntity
  8
_U+30EC_U+30A4_U+30E4_U+30FC 1
 62
     7
420
 16777215
100
AcDbHatch
 10
0.0
 20
0.0
 30
0.0
210
0.0
220
0.0
230
1.0
  2
SOLID
 70
     1
 71
     0
 91
        1
 92
        1
 93
        1
 72
     4
 94
        3
 73
     0
 74
     1
 95
       53
 96
       49
 40
0.0
 40
0.0
 40
0.0
 40
0.0
 40
1.0
 40
1.0
 40
1.0
 40
2.0
 40
2.0
 40
2.0
 40
3.0
 40
3.0
 40
3.0
 40
4.0
 40
4.0
 40
4.0
 40
5.0
 40
5.0
 40
5.0
 40
6.0
 40
6.0
 40
6.0
 40
7.0
 40
7.0
 40
7.0
 40
8.0
 40
8.0
 40
8.0
 40
9.0
 40
9.0
 40
9.0
 40
10.0
 40
10.0
 40
10.0
 40
11.0
 40
11.0
 40
11.0
 40
12.0
 40
12.0
 40
12.0
 40
13.0
 40
13.0
 40
13.0
 40
14.0
 40
14.0
 40
14.0
 40
15.0
 40
15.0
 40
15.0
 40
16.0
 40
16.0
 40
16.0
 40
16.0
 10
82.00653616656435
 20
-110.7033202848242
 10
81.9281602442749
 20
-110.7033202848242
 10
81.8267021822343
 20
-110.6864393169464
 10
81.72507186541944
 20
-110.6230495600178
 10
81.5516113077371
 20
-110.5131510140384
 10
81.53042397050281
 20
-110.3818928760504
 10
81.51147594533394
 20
-110.274061387362
 10
81.51147594533394
 20
-110.274061387362
 10
81.73351234935829
 20
-110.274061387362
 10
81.73351234935829
 20
-110.274061387362
 10
81.7886338771223
 20
-110.472843396861
 10
81.91558564575375
 20
-110.5024712180341
 10
82.00860322385549
 20
-110.5024712180341
 10
82.14830184578237
 20
-110.5024712180341
 10
82.30057506623042
 20
-110.4029079585104
 10
82.30057506623042
 20
-110.170364013256
 10
82.30057506623042
 20
-109.914393418702
 10
82.12074108190038
 20
-109.8444579803514
 10
82.00016273991663
 20
-109.8444579803514
 10
81.96846786145232
 20
-109.8444579803514
 10
81.8267021822343
 20
-109.8444579803514
 10
81.73781871871485
 20
-109.9736490610483
 10
81.73781871871485
 20
-109.9736490610483
 10
81.56229110374137
 20
-109.9547010358794
 10
81.56229110374137
 20
-109.9547010358794
 10
81.56229110374137
 20
-109.9547010358794
 10
81.68286944572512
 20
-109.1082410751535
 10
81.68286944572512
 20
-109.1082410751535
 10
81.68286944572512
 20
-109.1082410751535
 10
82.46128877061732
 20
-109.1082410751535
 10
82.46128877061732
 20
-109.1082410751535
 10
82.46128877061732
 20
-109.1082410751535
 10
82.46128877061732
 20
-109.3028889700701
 10
82.46128877061732
 20
-109.3028889700701
 10
82.46128877061732
 20
-109.3028889700701
 10
81.84565020740317
 20
-109.3028889700701
 10
81.84565020740317
 20
-109.3028889700701
 10
81.84565020740317
 20
-109.3028889700701
 10
81.78019339318342
 20
-109.7259466956588
 10
81.78019339318342
 20
-109.7259466956588
 10
81.84151609282087
 20
-109.6921847599033
 10
81.9240261296926
 20
-109.6518771427259
 10
82.04236515961094
 20
-109.6518771427259
 10
82.29626869687385
 20
-109.6518771427259
 10
82.53329126625904
 20
-109.8382568084779
 10
82.53329126625904
 20
-110.1514159880872
 10
82.53329126625904
 20
-110.4687092822787
 10
82.30901555016928
 20
-110.7033202848242
 10
82.00653616656435
 20
-110.7033202848242
 97
        0
 97
        0
 75
     2
 76
     1
 98
        0
  0
ENDBLK
  5
1EA
330
1E7
100
AcDbEntity
  8
0
100
AcDbBlockEnd
  0
BLOCK
  5
20C
330
20A
100
AcDbEntity
  8
0
100
AcDbBlockBegin
  2
block 19
 70
     0
 10
0.0
 20
0.0
 30
0.0
  3
block 19
  1

  0
SPLINE
  5
20E
330
20A
100
AcDbEntity
  8
_U+30EC_U+30A4_U+30E4_U+30FC 1
370
     0
100
AcDbSpline
210
0.0
220
0.0
230
1.0
 70
    11
 71
     3
 72
    53
 73
    49
 74
     0
 42
0.0000000001
 43
0.0000000001
 12
1.0
 22
0.0
 32
0.0
 13
1.0
 23
0.0
 33
0.0
 40
0.0
 40
0.0
 40
0.0
 40
0.0
 40
1.0
 40
1.0
 40
1.0
 40
2.0
 40
2.0
 40
2.0
 40
3.0
 40
3.0
 40
3.0
 40
4.0
 40
4.0
 40
4.0
 40
5.0
 40
5.0
 40
5.0
 40
6.0
 40
6.0
 40
6.0
 40
7.0
 40
7.0
 40
7.0
 40
8.0
 40
8.0
 40
8.0
 40
9.0
 40
9.0
 40
9.0
 40
10.0
 40
10.0
 40
10.0
 40
11.0
 40
11.0
 40
11.0
 40
12.0
 40
12.0
 40
12.0
 40
13.0
 40
13.0
 40
13.0
 40
14.0
 40
14.0
 40
14.0
 40
15.0
 40
15.0
 40
15.0
 40
16.0
 40
16.0
 40
16.0
 40
16.0
 10
73.51489255974629
 20
-118.2132839331203
 30
0.0
 10
73.51489255974629
 20
-118.2916598554097
 30
0.0
 10
73.49801159186856
 20
-118.3931179174503
 30
0.0
 10
73.43462183493996
 20
-118.4947482342652
 30
0.0
 10
73.32472328896048
 20
-118.6682087919475
 30
0.0
 10
73.19346515097247
 20
-118.6893961291818
 30
0.0
 10
73.08563366228415
 20
-118.7083441543507
 30
0.0
 10
73.08563366228415
 20
-118.7083441543507
 30
0.0
 10
73.08563366228415
 20
-118.4863077503263
 30
0.0
 10
73.08563366228415
 20
-118.4863077503263
 30
0.0
 10
73.28441567178307
 20
-118.4311862225623
 30
0.0
 10
73.31404349295622
 20
-118.3042344539309
 30
0.0
 10
73.31404349295622
 20
-118.2112168758292
 30
0.0
 10
73.31404349295622
 20
-118.0716905086765
 30
0.0
 10
73.2144802334325
 20
-117.9192450334542
 30
0.0
 10
72.98193628817813
 20
-117.9192450334542
 30
0.0
 10
72.72596569362406
 20
-117.9192450334542
 30
0.0
 10
72.65603025527349
 20
-118.0990790177843
 30
0.0
 10
72.65603025527349
 20
-118.219657359768
 30
0.0
 10
72.65603025527349
 20
-118.2513522382323
 30
0.0
 10
72.65603025527349
 20
-118.3931179174503
 30
0.0
 10
72.78522133597036
 20
-118.4820013809698
 30
0.0
 10
72.78522133597036
 20
-118.4820013809698
 30
0.0
 10
72.7662733108015
 20
-118.6575289959433
 30
0.0
 10
72.7662733108015
 20
-118.6575289959433
 30
0.0
 10
72.7662733108015
 20
-118.6575289959433
 30
0.0
 10
71.9198133500756
 20
-118.5369506539595
 30
0.0
 10
71.9198133500756
 20
-118.5369506539595
 30
0.0
 10
71.9198133500756
 20
-118.5369506539595
 30
0.0
 10
71.9198133500756
 20
-117.7585313290673
 30
0.0
 10
71.9198133500756
 20
-117.7585313290673
 30
0.0
 10
71.9198133500756
 20
-117.7585313290673
 30
0.0
 10
72.11446124499223
 20
-117.7585313290673
 30
0.0
 10
72.11446124499223
 20
-117.7585313290673
 30
0.0
 10
72.11446124499223
 20
-117.7585313290673
 30
0.0
 10
72.11446124499223
 20
-118.3741698922815
 30
0.0
 10
72.11446124499223
 20
-118.3741698922815
 30
0.0
 10
72.11446124499223
 20
-118.3741698922815
 30
0.0
 10
72.5375189705809
 20
-118.4396267065012
 30
0.0
 10
72.5375189705809
 20
-118.4396267065012
 30
0.0
 10
72.50375703482545
 20
-118.3783040068638
 30
0.0
 10
72.46344941764804
 20
-118.295793969992
 30
0.0
 10
72.46344941764804
 20
-118.1774549400737
 30
0.0
 10
72.46344941764804
 20
-117.9235514028108
 30
0.0
 10
72.64982908340005
 20
-117.6865288334256
 30
0.0
 10
72.96298826300925
 20
-117.6865288334256
 30
0.0
 10
73.28028155720077
 20
-117.6865288334256
 30
0.0
 10
73.51489255974629
 20
-117.9108045495154
 30
0.0
 10
73.51489255974629
 20
-118.2132839331203
 30
0.0
  0
HATCH
  5
20F
330
20A
100
AcDbEntity
  8
_U+30EC_U+30A4_U+30E4_U+30FC 1
 62
     7
420
 16777215
100
AcDbHatch
 10
0.0
 20
0.0
 30
0.0
210
0.0
220
0.0
230
1.0
  2
SOLID
 70
     1
 71
     0
 91
        1
 92
        1
 93
        1
 72
     4
 94
        3
 73
     0
 74
     1
 95
       53
 96
       49
 40
0.0
 40
0.0
 40
0.0
 40
0.0
 40
1.0
 40
1.0
 40
1.0
 40
2.0
 40
2.0
 40
2.0
 40
3.0
 40
3.0
 40
3.0
 40
4.0
 40
4.0
 40
4.0
 40
5.0
 40
5.0
 40
5.0
 40
6.0
 40
6.0
 40
6.0
 40
7.0
 40
7.0
 40
7.0
 40
8.0
 40
8.0
 40
8.0
 40
9.0
 40
9.0
 40
9.0
 40
10.0
 40
10.0
 40
10.0
 40
11.0
 40
11.0
 40
11.0
 40
12.0
 40
12.0
 40
12.0
 40
13.0
 40
13.0
 40
13.0
 40
14.0
 40
14.0
 40
14.0
 40
15.0
 40
15.0
 40
15.0
 40
16.0
 40
16.0
 40
16.0
 40
16.0
 10
73.51489255974629
 20
-118.2132839331203
 10
73.51489255974629
 20
-118.2916598554097
 10
73.49801159186856
 20
-118.3931179174503
 10
73.43462183493996
 20
-118.4947482342652
 10
73.32472328896048
 20
-118.6682087919475
 10
73.19346515097247
 20
-118.6893961291818
 10
73.08563366228415
 20
-118.7083441543507
 10
73.08563366228415
 20
-118.7083441543507
 10
73.08563366228415
 20
-118.4863077503263
 10
73.08563366228415
 20
-118.4863077503263
 10
73.28441567178307
 20
-118.4311862225623
 10
73.31404349295622
 20
-118.3042344539309
 10
73.31404349295622
 20
-118.2112168758292
 10
73.31404349295622
 20
-118.0716905086765
 10
73.2144802334325
 20
-117.9192450334542
 10
72.98193628817813
 20
-117.9192450334542
 10
72.72596569362406
 20
-117.9192450334542
 10
72.65603025527349
 20
-118.0990790177843
 10
72.65603025527349
 20
-118.219657359768
 10
72.65603025527349
 20
-118.2513522382323
 10
72.65603025527349
 20
-118.3931179174503
 10
72.78522133597036
 20
-118.4820013809698
 10
72.78522133597036
 20
-118.4820013809698
 10
72.7662733108015
 20
-118.6575289959433
 10
72.7662733108015
 20
-118.6575289959433
 10
72.7662733108015
 20
-118.6575289959433
 10
71.9198133500756
 20
-118.5369506539595
 10
71.9198133500756
 20
-118.5369506539595
 10
71.9198133500756
 20
-118.5369506539595
 10
71.9198133500756
 20
-117.7585313290673
 10
71.9198133500756
 20
-117.7585313290673
 10
71.9198133500756
 20
-117.7585313290673
 10
72.11446124499223
 20
-117.7585313290673
 10
72.11446124499223
 20
-117.7585313290673
 10
72.11446124499223
 20
-117.7585313290673
 10
72.11446124499223
 20
-118.3741698922815
 10
72.11446124499223
 20
-118.3741698922815
 10
72.11446124499223
 20
-118.3741698922815
 10
72.5375189705809
 20
-118.4396267065012
 10
72.5375189705809
 20
-118.4396267065012
 10
72.50375703482545
 20
-118.3783040068638
 10
72.46344941764804
 20
-118.295793969992
 10
72.46344941764804
 20
-118.1774549400737
 10
72.46344941764804
 20
-117.9235514028108
 10
72.64982908340005
 20
-117.6865288334256
 10
72.96298826300925
 20
-117.6865288334256
 10
73.28028155720077
 20
-117.6865288334256
 10
73.51489255974629
 20
-117.9108045495154
 10
73.51489255974629
 20
-118.2132839331203
 97
        0
 97
        0
 75
     2
 76
     1
 98
        0
  0
ENDBLK
  5
20D
330
20A
100
AcDbEntity
  8
0
100
AcDbBlockEnd
  0
BLOCK
  5
212
330
210
100
AcDbEntity
  8
0
100
AcDbBlockBegin
  2
block 20
 70
     0
 10
0.0
 20
0.0
 30
0.0
  3
block 20
  1

  0
SPLINE
  5
214
330
210
100
AcDbEntity
  8
_U+30EC_U+30A4_U+30E4_U+30FC 1
370
     0
100
AcDbSpline
210
0.0
220
0.0
230
1.0
 70
    11
 71
     3
 72
    62
 73
    58
 74
     0
 42
0.0000000001
 43
0.0000000001
 12
1.0
 22
0.0
 32
0.0
 13
1.0
 23
0.0
 33
0.0
 40
0.0
 40
0.0
 40
0.0
 40
0.0
 40
1.0
 40
1.0
 40
1.0
 40
2.0
 40
2.0
 40
2.0
 40
3.0
 40
3.0
 40
3.0
 40
4.0
 40
4.0
 40
4.0
 40
5.0
 40
5.0
 40
5.0
 40
6.0
 40
6.0
 40
6.0
 40
7.0
 40
7.0
 40
7.0
 40
8.0
 40
8.0
 40
8.0
 40
9.0
 40
9.0
 40
9.0
 40
10.0
 40
10.0
 40
10.0
 40
11.0
 40
11.0
 40
11.0
 40
12.0
 40
12.0
 40
12.0
 40
13.0
 40
13.0
 40
13.0
 40
14.0
 40
14.0
 40
14.0
 40
15.0
 40
15.0
 40
15.0
 40
16.0
 40
16.0
 40
16.0
 40
17.0
 40
17.0
 40
17.0
 40
18.0
 40
18.0
 40
18.0
 40
19.0
 40
19.0
 40
19.0
 40
19.0
 10
73.51506481452054
 20
-119.536717363779
 30
0.0
 10
73.51506481452054
 20
-119.6319742539462
 30
0.0
 10
73.49404973206052
 20
-119.8498765433882
 30
0.0
 10
73.30801457585703
 20
-119.9745889999543
 30
0.0
 10
73.19570446303788
 20
-120.0486585528871
 30
0.0
 10
73.09648571306269
 20
-120.0529649222437
 30
0.0
 10
73.01173636412554
 20
-120.057099036826
 30
0.0
 10
73.01173636412554
 20
-120.057099036826
 30
0.0
 10
73.01173636412554
 20
-119.8371296900928
 30
0.0
 10
73.01173636412554
 20
-119.8371296900928
 30
0.0
 10
73.08580591705841
 20
-119.8350626328017
 30
0.0
 10
73.32041691960393
 20
-119.8243828367974
 30
0.0
 10
73.32041691960393
 20
-119.5410237331356
 30
0.0
 10
73.32041691960393
 20
-119.4033921684998
 30
0.0
 10
73.25082599080189
 20
-119.2511189480518
 30
0.0
 10
73.02241616012982
 20
-119.2511189480518
 30
0.0
 10
72.90597193272838
 20
-119.2511189480518
 30
0.0
 10
72.85739608638634
 20
-119.2891872531638
 30
0.0
 10
72.82570120792205
 20
-119.3208821316281
 30
0.0
 10
72.75163165498918
 20
-119.394951684561
 30
0.0
 10
72.73888480169376
 20
-119.5113959119624
 30
0.0
 10
72.73888480169376
 20
-119.5663451849522
 30
0.0
 10
72.73888480169376
 20
-119.585293210121
 30
0.0
 10
72.7409518589849
 20
-119.6212944579419
 30
0.0
 10
72.7450859735672
 20
-119.6488552218239
 30
0.0
 10
72.7450859735672
 20
-119.6488552218239
 30
0.0
 10
72.55043807865059
 20
-119.6488552218239
 30
0.0
 10
72.55043807865059
 20
-119.6488552218239
 30
0.0
 10
72.55698376007257
 20
-119.6107869167119
 30
0.0
 10
72.55905081736371
 20
-119.5684122422433
 30
0.0
 10
72.55905081736371
 20
-119.5620388155956
 30
0.0
 10
72.55905081736371
 20
-119.4965820013759
 30
0.0
 10
72.53769122535516
 20
-119.2976277371027
 30
0.0
 10
72.3010131655185
 20
-119.2976277371027
 30
0.0
 10
72.12324623847961
 20
-119.2976277371027
 30
0.0
 10
72.06812471071561
 20
-119.4288858750907
 30
0.0
 10
72.06812471071561
 20
-119.5387844210702
 30
0.0
 10
72.06812471071561
 20
-119.8031954995631
 30
0.0
 10
72.3010131655185
 20
-119.8118082382762
 30
0.0
 10
72.3726711516117
 20
-119.8159423528585
 30
0.0
 10
72.3726711516117
 20
-119.8159423528585
 30
0.0
 10
72.3726711516117
 20
-120.019030731714
 30
0.0
 10
72.3726711516117
 20
-120.019030731714
 30
0.0
 10
72.24795869504565
 20
-120.0105902477751
 30
0.0
 10
71.87140975850785
 20
-119.9830294838931
 30
0.0
 10
71.87140975850785
 20
-119.526209822549
 30
0.0
 10
71.87140975850785
 20
-119.3019341064592
 30
0.0
 10
71.99853378191357
 20
-119.0607774224918
 30
0.0
 10
72.29446748409653
 20
-119.0607774224918
 30
0.0
 10
72.48084714984854
 20
-119.0607774224918
 30
0.0
 10
72.56318493194601
 20
-119.1558620578846
 30
0.0
 10
72.62450763158346
 20
-119.2554253174084
 30
0.0
 10
72.65206839546546
 20
-119.1939303629967
 30
0.0
 10
72.73233912027177
 20
-119.0120293213755
 30
0.0
 10
73.0096693068344
 20
-119.0120293213755
 30
0.0
 10
73.34797768348592
 20
-119.0120293213755
 30
0.0
 10
73.51506481452054
 20
-119.2595594319907
 30
0.0
 10
73.51506481452054
 20
-119.536717363779
 30
0.0
  0
HATCH
  5
215
330
210
100
AcDbEntity
  8
_U+30EC_U+30A4_U+30E4_U+30FC 1
 62
     7
420
 16777215
100
AcDbHatch
 10
0.0
 20
0.0
 30
0.0
210
0.0
220
0.0
230
1.0
  2
SOLID
 70
     1
 71
     0
 91
        1
 92
        1
 93
        1
 72
     4
 94
        3
 73
     0
 74
     1
 95
       62
 96
       58
 40
0.0
 40
0.0
 40
0.0
 40
0.0
 40
1.0
 40
1.0
 40
1.0
 40
2.0
 40
2.0
 40
2.0
 40
3.0
 40
3.0
 40
3.0
 40
4.0
 40
4.0
 40
4.0
 40
5.0
 40
5.0
 40
5.0
 40
6.0
 40
6.0
 40
6.0
 40
7.0
 40
7.0
 40
7.0
 40
8.0
 40
8.0
 40
8.0
 40
9.0
 40
9.0
 40
9.0
 40
10.0
 40
10.0
 40
10.0
 40
11.0
 40
11.0
 40
11.0
 40
12.0
 40
12.0
 40
12.0
 40
13.0
 40
13.0
 40
13.0
 40
14.0
 40
14.0
 40
14.0
 40
15.0
 40
15.0
 40
15.0
 40
16.0
 40
16.0
 40
16.0
 40
17.0
 40
17.0
 40
17.0
 40
18.0
 40
18.0
 40
18.0
 40
19.0
 40
19.0
 40
19.0
 40
19.0
 10
73.51506481452054
 20
-119.536717363779
 10
73.51506481452054
 20
-119.6319742539462
 10
73.49404973206052
 20
-119.8498765433882
 10
73.30801457585703
 20
-119.9745889999543
 10
73.19570446303788
 20
-120.0486585528871
 10
73.09648571306269
 20
-120.0529649222437
 10
73.01173636412554
 20
-120.057099036826
 10
73.01173636412554
 20
-120.057099036826
 10
73.01173636412554
 20
-119.8371296900928
 10
73.01173636412554
 20
-119.8371296900928
 10
73.08580591705841
 20
-119.8350626328017
 10
73.32041691960393
 20
-119.8243828367974
 10
73.32041691960393
 20
-119.5410237331356
 10
73.32041691960393
 20
-119.4033921684998
 10
73.25082599080189
 20
-119.2511189480518
 10
73.02241616012982
 20
-119.2511189480518
 10
72.90597193272838
 20
-119.2511189480518
 10
72.85739608638634
 20
-119.2891872531638
 10
72.82570120792205
 20
-119.3208821316281
 10
72.75163165498918
 20
-119.394951684561
 10
72.73888480169376
 20
-119.5113959119624
 10
72.73888480169376
 20
-119.5663451849522
 10
72.73888480169376
 20
-119.585293210121
 10
72.7409518589849
 20
-119.6212944579419
 10
72.7450859735672
 20
-119.6488552218239
 10
72.7450859735672
 20
-119.6488552218239
 10
72.55043807865059
 20
-119.6488552218239
 10
72.55043807865059
 20
-119.6488552218239
 10
72.55698376007257
 20
-119.6107869167119
 10
72.55905081736371
 20
-119.5684122422433
 10
72.55905081736371
 20
-119.5620388155956
 10
72.55905081736371
 20
-119.4965820013759
 10
72.53769122535516
 20
-119.2976277371027
 10
72.3010131655185
 20
-119.2976277371027
 10
72.12324623847961
 20
-119.2976277371027
 10
72.06812471071561
 20
-119.4288858750907
 10
72.06812471071561
 20
-119.5387844210702
 10
72.06812471071561
 20
-119.8031954995631
 10
72.3010131655185
 20
-119.8118082382762
 10
72.3726711516117
 20
-119.8159423528585
 10
72.3726711516117
 20
-119.8159423528585
 10
72.3726711516117
 20
-120.019030731714
 10
72.3726711516117
 20
-120.019030731714
 10
72.24795869504565
 20
-120.0105902477751
 10
71.87140975850785
 20
-119.9830294838931
 10
71.87140975850785
 20
-119.526209822549
 10
71.87140975850785
 20
-119.3019341064592
 10
71.99853378191357
 20
-119.0607774224918
 10
72.29446748409653
 20
-119.0607774224918
 10
72.48084714984854
 20
-119.0607774224918
 10
72.56318493194601
 20
-119.1558620578846
 10
72.62450763158346
 20
-119.2554253174084
 10
72.65206839546546
 20
-119.1939303629967
 10
72.73233912027177
 20
-119.0120293213755
 10
73.0096693068344
 20
-119.0120293213755
 10
73.34797768348592
 20
-119.0120293213755
 10
73.51506481452054
 20
-119.2595594319907
 10
73.51506481452054
 20
-119.536717363779
 97
        0
 97
        0
 75
     2
 76
     1
 98
        0
  0
ENDBLK
  5
213
330
210
100
AcDbEntity
  8
0
100
AcDbBlockEnd
  0
ENDSEC
  0
SECTION
  2
ENTITIES
  0
SPLINE
  5
41
330
1F
100
AcDbEntity
  8
_U+30EC_U+30A4_U+30E4_U+30FC 1
 62
     7
420
 16777215
370
     9
100
AcDbSpline
210
0.0
220
0.0
230
1.0
 70
    27
 71
     3
 72
    14
 73
    10
 74
     0
 42
0.0000000001
 43
0.0000000001
 12
1.0
 22
0.0
 32
0.0
 13
1.0
 23
0.0
 33
0.0
 40
0.0
 40
0.0
 40
0.0
 40
0.0
 40
1.0
 40
1.0
 40
1.0
 40
2.0
 40
2.0
 40
2.0
 40
3.0
 40
3.0
 40
3.0
 40
3.0
 10
103.1106623694278
 20
-140.92473857588
 30
0.0
 10
103.1106623694278
 20
-140.92473857588
 30
0.0
 10
103.1106623694278
 20
-140.92473857588
 30
0.0
 10
103.1106623694278
 20
-140.92473857588
 30
0.0
 10
103.1106623694278
 20
-140.92473857588
 30
0.0
 10
103.1103448694359
 20
-140.92473857588
 30
0.0
 10
103.1103448694359
 20
-140.92473857588
 30
0.0
 10
103.1103448694359
 20
-140.92473857588
 30
0.0
 10
103.1106623694278
 20
-140.92473857588
 30
0.0
 10
103.1106623694278
 20
-140.92473857588
 30
0.0
  0
SPLINE
  5
42
330
1F
100
AcDbEntity
  8
_U+30EC_U+30A4_U+30E4_U+30FC 1
 62
     7
420
 16777215
370
     9
100
AcDbSpline
210
0.0
220
0.0
230
1.0
 70
    11
 71
     3
 72
    17
 73
    13
 74
     0
 42
0.0000000001
 43
0.0000000001
 12
1.0
 22
0.0
 32
0.0
 13
1.0
 23
0.0
 33
0.0
 40
0.0
 40
0.0
 40
0.0
 40
0.0
 40
1.0
 40
1.0
 40
1.0
 40
2.0
 40
2.0
 40
2.0
 40
3.0
 40
3.0
 40
3.0
 40
4.0
 40
4.0
 40
4.0
 40
4.0
 10
97.78181306093367
 20
-136.1952938548399
 30
0.0
 10
97.78181306093367
 20
-136.1952938548399
 30
0.0
 10
97.7814602831649
 20
-136.1952938548399
 30
0.0
 10
97.7814602831649
 20
-136.1952938548399
 30
0.0
 10
97.7814602831649
 20
-136.1952938548399
 30
0.0
 10
97.78110750539612
 20
-136.1952938548399
 30
0.0
 10
97.78110750539612
 20
-136.1952938548399
 30
0.0
 10
97.78110750539612
 20
-136.1952938548399
 30
0.0
 10
97.78110750539612
 20
-136.1959994103954
 30
0.0
 10
97.7814602831649
 20
-136.1959994103954
 30
0.0
 10
97.7814602831649
 20
-136.1959994103954
 30
0.0
 10
97.78181306093367
 20
-136.1952938548399
 30
0.0
 10
97.78181306093367
 20
-136.1952938548399
 30
0.0
  0
POLYLINE
  5
43
330
1F
100
AcDbEntity
  8
_U+30EC_U+30A4_U+30E4_U+30FC 1
370
     0
100
AcDb2dPolyline
 66
     1
 10
0.0
 20
0.0
 30
0.0
  0
VERTEX
  5
44
330
43
100
AcDbEntity
  8
_U+30EC_U+30A4_U+30E4_U+30FC 1
370
     0
100
AcDbVertex
100
AcDb2dVertex
 10
102.7124115462547
 20
-140.4320844093362
 30
0.0
  0
VERTEX
  5
45
330
43
100
AcDbEntity
  8
_U+30EC_U+30A4_U+30E4_U+30FC 1
370
     0
100
AcDbVertex
100
AcDb2dVertex
 10
102.5739109942326
 20
-140.588153298186
 30
0.0
  0
VERTEX
  5
46
330
43
100
AcDbEntity
  8
_U+30EC_U+30A4_U+30E4_U+30FC 1
370
     0
100
AcDbVertex
100
AcDb2dVertex
 10
103.1106623694278
 20
-140.92473857588
 30
0.0
  0
VERTEX
  5
47
330
43
100
AcDbEntity
  8
_U+30EC_U+30A4_U+30E4_U+30FC 1
370
     0
100
AcDbVertex
100
AcDb2dVertex
 10
102.7124115462547
 20
-140.4320844093362
 30
0.0
  0
SEQEND
  5
49
330
43
100
AcDbEntity
  8
_U+30EC_U+30A4_U+30E4_U+30FC 1
370
     0
  0
HATCH
  5
48
330
1F
100
AcDbEntity
  8
_U+30EC_U+30A4_U+30E4_U+30FC 1
 62
     7
420
 16777215
100
AcDbHatch
 10
0.0
 20
0.0
 30
0.0
210
0.0
220
0.0
230
1.0
  2
SOLID
 70
     1
 71
     0
 91
        1
 92
        1
 93
        3
 72
     1
 10
102.7124115462547
 20
-140.4320844093362
 11
102.5739109942326
 21
-140.588153298186
 72
     1
 10
102.5739109942326
 20
-140.588153298186
 11
103.1106623694278
 21
-140.92473857588
 72
     1
 10
103.1106623694278
 20
-140.92473857588
 11
102.7124115462547
 21
-140.4320844093362
 97
        0
 75
     2
 76
     1
 98
        0
  0
INSERT
  5
4B
330
1F
100
AcDbEntity
  8
_U+30EC_U+30A4_U+30E4_U+30FC 1
100
AcDbBlockReference
  2
block 2
 10
0.0
 20
0.0
 30
0.0
  0
INSERT
  5
51
330
1F
100
AcDbEntity
  8
_U+30EC_U+30A4_U+30E4_U+30FC 1
100
AcDbBlockReference
  2
block 3
 10
0.0
 20
0.0
 30
0.0
  0
INSERT
  5
5D
330
1F
100
AcDbEntity
  8
_U+30EC_U+30A4_U+30E4_U+30FC 1
100
AcDbBlockReference
  2
block 4
 10
0.0
 20
0.0
 30
0.0
  0
INSERT
  5
65
330
1F
100
AcDbEntity
  8
_U+30EC_U+30A4_U+30E4_U+30FC 1
100
AcDbBlockReference
  2
block 5
 10
0.0
 20
0.0
 30
0.0
  0
INSERT
  5
6B
330
1F
100
AcDbEntity
  8
_U+30EC_U+30A4_U+30E4_U+30FC 1
100
AcDbBlockReference
  2
block 6
 10
0.0
 20
0.0
 30
0.0
  0
SPLINE
  5
71
330
1F
100
AcDbEntity
  8
_U+30EC_U+30A4_U+30E4_U+30FC 1
 62
     7
420
 16777215
370
     9
100
AcDbSpline
210
0.0
220
0.0
230
1.0
 70
    11
 71
     3
 72
    14
 73
    10
 74
     0
 42
0.0000000001
 43
0.0000000001
 12
1.0
 22
0.0
 32
0.0
 13
1.0
 23
0.0
 33
0.0
 40
0.0
 40
0.0
 40
0.0
 40
0.0
 40
1.0
 40
1.0
 40
1.0
 40
2.0
 40
2.0
 40
2.0
 40
3.0
 40
3.0
 40
3.0
 40
3.0
 10
77.21973747440481
 20
-123.1576855247662
 30
0.0
 10
77.21973747440481
 20
-123.1576855247662
 30
0.0
 10
77.21973747440481
 20
-123.1569799692106
 30
0.0
 10
77.21973747440481
 20
-123.1569799692106
 30
0.0
 10
77.21906719664413
 20
-123.1569799692106
 30
0.0
 10
77.21906719664413
 20
-123.1576855247662
 30
0.0
 10
77.21906719664413
 20
-123.1576855247662
 30
0.0
 10
77.21906719664413
 20
-123.1576855247662
 30
0.0
 10
77.21973747440481
 20
-123.1576855247662
 30
0.0
 10
77.21973747440481
 20
-123.1576855247662
 30
0.0
  0
SPLINE
  5
72
330
1F
100
AcDbEntity
  8
_U+30EC_U+30A4_U+30E4_U+30FC 1
 62
     7
420
 16777215
370
     9
100
AcDbSpline
210
0.0
220
0.0
230
1.0
 70
    11
 71
     3
 72
    17
 73
    13
 74
     0
 42
0.0000000001
 43
0.0000000001
 12
1.0
 22
0.0
 32
0.0
 13
1.0
 23
0.0
 33
0.0
 40
0.0
 40
0.0
 40
0.0
 40
0.0
 40
1.0
 40
1.0
 40
1.0
 40
2.0
 40
2.0
 40
2.0
 40
3.0
 40
3.0
 40
3.0
 40
4.0
 40
4.0
 40
4.0
 40
4.0
 10
78.3445693901524
 20
-123.1576855247662
 30
0.0
 10
78.3445693901524
 20
-123.1576855247662
 30
0.0
 10
78.34421661238363
 20
-123.1569799692106
 30
0.0
 10
78.34421661238363
 20
-123.1569799692106
 30
0.0
 10
78.34386383461485
 20
-123.1569799692106
 30
0.0
 10
78.34386383461485
 20
-123.1576855247662
 30
0.0
 10
78.34386383461485
 20
-123.1576855247662
 30
0.0
 10
78.34386383461485
 20
-123.1576855247662
 30
0.0
 10
78.34421661238363
 20
-123.1576855247662
 30
0.0
 10
78.34421661238363
 20
-123.1576855247662
 30
0.0
 10
78.34421661238363
 20
-123.1576855247662
 30
0.0
 10
78.3445693901524
 20
-123.1576855247662
 30
0.0
 10
78.3445693901524
 20
-123.1576855247662
 30
0.0
  0
SPLINE
  5
73
330
1F
100
AcDbEntity
  8
_U+30EC_U+30A4_U+30E4_U+30FC 1
 62
     7
420
 16777215
370
     9
100
AcDbSpline
210
0.0
220
0.0
230
1.0
 70
    11
 71
     3
 72
    17
 73
    13
 74
     0
 42
0.0000000001
 43
0.0000000001
 12
1.0
 22
0.0
 32
0.0
 13
1.0
 23
0.0
 33
0.0
 40
0.0
 40
0.0
 40
0.0
 40
0.0
 40
1.0
 40
1.0
 40
1.0
 40
2.0
 40
2.0
 40
2.0
 40
3.0
 40
3.0
 40
3.0
 40
4.0
 40
4.0
 40
4.0
 40
4.0
 10
78.3445693901524
 20
-125.4941327464041
 30
0.0
 10
78.3445693901524
 20
-125.4941327464041
 30
0.0
 10
78.34421661238363
 20
-125.4934624686268
 30
0.0
 10
78.34421661238363
 20
-125.4934624686268
 30
0.0
 10
78.34386383461485
 20
-125.4934624686268
 30
0.0
 10
78.34386383461485
 20
-125.4941327464041
 30
0.0
 10
78.34386383461485
 20
-125.4941327464041
 30
0.0
 10
78.34386383461485
 20
-125.4941327464041
 30
0.0
 10
78.34421661238363
 20
-125.4941327464041
 30
0.0
 10
78.34421661238363
 20
-125.4941327464041
 30
0.0
 10
78.34421661238363
 20
-125.4941327464041
 30
0.0
 10
78.3445693901524
 20
-125.4941327464041
 30
0.0
 10
78.3445693901524
 20
-125.4941327464041
 30
0.0
  0
POLYLINE
  5
74
330
1F
100
AcDbEntity
  8
_U+30EC_U+30A4_U+30E4_U+30FC 1
 62
     7
420
 16777215
370
     9
100
AcDb2dPolyline
 66
     1
 10
0.0
 20
0.0
 30
0.0
  0
VERTEX
  5
75
330
74
100
AcDbEntity
  8
_U+30EC_U+30A4_U+30E4_U+30FC 1
 62
     7
420
 16777215
370
     9
100
AcDbVertex
100
AcDb2dVertex
 10
98.48874443178724
 20
-136.8398894102342
 30
0.0
  0
VERTEX
  5
76
330
74
100
AcDbEntity
  8
_U+30EC_U+30A4_U+30E4_U+30FC 1
 62
     7
420
 16777215
370
     9
100
AcDbVertex
100
AcDb2dVertex
 10
102.6431638632282
 20
-140.5099424648722
 30
0.0
  0
SEQEND
  5
77
330
74
100
AcDbEntity
  8
_U+30EC_U+30A4_U+30E4_U+30FC 1
 62
     7
420
 16777215
370
     9
  0
POLYLINE
  5
78
330
1F
100
AcDbEntity
  8
_U+30EC_U+30A4_U+30E4_U+30FC 1
370
     0
100
AcDb2dPolyline
 66
     1
 10
0.0
 20
0.0
 30
0.0
  0
VERTEX
  5
79
330
78
100
AcDbEntity
  8
_U+30EC_U+30A4_U+30E4_U+30FC 1
370
     0
100
AcDbVertex
100
AcDb2dVertex
 10
78.96916242977326
 20
-125.3897458019858
 30
0.0
  0
VERTEX
  5
7A
330
78
100
AcDbEntity
  8
_U+30EC_U+30A4_U+30E4_U+30FC 1
370
     0
100
AcDbVertex
100
AcDb2dVertex
 10
78.96916242977326
 20
-125.5982021908226
 30
0.0
  0
VERTEX
  5
7B
330
78
100
AcDbEntity
  8
_U+30EC_U+30A4_U+30E4_U+30FC 1
370
     0
100
AcDbVertex
100
AcDb2dVertex
 10
78.34421661238363
 20
-125.4941327464041
 30
0.0
  0
VERTEX
  5
7C
330
78
100
AcDbEntity
  8
_U+30EC_U+30A4_U+30E4_U+30FC 1
370
     0
100
AcDbVertex
100
AcDb2dVertex
 10
78.96916242977326
 20
-125.3897458019858
 30
0.0
  0
SEQEND
  5
7E
330
78
100
AcDbEntity
  8
_U+30EC_U+30A4_U+30E4_U+30FC 1
370
     0
  0
HATCH
  5
7D
330
1F
100
AcDbEntity
  8
_U+30EC_U+30A4_U+30E4_U+30FC 1
 62
     7
420
 16777215
100
AcDbHatch
 10
0.0
 20
0.0
 30
0.0
210
0.0
220
0.0
230
1.0
  2
SOLID
 70
     1
 71
     0
 91
        1
 92
        1
 93
        3
 72
     1
 10
78.96916242977326
 20
-125.3897458019858
 11
78.96916242977326
 21
-125.5982021908226
 72
     1
 10
78.96916242977326
 20
-125.5982021908226
 11
78.34421661238363
 21
-125.4941327464041
 72
     1
 10
78.34421661238363
 20
-125.4941327464041
 11
78.96916242977326
 21
-125.3897458019858
 97
        0
 75
     2
 76
     1
 98
        0
  0
POLYLINE
  5
7F
330
1F
100
AcDbEntity
  8
_U+30EC_U+30A4_U+30E4_U+30FC 1
370
     0
100
AcDb2dPolyline
 66
     1
 10
0.0
 20
0.0
 30
0.0
  0
VERTEX
  5
80
330
7F
100
AcDbEntity
  8
_U+30EC_U+30A4_U+30E4_U+30FC 1
370
     0
100
AcDbVertex
100
AcDb2dVertex
 10
76.5941213792545
 20
-125.3897458019858
 30
0.0
  0
VERTEX
  5
81
330
7F
100
AcDbEntity
  8
_U+30EC_U+30A4_U+30E4_U+30FC 1
370
     0
100
AcDbVertex
100
AcDb2dVertex
 10
76.5941213792545
 20
-125.5982021908226
 30
0.0
  0
VERTEX
  5
82
330
7F
100
AcDbEntity
  8
_U+30EC_U+30A4_U+30E4_U+30FC 1
370
     0
100
AcDbVertex
100
AcDb2dVertex
 10
77.21973747440481
 20
-125.4941327464041
 30
0.0
  0
VERTEX
  5
83
330
7F
100
AcDbEntity
  8
_U+30EC_U+30A4_U+30E4_U+30FC 1
370
     0
100
AcDbVertex
100
AcDb2dVertex
 10
76.5941213792545
 20
-125.3897458019858
 30
0.0
  0
SEQEND
  5
85
330
7F
100
AcDbEntity
  8
_U+30EC_U+30A4_U+30E4_U+30FC 1
370
     0
  0
HATCH
  5
84
330
1F
100
AcDbEntity
  8
_U+30EC_U+30A4_U+30E4_U+30FC 1
 62
     7
420
 16777215
100
AcDbHatch
 10
0.0
 20
0.0
 30
0.0
210
0.0
220
0.0
230
1.0
  2
SOLID
 70
     1
 71
     0
 91
        1
 92
        1
 93
        3
 72
     1
 10
76.5941213792545
 20
-125.3897458019858
 11
76.5941213792545
 21
-125.5982021908226
 72
     1
 10
76.5941213792545
 20
-125.5982021908226
 11
77.21973747440481
 21
-125.4941327464041
 72
     1
 10
77.21973747440481
 20
-125.4941327464041
 11
76.5941213792545
 21
-125.3897458019858
 97
        0
 75
     2
 76
     1
 98
        0
  0
POLYLINE
  5
86
330
1F
100
AcDbEntity
  8
_U+30EC_U+30A4_U+30E4_U+30FC 1
 62
     7
420
 16777215
370
     9
100
AcDb2dPolyline
 66
     1
 10
0.0
 20
0.0
 30
0.0
  0
VERTEX
  5
87
330
86
100
AcDbEntity
  8
_U+30EC_U+30A4_U+30E4_U+30FC 1
 62
     7
420
 16777215
370
     9
100
AcDbVertex
100
AcDb2dVertex
 10
77.21973747440481
 20
-125.4941327464041
 30
0.0
  0
VERTEX
  5
88
330
86
100
AcDbEntity
  8
_U+30EC_U+30A4_U+30E4_U+30FC 1
 62
     7
420
 16777215
370
     9
100
AcDbVertex
100
AcDb2dVertex
 10
78.34421661238363
 20
-125.4941327464041
 30
0.0
  0
SEQEND
  5
89
330
86
100
AcDbEntity
  8
_U+30EC_U+30A4_U+30E4_U+30FC 1
 62
     7
420
 16777215
370
     9
  0
INSERT
  5
8B
330
1F
100
AcDbEntity
  8
_U+30EC_U+30A4_U+30E4_U+30FC 1
100
AcDbBlockReference
  2
block 7
 10
0.0
 20
0.0
 30
0.0
  0
POLYLINE
  5
AD
330
1F
100
AcDbEntity
  8
_U+30EC_U+30A4_U+30E4_U+30FC 1
 62
     7
420
 16777215
370
     9
100
AcDb2dPolyline
 66
     1
 10
0.0
 20
0.0
 30
0.0
  0
VERTEX
  5
AE
330
AD
100
AcDbEntity
  8
_U+30EC_U+30A4_U+30E4_U+30FC 1
 62
     7
420
 16777215
370
     9
100
AcDbVertex
100
AcDb2dVertex
 10
85.96926114007476
 20
-114.4078441380647
 30
0.0
  0
VERTEX
  5
AF
330
AD
100
AcDbEntity
  8
_U+30EC_U+30A4_U+30E4_U+30FC 1
 62
     7
420
 16777215
370
     9
100
AcDbVertex
100
AcDb2dVertex
 10
85.96926114007476
 20
-114.4071385825095
 30
0.0
  0
VERTEX
  5
B0
330
AD
100
AcDbEntity
  8
_U+30EC_U+30A4_U+30E4_U+30FC 1
 62
     7
420
 16777215
370
     9
100
AcDbVertex
100
AcDb2dVertex
 10
85.96890836230598
 20
-114.4078441380647
 30
0.0
  0
VERTEX
  5
B1
330
AD
100
AcDbEntity
  8
_U+30EC_U+30A4_U+30E4_U+30FC 1
 62
     7
420
 16777215
370
     9
100
AcDbVertex
100
AcDb2dVertex
 10
85.96926114007476
 20
-114.4078441380647
 30
0.0
  0
SEQEND
  5
B2
330
AD
100
AcDbEntity
  8
_U+30EC_U+30A4_U+30E4_U+30FC 1
 62
     7
420
 16777215
370
     9
  0
POLYLINE
  5
B3
330
1F
100
AcDbEntity
  8
_U+30EC_U+30A4_U+30E4_U+30FC 1
 62
     7
420
 16777215
370
     9
100
AcDb2dPolyline
 66
     1
 10
0.0
 20
0.0
 30
0.0
  0
VERTEX
  5
B4
330
B3
100
AcDbEntity
  8
_U+30EC_U+30A4_U+30E4_U+30FC 1
 62
     7
420
 16777215
370
     9
100
AcDbVertex
100
AcDb2dVertex
 10
85.96926114007476
 20
-115.5323233044502
 30
0.0
  0
VERTEX
  5
B5
330
B3
100
AcDbEntity
  8
_U+30EC_U+30A4_U+30E4_U+30FC 1
 62
     7
420
 16777215
370
     9
100
AcDbVertex
100
AcDb2dVertex
 10
85.96926114007476
 20
-115.5323233044502
 30
0.0
  0
VERTEX
  5
B6
330
B3
100
AcDbEntity
  8
_U+30EC_U+30A4_U+30E4_U+30FC 1
 62
     7
420
 16777215
370
     9
100
AcDbVertex
100
AcDb2dVertex
 10
85.96890836230598
 20
-115.5323233044502
 30
0.0
  0
VERTEX
  5
B7
330
B3
100
AcDbEntity
  8
_U+30EC_U+30A4_U+30E4_U+30FC 1
 62
     7
420
 16777215
370
     9
100
AcDbVertex
100
AcDb2dVertex
 10
85.96926114007476
 20
-115.5329935822279
 30
0.0
  0
VERTEX
  5
B8
330
B3
100
AcDbEntity
  8
_U+30EC_U+30A4_U+30E4_U+30FC 1
 62
     7
420
 16777215
370
     9
100
AcDbVertex
100
AcDb2dVertex
 10
85.96926114007476
 20
-115.5323233044502
 30
0.0
  0
SEQEND
  5
B9
330
B3
100
AcDbEntity
  8
_U+30EC_U+30A4_U+30E4_U+30FC 1
 62
     7
420
 16777215
370
     9
  0
SPLINE
  5
BA
330
1F
100
AcDbEntity
  8
_U+30EC_U+30A4_U+30E4_U+30FC 1
 62
     7
420
 16777215
370
     9
100
AcDbSpline
210
0.0
220
0.0
230
1.0
 70
    11
 71
     3
 72
    17
 73
    13
 74
     0
 42
0.0000000001
 43
0.0000000001
 12
1.0
 22
0.0
 32
0.0
 13
1.0
 23
0.0
 33
0.0
 40
0.0
 40
0.0
 40
0.0
 40
0.0
 40
1.0
 40
1.0
 40
1.0
 40
2.0
 40
2.0
 40
2.0
 40
3.0
 40
3.0
 40
3.0
 40
4.0
 40
4.0
 40
4.0
 40
4.0
 10
88.76597745761347
 20
-115.5323233044502
 30
0.0
 10
88.76597745761347
 20
-115.5323233044502
 30
0.0
 10
88.76562467984469
 20
-115.5323233044502
 30
0.0
 10
88.76562467984469
 20
-115.5323233044502
 30
0.0
 10
88.76562467984469
 20
-115.5323233044502
 30
0.0
 10
88.7653071798528
 20
-115.5323233044502
 30
0.0
 10
88.7653071798528
 20
-115.5323233044502
 30
0.0
 10
88.7653071798528
 20
-115.5323233044502
 30
0.0
 10
88.7653071798528
 20
-115.5329935822279
 30
0.0
 10
88.76562467984469
 20
-115.5329935822279
 30
0.0
 10
88.76597745761347
 20
-115.5329935822279
 30
0.0
 10
88.76597745761347
 20
-115.5323233044502
 30
0.0
 10
88.76597745761347
 20
-115.5323233044502
 30
0.0
  0
POLYLINE
  5
BB
330
1F
100
AcDbEntity
  8
_U+30EC_U+30A4_U+30E4_U+30FC 1
 62
     7
420
 16777215
370
     9
100
AcDb2dPolyline
 66
     1
 10
0.0
 20
0.0
 30
0.0
  0
VERTEX
  5
BC
330
BB
100
AcDbEntity
  8
_U+30EC_U+30A4_U+30E4_U+30FC 1
 62
     7
420
 16777215
370
     9
100
AcDbVertex
100
AcDb2dVertex
 10
77.21973747440481
 20
-123.6572188579747
 30
0.0
  0
VERTEX
  5
BD
330
BB
100
AcDbEntity
  8
_U+30EC_U+30A4_U+30E4_U+30FC 1
 62
     7
420
 16777215
370
     9
100
AcDbVertex
100
AcDb2dVertex
 10
77.21973747440481
 20
-125.6188749685953
 30
0.0
  0
SEQEND
  5
BE
330
BB
100
AcDbEntity
  8
_U+30EC_U+30A4_U+30E4_U+30FC 1
 62
     7
420
 16777215
370
     9
  0
POLYLINE
  5
BF
330
1F
100
AcDbEntity
  8
_U+30EC_U+30A4_U+30E4_U+30FC 1
 62
     7
420
 16777215
370
     9
100
AcDb2dPolyline
 66
     1
 10
0.0
 20
0.0
 30
0.0
  0
VERTEX
  5
C0
330
BF
100
AcDbEntity
  8
_U+30EC_U+30A4_U+30E4_U+30FC 1
 62
     7
420
 16777215
370
     9
100
AcDbVertex
100
AcDb2dVertex
 10
78.34421661238363
 20
-123.6572188579747
 30
0.0
  0
VERTEX
  5
C1
330
BF
100
AcDbEntity
  8
_U+30EC_U+30A4_U+30E4_U+30FC 1
 62
     7
420
 16777215
370
     9
100
AcDbVertex
100
AcDb2dVertex
 10
78.34421661238363
 20
-125.6188749685953
 30
0.0
  0
SEQEND
  5
C2
330
BF
100
AcDbEntity
  8
_U+30EC_U+30A4_U+30E4_U+30FC 1
 62
     7
420
 16777215
370
     9
  0
POLYLINE
  5
C3
330
1F
100
AcDbEntity
  8
_U+30EC_U+30A4_U+30E4_U+30FC 1
 62
     7
420
 16777215
370
     9
100
AcDb2dPolyline
 66
     1
 10
0.0
 20
0.0
 30
0.0
  0
VERTEX
  5
C4
330
C3
100
AcDbEntity
  8
_U+30EC_U+30A4_U+30E4_U+30FC 1
 62
     7
420
 16777215
370
     9
100
AcDbVertex
100
AcDb2dVertex
 10
76.5941213792545
 20
-125.4941327464041
 30
0.0
  0
VERTEX
  5
C5
330
C3
100
AcDbEntity
  8
_U+30EC_U+30A4_U+30E4_U+30FC 1
 62
     7
420
 16777215
370
     9
100
AcDbVertex
100
AcDb2dVertex
 10
75.96917556186486
 20
-125.4941327464041
 30
0.0
  0
SEQEND
  5
C6
330
C3
100
AcDbEntity
  8
_U+30EC_U+30A4_U+30E4_U+30FC 1
 62
     7
420
 16777215
370
     9
  0
POLYLINE
  5
C7
330
1F
100
AcDbEntity
  8
_U+30EC_U+30A4_U+30E4_U+30FC 1
 62
     7
420
 16777215
370
     9
100
AcDb2dPolyline
 66
     1
 10
0.0
 20
0.0
 30
0.0
  0
VERTEX
  5
C8
330
C7
100
AcDbEntity
  8
_U+30EC_U+30A4_U+30E4_U+30FC 1
 62
     7
420
 16777215
370
     9
100
AcDbVertex
100
AcDb2dVertex
 10
78.96916242977326
 20
-125.4941327464041
 30
0.0
  0
VERTEX
  5
C9
330
C7
100
AcDbEntity
  8
_U+30EC_U+30A4_U+30E4_U+30FC 1
 62
     7
420
 16777215
370
     9
100
AcDbVertex
100
AcDb2dVertex
 10
79.59410824716291
 20
-125.4941327464041
 30
0.0
  0
SEQEND
  5
CA
330
C7
100
AcDbEntity
  8
_U+30EC_U+30A4_U+30E4_U+30FC 1
 62
     7
420
 16777215
370
     9
  0
POLYLINE
  5
CB
330
1F
100
AcDbEntity
  8
_U+30EC_U+30A4_U+30E4_U+30FC 1
370
     0
100
AcDb2dPolyline
 66
     1
 10
0.0
 20
0.0
 30
0.0
  0
VERTEX
  5
CC
330
CB
100
AcDbEntity
  8
_U+30EC_U+30A4_U+30E4_U+30FC 1
370
     0
100
AcDbVertex
100
AcDb2dVertex
 10
88.66123773806338
 20
-116.1572338598497
 30
0.0
  0
VERTEX
  5
CD
330
CB
100
AcDbEntity
  8
_U+30EC_U+30A4_U+30E4_U+30FC 1
370
     0
100
AcDbVertex
100
AcDb2dVertex
 10
88.87001386667137
 20
-116.1572338598497
 30
0.0
  0
VERTEX
  5
CE
330
CB
100
AcDbEntity
  8
_U+30EC_U+30A4_U+30E4_U+30FC 1
370
     0
100
AcDbVertex
100
AcDb2dVertex
 10
88.76562467984469
 20
-115.5323233044502
 30
0.0
  0
VERTEX
  5
CF
330
CB
100
AcDbEntity
  8
_U+30EC_U+30A4_U+30E4_U+30FC 1
370
     0
100
AcDbVertex
100
AcDb2dVertex
 10
88.66123773806338
 20
-116.1572338598497
 30
0.0
  0
SEQEND
  5
D1
330
CB
100
AcDbEntity
  8
_U+30EC_U+30A4_U+30E4_U+30FC 1
370
     0
  0
HATCH
  5
D0
330
1F
100
AcDbEntity
  8
_U+30EC_U+30A4_U+30E4_U+30FC 1
 62
     7
420
 16777215
100
AcDbHatch
 10
0.0
 20
0.0
 30
0.0
210
0.0
220
0.0
230
1.0
  2
SOLID
 70
     1
 71
     0
 91
        1
 92
        1
 93
        3
 72
     1
 10
88.66123773806338
 20
-116.1572338598497
 11
88.87001386667137
 21
-116.1572338598497
 72
     1
 10
88.87001386667137
 20
-116.1572338598497
 11
88.76562467984469
 21
-115.5323233044502
 72
     1
 10
88.76562467984469
 20
-115.5323233044502
 11
88.66123773806338
 21
-116.1572338598497
 97
        0
 75
     2
 76
     1
 98
        0
  0
POLYLINE
  5
D2
330
1F
100
AcDbEntity
  8
_U+30EC_U+30A4_U+30E4_U+30FC 1
370
     0
100
AcDb2dPolyline
 66
     1
 10
0.0
 20
0.0
 30
0.0
  0
VERTEX
  5
D3
330
D2
100
AcDbEntity
  8
_U+30EC_U+30A4_U+30E4_U+30FC 1
370
     0
100
AcDbVertex
100
AcDb2dVertex
 10
88.66123773806338
 20
-113.7828983048876
 30
0.0
  0
VERTEX
  5
D4
330
D2
100
AcDbEntity
  8
_U+30EC_U+30A4_U+30E4_U+30FC 1
370
     0
100
AcDbVertex
100
AcDb2dVertex
 10
88.87001386667137
 20
-113.7828983048876
 30
0.0
  0
VERTEX
  5
D5
330
D2
100
AcDbEntity
  8
_U+30EC_U+30A4_U+30E4_U+30FC 1
370
     0
100
AcDbVertex
100
AcDb2dVertex
 10
88.76562467984469
 20
-114.4078441380647
 30
0.0
  0
VERTEX
  5
D6
330
D2
100
AcDbEntity
  8
_U+30EC_U+30A4_U+30E4_U+30FC 1
370
     0
100
AcDbVertex
100
AcDb2dVertex
 10
88.66123773806338
 20
-113.7828983048876
 30
0.0
  0
SEQEND
  5
D8
330
D2
100
AcDbEntity
  8
_U+30EC_U+30A4_U+30E4_U+30FC 1
370
     0
  0
HATCH
  5
D7
330
1F
100
AcDbEntity
  8
_U+30EC_U+30A4_U+30E4_U+30FC 1
 62
     7
420
 16777215
100
AcDbHatch
 10
0.0
 20
0.0
 30
0.0
210
0.0
220
0.0
230
1.0
  2
SOLID
 70
     1
 71
     0
 91
        1
 92
        1
 93
        3
 72
     1
 10
88.66123773806338
 20
-113.7828983048876
 11
88.87001386667137
 21
-113.7828983048876
 72
     1
 10
88.87001386667137
 20
-113.7828983048876
 11
88.76562467984469
 21
-114.4078441380647
 72
     1
 10
88.76562467984469
 20
-114.4078441380647
 11
88.66123773806338
 21
-113.7828983048876
 97
        0
 75
     2
 76
     1
 98
        0
  0
POLYLINE
  5
D9
330
1F
100
AcDbEntity
  8
_U+30EC_U+30A4_U+30E4_U+30FC 1
 62
     7
420
 16777215
370
     9
100
AcDb2dPolyline
 66
     1
 10
0.0
 20
0.0
 30
0.0
  0
VERTEX
  5
DA
330
D9
100
AcDbEntity
  8
_U+30EC_U+30A4_U+30E4_U+30FC 1
 62
     7
420
 16777215
370
     9
100
AcDbVertex
100
AcDb2dVertex
 10
88.76562467984469
 20
-114.4078441380647
 30
0.0
  0
VERTEX
  5
DB
330
D9
100
AcDbEntity
  8
_U+30EC_U+30A4_U+30E4_U+30FC 1
 62
     7
420
 16777215
370
     9
100
AcDbVertex
100
AcDb2dVertex
 10
88.76562467984469
 20
-115.5323233044502
 30
0.0
  0
SEQEND
  5
DC
330
D9
100
AcDbEntity
  8
_U+30EC_U+30A4_U+30E4_U+30FC 1
 62
     7
420
 16777215
370
     9
  0
INSERT
  5
DE
330
1F
100
AcDbEntity
  8
_U+30EC_U+30A4_U+30E4_U+30FC 1
100
AcDbBlockReference
  2
block 8
 10
0.0
 20
0.0
 30
0.0
  0
INSERT
  5
E4
330
1F
100
AcDbEntity
  8
_U+30EC_U+30A4_U+30E4_U+30FC 1
100
AcDbBlockReference
  2
block 9
 10
0.0
 20
0.0
 30
0.0
  0
INSERT
  5
F0
330
1F
100
AcDbEntity
  8
_U+30EC_U+30A4_U+30E4_U+30FC 1
100
AcDbBlockReference
  2
block 10
 10
0.0
 20
0.0
 30
0.0
  0
SPLINE
  5
108
330
1F
100
AcDbEntity
  8
_U+30EC_U+30A4_U+30E4_U+30FC 1
 62
     7
420
 16777215
370
     9
100
AcDbSpline
210
0.0
220
0.0
230
1.0
 70
    11
 71
     3
 72
    14
 73
    10
 74
     0
 42
0.0000000001
 43
0.0000000001
 12
1.0
 22
0.0
 32
0.0
 13
1.0
 23
0.0
 33
0.0
 40
0.0
 40
0.0
 40
0.0
 40
0.0
 40
1.0
 40
1.0
 40
1.0
 40
2.0
 40
2.0
 40
2.0
 40
3.0
 40
3.0
 40
3.0
 40
3.0
 10
97.28157418480694
 20
-129.4460199676386
 30
0.0
 10
97.28157418480694
 20
-129.4460199676386
 30
0.0
 10
97.28157418480694
 20
-129.4449969120835
 30
0.0
 10
97.28157418480694
 20
-129.4449969120835
 30
0.0
 10
97.28122140703816
 20
-129.4449969120835
 30
0.0
 10
97.28086862926939
 20
-129.4449969120835
 30
0.0
 10
97.28086862926939
 20
-129.4460199676386
 30
0.0
 10
97.28086862926939
 20
-129.4460199676386
 30
0.0
 10
97.28157418480694
 20
-129.4460199676386
 30
0.0
 10
97.28157418480694
 20
-129.4460199676386
 30
0.0
  0
SPLINE
  5
109
330
1F
100
AcDbEntity
  8
_U+30EC_U+30A4_U+30E4_U+30FC 1
 62
     7
420
 16777215
370
     9
100
AcDbSpline
210
0.0
220
0.0
230
1.0
 70
    27
 71
     3
 72
    14
 73
    10
 74
     0
 42
0.0000000001
 43
0.0000000001
 12
1.0
 22
0.0
 32
0.0
 13
1.0
 23
0.0
 33
0.0
 40
0.0
 40
0.0
 40
0.0
 40
0.0
 40
1.0
 40
1.0
 40
1.0
 40
2.0
 40
2.0
 40
2.0
 40
3.0
 40
3.0
 40
3.0
 40
3.0
 10
99.7816749543574
 20
-131.6956485781871
 30
0.0
 10
99.7816749543574
 20
-131.6956485781871
 30
0.0
 10
99.7816749543574
 20
-131.6956485781871
 30
0.0
 10
99.7816749543574
 20
-131.6956485781871
 30
0.0
 10
99.7816749543574
 20
-131.6956485781871
 30
0.0
 10
99.7816749543574
 20
-131.6960013559648
 30
0.0
 10
99.7816749543574
 20
-131.6960013559648
 30
0.0
 10
99.7816749543574
 20
-131.6960013559648
 30
0.0
 10
99.7816749543574
 20
-131.6956485781871
 30
0.0
 10
99.7816749543574
 20
-131.6956485781871
 30
0.0
  0
SPLINE
  5
10A
330
1F
100
AcDbEntity
  8
_U+30EC_U+30A4_U+30E4_U+30FC 1
 62
     7
420
 16777215
370
     9
100
AcDbSpline
210
0.0
220
0.0
230
1.0
 70
    27
 71
     3
 72
    14
 73
    10
 74
     0
 42
0.0000000001
 43
0.0000000001
 12
1.0
 22
0.0
 32
0.0
 13
1.0
 23
0.0
 33
0.0
 40
0.0
 40
0.0
 40
0.0
 40
0.0
 40
1.0
 40
1.0
 40
1.0
 40
2.0
 40
2.0
 40
2.0
 40
3.0
 40
3.0
 40
3.0
 40
3.0
 10
99.7816749543574
 20
-127.3028244126188
 30
0.0
 10
99.7816749543574
 20
-127.3028244126188
 30
0.0
 10
99.7816749543574
 20
-127.3028244126188
 30
0.0
 10
99.7816749543574
 20
-127.3028244126188
 30
0.0
 10
99.7816749543574
 20
-127.3028244126188
 30
0.0
 10
99.7816749543574
 20
-127.303529968174
 30
0.0
 10
99.7816749543574
 20
-127.303529968174
 30
0.0
 10
99.7816749543574
 20
-127.303529968174
 30
0.0
 10
99.7816749543574
 20
-127.3028244126188
 30
0.0
 10
99.7816749543574
 20
-127.3028244126188
 30
0.0
  0
POLYLINE
  5
10B
330
1F
100
AcDbEntity
  8
_U+30EC_U+30A4_U+30E4_U+30FC 1
 62
     7
420
 16777215
370
     9
100
AcDb2dPolyline
 66
     1
 10
0.0
 20
0.0
 30
0.0
  0
VERTEX
  5
10C
330
10B
100
AcDbEntity
  8
_U+30EC_U+30A4_U+30E4_U+30FC 1
 62
     7
420
 16777215
370
     9
100
AcDbVertex
100
AcDb2dVertex
 10
86.46914723843271
 20
-114.4078441380647
 30
0.0
  0
VERTEX
  5
10D
330
10B
100
AcDbEntity
  8
_U+30EC_U+30A4_U+30E4_U+30FC 1
 62
     7
420
 16777215
370
     9
100
AcDbVertex
100
AcDb2dVertex
 10
88.89103717664516
 20
-114.4078441380647
 30
0.0
  0
SEQEND
  5
10E
330
10B
100
AcDbEntity
  8
_U+30EC_U+30A4_U+30E4_U+30FC 1
 62
     7
420
 16777215
370
     9
  0
POLYLINE
  5
10F
330
1F
100
AcDbEntity
  8
_U+30EC_U+30A4_U+30E4_U+30FC 1
 62
     7
420
 16777215
370
     9
100
AcDb2dPolyline
 66
     1
 10
0.0
 20
0.0
 30
0.0
  0
VERTEX
  5
110
330
10F
100
AcDbEntity
  8
_U+30EC_U+30A4_U+30E4_U+30FC 1
 62
     7
420
 16777215
370
     9
100
AcDbVertex
100
AcDb2dVertex
 10
86.46914723843271
 20
-115.5323233044502
 30
0.0
  0
VERTEX
  5
111
330
10F
100
AcDbEntity
  8
_U+30EC_U+30A4_U+30E4_U+30FC 1
 62
     7
420
 16777215
370
     9
100
AcDbVertex
100
AcDb2dVertex
 10
88.89103717664516
 20
-115.5323233044502
 30
0.0
  0
SEQEND
  5
112
330
10F
100
AcDbEntity
  8
_U+30EC_U+30A4_U+30E4_U+30FC 1
 62
     7
420
 16777215
370
     9
  0
POLYLINE
  5
113
330
1F
100
AcDbEntity
  8
_U+30EC_U+30A4_U+30E4_U+30FC 1
 62
     7
420
 16777215
370
     9
100
AcDb2dPolyline
 66
     1
 10
0.0
 20
0.0
 30
0.0
  0
VERTEX
  5
114
330
113
100
AcDbEntity
  8
_U+30EC_U+30A4_U+30E4_U+30FC 1
 62
     7
420
 16777215
370
     9
100
AcDbVertex
100
AcDb2dVertex
 10
88.76562467984469
 20
-113.7828983048876
 30
0.0
  0
VERTEX
  5
115
330
113
100
AcDbEntity
  8
_U+30EC_U+30A4_U+30E4_U+30FC 1
 62
     7
420
 16777215
370
     9
100
AcDbVertex
100
AcDb2dVertex
 10
88.76562467984469
 20
-113.1586227494883
 30
0.0
  0
SEQEND
  5
116
330
113
100
AcDbEntity
  8
_U+30EC_U+30A4_U+30E4_U+30FC 1
 62
     7
420
 16777215
370
     9
  0
POLYLINE
  5
117
330
1F
100
AcDbEntity
  8
_U+30EC_U+30A4_U+30E4_U+30FC 1
 62
     7
420
 16777215
370
     9
100
AcDb2dPolyline
 66
     1
 10
0.0
 20
0.0
 30
0.0
  0
VERTEX
  5
118
330
117
100
AcDbEntity
  8
_U+30EC_U+30A4_U+30E4_U+30FC 1
 62
     7
420
 16777215
370
     9
100
AcDbVertex
100
AcDb2dVertex
 10
88.76562467984469
 20
-116.1572338598497
 30
0.0
  0
VERTEX
  5
119
330
117
100
AcDbEntity
  8
_U+30EC_U+30A4_U+30E4_U+30FC 1
 62
     7
420
 16777215
370
     9
100
AcDbVertex
100
AcDb2dVertex
 10
88.76562467984469
 20
-116.7821796930268
 30
0.0
  0
SEQEND
  5
11A
330
117
100
AcDbEntity
  8
_U+30EC_U+30A4_U+30E4_U+30FC 1
 62
     7
420
 16777215
370
     9
  0
INSERT
  5
11C
330
1F
100
AcDbEntity
  8
_U+30EC_U+30A4_U+30E4_U+30FC 1
100
AcDbBlockReference
  2
block 11
 10
0.0
 20
0.0
 30
0.0
  0
POLYLINE
  5
124
330
1F
100
AcDbEntity
  8
_U+30EC_U+30A4_U+30E4_U+30FC 1
370
     0
100
AcDb2dPolyline
 66
     1
 10
0.0
 20
0.0
 30
0.0
  0
VERTEX
  5
125
330
124
100
AcDbEntity
  8
_U+30EC_U+30A4_U+30E4_U+30FC 1
370
     0
100
AcDbVertex
100
AcDb2dVertex
 10
99.15637635919897
 20
-127.1987902459782
 30
0.0
  0
VERTEX
  5
126
330
124
100
AcDbEntity
  8
_U+30EC_U+30A4_U+30E4_U+30FC 1
370
     0
100
AcDbVertex
100
AcDb2dVertex
 10
99.15637635919897
 20
-127.4075641348149
 30
0.0
  0
VERTEX
  5
127
330
124
100
AcDbEntity
  8
_U+30EC_U+30A4_U+30E4_U+30FC 1
370
     0
100
AcDbVertex
100
AcDb2dVertex
 10
99.78132217658862
 20
-127.3028244126188
 30
0.0
  0
VERTEX
  5
128
330
124
100
AcDbEntity
  8
_U+30EC_U+30A4_U+30E4_U+30FC 1
370
     0
100
AcDbVertex
100
AcDb2dVertex
 10
99.15637635919897
 20
-127.1987902459782
 30
0.0
  0
SEQEND
  5
12A
330
124
100
AcDbEntity
  8
_U+30EC_U+30A4_U+30E4_U+30FC 1
370
     0
  0
HATCH
  5
129
330
1F
100
AcDbEntity
  8
_U+30EC_U+30A4_U+30E4_U+30FC 1
 62
     7
420
 16777215
100
AcDbHatch
 10
0.0
 20
0.0
 30
0.0
210
0.0
220
0.0
230
1.0
  2
SOLID
 70
     1
 71
     0
 91
        1
 92
        1
 93
        3
 72
     1
 10
99.15637635919897
 20
-127.1987902459782
 11
99.15637635919897
 21
-127.4075641348149
 72
     1
 10
99.15637635919897
 20
-127.4075641348149
 11
99.78132217658862
 21
-127.3028244126188
 72
     1
 10
99.78132217658862
 20
-127.3028244126188
 11
99.15637635919897
 21
-127.1987902459782
 97
        0
 75
     2
 76
     1
 98
        0
  0
POLYLINE
  5
12B
330
1F
100
AcDbEntity
  8
_U+30EC_U+30A4_U+30E4_U+30FC 1
370
     0
100
AcDb2dPolyline
 66
     1
 10
0.0
 20
0.0
 30
0.0
  0
VERTEX
  5
12C
330
12B
100
AcDbEntity
  8
_U+30EC_U+30A4_U+30E4_U+30FC 1
370
     0
100
AcDbVertex
100
AcDb2dVertex
 10
97.90652000219659
 20
-127.1987902459782
 30
0.0
  0
VERTEX
  5
12D
330
12B
100
AcDbEntity
  8
_U+30EC_U+30A4_U+30E4_U+30FC 1
370
     0
100
AcDbVertex
100
AcDb2dVertex
 10
97.90652000219659
 20
-127.4075641348149
 30
0.0
  0
VERTEX
  5
12E
330
12B
100
AcDbEntity
  8
_U+30EC_U+30A4_U+30E4_U+30FC 1
370
     0
100
AcDbVertex
100
AcDb2dVertex
 10
97.28157418480694
 20
-127.3028244126188
 30
0.0
  0
VERTEX
  5
12F
330
12B
100
AcDbEntity
  8
_U+30EC_U+30A4_U+30E4_U+30FC 1
370
     0
100
AcDbVertex
100
AcDb2dVertex
 10
97.90652000219659
 20
-127.1987902459782
 30
0.0
  0
SEQEND
  5
131
330
12B
100
AcDbEntity
  8
_U+30EC_U+30A4_U+30E4_U+30FC 1
370
     0
  0
HATCH
  5
130
330
1F
100
AcDbEntity
  8
_U+30EC_U+30A4_U+30E4_U+30FC 1
 62
     7
420
 16777215
100
AcDbHatch
 10
0.0
 20
0.0
 30
0.0
210
0.0
220
0.0
230
1.0
  2
SOLID
 70
     1
 71
     0
 91
        1
 92
        1
 93
        3
 72
     1
 10
97.90652000219659
 20
-127.1987902459782
 11
97.90652000219659
 21
-127.4075641348149
 72
     1
 10
97.90652000219659
 20
-127.4075641348149
 11
97.28157418480694
 21
-127.3028244126188
 72
     1
 10
97.28157418480694
 20
-127.3028244126188
 11
97.90652000219659
 21
-127.1987902459782
 97
        0
 75
     2
 76
     1
 98
        0
  0
SPLINE
  5
132
330
1F
100
AcDbEntity
  8
_U+30EC_U+30A4_U+30E4_U+30FC 1
 62
     7
420
 16777215
370
     9
100
AcDbSpline
210
0.0
220
0.0
230
1.0
 70
    11
 71
     3
 72
    14
 73
    10
 74
     0
 42
0.0000000001
 43
0.0000000001
 12
1.0
 22
0.0
 32
0.0
 13
1.0
 23
0.0
 33
0.0
 40
0.0
 40
0.0
 40
0.0
 40
0.0
 40
1.0
 40
1.0
 40
1.0
 40
2.0
 40
2.0
 40
2.0
 40
3.0
 40
3.0
 40
3.0
 40
3.0
 10
97.28157418480694
 20
-129.4460199676386
 30
0.0
 10
97.28157418480694
 20
-129.4460199676386
 30
0.0
 10
97.28157418480694
 20
-129.4449969120835
 30
0.0
 10
97.28157418480694
 20
-129.4449969120835
 30
0.0
 10
97.28122140703816
 20
-129.4449969120835
 30
0.0
 10
97.28086862926939
 20
-129.4449969120835
 30
0.0
 10
97.28086862926939
 20
-129.4460199676386
 30
0.0
 10
97.28086862926939
 20
-129.4460199676386
 30
0.0
 10
97.28157418480694
 20
-129.4460199676386
 30
0.0
 10
97.28157418480694
 20
-129.4460199676386
 30
0.0
  0
SPLINE
  5
133
330
1F
100
AcDbEntity
  8
_U+30EC_U+30A4_U+30E4_U+30FC 1
 62
     7
420
 16777215
370
     9
100
AcDbSpline
210
0.0
220
0.0
230
1.0
 70
    11
 71
     3
 72
    17
 73
    13
 74
     0
 42
0.0000000001
 43
0.0000000001
 12
1.0
 22
0.0
 32
0.0
 13
1.0
 23
0.0
 33
0.0
 40
0.0
 40
0.0
 40
0.0
 40
0.0
 40
1.0
 40
1.0
 40
1.0
 40
2.0
 40
2.0
 40
2.0
 40
3.0
 40
3.0
 40
3.0
 40
4.0
 40
4.0
 40
4.0
 40
4.0
 10
98.26617693746542
 20
-133.1953069111456
 30
0.0
 10
98.26617693746542
 20
-133.1953069111456
 30
0.0
 10
98.26582415969663
 20
-133.1953069111456
 30
0.0
 10
98.26582415969663
 20
-133.1953069111456
 30
0.0
 10
98.26582415969663
 20
-133.1953069111456
 30
0.0
 10
98.26550665970474
 20
-133.1953069111456
 30
0.0
 10
98.26550665970474
 20
-133.1953069111456
 30
0.0
 10
98.26550665970474
 20
-133.1953069111456
 30
0.0
 10
98.26550665970474
 20
-133.1960124667011
 30
0.0
 10
98.26582415969663
 20
-133.1960124667011
 30
0.0
 10
98.26582415969663
 20
-133.1960124667011
 30
0.0
 10
98.26617693746542
 20
-133.1953069111456
 30
0.0
 10
98.26617693746542
 20
-133.1953069111456
 30
0.0
  0
SPLINE
  5
134
330
1F
100
AcDbEntity
  8
_U+30EC_U+30A4_U+30E4_U+30FC 1
 62
     7
420
 16777215
370
     9
100
AcDbSpline
210
0.0
220
0.0
230
1.0
 70
    11
 71
     3
 72
    17
 73
    13
 74
     0
 42
0.0000000001
 43
0.0000000001
 12
1.0
 22
0.0
 32
0.0
 13
1.0
 23
0.0
 33
0.0
 40
0.0
 40
0.0
 40
0.0
 40
0.0
 40
1.0
 40
1.0
 40
1.0
 40
2.0
 40
2.0
 40
2.0
 40
3.0
 40
3.0
 40
3.0
 40
4.0
 40
4.0
 40
4.0
 40
4.0
 10
94.28469176126379
 20
-133.1953069111456
 30
0.0
 10
94.28469176126379
 20
-133.1953069111456
 30
0.0
 10
94.28469176126379
 20
-133.1953069111456
 30
0.0
 10
94.28469176126379
 20
-133.1953069111456
 30
0.0
 10
94.28469176126379
 20
-133.1953069111456
 30
0.0
 10
94.28398620572622
 20
-133.1953069111456
 30
0.0
 10
94.28398620572622
 20
-133.1953069111456
 30
0.0
 10
94.28398620572622
 20
-133.1953069111456
 30
0.0
 10
94.28398620572622
 20
-133.1960124667011
 30
0.0
 10
94.28469176126379
 20
-133.1960124667011
 30
0.0
 10
94.28469176126379
 20
-133.1960124667011
 30
0.0
 10
94.28469176126379
 20
-133.1953069111456
 30
0.0
 10
94.28469176126379
 20
-133.1953069111456
 30
0.0
  0
POLYLINE
  5
135
330
1F
100
AcDbEntity
  8
_U+30EC_U+30A4_U+30E4_U+30FC 1
 62
     7
420
 16777215
370
     9
100
AcDb2dPolyline
 66
     1
 10
0.0
 20
0.0
 30
0.0
  0
VERTEX
  5
136
330
135
100
AcDbEntity
  8
_U+30EC_U+30A4_U+30E4_U+30FC 1
 62
     7
420
 16777215
370
     9
100
AcDbVertex
100
AcDb2dVertex
 10
97.28157418480694
 20
-128.9454283010971
 30
0.0
  0
VERTEX
  5
137
330
135
100
AcDbEntity
  8
_U+30EC_U+30A4_U+30E4_U+30FC 1
 62
     7
420
 16777215
370
     9
100
AcDbVertex
100
AcDb2dVertex
 10
97.28157418480694
 20
-127.1781174682054
 30
0.0
  0
SEQEND
  5
138
330
135
100
AcDbEntity
  8
_U+30EC_U+30A4_U+30E4_U+30FC 1
 62
     7
420
 16777215
370
     9
  0
POLYLINE
  5
139
330
1F
100
AcDbEntity
  8
_U+30EC_U+30A4_U+30E4_U+30FC 1
 62
     7
420
 16777215
370
     9
100
AcDb2dPolyline
 66
     1
 10
0.0
 20
0.0
 30
0.0
  0
VERTEX
  5
13A
330
139
100
AcDbEntity
  8
_U+30EC_U+30A4_U+30E4_U+30FC 1
 62
     7
420
 16777215
370
     9
100
AcDbVertex
100
AcDb2dVertex
 10
99.78132217658862
 20
-131.1961152449789
 30
0.0
  0
VERTEX
  5
13B
330
139
100
AcDbEntity
  8
_U+30EC_U+30A4_U+30E4_U+30FC 1
 62
     7
420
 16777215
370
     9
100
AcDbVertex
100
AcDb2dVertex
 10
99.78132217658862
 20
-127.1781174682054
 30
0.0
  0
SEQEND
  5
13C
330
139
100
AcDbEntity
  8
_U+30EC_U+30A4_U+30E4_U+30FC 1
 62
     7
420
 16777215
370
     9
  0
POLYLINE
  5
13D
330
1F
100
AcDbEntity
  8
_U+30EC_U+30A4_U+30E4_U+30FC 1
 62
     7
420
 16777215
370
     9
100
AcDb2dPolyline
 66
     1
 10
0.0
 20
0.0
 30
0.0
  0
VERTEX
  5
13E
330
13D
100
AcDbEntity
  8
_U+30EC_U+30A4_U+30E4_U+30FC 1
 62
     7
420
 16777215
370
     9
100
AcDbVertex
100
AcDb2dVertex
 10
97.90652000219659
 20
-127.3028244126188
 30
0.0
  0
VERTEX
  5
13F
330
13D
100
AcDbEntity
  8
_U+30EC_U+30A4_U+30E4_U+30FC 1
 62
     7
420
 16777215
370
     9
100
AcDbVertex
100
AcDb2dVertex
 10
99.15637635919897
 20
-127.3028244126188
 30
0.0
  0
SEQEND
  5
140
330
13D
100
AcDbEntity
  8
_U+30EC_U+30A4_U+30E4_U+30FC 1
 62
     7
420
 16777215
370
     9
  0
INSERT
  5
142
330
1F
100
AcDbEntity
  8
_U+30EC_U+30A4_U+30E4_U+30FC 1
100
AcDbBlockReference
  2
block 12
 10
0.0
 20
0.0
 30
0.0
  0
INSERT
  5
148
330
1F
100
AcDbEntity
  8
_U+30EC_U+30A4_U+30E4_U+30FC 1
100
AcDbBlockReference
  2
block 13
 10
0.0
 20
0.0
 30
0.0
  0
POLYLINE
  5
14D
330
1F
100
AcDbEntity
  8
_U+30EC_U+30A4_U+30E4_U+30FC 1
370
     0
100
AcDb2dPolyline
 66
     1
 10
0.0
 20
0.0
 30
0.0
  0
VERTEX
  5
14E
330
14D
100
AcDbEntity
  8
_U+30EC_U+30A4_U+30E4_U+30FC 1
370
     0
100
AcDbVertex
100
AcDb2dVertex
 10
94.18030481948247
 20
-132.5703610779688
 30
0.0
  0
VERTEX
  5
14F
330
14D
100
AcDbEntity
  8
_U+30EC_U+30A4_U+30E4_U+30FC 1
370
     0
100
AcDbVertex
100
AcDb2dVertex
 10
94.38872592527632
 20
-132.5703610779688
 30
0.0
  0
VERTEX
  5
150
330
14D
100
AcDbEntity
  8
_U+30EC_U+30A4_U+30E4_U+30FC 1
370
     0
100
AcDbVertex
100
AcDb2dVertex
 10
94.284338983495
 20
-133.1949541333678
 30
0.0
  0
VERTEX
  5
151
330
14D
100
AcDbEntity
  8
_U+30EC_U+30A4_U+30E4_U+30FC 1
370
     0
100
AcDbVertex
100
AcDb2dVertex
 10
94.18030481948247
 20
-132.5703610779688
 30
0.0
  0
SEQEND
  5
153
330
14D
100
AcDbEntity
  8
_U+30EC_U+30A4_U+30E4_U+30FC 1
370
     0
  0
HATCH
  5
152
330
1F
100
AcDbEntity
  8
_U+30EC_U+30A4_U+30E4_U+30FC 1
 62
     7
420
 16777215
100
AcDbHatch
 10
0.0
 20
0.0
 30
0.0
210
0.0
220
0.0
230
1.0
  2
SOLID
 70
     1
 71
     0
 91
        1
 92
        1
 93
        3
 72
     1
 10
94.18030481948247
 20
-132.5703610779688
 11
94.38872592527632
 21
-132.5703610779688
 72
     1
 10
94.38872592527632
 20
-132.5703610779688
 11
94.284338983495
 21
-133.1949541333678
 72
     1
 10
94.284338983495
 20
-133.1949541333678
 11
94.18030481948247
 21
-132.5703610779688
 97
        0
 75
     2
 76
     1
 98
        0
  0
POLYLINE
  5
154
330
1F
100
AcDbEntity
  8
_U+30EC_U+30A4_U+30E4_U+30FC 1
370
     0
100
AcDb2dPolyline
 66
     1
 10
0.0
 20
0.0
 30
0.0
  0
VERTEX
  5
155
330
154
100
AcDbEntity
  8
_U+30EC_U+30A4_U+30E4_U+30FC 1
370
     0
100
AcDbVertex
100
AcDb2dVertex
 10
94.18030481948247
 20
-130.0706130230382
 30
0.0
  0
VERTEX
  5
156
330
154
100
AcDbEntity
  8
_U+30EC_U+30A4_U+30E4_U+30FC 1
370
     0
100
AcDbVertex
100
AcDb2dVertex
 10
94.38872592527632
 20
-130.0706130230382
 30
0.0
  0
VERTEX
  5
157
330
154
100
AcDbEntity
  8
_U+30EC_U+30A4_U+30E4_U+30FC 1
370
     0
100
AcDbVertex
100
AcDb2dVertex
 10
94.284338983495
 20
-129.4460199676386
 30
0.0
  0
VERTEX
  5
158
330
154
100
AcDbEntity
  8
_U+30EC_U+30A4_U+30E4_U+30FC 1
370
     0
100
AcDbVertex
100
AcDb2dVertex
 10
94.18030481948247
 20
-130.0706130230382
 30
0.0
  0
SEQEND
  5
15A
330
154
100
AcDbEntity
  8
_U+30EC_U+30A4_U+30E4_U+30FC 1
370
     0
  0
HATCH
  5
159
330
1F
100
AcDbEntity
  8
_U+30EC_U+30A4_U+30E4_U+30FC 1
 62
     7
420
 16777215
100
AcDbHatch
 10
0.0
 20
0.0
 30
0.0
210
0.0
220
0.0
230
1.0
  2
SOLID
 70
     1
 71
     0
 91
        1
 92
        1
 93
        3
 72
     1
 10
94.18030481948247
 20
-130.0706130230382
 11
94.38872592527632
 21
-130.0706130230382
 72
     1
 10
94.38872592527632
 20
-130.0706130230382
 11
94.284338983495
 21
-129.4460199676386
 72
     1
 10
94.284338983495
 20
-129.4460199676386
 11
94.18030481948247
 21
-130.0706130230382
 97
        0
 75
     2
 76
     1
 98
        0
  0
SPLINE
  5
15B
330
1F
100
AcDbEntity
  8
_U+30EC_U+30A4_U+30E4_U+30FC 1
 62
     7
420
 16777215
370
     9
100
AcDbSpline
210
0.0
220
0.0
230
1.0
 70
    11
 71
     3
 72
    14
 73
    10
 74
     0
 42
0.0000000001
 43
0.0000000001
 12
1.0
 22
0.0
 32
0.0
 13
1.0
 23
0.0
 33
0.0
 40
0.0
 40
0.0
 40
0.0
 40
0.0
 40
1.0
 40
1.0
 40
1.0
 40
2.0
 40
2.0
 40
2.0
 40
3.0
 40
3.0
 40
3.0
 40
3.0
 10
106.0317681282376
 20
-144.4456019083332
 30
0.0
 10
106.0317681282376
 20
-144.4456019083332
 30
0.0
 10
106.0317681282376
 20
-144.4449316305552
 30
0.0
 10
106.0321209060063
 20
-144.4449316305552
 30
0.0
 10
106.0321209060063
 20
-144.4449316305552
 30
0.0
 10
106.0321209060063
 20
-144.4456019083332
 30
0.0
 10
106.0321209060063
 20
-144.4456019083332
 30
0.0
 10
106.0321209060063
 20
-144.4456019083332
 30
0.0
 10
106.0317681282376
 20
-144.4456019083332
 30
0.0
 10
106.0317681282376
 20
-144.4456019083332
 30
0.0
  0
SPLINE
  5
15C
330
1F
100
AcDbEntity
  8
_U+30EC_U+30A4_U+30E4_U+30FC 1
 62
     7
420
 16777215
370
     9
100
AcDbSpline
210
0.0
220
0.0
230
1.0
 70
    11
 71
     3
 72
    14
 73
    10
 74
     0
 42
0.0000000001
 43
0.0000000001
 12
1.0
 22
0.0
 32
0.0
 13
1.0
 23
0.0
 33
0.0
 40
0.0
 40
0.0
 40
0.0
 40
0.0
 40
1.0
 40
1.0
 40
1.0
 40
2.0
 40
2.0
 40
2.0
 40
3.0
 40
3.0
 40
3.0
 40
3.0
 10
106.0317681282376
 20
-129.4460199676386
 30
0.0
 10
106.0317681282376
 20
-129.4449969120835
 30
0.0
 10
106.0317681282376
 20
-129.4449969120835
 30
0.0
 10
106.0321209060063
 20
-129.4449969120835
 30
0.0
 10
106.0321209060063
 20
-129.4449969120835
 30
0.0
 10
106.0321209060063
 20
-129.4460199676386
 30
0.0
 10
106.0321209060063
 20
-129.4460199676386
 30
0.0
 10
106.0321209060063
 20
-129.4460199676386
 30
0.0
 10
106.0317681282376
 20
-129.4460199676386
 30
0.0
 10
106.0317681282376
 20
-129.4460199676386
 30
0.0
  0
SPLINE
  5
15D
330
1F
100
AcDbEntity
  8
_U+30EC_U+30A4_U+30E4_U+30FC 1
 62
     7
420
 16777215
370
     9
100
AcDbSpline
210
0.0
220
0.0
230
1.0
 70
    27
 71
     3
 72
    11
 73
     7
 74
     0
 42
0.0000000001
 43
0.0000000001
 12
1.0
 22
0.0
 32
0.0
 13
1.0
 23
0.0
 33
0.0
 40
0.0
 40
0.0
 40
0.0
 40
0.0
 40
1.0
 40
1.0
 40
1.0
 40
2.0
 40
2.0
 40
2.0
 40
2.0
 10
110.1772596891439
 20
-129.4460199676386
 30
0.0
 10
110.1772596891439
 20
-129.4460199676386
 30
0.0
 10
110.1772596891439
 20
-129.4449969120835
 30
0.0
 10
110.1772596891439
 20
-129.4449969120835
 30
0.0
 10
110.1772596891439
 20
-129.4449969120835
 30
0.0
 10
110.1772596891439
 20
-129.4460199676386
 30
0.0
 10
110.1772596891439
 20
-129.4460199676386
 30
0.0
  0
POLYLINE
  5
15E
330
1F
100
AcDbEntity
  8
_U+30EC_U+30A4_U+30E4_U+30FC 1
 62
     7
420
 16777215
370
     9
100
AcDb2dPolyline
 66
     1
 10
0.0
 20
0.0
 30
0.0
  0
VERTEX
  5
15F
330
15E
100
AcDbEntity
  8
_U+30EC_U+30A4_U+30E4_U+30FC 1
 62
     7
420
 16777215
370
     9
100
AcDbVertex
100
AcDb2dVertex
 10
96.78133530868021
 20
-129.4460199676386
 30
0.0
  0
VERTEX
  5
160
330
15E
100
AcDbEntity
  8
_U+30EC_U+30A4_U+30E4_U+30FC 1
 62
     7
420
 16777215
370
     9
100
AcDbVertex
100
AcDb2dVertex
 10
94.15927926446332
 20
-129.4460199676386
 30
0.0
  0
SEQEND
  5
161
330
15E
100
AcDbEntity
  8
_U+30EC_U+30A4_U+30E4_U+30FC 1
 62
     7
420
 16777215
370
     9
  0
POLYLINE
  5
162
330
1F
100
AcDbEntity
  8
_U+30EC_U+30A4_U+30E4_U+30FC 1
 62
     7
420
 16777215
370
     9
100
AcDb2dPolyline
 66
     1
 10
0.0
 20
0.0
 30
0.0
  0
VERTEX
  5
163
330
162
100
AcDbEntity
  8
_U+30EC_U+30A4_U+30E4_U+30FC 1
 62
     7
420
 16777215
370
     9
100
AcDbVertex
100
AcDb2dVertex
 10
97.76593806133869
 20
-133.1953069111456
 30
0.0
  0
VERTEX
  5
164
330
162
100
AcDbEntity
  8
_U+30EC_U+30A4_U+30E4_U+30FC 1
 62
     7
420
 16777215
370
     9
100
AcDbVertex
100
AcDb2dVertex
 10
94.15927926446332
 20
-133.1953069111456
 30
0.0
  0
SEQEND
  5
165
330
162
100
AcDbEntity
  8
_U+30EC_U+30A4_U+30E4_U+30FC 1
 62
     7
420
 16777215
370
     9
  0
POLYLINE
  5
166
330
1F
100
AcDbEntity
  8
_U+30EC_U+30A4_U+30E4_U+30FC 1
 62
     7
420
 16777215
370
     9
100
AcDb2dPolyline
 66
     1
 10
0.0
 20
0.0
 30
0.0
  0
VERTEX
  5
167
330
166
100
AcDbEntity
  8
_U+30EC_U+30A4_U+30E4_U+30FC 1
 62
     7
420
 16777215
370
     9
100
AcDbVertex
100
AcDb2dVertex
 10
94.28469176126379
 20
-130.0706130230382
 30
0.0
  0
VERTEX
  5
168
330
166
100
AcDbEntity
  8
_U+30EC_U+30A4_U+30E4_U+30FC 1
 62
     7
420
 16777215
370
     9
100
AcDbVertex
100
AcDb2dVertex
 10
94.28469176126379
 20
-132.5703610779688
 30
0.0
  0
SEQEND
  5
169
330
166
100
AcDbEntity
  8
_U+30EC_U+30A4_U+30E4_U+30FC 1
 62
     7
420
 16777215
370
     9
  0
INSERT
  5
16B
330
1F
100
AcDbEntity
  8
_U+30EC_U+30A4_U+30E4_U+30FC 1
100
AcDbBlockReference
  2
block 14
 10
0.0
 20
0.0
 30
0.0
  0
INSERT
  5
172
330
1F
100
AcDbEntity
  8
_U+30EC_U+30A4_U+30E4_U+30FC 1
100
AcDbBlockReference
  2
block 15
 10
0.0
 20
0.0
 30
0.0
  0
POLYLINE
  5
178
330
1F
100
AcDbEntity
  8
_U+30EC_U+30A4_U+30E4_U+30FC 1
370
     0
100
AcDb2dPolyline
 66
     1
 10
0.0
 20
0.0
 30
0.0
  0
VERTEX
  5
179
330
178
100
AcDbEntity
  8
_U+30EC_U+30A4_U+30E4_U+30FC 1
370
     0
100
AcDbVertex
100
AcDb2dVertex
 10
110.2812938531565
 20
-130.0706130230382
 30
0.0
  0
VERTEX
  5
17A
330
178
100
AcDbEntity
  8
_U+30EC_U+30A4_U+30E4_U+30FC 1
370
     0
100
AcDbVertex
100
AcDb2dVertex
 10
110.0735430251233
 20
-130.0706130230382
 30
0.0
  0
VERTEX
  5
17B
330
178
100
AcDbEntity
  8
_U+30EC_U+30A4_U+30E4_U+30FC 1
370
     0
100
AcDbVertex
100
AcDb2dVertex
 10
110.1772596891439
 20
-129.4460199676386
 30
0.0
  0
VERTEX
  5
17C
330
178
100
AcDbEntity
  8
_U+30EC_U+30A4_U+30E4_U+30FC 1
370
     0
100
AcDbVertex
100
AcDb2dVertex
 10
110.2812938531565
 20
-130.0706130230382
 30
0.0
  0
SEQEND
  5
17E
330
178
100
AcDbEntity
  8
_U+30EC_U+30A4_U+30E4_U+30FC 1
370
     0
  0
HATCH
  5
17D
330
1F
100
AcDbEntity
  8
_U+30EC_U+30A4_U+30E4_U+30FC 1
 62
     7
420
 16777215
100
AcDbHatch
 10
0.0
 20
0.0
 30
0.0
210
0.0
220
0.0
230
1.0
  2
SOLID
 70
     1
 71
     0
 91
        1
 92
        1
 93
        3
 72
     1
 10
110.2812938531565
 20
-130.0706130230382
 11
110.0735430251233
 21
-130.0706130230382
 72
     1
 10
110.0735430251233
 20
-130.0706130230382
 11
110.1772596891439
 21
-129.4460199676386
 72
     1
 10
110.1772596891439
 20
-129.4460199676386
 11
110.2812938531565
 21
-130.0706130230382
 97
        0
 75
     2
 76
     1
 98
        0
  0
POLYLINE
  5
17F
330
1F
100
AcDbEntity
  8
_U+30EC_U+30A4_U+30E4_U+30FC 1
370
     0
100
AcDb2dPolyline
 66
     1
 10
0.0
 20
0.0
 30
0.0
  0
VERTEX
  5
180
330
17F
100
AcDbEntity
  8
_U+30EC_U+30A4_U+30E4_U+30FC 1
370
     0
100
AcDbVertex
100
AcDb2dVertex
 10
110.2812938531565
 20
-143.820691352934
 30
0.0
  0
VERTEX
  5
181
330
17F
100
AcDbEntity
  8
_U+30EC_U+30A4_U+30E4_U+30FC 1
370
     0
100
AcDbVertex
100
AcDb2dVertex
 10
110.0735430251233
 20
-143.820691352934
 30
0.0
  0
VERTEX
  5
182
330
17F
100
AcDbEntity
  8
_U+30EC_U+30A4_U+30E4_U+30FC 1
370
     0
100
AcDbVertex
100
AcDb2dVertex
 10
110.1772596891439
 20
-144.4456019083332
 30
0.0
  0
VERTEX
  5
183
330
17F
100
AcDbEntity
  8
_U+30EC_U+30A4_U+30E4_U+30FC 1
370
     0
100
AcDbVertex
100
AcDb2dVertex
 10
110.2812938531565
 20
-143.820691352934
 30
0.0
  0
SEQEND
  5
185
330
17F
100
AcDbEntity
  8
_U+30EC_U+30A4_U+30E4_U+30FC 1
370
     0
  0
HATCH
  5
184
330
1F
100
AcDbEntity
  8
_U+30EC_U+30A4_U+30E4_U+30FC 1
 62
     7
420
 16777215
100
AcDbHatch
 10
0.0
 20
0.0
 30
0.0
210
0.0
220
0.0
230
1.0
  2
SOLID
 70
     1
 71
     0
 91
        1
 92
        1
 93
        3
 72
     1
 10
110.2812938531565
 20
-143.820691352934
 11
110.0735430251233
 21
-143.820691352934
 72
     1
 10
110.0735430251233
 20
-143.820691352934
 11
110.1772596891439
 21
-144.4456019083332
 72
     1
 10
110.1772596891439
 20
-144.4456019083332
 11
110.2812938531565
 21
-143.820691352934
 97
        0
 75
     2
 76
     1
 98
        0
  0
POLYLINE
  5
186
330
1F
100
AcDbEntity
  8
_U+30EC_U+30A4_U+30E4_U+30FC 1
 62
     7
420
 16777215
370
     9
100
AcDb2dPolyline
 66
     1
 10
0.0
 20
0.0
 30
0.0
  0
VERTEX
  5
187
330
186
100
AcDbEntity
  8
_U+30EC_U+30A4_U+30E4_U+30FC 1
 62
     7
420
 16777215
370
     9
100
AcDbVertex
100
AcDb2dVertex
 10
106.0317681282376
 20
-144.4456019083332
 30
0.0
  0
VERTEX
  5
188
330
186
100
AcDbEntity
  8
_U+30EC_U+30A4_U+30E4_U+30FC 1
 62
     7
420
 16777215
370
     9
100
AcDbVertex
100
AcDb2dVertex
 10
106.0317681282376
 20
-144.4449316305552
 30
0.0
  0
VERTEX
  5
189
330
186
100
AcDbEntity
  8
_U+30EC_U+30A4_U+30E4_U+30FC 1
 62
     7
420
 16777215
370
     9
100
AcDbVertex
100
AcDb2dVertex
 10
106.0314153504688
 20
-144.4456019083332
 30
0.0
  0
VERTEX
  5
18A
330
186
100
AcDbEntity
  8
_U+30EC_U+30A4_U+30E4_U+30FC 1
 62
     7
420
 16777215
370
     9
100
AcDbVertex
100
AcDb2dVertex
 10
106.0317681282376
 20
-144.4456019083332
 30
0.0
  0
SEQEND
  5
18B
330
186
100
AcDbEntity
  8
_U+30EC_U+30A4_U+30E4_U+30FC 1
 62
     7
420
 16777215
370
     9
  0
SPLINE
  5
18C
330
1F
100
AcDbEntity
  8
_U+30EC_U+30A4_U+30E4_U+30FC 1
 62
     7
420
 16777215
370
     9
100
AcDbSpline
210
0.0
220
0.0
230
1.0
 70
    11
 71
     3
 72
    14
 73
    10
 74
     0
 42
0.0000000001
 43
0.0000000001
 12
1.0
 22
0.0
 32
0.0
 13
1.0
 23
0.0
 33
0.0
 40
0.0
 40
0.0
 40
0.0
 40
0.0
 40
1.0
 40
1.0
 40
1.0
 40
2.0
 40
2.0
 40
2.0
 40
3.0
 40
3.0
 40
3.0
 40
3.0
 10
97.28157418480694
 20
-144.4456019083332
 30
0.0
 10
97.28157418480694
 20
-144.4456019083332
 30
0.0
 10
97.28157418480694
 20
-144.4449316305552
 30
0.0
 10
97.28157418480694
 20
-144.4449316305552
 30
0.0
 10
97.28122140703816
 20
-144.4449316305552
 30
0.0
 10
97.28086862926939
 20
-144.4456019083332
 30
0.0
 10
97.28086862926939
 20
-144.4456019083332
 30
0.0
 10
97.28086862926939
 20
-144.4456019083332
 30
0.0
 10
97.28157418480694
 20
-144.4456019083332
 30
0.0
 10
97.28157418480694
 20
-144.4456019083332
 30
0.0
  0
SPLINE
  5
18D
330
1F
100
AcDbEntity
  8
_U+30EC_U+30A4_U+30E4_U+30FC 1
 62
     7
420
 16777215
370
     9
100
AcDbSpline
210
0.0
220
0.0
230
1.0
 70
    27
 71
     3
 72
    14
 73
    10
 74
     0
 42
0.0000000001
 43
0.0000000001
 12
1.0
 22
0.0
 32
0.0
 13
1.0
 23
0.0
 33
0.0
 40
0.0
 40
0.0
 40
0.0
 40
0.0
 40
1.0
 40
1.0
 40
1.0
 40
2.0
 40
2.0
 40
2.0
 40
3.0
 40
3.0
 40
3.0
 40
3.0
 10
97.28157418480694
 20
-147.8672994074778
 30
0.0
 10
97.28157418480694
 20
-147.8672994074778
 30
0.0
 10
97.28157418480694
 20
-147.8672994074778
 30
0.0
 10
97.28157418480694
 20
-147.8672994074778
 30
0.0
 10
97.28157418480694
 20
-147.8672994074778
 30
0.0
 10
97.28086862926939
 20
-147.8672994074778
 30
0.0
 10
97.28086862926939
 20
-147.8672994074778
 30
0.0
 10
97.28086862926939
 20
-147.8672994074778
 30
0.0
 10
97.28157418480694
 20
-147.8672994074778
 30
0.0
 10
97.28157418480694
 20
-147.8672994074778
 30
0.0
  0
POLYLINE
  5
18E
330
1F
100
AcDbEntity
  8
_U+30EC_U+30A4_U+30E4_U+30FC 1
 62
     7
420
 16777215
370
     9
100
AcDb2dPolyline
 66
     1
 10
0.0
 20
0.0
 30
0.0
  0
VERTEX
  5
18F
330
18E
100
AcDbEntity
  8
_U+30EC_U+30A4_U+30E4_U+30FC 1
 62
     7
420
 16777215
370
     9
100
AcDbVertex
100
AcDb2dVertex
 10
106.5316542265955
 20
-144.4456019083332
 30
0.0
  0
VERTEX
  5
190
330
18E
100
AcDbEntity
  8
_U+30EC_U+30A4_U+30E4_U+30FC 1
 62
     7
420
 16777215
370
     9
100
AcDbVertex
100
AcDb2dVertex
 10
110.3023221946465
 20
-144.4456019083332
 30
0.0
  0
SEQEND
  5
191
330
18E
100
AcDbEntity
  8
_U+30EC_U+30A4_U+30E4_U+30FC 1
 62
     7
420
 16777215
370
     9
  0
POLYLINE
  5
192
330
1F
100
AcDbEntity
  8
_U+30EC_U+30A4_U+30E4_U+30FC 1
 62
     7
420
 16777215
370
     9
100
AcDb2dPolyline
 66
     1
 10
0.0
 20
0.0
 30
0.0
  0
VERTEX
  5
193
330
192
100
AcDbEntity
  8
_U+30EC_U+30A4_U+30E4_U+30FC 1
 62
     7
420
 16777215
370
     9
100
AcDbVertex
100
AcDb2dVertex
 10
106.5316542265955
 20
-129.4460199676386
 30
0.0
  0
VERTEX
  5
194
330
192
100
AcDbEntity
  8
_U+30EC_U+30A4_U+30E4_U+30FC 1
 62
     7
420
 16777215
370
     9
100
AcDbVertex
100
AcDb2dVertex
 10
110.3023221946465
 20
-129.4460199676386
 30
0.0
  0
SEQEND
  5
195
330
192
100
AcDbEntity
  8
_U+30EC_U+30A4_U+30E4_U+30FC 1
 62
     7
420
 16777215
370
     9
  0
POLYLINE
  5
196
330
1F
100
AcDbEntity
  8
_U+30EC_U+30A4_U+30E4_U+30FC 1
 62
     7
420
 16777215
370
     9
100
AcDb2dPolyline
 66
     1
 10
0.0
 20
0.0
 30
0.0
  0
VERTEX
  5
197
330
196
100
AcDbEntity
  8
_U+30EC_U+30A4_U+30E4_U+30FC 1
 62
     7
420
 16777215
370
     9
100
AcDbVertex
100
AcDb2dVertex
 10
110.1772596891439
 20
-143.820691352934
 30
0.0
  0
VERTEX
  5
198
330
196
100
AcDbEntity
  8
_U+30EC_U+30A4_U+30E4_U+30FC 1
 62
     7
420
 16777215
370
     9
100
AcDbVertex
100
AcDb2dVertex
 10
110.1772596891439
 20
-130.0706130230382
 30
0.0
  0
SEQEND
  5
199
330
196
100
AcDbEntity
  8
_U+30EC_U+30A4_U+30E4_U+30FC 1
 62
     7
420
 16777215
370
     9
  0
INSERT
  5
19B
330
1F
100
AcDbEntity
  8
_U+30EC_U+30A4_U+30E4_U+30FC 1
100
AcDbBlockReference
  2
block 16
 10
0.0
 20
0.0
 30
0.0
  0
POLYLINE
  5
1A2
330
1F
100
AcDbEntity
  8
_U+30EC_U+30A4_U+30E4_U+30FC 1
370
     0
100
AcDb2dPolyline
 66
     1
 10
0.0
 20
0.0
 30
0.0
  0
VERTEX
  5
1A3
330
1A2
100
AcDbEntity
  8
_U+30EC_U+30A4_U+30E4_U+30FC 1
370
     0
100
AcDbVertex
100
AcDb2dVertex
 10
97.90652000219659
 20
-147.7632299630594
 30
0.0
  0
VERTEX
  5
1A4
330
1A2
100
AcDbEntity
  8
_U+30EC_U+30A4_U+30E4_U+30FC 1
370
     0
100
AcDbVertex
100
AcDb2dVertex
 10
97.90652000219659
 20
-147.9713335741181
 30
0.0
  0
VERTEX
  5
1A5
330
1A2
100
AcDbEntity
  8
_U+30EC_U+30A4_U+30E4_U+30FC 1
370
     0
100
AcDbVertex
100
AcDb2dVertex
 10
97.28157418480694
 20
-147.8672994074778
 30
0.0
  0
VERTEX
  5
1A6
330
1A2
100
AcDbEntity
  8
_U+30EC_U+30A4_U+30E4_U+30FC 1
370
     0
100
AcDbVertex
100
AcDb2dVertex
 10
97.90652000219659
 20
-147.7632299630594
 30
0.0
  0
SEQEND
  5
1A8
330
1A2
100
AcDbEntity
  8
_U+30EC_U+30A4_U+30E4_U+30FC 1
370
     0
  0
HATCH
  5
1A7
330
1F
100
AcDbEntity
  8
_U+30EC_U+30A4_U+30E4_U+30FC 1
 62
     7
420
 16777215
100
AcDbHatch
 10
0.0
 20
0.0
 30
0.0
210
0.0
220
0.0
230
1.0
  2
SOLID
 70
     1
 71
     0
 91
        1
 92
        1
 93
        3
 72
     1
 10
97.90652000219659
 20
-147.7632299630594
 11
97.90652000219659
 21
-147.9713335741181
 72
     1
 10
97.90652000219659
 20
-147.9713335741181
 11
97.28157418480694
 21
-147.8672994074778
 72
     1
 10
97.28157418480694
 20
-147.8672994074778
 11
97.90652000219659
 21
-147.7632299630594
 97
        0
 75
     2
 76
     1
 98
        0
  0
POLYLINE
  5
1A9
330
1F
100
AcDbEntity
  8
_U+30EC_U+30A4_U+30E4_U+30FC 1
370
     0
100
AcDb2dPolyline
 66
     1
 10
0.0
 20
0.0
 30
0.0
  0
VERTEX
  5
1AA
330
1A9
100
AcDbEntity
  8
_U+30EC_U+30A4_U+30E4_U+30FC 1
370
     0
100
AcDbVertex
100
AcDb2dVertex
 10
105.4064721958709
 20
-147.7632299630594
 30
0.0
  0
VERTEX
  5
1AB
330
1A9
100
AcDbEntity
  8
_U+30EC_U+30A4_U+30E4_U+30FC 1
370
     0
100
AcDbVertex
100
AcDb2dVertex
 10
105.4064721958709
 20
-147.9713335741181
 30
0.0
  0
VERTEX
  5
1AC
330
1A9
100
AcDbEntity
  8
_U+30EC_U+30A4_U+30E4_U+30FC 1
370
     0
100
AcDbVertex
100
AcDb2dVertex
 10
106.0317681282376
 20
-147.8672994074778
 30
0.0
  0
VERTEX
  5
1AD
330
1A9
100
AcDbEntity
  8
_U+30EC_U+30A4_U+30E4_U+30FC 1
370
     0
100
AcDbVertex
100
AcDb2dVertex
 10
105.4064721958709
 20
-147.7632299630594
 30
0.0
  0
SEQEND
  5
1AF
330
1A9
100
AcDbEntity
  8
_U+30EC_U+30A4_U+30E4_U+30FC 1
370
     0
  0
HATCH
  5
1AE
330
1F
100
AcDbEntity
  8
_U+30EC_U+30A4_U+30E4_U+30FC 1
 62
     7
420
 16777215
100
AcDbHatch
 10
0.0
 20
0.0
 30
0.0
210
0.0
220
0.0
230
1.0
  2
SOLID
 70
     1
 71
     0
 91
        1
 92
        1
 93
        3
 72
     1
 10
105.4064721958709
 20
-147.7632299630594
 11
105.4064721958709
 21
-147.9713335741181
 72
     1
 10
105.4064721958709
 20
-147.9713335741181
 11
106.0317681282376
 21
-147.8672994074778
 72
     1
 10
106.0317681282376
 20
-147.8672994074778
 11
105.4064721958709
 21
-147.7632299630594
 97
        0
 75
     2
 76
     1
 98
        0
  0
POLYLINE
  5
1B0
330
1F
100
AcDbEntity
  8
_U+30EC_U+30A4_U+30E4_U+30FC 1
 62
     7
420
 16777215
370
     9
100
AcDb2dPolyline
 66
     1
 10
0.0
 20
0.0
 30
0.0
  0
VERTEX
  5
1B1
330
1B0
100
AcDbEntity
  8
_U+30EC_U+30A4_U+30E4_U+30FC 1
 62
     7
420
 16777215
370
     9
100
AcDbVertex
100
AcDb2dVertex
 10
85.96926114007476
 20
-144.4456019083332
 30
0.0
  0
VERTEX
  5
1B2
330
1B0
100
AcDbEntity
  8
_U+30EC_U+30A4_U+30E4_U+30FC 1
 62
     7
420
 16777215
370
     9
100
AcDbVertex
100
AcDb2dVertex
 10
85.96926114007476
 20
-144.4449316305552
 30
0.0
  0
VERTEX
  5
1B3
330
1B0
100
AcDbEntity
  8
_U+30EC_U+30A4_U+30E4_U+30FC 1
 62
     7
420
 16777215
370
     9
100
AcDbVertex
100
AcDb2dVertex
 10
85.96890836230598
 20
-144.4456019083332
 30
0.0
  0
VERTEX
  5
1B4
330
1B0
100
AcDbEntity
  8
_U+30EC_U+30A4_U+30E4_U+30FC 1
 62
     7
420
 16777215
370
     9
100
AcDbVertex
100
AcDb2dVertex
 10
85.96926114007476
 20
-144.4456019083332
 30
0.0
  0
SEQEND
  5
1B5
330
1B0
100
AcDbEntity
  8
_U+30EC_U+30A4_U+30E4_U+30FC 1
 62
     7
420
 16777215
370
     9
  0
SPLINE
  5
1B6
330
1F
100
AcDbEntity
  8
_U+30EC_U+30A4_U+30E4_U+30FC 1
 62
     7
420
 16777215
370
     9
100
AcDbSpline
210
0.0
220
0.0
230
1.0
 70
    11
 71
     3
 72
    14
 73
    10
 74
     0
 42
0.0000000001
 43
0.0000000001
 12
1.0
 22
0.0
 32
0.0
 13
1.0
 23
0.0
 33
0.0
 40
0.0
 40
0.0
 40
0.0
 40
0.0
 40
1.0
 40
1.0
 40
1.0
 40
2.0
 40
2.0
 40
2.0
 40
3.0
 40
3.0
 40
3.0
 40
3.0
 10
77.21973747440481
 20
-144.4456019083332
 30
0.0
 10
77.21973747440481
 20
-144.4456019083332
 30
0.0
 10
77.21973747440481
 20
-144.4449316305552
 30
0.0
 10
77.21973747440481
 20
-144.4449316305552
 30
0.0
 10
77.21906719664413
 20
-144.4449316305552
 30
0.0
 10
77.21906719664413
 20
-144.4456019083332
 30
0.0
 10
77.21906719664413
 20
-144.4456019083332
 30
0.0
 10
77.21906719664413
 20
-144.4456019083332
 30
0.0
 10
77.21973747440481
 20
-144.4456019083332
 30
0.0
 10
77.21973747440481
 20
-144.4456019083332
 30
0.0
  0
SPLINE
  5
1B7
330
1F
100
AcDbEntity
  8
_U+30EC_U+30A4_U+30E4_U+30FC 1
 62
     7
420
 16777215
370
     9
100
AcDbSpline
210
0.0
220
0.0
230
1.0
 70
    27
 71
     3
 72
    14
 73
    10
 74
     0
 42
0.0000000001
 43
0.0000000001
 12
1.0
 22
0.0
 32
0.0
 13
1.0
 23
0.0
 33
0.0
 40
0.0
 40
0.0
 40
0.0
 40
0.0
 40
1.0
 40
1.0
 40
1.0
 40
2.0
 40
2.0
 40
2.0
 40
3.0
 40
3.0
 40
3.0
 40
3.0
 10
77.21973747440481
 20
-147.8672994074778
 30
0.0
 10
77.21973747440481
 20
-147.8672994074778
 30
0.0
 10
77.21973747440481
 20
-147.8672994074778
 30
0.0
 10
77.21973747440481
 20
-147.8672994074778
 30
0.0
 10
77.21973747440481
 20
-147.8672994074778
 30
0.0
 10
77.21906719664413
 20
-147.8672994074778
 30
0.0
 10
77.21906719664413
 20
-147.8672994074778
 30
0.0
 10
77.21906719664413
 20
-147.8672994074778
 30
0.0
 10
77.21973747440481
 20
-147.8672994074778
 30
0.0
 10
77.21973747440481
 20
-147.8672994074778
 30
0.0
  0
POLYLINE
  5
1B8
330
1F
100
AcDbEntity
  8
_U+30EC_U+30A4_U+30E4_U+30FC 1
 62
     7
420
 16777215
370
     9
100
AcDb2dPolyline
 66
     1
 10
0.0
 20
0.0
 30
0.0
  0
VERTEX
  5
1B9
330
1B8
100
AcDbEntity
  8
_U+30EC_U+30A4_U+30E4_U+30FC 1
 62
     7
420
 16777215
370
     9
100
AcDbVertex
100
AcDb2dVertex
 10
106.0317681282376
 20
-144.9451705193196
 30
0.0
  0
VERTEX
  5
1BA
330
1B8
100
AcDbEntity
  8
_U+30EC_U+30A4_U+30E4_U+30FC 1
 62
     7
420
 16777215
370
     9
100
AcDbVertex
100
AcDb2dVertex
 10
106.0317681282376
 20
-147.9920063518909
 30
0.0
  0
SEQEND
  5
1BB
330
1B8
100
AcDbEntity
  8
_U+30EC_U+30A4_U+30E4_U+30FC 1
 62
     7
420
 16777215
370
     9
  0
POLYLINE
  5
1BC
330
1F
100
AcDbEntity
  8
_U+30EC_U+30A4_U+30E4_U+30FC 1
 62
     7
420
 16777215
370
     9
100
AcDb2dPolyline
 66
     1
 10
0.0
 20
0.0
 30
0.0
  0
VERTEX
  5
1BD
330
1BC
100
AcDbEntity
  8
_U+30EC_U+30A4_U+30E4_U+30FC 1
 62
     7
420
 16777215
370
     9
100
AcDbVertex
100
AcDb2dVertex
 10
97.28157418480694
 20
-144.9451705193196
 30
0.0
  0
VERTEX
  5
1BE
330
1BC
100
AcDbEntity
  8
_U+30EC_U+30A4_U+30E4_U+30FC 1
 62
     7
420
 16777215
370
     9
100
AcDbVertex
100
AcDb2dVertex
 10
97.28157418480694
 20
-147.9920063518909
 30
0.0
  0
SEQEND
  5
1BF
330
1BC
100
AcDbEntity
  8
_U+30EC_U+30A4_U+30E4_U+30FC 1
 62
     7
420
 16777215
370
     9
  0
POLYLINE
  5
1C0
330
1F
100
AcDbEntity
  8
_U+30EC_U+30A4_U+30E4_U+30FC 1
 62
     7
420
 16777215
370
     9
100
AcDb2dPolyline
 66
     1
 10
0.0
 20
0.0
 30
0.0
  0
VERTEX
  5
1C1
330
1C0
100
AcDbEntity
  8
_U+30EC_U+30A4_U+30E4_U+30FC 1
 62
     7
420
 16777215
370
     9
100
AcDbVertex
100
AcDb2dVertex
 10
105.4064721958709
 20
-147.8672994074778
 30
0.0
  0
VERTEX
  5
1C2
330
1C0
100
AcDbEntity
  8
_U+30EC_U+30A4_U+30E4_U+30FC 1
 62
     7
420
 16777215
370
     9
100
AcDbVertex
100
AcDb2dVertex
 10
97.90652000219659
 20
-147.8672994074778
 30
0.0
  0
SEQEND
  5
1C3
330
1C0
100
AcDbEntity
  8
_U+30EC_U+30A4_U+30E4_U+30FC 1
 62
     7
420
 16777215
370
     9
  0
INSERT
  5
1C5
330
1F
100
AcDbEntity
  8
_U+30EC_U+30A4_U+30E4_U+30FC 1
100
AcDbBlockReference
  2
block 17
 10
0.0
 20
0.0
 30
0.0
  0
POLYLINE
  5
1CC
330
1F
100
AcDbEntity
  8
_U+30EC_U+30A4_U+30E4_U+30FC 1
370
     0
100
AcDb2dPolyline
 66
     1
 10
0.0
 20
0.0
 30
0.0
  0
VERTEX
  5
1CD
330
1CC
100
AcDbEntity
  8
_U+30EC_U+30A4_U+30E4_U+30FC 1
370
     0
100
AcDbVertex
100
AcDb2dVertex
 10
77.84433051402567
 20
-147.7632299630594
 30
0.0
  0
VERTEX
  5
1CE
330
1CC
100
AcDbEntity
  8
_U+30EC_U+30A4_U+30E4_U+30FC 1
370
     0
100
AcDbVertex
100
AcDb2dVertex
 10
77.84433051402567
 20
-147.9713335741181
 30
0.0
  0
VERTEX
  5
1CF
330
1CC
100
AcDbEntity
  8
_U+30EC_U+30A4_U+30E4_U+30FC 1
370
     0
100
AcDbVertex
100
AcDb2dVertex
 10
77.21973747440481
 20
-147.8672994074778
 30
0.0
  0
VERTEX
  5
1D0
330
1CC
100
AcDbEntity
  8
_U+30EC_U+30A4_U+30E4_U+30FC 1
370
     0
100
AcDbVertex
100
AcDb2dVertex
 10
77.84433051402567
 20
-147.7632299630594
 30
0.0
  0
SEQEND
  5
1D2
330
1CC
100
AcDbEntity
  8
_U+30EC_U+30A4_U+30E4_U+30FC 1
370
     0
  0
HATCH
  5
1D1
330
1F
100
AcDbEntity
  8
_U+30EC_U+30A4_U+30E4_U+30FC 1
 62
     7
420
 16777215
100
AcDbHatch
 10
0.0
 20
0.0
 30
0.0
210
0.0
220
0.0
230
1.0
  2
SOLID
 70
     1
 71
     0
 91
        1
 92
        1
 93
        3
 72
     1
 10
77.84433051402567
 20
-147.7632299630594
 11
77.84433051402567
 21
-147.9713335741181
 72
     1
 10
77.84433051402567
 20
-147.9713335741181
 11
77.21973747440481
 21
-147.8672994074778
 72
     1
 10
77.21973747440481
 20
-147.8672994074778
 11
77.84433051402567
 21
-147.7632299630594
 97
        0
 75
     2
 76
     1
 98
        0
  0
POLYLINE
  5
1D3
330
1F
100
AcDbEntity
  8
_U+30EC_U+30A4_U+30E4_U+30FC 1
370
     0
100
AcDb2dPolyline
 66
     1
 10
0.0
 20
0.0
 30
0.0
  0
VERTEX
  5
1D4
330
1D3
100
AcDbEntity
  8
_U+30EC_U+30A4_U+30E4_U+30FC 1
370
     0
100
AcDbVertex
100
AcDb2dVertex
 10
85.3446681004539
 20
-147.7632299630594
 30
0.0
  0
VERTEX
  5
1D5
330
1D3
100
AcDbEntity
  8
_U+30EC_U+30A4_U+30E4_U+30FC 1
370
     0
100
AcDbVertex
100
AcDb2dVertex
 10
85.3446681004539
 20
-147.9713335741181
 30
0.0
  0
VERTEX
  5
1D6
330
1D3
100
AcDbEntity
  8
_U+30EC_U+30A4_U+30E4_U+30FC 1
370
     0
100
AcDbVertex
100
AcDb2dVertex
 10
85.96926114007476
 20
-147.8672994074778
 30
0.0
  0
VERTEX
  5
1D7
330
1D3
100
AcDbEntity
  8
_U+30EC_U+30A4_U+30E4_U+30FC 1
370
     0
100
AcDbVertex
100
AcDb2dVertex
 10
85.3446681004539
 20
-147.7632299630594
 30
0.0
  0
SEQEND
  5
1D9
330
1D3
100
AcDbEntity
  8
_U+30EC_U+30A4_U+30E4_U+30FC 1
370
     0
  0
HATCH
  5
1D8
330
1F
100
AcDbEntity
  8
_U+30EC_U+30A4_U+30E4_U+30FC 1
 62
     7
420
 16777215
100
AcDbHatch
 10
0.0
 20
0.0
 30
0.0
210
0.0
220
0.0
230
1.0
  2
SOLID
 70
     1
 71
     0
 91
        1
 92
        1
 93
        3
 72
     1
 10
85.3446681004539
 20
-147.7632299630594
 11
85.3446681004539
 21
-147.9713335741181
 72
     1
 10
85.3446681004539
 20
-147.9713335741181
 11
85.96926114007476
 21
-147.8672994074778
 72
     1
 10
85.96926114007476
 20
-147.8672994074778
 11
85.3446681004539
 21
-147.7632299630594
 97
        0
 75
     2
 76
     1
 98
        0
  0
SPLINE
  5
1DA
330
1F
100
AcDbEntity
  8
_U+30EC_U+30A4_U+30E4_U+30FC 1
 62
     7
420
 16777215
370
     9
100
AcDbSpline
210
0.0
220
0.0
230
1.0
 70
    27
 71
     3
 72
    14
 73
    10
 74
     0
 42
0.0000000001
 43
0.0000000001
 12
1.0
 22
0.0
 32
0.0
 13
1.0
 23
0.0
 33
0.0
 40
0.0
 40
0.0
 40
0.0
 40
0.0
 40
1.0
 40
1.0
 40
1.0
 40
2.0
 40
2.0
 40
2.0
 40
3.0
 40
3.0
 40
3.0
 40
3.0
 10
77.21973747440481
 20
-110.98614663892
 30
0.0
 10
77.21973747440481
 20
-110.98614663892
 30
0.0
 10
77.21973747440481
 20
-110.98614663892
 30
0.0
 10
77.21973747440481
 20
-110.98614663892
 30
0.0
 10
77.21973747440481
 20
-110.98614663892
 30
0.0
 10
77.21906719664413
 20
-110.98614663892
 30
0.0
 10
77.21906719664413
 20
-110.98614663892
 30
0.0
 10
77.21906719664413
 20
-110.98614663892
 30
0.0
 10
77.21973747440481
 20
-110.98614663892
 30
0.0
 10
77.21973747440481
 20
-110.98614663892
 30
0.0
  0
POLYLINE
  5
1DB
330
1F
100
AcDbEntity
  8
_U+30EC_U+30A4_U+30E4_U+30FC 1
 62
     7
420
 16777215
370
     9
100
AcDb2dPolyline
 66
     1
 10
0.0
 20
0.0
 30
0.0
  0
VERTEX
  5
1DC
330
1DB
100
AcDbEntity
  8
_U+30EC_U+30A4_U+30E4_U+30FC 1
 62
     7
420
 16777215
370
     9
100
AcDbVertex
100
AcDb2dVertex
 10
85.96926114007476
 20
-144.9451705193196
 30
0.0
  0
VERTEX
  5
1DD
330
1DB
100
AcDbEntity
  8
_U+30EC_U+30A4_U+30E4_U+30FC 1
 62
     7
420
 16777215
370
     9
100
AcDbVertex
100
AcDb2dVertex
 10
85.96926114007476
 20
-147.9920063518909
 30
0.0
  0
SEQEND
  5
1DE
330
1DB
100
AcDbEntity
  8
_U+30EC_U+30A4_U+30E4_U+30FC 1
 62
     7
420
 16777215
370
     9
  0
POLYLINE
  5
1DF
330
1F
100
AcDbEntity
  8
_U+30EC_U+30A4_U+30E4_U+30FC 1
 62
     7
420
 16777215
370
     9
100
AcDb2dPolyline
 66
     1
 10
0.0
 20
0.0
 30
0.0
  0
VERTEX
  5
1E0
330
1DF
100
AcDbEntity
  8
_U+30EC_U+30A4_U+30E4_U+30FC 1
 62
     7
420
 16777215
370
     9
100
AcDbVertex
100
AcDb2dVertex
 10
77.21973747440481
 20
-144.9451705193196
 30
0.0
  0
VERTEX
  5
1E1
330
1DF
100
AcDbEntity
  8
_U+30EC_U+30A4_U+30E4_U+30FC 1
 62
     7
420
 16777215
370
     9
100
AcDbVertex
100
AcDb2dVertex
 10
77.21973747440481
 20
-147.9920063518909
 30
0.0
  0
SEQEND
  5
1E2
330
1DF
100
AcDbEntity
  8
_U+30EC_U+30A4_U+30E4_U+30FC 1
 62
     7
420
 16777215
370
     9
  0
POLYLINE
  5
1E3
330
1F
100
AcDbEntity
  8
_U+30EC_U+30A4_U+30E4_U+30FC 1
 62
     7
420
 16777215
370
     9
100
AcDb2dPolyline
 66
     1
 10
0.0
 20
0.0
 30
0.0
  0
VERTEX
  5
1E4
330
1E3
100
AcDbEntity
  8
_U+30EC_U+30A4_U+30E4_U+30FC 1
 62
     7
420
 16777215
370
     9
100
AcDbVertex
100
AcDb2dVertex
 10
85.3446681004539
 20
-147.8672994074778
 30
0.0
  0
VERTEX
  5
1E5
330
1E3
100
AcDbEntity
  8
_U+30EC_U+30A4_U+30E4_U+30FC 1
 62
     7
420
 16777215
370
     9
100
AcDbVertex
100
AcDb2dVertex
 10
77.84433051402567
 20
-147.8672994074778
 30
0.0
  0
SEQEND
  5
1E6
330
1E3
100
AcDbEntity
  8
_U+30EC_U+30A4_U+30E4_U+30FC 1
 62
     7
420
 16777215
370
     9
  0
INSERT
  5
1E8
330
1F
100
AcDbEntity
  8
_U+30EC_U+30A4_U+30E4_U+30FC 1
100
AcDbBlockReference
  2
block 18
 10
0.0
 20
0.0
 30
0.0
  0
POLYLINE
  5
1EF
330
1F
100
AcDbEntity
  8
_U+30EC_U+30A4_U+30E4_U+30FC 1
370
     0
100
AcDb2dPolyline
 66
     1
 10
0.0
 20
0.0
 30
0.0
  0
VERTEX
  5
1F0
330
1EF
100
AcDbEntity
  8
_U+30EC_U+30A4_U+30E4_U+30FC 1
370
     0
100
AcDbVertex
100
AcDb2dVertex
 10
77.84433051402567
 20
-111.0902160833385
 30
0.0
  0
VERTEX
  5
1F1
330
1EF
100
AcDbEntity
  8
_U+30EC_U+30A4_U+30E4_U+30FC 1
370
     0
100
AcDbVertex
100
AcDb2dVertex
 10
77.84433051402567
 20
-110.8821124722794
 30
0.0
  0
VERTEX
  5
1F2
330
1EF
100
AcDbEntity
  8
_U+30EC_U+30A4_U+30E4_U+30FC 1
370
     0
100
AcDbVertex
100
AcDb2dVertex
 10
77.21973747440481
 20
-110.98614663892
 30
0.0
  0
VERTEX
  5
1F3
330
1EF
100
AcDbEntity
  8
_U+30EC_U+30A4_U+30E4_U+30FC 1
370
     0
100
AcDbVertex
100
AcDb2dVertex
 10
77.84433051402567
 20
-111.0902160833385
 30
0.0
  0
SEQEND
  5
1F5
330
1EF
100
AcDbEntity
  8
_U+30EC_U+30A4_U+30E4_U+30FC 1
370
     0
  0
HATCH
  5
1F4
330
1F
100
AcDbEntity
  8
_U+30EC_U+30A4_U+30E4_U+30FC 1
 62
     7
420
 16777215
100
AcDbHatch
 10
0.0
 20
0.0
 30
0.0
210
0.0
220
0.0
230
1.0
  2
SOLID
 70
     1
 71
     0
 91
        1
 92
        1
 93
        3
 72
     1
 10
77.84433051402567
 20
-111.0902160833385
 11
77.84433051402567
 21
-110.8821124722794
 72
     1
 10
77.84433051402567
 20
-110.8821124722794
 11
77.21973747440481
 21
-110.98614663892
 72
     1
 10
77.21973747440481
 20
-110.98614663892
 11
77.84433051402567
 21
-111.0902160833385
 97
        0
 75
     2
 76
     1
 98
        0
  0
POLYLINE
  5
1F6
330
1F
100
AcDbEntity
  8
_U+30EC_U+30A4_U+30E4_U+30FC 1
370
     0
100
AcDb2dPolyline
 66
     1
 10
0.0
 20
0.0
 30
0.0
  0
VERTEX
  5
1F7
330
1F6
100
AcDbEntity
  8
_U+30EC_U+30A4_U+30E4_U+30FC 1
370
     0
100
AcDbVertex
100
AcDb2dVertex
 10
85.3446681004539
 20
-111.0902160833385
 30
0.0
  0
VERTEX
  5
1F8
330
1F6
100
AcDbEntity
  8
_U+30EC_U+30A4_U+30E4_U+30FC 1
370
     0
100
AcDbVertex
100
AcDb2dVertex
 10
85.3446681004539
 20
-110.8821124722794
 30
0.0
  0
VERTEX
  5
1F9
330
1F6
100
AcDbEntity
  8
_U+30EC_U+30A4_U+30E4_U+30FC 1
370
     0
100
AcDbVertex
100
AcDb2dVertex
 10
85.96926114007476
 20
-110.98614663892
 30
0.0
  0
VERTEX
  5
1FA
330
1F6
100
AcDbEntity
  8
_U+30EC_U+30A4_U+30E4_U+30FC 1
370
     0
100
AcDbVertex
100
AcDb2dVertex
 10
85.3446681004539
 20
-111.0902160833385
 30
0.0
  0
SEQEND
  5
1FC
330
1F6
100
AcDbEntity
  8
_U+30EC_U+30A4_U+30E4_U+30FC 1
370
     0
  0
HATCH
  5
1FB
330
1F
100
AcDbEntity
  8
_U+30EC_U+30A4_U+30E4_U+30FC 1
 62
     7
420
 16777215
100
AcDbHatch
 10
0.0
 20
0.0
 30
0.0
210
0.0
220
0.0
230
1.0
  2
SOLID
 70
     1
 71
     0
 91
        1
 92
        1
 93
        3
 72
     1
 10
85.3446681004539
 20
-111.0902160833385
 11
85.3446681004539
 21
-110.8821124722794
 72
     1
 10
85.3446681004539
 20
-110.8821124722794
 11
85.96926114007476
 21
-110.98614663892
 72
     1
 10
85.96926114007476
 20
-110.98614663892
 11
85.3446681004539
 21
-111.0902160833385
 97
        0
 75
     2
 76
     1
 98
        0
  0
SPLINE
  5
1FD
330
1F
100
AcDbEntity
  8
_U+30EC_U+30A4_U+30E4_U+30FC 1
 62
     7
420
 16777215
370
     9
100
AcDbSpline
210
0.0
220
0.0
230
1.0
 70
    27
 71
     3
 72
    14
 73
    10
 74
     0
 42
0.0000000001
 43
0.0000000001
 12
1.0
 22
0.0
 32
0.0
 13
1.0
 23
0.0
 33
0.0
 40
0.0
 40
0.0
 40
0.0
 40
0.0
 40
1.0
 40
1.0
 40
1.0
 40
2.0
 40
2.0
 40
2.0
 40
3.0
 40
3.0
 40
3.0
 40
3.0
 10
73.79772256170769
 20
-114.4078441380647
 30
0.0
 10
73.79772256170769
 20
-114.4078441380647
 30
0.0
 10
73.79772256170769
 20
-114.4078441380647
 30
0.0
 10
73.79772256170769
 20
-114.4078441380647
 30
0.0
 10
73.79772256170769
 20
-114.4078441380647
 30
0.0
 10
73.79772256170769
 20
-114.4071385825095
 30
0.0
 10
73.79772256170769
 20
-114.4071385825095
 30
0.0
 10
73.79772256170769
 20
-114.4071385825095
 30
0.0
 10
73.79772256170769
 20
-114.4078441380647
 30
0.0
 10
73.79772256170769
 20
-114.4078441380647
 30
0.0
  0
POLYLINE
  5
1FE
330
1F
100
AcDbEntity
  8
_U+30EC_U+30A4_U+30E4_U+30FC 1
 62
     7
420
 16777215
370
     9
100
AcDb2dPolyline
 66
     1
 10
0.0
 20
0.0
 30
0.0
  0
VERTEX
  5
1FF
330
1FE
100
AcDbEntity
  8
_U+30EC_U+30A4_U+30E4_U+30FC 1
 62
     7
420
 16777215
370
     9
100
AcDbVertex
100
AcDb2dVertex
 10
85.96926114007476
 20
-113.9082755270786
 30
0.0
  0
VERTEX
  5
200
330
1FE
100
AcDbEntity
  8
_U+30EC_U+30A4_U+30E4_U+30FC 1
 62
     7
420
 16777215
370
     9
100
AcDbVertex
100
AcDb2dVertex
 10
85.96926114007476
 20
-110.861439694507
 30
0.0
  0
SEQEND
  5
201
330
1FE
100
AcDbEntity
  8
_U+30EC_U+30A4_U+30E4_U+30FC 1
 62
     7
420
 16777215
370
     9
  0
POLYLINE
  5
202
330
1F
100
AcDbEntity
  8
_U+30EC_U+30A4_U+30E4_U+30FC 1
 62
     7
420
 16777215
370
     9
100
AcDb2dPolyline
 66
     1
 10
0.0
 20
0.0
 30
0.0
  0
VERTEX
  5
203
330
202
100
AcDbEntity
  8
_U+30EC_U+30A4_U+30E4_U+30FC 1
 62
     7
420
 16777215
370
     9
100
AcDbVertex
100
AcDb2dVertex
 10
77.21973747440481
 20
-113.9082755270786
 30
0.0
  0
VERTEX
  5
204
330
202
100
AcDbEntity
  8
_U+30EC_U+30A4_U+30E4_U+30FC 1
 62
     7
420
 16777215
370
     9
100
AcDbVertex
100
AcDb2dVertex
 10
77.21973747440481
 20
-110.861439694507
 30
0.0
  0
SEQEND
  5
205
330
202
100
AcDbEntity
  8
_U+30EC_U+30A4_U+30E4_U+30FC 1
 62
     7
420
 16777215
370
     9
  0
POLYLINE
  5
206
330
1F
100
AcDbEntity
  8
_U+30EC_U+30A4_U+30E4_U+30FC 1
 62
     7
420
 16777215
370
     9
100
AcDb2dPolyline
 66
     1
 10
0.0
 20
0.0
 30
0.0
  0
VERTEX
  5
207
330
206
100
AcDbEntity
  8
_U+30EC_U+30A4_U+30E4_U+30FC 1
 62
     7
420
 16777215
370
     9
100
AcDbVertex
100
AcDb2dVertex
 10
85.3446681004539
 20
-110.98614663892
 30
0.0
  0
VERTEX
  5
208
330
206
100
AcDbEntity
  8
_U+30EC_U+30A4_U+30E4_U+30FC 1
 62
     7
420
 16777215
370
     9
100
AcDbVertex
100
AcDb2dVertex
 10
77.84433051402567
 20
-110.98614663892
 30
0.0
  0
SEQEND
  5
209
330
206
100
AcDbEntity
  8
_U+30EC_U+30A4_U+30E4_U+30FC 1
 62
     7
420
 16777215
370
     9
  0
INSERT
  5
20B
330
1F
100
AcDbEntity
  8
_U+30EC_U+30A4_U+30E4_U+30FC 1
100
AcDbBlockReference
  2
block 19
 10
0.0
 20
0.0
 30
0.0
  0
INSERT
  5
211
330
1F
100
AcDbEntity
  8
_U+30EC_U+30A4_U+30E4_U+30FC 1
100
AcDbBlockReference
  2
block 20
 10
0.0
 20
0.0
 30
0.0
  0
POLYLINE
  5
216
330
1F
100
AcDbEntity
  8
_U+30EC_U+30A4_U+30E4_U+30FC 1
370
     0
100
AcDb2dPolyline
 66
     1
 10
0.0
 20
0.0
 30
0.0
  0
VERTEX
  5
217
330
216
100
AcDbEntity
  8
_U+30EC_U+30A4_U+30E4_U+30FC 1
370
     0
100
AcDbVertex
100
AcDb2dVertex
 10
73.9017920034971
 20
-115.0327546934642
 30
0.0
  0
VERTEX
  5
218
330
216
100
AcDbEntity
  8
_U+30EC_U+30A4_U+30E4_U+30FC 1
370
     0
100
AcDbVertex
100
AcDb2dVertex
 10
73.69404117546394
 20
-115.0327546934642
 30
0.0
  0
VERTEX
  5
219
330
216
100
AcDbEntity
  8
_U+30EC_U+30A4_U+30E4_U+30FC 1
370
     0
100
AcDbVertex
100
AcDb2dVertex
 10
73.79772256170769
 20
-114.4078441380647
 30
0.0
  0
VERTEX
  5
21A
330
216
100
AcDbEntity
  8
_U+30EC_U+30A4_U+30E4_U+30FC 1
370
     0
100
AcDbVertex
100
AcDb2dVertex
 10
73.9017920034971
 20
-115.0327546934642
 30
0.0
  0
SEQEND
  5
21C
330
216
100
AcDbEntity
  8
_U+30EC_U+30A4_U+30E4_U+30FC 1
370
     0
  0
HATCH
  5
21B
330
1F
100
AcDbEntity
  8
_U+30EC_U+30A4_U+30E4_U+30FC 1
 62
     7
420
 16777215
100
AcDbHatch
 10
0.0
 20
0.0
 30
0.0
210
0.0
220
0.0
230
1.0
  2
SOLID
 70
     1
 71
     0
 91
        1
 92
        1
 93
        3
 72
     1
 10
73.9017920034971
 20
-115.0327546934642
 11
73.69404117546394
 21
-115.0327546934642
 72
     1
 10
73.69404117546394
 20
-115.0327546934642
 11
73.79772256170769
 21
-114.4078441380647
 72
     1
 10
73.79772256170769
 20
-114.4078441380647
 11
73.9017920034971
 21
-115.0327546934642
 97
        0
 75
     2
 76
     1
 98
        0
  0
POLYLINE
  5
21D
330
1F
100
AcDbEntity
  8
_U+30EC_U+30A4_U+30E4_U+30FC 1
370
     0
100
AcDb2dPolyline
 66
     1
 10
0.0
 20
0.0
 30
0.0
  0
VERTEX
  5
21E
330
21D
100
AcDbEntity
  8
_U+30EC_U+30A4_U+30E4_U+30FC 1
370
     0
100
AcDbVertex
100
AcDb2dVertex
 10
73.9017920034971
 20
-122.5327396915891
 30
0.0
  0
VERTEX
  5
21F
330
21D
100
AcDbEntity
  8
_U+30EC_U+30A4_U+30E4_U+30FC 1
370
     0
100
AcDbVertex
100
AcDb2dVertex
 10
73.69404117546394
 20
-122.5327396915891
 30
0.0
  0
VERTEX
  5
220
330
21D
100
AcDbEntity
  8
_U+30EC_U+30A4_U+30E4_U+30FC 1
370
     0
100
AcDbVertex
100
AcDb2dVertex
 10
73.79772256170769
 20
-123.1576855247662
 30
0.0
  0
VERTEX
  5
221
330
21D
100
AcDbEntity
  8
_U+30EC_U+30A4_U+30E4_U+30FC 1
370
     0
100
AcDbVertex
100
AcDb2dVertex
 10
73.9017920034971
 20
-122.5327396915891
 30
0.0
  0
SEQEND
  5
223
330
21D
100
AcDbEntity
  8
_U+30EC_U+30A4_U+30E4_U+30FC 1
370
     0
  0
HATCH
  5
222
330
1F
100
AcDbEntity
  8
_U+30EC_U+30A4_U+30E4_U+30FC 1
 62
     7
420
 16777215
100
AcDbHatch
 10
0.0
 20
0.0
 30
0.0
210
0.0
220
0.0
230
1.0
  2
SOLID
 70
     1
 71
     0
 91
        1
 92
        1
 93
        3
 72
     1
 10
73.9017920034971
 20
-122.5327396915891
 11
73.69404117546394
 21
-122.5327396915891
 72
     1
 10
73.69404117546394
 20
-122.5327396915891
 11
73.79772256170769
 21
-123.1576855247662
 72
     1
 10
73.79772256170769
 20
-123.1576855247662
 11
73.9017920034971
 21
-122.5327396915891
 97
        0
 75
     2
 76
     1
 98
        0
  0
SPLINE
  5
224
330
1F
100
AcDbEntity
  8
_U+30EC_U+30A4_U+30E4_U+30FC 1
 62
     7
420
 16777215
370
     9
100
AcDbSpline
210
0.0
220
0.0
230
1.0
 70
    11
 71
     3
 72
    17
 73
    13
 74
     0
 42
0.0000000001
 43
0.0000000001
 12
1.0
 22
0.0
 32
0.0
 13
1.0
 23
0.0
 33
0.0
 40
0.0
 40
0.0
 40
0.0
 40
0.0
 40
1.0
 40
1.0
 40
1.0
 40
2.0
 40
2.0
 40
2.0
 40
3.0
 40
3.0
 40
3.0
 40
4.0
 40
4.0
 40
4.0
 40
4.0
 10
100.5313277130099
 20
-133.1949541333678
 30
0.0
 10
100.5313277130099
 20
-132.7812163556933
 30
0.0
 10
100.1957654993486
 20
-132.4453013557774
 30
0.0
 10
99.7816749543574
 20
-132.4453013557774
 30
0.0
 10
99.36723163159739
 20
-132.4453013557774
 30
0.0
 10
99.03135191794418
 20
-132.7812163556933
 30
0.0
 10
99.03135191794418
 20
-133.1949541333678
 30
0.0
 10
99.03135191794418
 20
-133.6094327443753
 30
0.0
 10
99.36723163159739
 20
-133.9456652442914
 30
0.0
 10
99.7816749543574
 20
-133.9456652442914
 30
0.0
 10
100.1957654993486
 20
-133.9456652442914
 30
0.0
 10
100.5313277130099
 20
-133.6094327443753
 30
0.0
 10
100.5313277130099
 20
-133.1949541333678
 30
0.0
  0
SPLINE
  5
225
330
1F
100
AcDbEntity
  8
_U+30EC_U+30A4_U+30E4_U+30FC 1
 62
     7
420
 16777215
370
     9
100
AcDbSpline
210
0.0
220
0.0
230
1.0
 70
    11
 71
     3
 72
    17
 73
    13
 74
     0
 42
0.0000000001
 43
0.0000000001
 12
1.0
 22
0.0
 32
0.0
 13
1.0
 23
0.0
 33
0.0
 40
0.0
 40
0.0
 40
0.0
 40
0.0
 40
1.0
 40
1.0
 40
1.0
 40
2.0
 40
2.0
 40
2.0
 40
3.0
 40
3.0
 40
3.0
 40
4.0
 40
4.0
 40
4.0
 40
4.0
 10
100.3439321622352
 20
-133.1949541333678
 30
0.0
 10
100.3439321622352
 20
-132.8845802445569
 30
0.0
 10
100.0924368908736
 20
-132.6330849668419
 30
0.0
 10
99.7816749543574
 20
-132.6330849668419
 30
0.0
 10
99.47059551784925
 20
-132.6330849668419
 30
0.0
 10
99.21910275297307
 20
-132.8845802445569
 30
0.0
 10
99.21910275297307
 20
-133.1949541333678
 30
0.0
 10
99.21910275297307
 20
-133.5060688555124
 30
0.0
 10
99.47059551784925
 20
-133.7582344110048
 30
0.0
 10
99.7816749543574
 20
-133.7582344110048
 30
0.0
 10
100.0924368908736
 20
-133.7582344110048
 30
0.0
 10
100.3439321622352
 20
-133.5060688555124
 30
0.0
 10
100.3439321622352
 20
-133.1949541333678
 30
0.0
  0
SPLINE
  5
226
330
1F
100
AcDbEntity
  8
_U+30EC_U+30A4_U+30E4_U+30FC 1
 62
     7
420
 16777215
370
     9
100
AcDbSpline
210
0.0
220
0.0
230
1.0
 70
     8
 71
     3
 72
     8
 73
     4
 74
     0
 42
0.0000000001
 43
0.0000000001
 12
1.0
 22
0.0
 32
0.0
 13
1.0
 23
0.0
 33
0.0
 40
0.0
 40
0.0
 40
0.0
 40
0.0
 40
1.0
 40
1.0
 40
1.0
 40
1.0
 10
98.0511941651723
 20
-143.3156194086155
 30
0.0
 10
97.62161667613174
 20
-143.331459130834
 30
0.0
 10
97.28157418480694
 20
-143.6849424640785
 30
0.0
 10
97.28157418480694
 20
-144.1148727417492
 30
0.0
  0
POLYLINE
  5
227
330
1F
100
AcDbEntity
  8
_U+30EC_U+30A4_U+30E4_U+30FC 1
 62
     7
420
 16777215
370
     9
100
AcDb2dPolyline
 66
     1
 10
0.0
 20
0.0
 30
0.0
  0
VERTEX
  5
228
330
227
100
AcDbEntity
  8
_U+30EC_U+30A4_U+30E4_U+30FC 1
 62
     7
420
 16777215
370
     9
100
AcDbVertex
100
AcDb2dVertex
 10
104.9062659347293
 20
-136.2070060770591
 30
0.0
  0
VERTEX
  5
229
330
227
100
AcDbEntity
  8
_U+30EC_U+30A4_U+30E4_U+30FC 1
 62
     7
420
 16777215
370
     9
100
AcDbVertex
100
AcDb2dVertex
 10
104.9062659347293
 20
-130.2456260785495
 30
0.0
  0
SEQEND
  5
22A
330
227
100
AcDbEntity
  8
_U+30EC_U+30A4_U+30E4_U+30FC 1
 62
     7
420
 16777215
370
     9
  0
POLYLINE
  5
22B
330
1F
100
AcDbEntity
  8
_U+30EC_U+30A4_U+30E4_U+30FC 1
 62
     7
420
 16777215
370
     9
100
AcDb2dPolyline
 66
     1
 10
0.0
 20
0.0
 30
0.0
  0
VERTEX
  5
22C
330
22B
100
AcDbEntity
  8
_U+30EC_U+30A4_U+30E4_U+30FC 1
 62
     7
420
 16777215
370
     9
100
AcDbVertex
100
AcDb2dVertex
 10
97.28157418480694
 20
-129.4456671898608
 30
0.0
  0
VERTEX
  5
22D
330
22B
100
AcDbEntity
  8
_U+30EC_U+30A4_U+30E4_U+30FC 1
 62
     7
420
 16777215
370
     9
100
AcDbVertex
100
AcDb2dVertex
 10
97.28157418480694
 20
-144.4456019083332
 30
0.0
  0
SEQEND
  5
22E
330
22B
100
AcDbEntity
  8
_U+30EC_U+30A4_U+30E4_U+30FC 1
 62
     7
420
 16777215
370
     9
  0
POLYLINE
  5
22F
330
1F
100
AcDbEntity
  8
_U+30EC_U+30A4_U+30E4_U+30FC 1
 62
     7
420
 16777215
370
     9
100
AcDb2dPolyline
 66
     1
 10
0.0
 20
0.0
 30
0.0
  0
VERTEX
  5
230
330
22F
100
AcDbEntity
  8
_U+30EC_U+30A4_U+30E4_U+30FC 1
 62
     7
420
 16777215
370
     9
100
AcDbVertex
100
AcDb2dVertex
 10
106.0317681282376
 20
-130.1953199674512
 30
0.0
  0
VERTEX
  5
231
330
22F
100
AcDbEntity
  8
_U+30EC_U+30A4_U+30E4_U+30FC 1
 62
     7
420
 16777215
370
     9
100
AcDbVertex
100
AcDb2dVertex
 10
105.9063583068569
 20
-130.1953199674512
 30
0.0
  0
SEQEND
  5
232
330
22F
100
AcDbEntity
  8
_U+30EC_U+30A4_U+30E4_U+30FC 1
 62
     7
420
 16777215
370
     9
  0
POLYLINE
  5
233
330
1F
100
AcDbEntity
  8
_U+30EC_U+30A4_U+30E4_U+30FC 1
 62
     7
420
 16777215
370
     9
100
AcDb2dPolyline
 66
     1
 10
0.0
 20
0.0
 30
0.0
  0
VERTEX
  5
234
330
233
100
AcDbEntity
  8
_U+30EC_U+30A4_U+30E4_U+30FC 1
 62
     7
420
 16777215
370
     9
100
AcDbVertex
100
AcDb2dVertex
 10
105.7065423032014
 20
-129.4456671898608
 30
0.0
  0
VERTEX
  5
235
330
233
100
AcDbEntity
  8
_U+30EC_U+30A4_U+30E4_U+30FC 1
 62
     7
420
 16777215
370
     9
100
AcDbVertex
100
AcDb2dVertex
 10
106.0317681282376
 20
-129.4456671898608
 30
0.0
  0
SEQEND
  5
236
330
233
100
AcDbEntity
  8
_U+30EC_U+30A4_U+30E4_U+30FC 1
 62
     7
420
 16777215
370
     9
  0
POLYLINE
  5
237
330
1F
100
AcDbEntity
  8
_U+30EC_U+30A4_U+30E4_U+30FC 1
 62
     7
420
 16777215
370
     9
100
AcDb2dPolyline
 66
     1
 10
0.0
 20
0.0
 30
0.0
  0
VERTEX
  5
238
330
237
100
AcDbEntity
  8
_U+30EC_U+30A4_U+30E4_U+30FC 1
 62
     7
420
 16777215
370
     9
100
AcDbVertex
100
AcDb2dVertex
 10
106.0317681282376
 20
-136.1952938548399
 30
0.0
  0
VERTEX
  5
239
330
237
100
AcDbEntity
  8
_U+30EC_U+30A4_U+30E4_U+30FC 1
 62
     7
420
 16777215
370
     9
100
AcDbVertex
100
AcDb2dVertex
 10
105.9063583068569
 20
-136.1952938548399
 30
0.0
  0
SEQEND
  5
23A
330
237
100
AcDbEntity
  8
_U+30EC_U+30A4_U+30E4_U+30FC 1
 62
     7
420
 16777215
370
     9
  0
POLYLINE
  5
23B
330
1F
100
AcDbEntity
  8
_U+30EC_U+30A4_U+30E4_U+30FC 1
 62
     7
420
 16777215
370
     9
100
AcDb2dPolyline
 66
     1
 10
0.0
 20
0.0
 30
0.0
  0
VERTEX
  5
23C
330
23B
100
AcDbEntity
  8
_U+30EC_U+30A4_U+30E4_U+30FC 1
 62
     7
420
 16777215
370
     9
100
AcDbVertex
100
AcDb2dVertex
 10
106.0317681282376
 20
-143.6952788529648
 30
0.0
  0
VERTEX
  5
23D
330
23B
100
AcDbEntity
  8
_U+30EC_U+30A4_U+30E4_U+30FC 1
 62
     7
420
 16777215
370
     9
100
AcDbVertex
100
AcDb2dVertex
 10
106.0317681282376
 20
-144.4456019083332
 30
0.0
  0
SEQEND
  5
23E
330
23B
100
AcDbEntity
  8
_U+30EC_U+30A4_U+30E4_U+30FC 1
 62
     7
420
 16777215
370
     9
  0
POLYLINE
  5
23F
330
1F
100
AcDbEntity
  8
_U+30EC_U+30A4_U+30E4_U+30FC 1
 62
     7
420
 16777215
370
     9
100
AcDb2dPolyline
 66
     1
 10
0.0
 20
0.0
 30
0.0
  0
VERTEX
  5
240
330
23F
100
AcDbEntity
  8
_U+30EC_U+30A4_U+30E4_U+30FC 1
 62
     7
420
 16777215
370
     9
100
AcDbVertex
100
AcDb2dVertex
 10
105.9063583068569
 20
-130.1953199674512
 30
0.0
  0
VERTEX
  5
241
330
23F
100
AcDbEntity
  8
_U+30EC_U+30A4_U+30E4_U+30FC 1
 62
     7
420
 16777215
370
     9
100
AcDbVertex
100
AcDb2dVertex
 10
105.9063583068569
 20
-136.1952938548399
 30
0.0
  0
SEQEND
  5
242
330
23F
100
AcDbEntity
  8
_U+30EC_U+30A4_U+30E4_U+30FC 1
 62
     7
420
 16777215
370
     9
  0
POLYLINE
  5
243
330
1F
100
AcDbEntity
  8
_U+30EC_U+30A4_U+30E4_U+30FC 1
 62
     7
420
 16777215
370
     9
100
AcDb2dPolyline
 66
     1
 10
0.0
 20
0.0
 30
0.0
  0
VERTEX
  5
244
330
243
100
AcDbEntity
  8
_U+30EC_U+30A4_U+30E4_U+30FC 1
 62
     7
420
 16777215
370
     9
100
AcDbVertex
100
AcDb2dVertex
 10
106.0317681282376
 20
-129.4456671898608
 30
0.0
  0
VERTEX
  5
245
330
243
100
AcDbEntity
  8
_U+30EC_U+30A4_U+30E4_U+30FC 1
 62
     7
420
 16777215
370
     9
100
AcDbVertex
100
AcDb2dVertex
 10
106.0317681282376
 20
-136.1952938548399
 30
0.0
  0
SEQEND
  5
246
330
243
100
AcDbEntity
  8
_U+30EC_U+30A4_U+30E4_U+30FC 1
 62
     7
420
 16777215
370
     9
  0
POLYLINE
  5
247
330
1F
100
AcDbEntity
  8
_U+30EC_U+30A4_U+30E4_U+30FC 1
 62
     7
420
 16777215
370
     9
100
AcDb2dPolyline
 66
     1
 10
0.0
 20
0.0
 30
0.0
  0
VERTEX
  5
248
330
247
100
AcDbEntity
  8
_U+30EC_U+30A4_U+30E4_U+30FC 1
 62
     7
420
 16777215
370
     9
100
AcDbVertex
100
AcDb2dVertex
 10
101.2182944191398
 20
-143.6952788529648
 30
0.0
  0
VERTEX
  5
249
330
247
100
AcDbEntity
  8
_U+30EC_U+30A4_U+30E4_U+30FC 1
 62
     7
420
 16777215
370
     9
100
AcDbVertex
100
AcDb2dVertex
 10
106.0317681282376
 20
-143.6952788529648
 30
0.0
  0
SEQEND
  5
24A
330
247
100
AcDbEntity
  8
_U+30EC_U+30A4_U+30E4_U+30FC 1
 62
     7
420
 16777215
370
     9
  0
POLYLINE
  5
24B
330
1F
100
AcDbEntity
  8
_U+30EC_U+30A4_U+30E4_U+30FC 1
 62
     7
420
 16777215
370
     9
100
AcDb2dPolyline
 66
     1
 10
0.0
 20
0.0
 30
0.0
  0
VERTEX
  5
24C
330
24B
100
AcDbEntity
  8
_U+30EC_U+30A4_U+30E4_U+30FC 1
 62
     7
420
 16777215
370
     9
100
AcDbVertex
100
AcDb2dVertex
 10
97.28157418480694
 20
-144.4456019083332
 30
0.0
  0
VERTEX
  5
24D
330
24B
100
AcDbEntity
  8
_U+30EC_U+30A4_U+30E4_U+30FC 1
 62
     7
420
 16777215
370
     9
100
AcDbVertex
100
AcDb2dVertex
 10
106.0317681282376
 20
-144.4456019083332
 30
0.0
  0
SEQEND
  5
24E
330
24B
100
AcDbEntity
  8
_U+30EC_U+30A4_U+30E4_U+30FC 1
 62
     7
420
 16777215
370
     9
  0
SPLINE
  5
24F
330
1F
100
AcDbEntity
  8
_U+30EC_U+30A4_U+30E4_U+30FC 1
 62
     7
420
 16777215
370
     9
100
AcDbSpline
210
0.0
220
0.0
230
1.0
 70
     8
 71
     3
 72
     8
 73
     4
 74
     0
 42
0.0000000001
 43
0.0000000001
 12
1.0
 22
0.0
 32
0.0
 13
1.0
 23
0.0
 33
0.0
 40
0.0
 40
0.0
 40
0.0
 40
0.0
 40
1.0
 40
1.0
 40
1.0
 40
1.0
 10
98.0511941651723
 20
-143.3156194086155
 30
0.0
 10
101.8783743453106
 20
-143.1702396864298
 30
0.0
 10
104.9062659347293
 20
-140.0255785761046
 30
0.0
 10
104.9062659347293
 20
-136.1952938548399
 30
0.0
  0
POLYLINE
  5
250
330
1F
100
AcDbEntity
  8
_U+30EC_U+30A4_U+30E4_U+30FC 1
 62
     7
420
 16777215
370
     9
100
AcDb2dPolyline
 66
     1
 10
0.0
 20
0.0
 30
0.0
  0
VERTEX
  5
251
330
250
100
AcDbEntity
  8
_U+30EC_U+30A4_U+30E4_U+30FC 1
 62
     7
420
 16777215
370
     9
100
AcDbVertex
100
AcDb2dVertex
 10
106.0317681282376
 20
-129.4456671898608
 30
0.0
  0
VERTEX
  5
252
330
250
100
AcDbEntity
  8
_U+30EC_U+30A4_U+30E4_U+30FC 1
 62
     7
420
 16777215
370
     9
100
AcDbVertex
100
AcDb2dVertex
 10
97.28157418480694
 20
-129.4456671898608
 30
0.0
  0
SEQEND
  5
253
330
250
100
AcDbEntity
  8
_U+30EC_U+30A4_U+30E4_U+30FC 1
 62
     7
420
 16777215
370
     9
  0
SPLINE
  5
254
330
1F
100
AcDbEntity
  8
_U+30EC_U+30A4_U+30E4_U+30FC 1
 62
     7
420
 16777215
370
     9
100
AcDbSpline
210
0.0
220
0.0
230
1.0
 70
     8
 71
     3
 72
    11
 73
     7
 74
     0
 42
0.0000000001
 43
0.0000000001
 12
1.0
 22
0.0
 32
0.0
 13
1.0
 23
0.0
 33
0.0
 40
0.0
 40
0.0
 40
0.0
 40
0.0
 40
1.0
 40
1.0
 40
1.0
 40
2.0
 40
2.0
 40
2.0
 40
2.0
 10
105.7065423032014
 20
-129.4456671898608
 30
0.0
 10
105.7065423032014
 20
-129.4456671898608
 30
0.0
 10
105.7065423032014
 20
-129.4456671898608
 30
0.0
 10
105.7065423032014
 20
-129.4456671898608
 30
0.0
 10
105.2648998144687
 20
-129.4456671898608
 30
0.0
 10
104.9062659347293
 20
-129.8032780231046
 30
0.0
 10
104.9062659347293
 20
-130.2456260785495
 30
0.0
  0
SPLINE
  5
255
330
1F
100
AcDbEntity
  8
_U+30EC_U+30A4_U+30E4_U+30FC 1
 62
     7
420
 16777215
370
     9
100
AcDbSpline
210
0.0
220
0.0
230
1.0
 70
     8
 71
     3
 72
    11
 73
     7
 74
     0
 42
0.0000000001
 43
0.0000000001
 12
1.0
 22
0.0
 32
0.0
 13
1.0
 23
0.0
 33
0.0
 40
0.0
 40
0.0
 40
0.0
 40
0.0
 40
1.0
 40
1.0
 40
1.0
 40
2.0
 40
2.0
 40
2.0
 40
2.0
 10
97.7814602831649
 20
-144.4456019083332
 30
0.0
 10
97.7814602831649
 20
-144.4456019083332
 30
0.0
 10
97.7814602831649
 20
-144.4456019083332
 30
0.0
 10
97.7814602831649
 20
-144.4456019083332
 30
0.0
 10
102.3375851669285
 20
-144.4456019083332
 30
0.0
 10
106.0317681282376
 20
-140.7517716314789
 30
0.0
 10
106.0317681282376
 20
-136.1952938548399
 30
0.0
  0
POLYLINE
  5
256
330
1F
100
AcDbEntity
  8
_U+30EC_U+30A4_U+30E4_U+30FC 1
 62
     7
420
 16777215
370
     9
100
AcDb2dPolyline
 66
     1
 10
0.0
 20
0.0
 30
0.0
  0
VERTEX
  5
257
330
256
100
AcDbEntity
  8
_U+30EC_U+30A4_U+30E4_U+30FC 1
 62
     7
420
 16777215
370
     9
100
AcDbVertex
100
AcDb2dVertex
 10
76.72020415381564
 20
-123.1576855247662
 30
0.0
  0
VERTEX
  5
258
330
256
100
AcDbEntity
  8
_U+30EC_U+30A4_U+30E4_U+30FC 1
 62
     7
420
 16777215
370
     9
100
AcDbVertex
100
AcDb2dVertex
 10
73.67336839821357
 20
-123.1576855247662
 30
0.0
  0
SEQEND
  5
259
330
256
100
AcDbEntity
  8
_U+30EC_U+30A4_U+30E4_U+30FC 1
 62
     7
420
 16777215
370
     9
  0
POLYLINE
  5
25A
330
1F
100
AcDbEntity
  8
_U+30EC_U+30A4_U+30E4_U+30FC 1
 62
     7
420
 16777215
370
     9
100
AcDb2dPolyline
 66
     1
 10
0.0
 20
0.0
 30
0.0
  0
VERTEX
  5
25B
330
25A
100
AcDbEntity
  8
_U+30EC_U+30A4_U+30E4_U+30FC 1
 62
     7
420
 16777215
370
     9
100
AcDbVertex
100
AcDb2dVertex
 10
76.72020415381564
 20
-114.4078441380647
 30
0.0
  0
VERTEX
  5
25C
330
25A
100
AcDbEntity
  8
_U+30EC_U+30A4_U+30E4_U+30FC 1
 62
     7
420
 16777215
370
     9
100
AcDbVertex
100
AcDb2dVertex
 10
73.67336839821357
 20
-114.4078441380647
 30
0.0
  0
SEQEND
  5
25D
330
25A
100
AcDbEntity
  8
_U+30EC_U+30A4_U+30E4_U+30FC 1
 62
     7
420
 16777215
370
     9
  0
POLYLINE
  5
25E
330
1F
100
AcDbEntity
  8
_U+30EC_U+30A4_U+30E4_U+30FC 1
 62
     7
420
 16777215
370
     9
100
AcDb2dPolyline
 66
     1
 10
0.0
 20
0.0
 30
0.0
  0
VERTEX
  5
25F
330
25E
100
AcDbEntity
  8
_U+30EC_U+30A4_U+30E4_U+30FC 1
 62
     7
420
 16777215
370
     9
100
AcDbVertex
100
AcDb2dVertex
 10
73.79772256170769
 20
-122.5327396915891
 30
0.0
  0
VERTEX
  5
260
330
25E
100
AcDbEntity
  8
_U+30EC_U+30A4_U+30E4_U+30FC 1
 62
     7
420
 16777215
370
     9
100
AcDbVertex
100
AcDb2dVertex
 10
73.79772256170769
 20
-115.0327546934642
 30
0.0
  0
SEQEND
  5
261
330
25E
100
AcDbEntity
  8
_U+30EC_U+30A4_U+30E4_U+30FC 1
 62
     7
420
 16777215
370
     9
  0
POLYLINE
  5
262
330
1F
100
AcDbEntity
  8
_U+30EC_U+30A4_U+30E4_U+30FC 1
  6
AI-Linetype-1
 62
     7
420
 16777215
370
     9
100
AcDb2dPolyline
 66
     1
 10
0.0
 20
0.0
 30
0.0
  0
VERTEX
  5
263
330
262
100
AcDbEntity
  8
_U+30EC_U+30A4_U+30E4_U+30FC 1
  6
AI-Linetype-1
 62
     7
420
 16777215
370
     9
100
AcDbVertex
100
AcDb2dVertex
 10
106.5936725583466
 20
-133.1953069111456
 30
0.0
  0
VERTEX
  5
264
330
262
100
AcDbEntity
  8
_U+30EC_U+30A4_U+30E4_U+30FC 1
  6
AI-Linetype-1
 62
     7
420
 16777215
370
     9
100
AcDbVertex
100
AcDb2dVertex
 10
104.3440087268515
 20
-133.1953069111456
 30
0.0
  0
SEQEND
  5
266
330
262
100
AcDbEntity
  8
_U+30EC_U+30A4_U+30E4_U+30FC 1
  6
AI-Linetype-1
 62
     7
420
 16777215
370
     9
  0
POLYLINE
  5
267
330
1F
100
AcDbEntity
  8
_U+30EC_U+30A4_U+30E4_U+30FC 1
  6
AI-Linetype-2
 62
     7
420
 16777215
370
     9
100
AcDb2dPolyline
 66
     1
 10
0.0
 20
0.0
 30
0.0
  0
VERTEX
  5
268
330
267
100
AcDbEntity
  8
_U+30EC_U+30A4_U+30E4_U+30FC 1
  6
AI-Linetype-2
 62
     7
420
 16777215
370
     9
100
AcDbVertex
100
AcDb2dVertex
 10
101.2816860272
 20
-133.1953069111456
 30
0.0
  0
VERTEX
  5
269
330
267
100
AcDbEntity
  8
_U+30EC_U+30A4_U+30E4_U+30FC 1
  6
AI-Linetype-2
 62
     7
420
 16777215
370
     9
100
AcDbVertex
100
AcDb2dVertex
 10
98.28134638152285
 20
-133.1953069111456
 30
0.0
  0
SEQEND
  5
26B
330
267
100
AcDbEntity
  8
_U+30EC_U+30A4_U+30E4_U+30FC 1
  6
AI-Linetype-2
 62
     7
420
 16777215
370
     9
  0
POLYLINE
  5
26C
330
1F
100
AcDbEntity
  8
_U+30EC_U+30A4_U+30E4_U+30FC 1
  6
AI-Linetype-3
 62
     7
420
 16777215
370
     9
100
AcDb2dPolyline
 66
     1
 10
0.0
 20
0.0
 30
0.0
  0
VERTEX
  5
26D
330
26C
100
AcDbEntity
  8
_U+30EC_U+30A4_U+30E4_U+30FC 1
  6
AI-Linetype-3
 62
     7
420
 16777215
370
     9
100
AcDbVertex
100
AcDb2dVertex
 10
99.78132217658862
 20
-134.6953180218818
 30
0.0
  0
VERTEX
  5
26E
330
26C
100
AcDbEntity
  8
_U+30EC_U+30A4_U+30E4_U+30FC 1
  6
AI-Linetype-3
 62
     7
420
 16777215
370
     9
100
AcDbVertex
100
AcDb2dVertex
 10
99.78132217658862
 20
-131.6956485781871
 30
0.0
  0
SEQEND
  5
270
330
26C
100
AcDbEntity
  8
_U+30EC_U+30A4_U+30E4_U+30FC 1
  6
AI-Linetype-3
 62
     7
420
 16777215
370
     9
  0
POLYLINE
  5
271
330
1F
100
AcDbEntity
  8
_U+30EC_U+30A4_U+30E4_U+30FC 1
  6
AI-Linetype-4
 62
     7
420
 16777215
370
     9
100
AcDb2dPolyline
 66
     1
 10
0.0
 20
0.0
 30
0.0
  0
VERTEX
  5
272
330
271
100
AcDbEntity
  8
_U+30EC_U+30A4_U+30E4_U+30FC 1
  6
AI-Linetype-4
 62
     7
420
 16777215
370
     9
100
AcDbVertex
100
AcDb2dVertex
 10
106.0317681282376
 20
-133.7582344110048
 30
0.0
  0
VERTEX
  5
273
330
271
100
AcDbEntity
  8
_U+30EC_U+30A4_U+30E4_U+30FC 1
  6
AI-Linetype-4
 62
     7
420
 16777215
370
     9
100
AcDbVertex
100
AcDb2dVertex
 10
105.4064721958709
 20
-133.7582344110048
 30
0.0
  0
SEQEND
  5
275
330
271
100
AcDbEntity
  8
_U+30EC_U+30A4_U+30E4_U+30FC 1
  6
AI-Linetype-4
 62
     7
420
 16777215
370
     9
  0
POLYLINE
  5
276
330
1F
100
AcDbEntity
  8
_U+30EC_U+30A4_U+30E4_U+30FC 1
  6
AI-Linetype-5
 62
     7
420
 16777215
370
     9
100
AcDb2dPolyline
 66
     1
 10
0.0
 20
0.0
 30
0.0
  0
VERTEX
  5
277
330
276
100
AcDbEntity
  8
_U+30EC_U+30A4_U+30E4_U+30FC 1
  6
AI-Linetype-5
 62
     7
420
 16777215
370
     9
100
AcDbVertex
100
AcDb2dVertex
 10
104.9062659347293
 20
-133.9456652442914
 30
0.0
  0
VERTEX
  5
278
330
276
100
AcDbEntity
  8
_U+30EC_U+30A4_U+30E4_U+30FC 1
  6
AI-Linetype-5
 62
     7
420
 16777215
370
     9
100
AcDbVertex
100
AcDb2dVertex
 10
105.4064721958709
 20
-133.7582344110048
 30
0.0
  0
SEQEND
  5
27A
330
276
100
AcDbEntity
  8
_U+30EC_U+30A4_U+30E4_U+30FC 1
  6
AI-Linetype-5
 62
     7
420
 16777215
370
     9
  0
POLYLINE
  5
27B
330
1F
100
AcDbEntity
  8
_U+30EC_U+30A4_U+30E4_U+30FC 1
  6
AI-Linetype-6
 62
     7
420
 16777215
370
     9
100
AcDb2dPolyline
 66
     1
 10
0.0
 20
0.0
 30
0.0
  0
VERTEX
  5
27C
330
27B
100
AcDbEntity
  8
_U+30EC_U+30A4_U+30E4_U+30FC 1
  6
AI-Linetype-6
 62
     7
420
 16777215
370
     9
100
AcDbVertex
100
AcDb2dVertex
 10
105.4064721958709
 20
-132.6330849668419
 30
0.0
  0
VERTEX
  5
27D
330
27B
100
AcDbEntity
  8
_U+30EC_U+30A4_U+30E4_U+30FC 1
  6
AI-Linetype-6
 62
     7
420
 16777215
370
     9
100
AcDbVertex
100
AcDb2dVertex
 10
105.4064721958709
 20
-133.7582344110048
 30
0.0
  0
SEQEND
  5
27F
330
27B
100
AcDbEntity
  8
_U+30EC_U+30A4_U+30E4_U+30FC 1
  6
AI-Linetype-6
 62
     7
420
 16777215
370
     9
  0
POLYLINE
  5
280
330
1F
100
AcDbEntity
  8
_U+30EC_U+30A4_U+30E4_U+30FC 1
  6
AI-Linetype-7
 62
     7
420
 16777215
370
     9
100
AcDb2dPolyline
 66
     1
 10
0.0
 20
0.0
 30
0.0
  0
VERTEX
  5
281
330
280
100
AcDbEntity
  8
_U+30EC_U+30A4_U+30E4_U+30FC 1
  6
AI-Linetype-7
 62
     7
420
 16777215
370
     9
100
AcDbVertex
100
AcDb2dVertex
 10
97.28157418480694
 20
-130.195672745229
 30
0.0
  0
VERTEX
  5
282
330
280
100
AcDbEntity
  8
_U+30EC_U+30A4_U+30E4_U+30FC 1
  6
AI-Linetype-7
 62
     7
420
 16777215
370
     9
100
AcDbVertex
100
AcDb2dVertex
 10
98.53146581958622
 20
-130.195672745229
 30
0.0
  0
SEQEND
  5
284
330
280
100
AcDbEntity
  8
_U+30EC_U+30A4_U+30E4_U+30FC 1
  6
AI-Linetype-7
 62
     7
420
 16777215
370
     9
  0
POLYLINE
  5
285
330
1F
100
AcDbEntity
  8
_U+30EC_U+30A4_U+30E4_U+30FC 1
  6
AI-Linetype-8
 62
     7
420
 16777215
370
     9
100
AcDb2dPolyline
 66
     1
 10
0.0
 20
0.0
 30
0.0
  0
VERTEX
  5
286
330
285
100
AcDbEntity
  8
_U+30EC_U+30A4_U+30E4_U+30FC 1
  6
AI-Linetype-8
 62
     7
420
 16777215
370
     9
100
AcDbVertex
100
AcDb2dVertex
 10
97.28157418480694
 20
-136.1952938548399
 30
0.0
  0
VERTEX
  5
287
330
285
100
AcDbEntity
  8
_U+30EC_U+30A4_U+30E4_U+30FC 1
  6
AI-Linetype-8
 62
     7
420
 16777215
370
     9
100
AcDbVertex
100
AcDb2dVertex
 10
98.53146581958622
 20
-136.1952938548399
 30
0.0
  0
SEQEND
  5
289
330
285
100
AcDbEntity
  8
_U+30EC_U+30A4_U+30E4_U+30FC 1
  6
AI-Linetype-8
 62
     7
420
 16777215
370
     9
  0
POLYLINE
  5
28A
330
1F
100
AcDbEntity
  8
_U+30EC_U+30A4_U+30E4_U+30FC 1
  6
AI-Linetype-9
 62
     7
420
 16777215
370
     9
100
AcDb2dPolyline
 66
     1
 10
0.0
 20
0.0
 30
0.0
  0
VERTEX
  5
28B
330
28A
100
AcDbEntity
  8
_U+30EC_U+30A4_U+30E4_U+30FC 1
  6
AI-Linetype-9
 62
     7
420
 16777215
370
     9
100
AcDbVertex
100
AcDb2dVertex
 10
98.53146581958622
 20
-136.1952938548399
 30
0.0
  0
VERTEX
  5
28C
330
28A
100
AcDbEntity
  8
_U+30EC_U+30A4_U+30E4_U+30FC 1
  6
AI-Linetype-9
 62
     7
420
 16777215
370
     9
100
AcDbVertex
100
AcDb2dVertex
 10
98.53146581958622
 20
-130.195672745229
 30
0.0
  0
SEQEND
  5
28E
330
28A
100
AcDbEntity
  8
_U+30EC_U+30A4_U+30E4_U+30FC 1
  6
AI-Linetype-9
 62
     7
420
 16777215
370
     9
  0
POLYLINE
  5
28F
330
1F
100
AcDbEntity
  8
_U+30EC_U+30A4_U+30E4_U+30FC 1
  6
AI-Linetype-10
 62
     7
420
 16777215
370
     9
100
AcDb2dPolyline
 66
     1
 10
0.0
 20
0.0
 30
0.0
  0
VERTEX
  5
290
330
28F
100
AcDbEntity
  8
_U+30EC_U+30A4_U+30E4_U+30FC 1
  6
AI-Linetype-10
 62
     7
420
 16777215
370
     9
100
AcDbVertex
100
AcDb2dVertex
 10
106.0317681282376
 20
-132.6330849668419
 30
0.0
  0
VERTEX
  5
291
330
28F
100
AcDbEntity
  8
_U+30EC_U+30A4_U+30E4_U+30FC 1
  6
AI-Linetype-10
 62
     7
420
 16777215
370
     9
100
AcDbVertex
100
AcDb2dVertex
 10
105.4064721958709
 20
-132.6330849668419
 30
0.0
  0
SEQEND
  5
293
330
28F
100
AcDbEntity
  8
_U+30EC_U+30A4_U+30E4_U+30FC 1
  6
AI-Linetype-10
 62
     7
420
 16777215
370
     9
  0
POLYLINE
  5
294
330
1F
100
AcDbEntity
  8
_U+30EC_U+30A4_U+30E4_U+30FC 1
  6
AI-Linetype-11
 62
     7
420
 16777215
370
     9
100
AcDb2dPolyline
 66
     1
 10
0.0
 20
0.0
 30
0.0
  0
VERTEX
  5
295
330
294
100
AcDbEntity
  8
_U+30EC_U+30A4_U+30E4_U+30FC 1
  6
AI-Linetype-11
 62
     7
420
 16777215
370
     9
100
AcDbVertex
100
AcDb2dVertex
 10
104.9062659347293
 20
-132.4456541335552
 30
0.0
  0
VERTEX
  5
296
330
294
100
AcDbEntity
  8
_U+30EC_U+30A4_U+30E4_U+30FC 1
  6
AI-Linetype-11
 62
     7
420
 16777215
370
     9
100
AcDbVertex
100
AcDb2dVertex
 10
105.4064721958709
 20
-132.6330849668419
 30
0.0
  0
SEQEND
  5
298
330
294
100
AcDbEntity
  8
_U+30EC_U+30A4_U+30E4_U+30FC 1
  6
AI-Linetype-11
 62
     7
420
 16777215
370
     9
  0
POLYLINE
  5
299
330
1F
100
AcDbEntity
  8
_U+30EC_U+30A4_U+30E4_U+30FC 1
 62
     7
420
 16777215
370
     9
100
AcDb2dPolyline
 66
     1
 10
0.0
 20
0.0
 30
0.0
  0
VERTEX
  5
29A
330
299
100
AcDbEntity
  8
_U+30EC_U+30A4_U+30E4_U+30FC 1
 62
     7
420
 16777215
370
     9
100
AcDbVertex
100
AcDb2dVertex
 10
85.96926114007476
 20
-123.1576855247662
 30
0.0
  0
VERTEX
  5
29B
330
299
100
AcDbEntity
  8
_U+30EC_U+30A4_U+30E4_U+30FC 1
 62
     7
420
 16777215
370
     9
100
AcDbVertex
100
AcDb2dVertex
 10
77.21973747440481
 20
-123.1576855247662
 30
0.0
  0
SEQEND
  5
29C
330
299
100
AcDbEntity
  8
_U+30EC_U+30A4_U+30E4_U+30FC 1
 62
     7
420
 16777215
370
     9
  0
POLYLINE
  5
29D
330
1F
100
AcDbEntity
  8
_U+30EC_U+30A4_U+30E4_U+30FC 1
 62
     7
420
 16777215
370
     9
100
AcDb2dPolyline
 66
     1
 10
0.0
 20
0.0
 30
0.0
  0
VERTEX
  5
29E
330
29D
100
AcDbEntity
  8
_U+30EC_U+30A4_U+30E4_U+30FC 1
 62
     7
420
 16777215
370
     9
100
AcDbVertex
100
AcDb2dVertex
 10
85.96926114007476
 20
-114.4078441380647
 30
0.0
  0
VERTEX
  5
29F
330
29D
100
AcDbEntity
  8
_U+30EC_U+30A4_U+30E4_U+30FC 1
 62
     7
420
 16777215
370
     9
100
AcDbVertex
100
AcDb2dVertex
 10
77.4691866347075
 20
-114.4078441380647
 30
0.0
  0
SEQEND
  5
2A0
330
29D
100
AcDbEntity
  8
_U+30EC_U+30A4_U+30E4_U+30FC 1
 62
     7
420
 16777215
370
     9
  0
POLYLINE
  5
2A1
330
1F
100
AcDbEntity
  8
_U+30EC_U+30A4_U+30E4_U+30FC 1
 62
     7
420
 16777215
370
     9
100
AcDb2dPolyline
 66
     1
 10
0.0
 20
0.0
 30
0.0
  0
VERTEX
  5
2A2
330
2A1
100
AcDbEntity
  8
_U+30EC_U+30A4_U+30E4_U+30FC 1
 62
     7
420
 16777215
370
     9
100
AcDbVertex
100
AcDb2dVertex
 10
77.21973747440481
 20
-123.1576855247662
 30
0.0
  0
VERTEX
  5
2A3
330
2A1
100
AcDbEntity
  8
_U+30EC_U+30A4_U+30E4_U+30FC 1
 62
     7
420
 16777215
370
     9
100
AcDbVertex
100
AcDb2dVertex
 10
77.21973747440481
 20
-114.657928304669
 30
0.0
  0
SEQEND
  5
2A4
330
2A1
100
AcDbEntity
  8
_U+30EC_U+30A4_U+30E4_U+30FC 1
 62
     7
420
 16777215
370
     9
  0
SPLINE
  5
2A5
330
1F
100
AcDbEntity
  8
_U+30EC_U+30A4_U+30E4_U+30FC 1
 62
     7
420
 16777215
370
     9
100
AcDbSpline
210
0.0
220
0.0
230
1.0
 70
     8
 71
     3
 72
    11
 73
     7
 74
     0
 42
0.0000000001
 43
0.0000000001
 12
1.0
 22
0.0
 32
0.0
 13
1.0
 23
0.0
 33
0.0
 40
0.0
 40
0.0
 40
0.0
 40
0.0
 40
1.0
 40
1.0
 40
1.0
 40
2.0
 40
2.0
 40
2.0
 40
2.0
 10
77.4691866347075
 20
-114.4078441380647
 30
0.0
 10
77.4691866347075
 20
-114.4078441380647
 30
0.0
 10
77.4691866347075
 20
-114.4078441380647
 30
0.0
 10
77.4691866347075
 20
-114.4078441380647
 30
0.0
 10
77.33103886045417
 20
-114.4078441380647
 30
0.0
 10
77.21973747440481
 20
-114.5194630269255
 30
0.0
 10
77.21973747440481
 20
-114.657928304669
 30
0.0
  0
POLYLINE
  5
2A6
330
1F
100
AcDbEntity
  8
_U+30EC_U+30A4_U+30E4_U+30FC 1
 62
     7
420
 16777215
370
     9
100
AcDb2dPolyline
 66
     1
 10
0.0
 20
0.0
 30
0.0
  0
VERTEX
  5
2A7
330
2A6
100
AcDbEntity
  8
_U+30EC_U+30A4_U+30E4_U+30FC 1
 62
     7
420
 16777215
370
     9
100
AcDbVertex
100
AcDb2dVertex
 10
85.96926114007476
 20
-123.1576855247662
 30
0.0
  0
VERTEX
  5
2A8
330
2A6
100
AcDbEntity
  8
_U+30EC_U+30A4_U+30E4_U+30FC 1
 62
     7
420
 16777215
370
     9
100
AcDbVertex
100
AcDb2dVertex
 10
85.96926114007476
 20
-114.4078441380647
 30
0.0
  0
SEQEND
  5
2A9
330
2A6
100
AcDbEntity
  8
_U+30EC_U+30A4_U+30E4_U+30FC 1
 62
     7
420
 16777215
370
     9
  0
POLYLINE
  5
2AA
330
1F
100
AcDbEntity
  8
_U+30EC_U+30A4_U+30E4_U+30FC 1
 62
     7
420
 16777215
370
     9
100
AcDb2dPolyline
 66
     1
 10
0.0
 20
0.0
 30
0.0
  0
VERTEX
  5
2AB
330
2AA
100
AcDbEntity
  8
_U+30EC_U+30A4_U+30E4_U+30FC 1
 62
     7
420
 16777215
370
     9
100
AcDbVertex
100
AcDb2dVertex
 10
78.34421661238363
 20
-116.3322469153613
 30
0.0
  0
VERTEX
  5
2AC
330
2AA
100
AcDbEntity
  8
_U+30EC_U+30A4_U+30E4_U+30FC 1
 62
     7
420
 16777215
370
     9
100
AcDbVertex
100
AcDb2dVertex
 10
78.34421661238363
 20
-123.1576855247662
 30
0.0
  0
SEQEND
  5
2AD
330
2AA
100
AcDbEntity
  8
_U+30EC_U+30A4_U+30E4_U+30FC 1
 62
     7
420
 16777215
370
     9
  0
POLYLINE
  5
2AE
330
1F
100
AcDbEntity
  8
_U+30EC_U+30A4_U+30E4_U+30FC 1
 62
     7
420
 16777215
370
     9
100
AcDb2dPolyline
 66
     1
 10
0.0
 20
0.0
 30
0.0
  0
VERTEX
  5
2AF
330
2AE
100
AcDbEntity
  8
_U+30EC_U+30A4_U+30E4_U+30FC 1
 62
     7
420
 16777215
370
     9
100
AcDbVertex
100
AcDb2dVertex
 10
78.57849632862887
 20
-115.766567748836
 30
0.0
  0
VERTEX
  5
2B0
330
2AE
100
AcDbEntity
  8
_U+30EC_U+30A4_U+30E4_U+30FC 1
 62
     7
420
 16777215
370
     9
100
AcDbVertex
100
AcDb2dVertex
 10
85.96926114007476
 20
-123.1576855247662
 30
0.0
  0
SEQEND
  5
2B1
330
2AE
100
AcDbEntity
  8
_U+30EC_U+30A4_U+30E4_U+30FC 1
 62
     7
420
 16777215
370
     9
  0
POLYLINE
  5
2B2
330
1F
100
AcDbEntity
  8
_U+30EC_U+30A4_U+30E4_U+30FC 1
 62
     7
420
 16777215
370
     9
100
AcDb2dPolyline
 66
     1
 10
0.0
 20
0.0
 30
0.0
  0
VERTEX
  5
2B3
330
2B2
100
AcDbEntity
  8
_U+30EC_U+30A4_U+30E4_U+30FC 1
 62
     7
420
 16777215
370
     9
100
AcDbVertex
100
AcDb2dVertex
 10
85.96926114007476
 20
-115.5323233044502
 30
0.0
  0
VERTEX
  5
2B4
330
2B2
100
AcDbEntity
  8
_U+30EC_U+30A4_U+30E4_U+30FC 1
 62
     7
420
 16777215
370
     9
100
AcDbVertex
100
AcDb2dVertex
 10
79.14417548086386
 20
-115.5323233044502
 30
0.0
  0
SEQEND
  5
2B5
330
2B2
100
AcDbEntity
  8
_U+30EC_U+30A4_U+30E4_U+30FC 1
 62
     7
420
 16777215
370
     9
  0
SPLINE
  5
2B6
330
1F
100
AcDbEntity
  8
_U+30EC_U+30A4_U+30E4_U+30FC 1
 62
     7
420
 16777215
370
     9
100
AcDbSpline
210
0.0
220
0.0
230
1.0
 70
     8
 71
     3
 72
    11
 73
     7
 74
     0
 42
0.0000000001
 43
0.0000000001
 12
1.0
 22
0.0
 32
0.0
 13
1.0
 23
0.0
 33
0.0
 40
0.0
 40
0.0
 40
0.0
 40
0.0
 40
1.0
 40
1.0
 40
1.0
 40
2.0
 40
2.0
 40
2.0
 40
2.0
 10
79.14417548086386
 20
-115.5323233044502
 30
0.0
 10
79.14417548086386
 20
-115.5323233044502
 30
0.0
 10
79.14417548086386
 20
-115.5323233044502
 30
0.0
 10
79.14417548086386
 20
-115.5323233044502
 30
0.0
 10
78.70253299213111
 20
-115.5323233044502
 30
0.0
 10
78.34421661238363
 20
-115.8906044154717
 30
0.0
 10
78.34421661238363
 20
-116.3322469153613
 30
0.0
  0
POLYLINE
  5
2B7
330
1F
100
AcDbEntity
  8
_U+30EC_U+30A4_U+30E4_U+30FC 1
  6
AI-Linetype-12
 62
     7
420
 16777215
370
     9
100
AcDb2dPolyline
 66
     1
 10
0.0
 20
0.0
 30
0.0
  0
VERTEX
  5
2B8
330
2B7
100
AcDbEntity
  8
_U+30EC_U+30A4_U+30E4_U+30FC 1
  6
AI-Linetype-12
 62
     7
420
 16777215
370
     9
100
AcDbVertex
100
AcDb2dVertex
 10
76.65645721099752
 20
-120.65723191428
 30
0.0
  0
VERTEX
  5
2B9
330
2B7
100
AcDbEntity
  8
_U+30EC_U+30A4_U+30E4_U+30FC 1
  6
AI-Linetype-12
 62
     7
420
 16777215
370
     9
100
AcDbVertex
100
AcDb2dVertex
 10
78.90714409802216
 20
-120.65723191428
 30
0.0
  0
SEQEND
  5
2BB
330
2B7
100
AcDbEntity
  8
_U+30EC_U+30A4_U+30E4_U+30FC 1
  6
AI-Linetype-12
 62
     7
420
 16777215
370
     9
  0
POLYLINE
  5
2BC
330
1F
100
AcDbEntity
  8
_U+30EC_U+30A4_U+30E4_U+30FC 1
  6
AI-Linetype-13
 62
     7
420
 16777215
370
     9
100
AcDb2dPolyline
 66
     1
 10
0.0
 20
0.0
 30
0.0
  0
VERTEX
  5
2BD
330
2BC
100
AcDbEntity
  8
_U+30EC_U+30A4_U+30E4_U+30FC 1
  6
AI-Linetype-13
 62
     7
420
 16777215
370
     9
100
AcDbVertex
100
AcDb2dVertex
 10
83.4691603705243
 20
-113.8455869159831
 30
0.0
  0
VERTEX
  5
2BE
330
2BC
100
AcDbEntity
  8
_U+30EC_U+30A4_U+30E4_U+30FC 1
  6
AI-Linetype-13
 62
     7
420
 16777215
370
     9
100
AcDbVertex
100
AcDb2dVertex
 10
83.4691603705243
 20
-116.0952508043094
 30
0.0
  0
SEQEND
  5
2C0
330
2BC
100
AcDbEntity
  8
_U+30EC_U+30A4_U+30E4_U+30FC 1
  6
AI-Linetype-13
 62
     7
420
 16777215
370
     9
  0
POLYLINE
  5
2C1
330
1F
100
AcDbEntity
  8
_U+30EC_U+30A4_U+30E4_U+30FC 1
  6
AI-Linetype-14
 62
     7
420
 16777215
370
     9
100
AcDb2dPolyline
 66
     1
 10
0.0
 20
0.0
 30
0.0
  0
VERTEX
  5
2C2
330
2C1
100
AcDbEntity
  8
_U+30EC_U+30A4_U+30E4_U+30FC 1
  6
AI-Linetype-14
 62
     7
420
 16777215
370
     9
100
AcDbVertex
100
AcDb2dVertex
 10
77.34412691567582
 20
-123.1576855247662
 30
0.0
  0
VERTEX
  5
2C3
330
2C1
100
AcDbEntity
  8
_U+30EC_U+30A4_U+30E4_U+30FC 1
  6
AI-Linetype-14
 62
     7
420
 16777215
370
     9
100
AcDbVertex
100
AcDb2dVertex
 10
77.34412691567582
 20
-121.9077938584121
 30
0.0
  0
SEQEND
  5
2C5
330
2C1
100
AcDbEntity
  8
_U+30EC_U+30A4_U+30E4_U+30FC 1
  6
AI-Linetype-14
 62
     7
420
 16777215
370
     9
  0
POLYLINE
  5
2C6
330
1F
100
AcDbEntity
  8
_U+30EC_U+30A4_U+30E4_U+30FC 1
  6
AI-Linetype-15
 62
     7
420
 16777215
370
     9
100
AcDb2dPolyline
 66
     1
 10
0.0
 20
0.0
 30
0.0
  0
VERTEX
  5
2C7
330
2C6
100
AcDbEntity
  8
_U+30EC_U+30A4_U+30E4_U+30FC 1
  6
AI-Linetype-15
 62
     7
420
 16777215
370
     9
100
AcDbVertex
100
AcDb2dVertex
 10
77.34412691567582
 20
-121.9077938584121
 30
0.0
  0
VERTEX
  5
2C8
330
2C6
100
AcDbEntity
  8
_U+30EC_U+30A4_U+30E4_U+30FC 1
  6
AI-Linetype-15
 62
     7
420
 16777215
370
     9
100
AcDbVertex
100
AcDb2dVertex
 10
77.21973747440481
 20
-121.9077938584121
 30
0.0
  0
SEQEND
  5
2CA
330
2C6
100
AcDbEntity
  8
_U+30EC_U+30A4_U+30E4_U+30FC 1
  6
AI-Linetype-15
 62
     7
420
 16777215
370
     9
  0
POLYLINE
  5
2CB
330
1F
100
AcDbEntity
  8
_U+30EC_U+30A4_U+30E4_U+30FC 1
  6
AI-Linetype-16
 62
     7
420
 16777215
370
     9
100
AcDb2dPolyline
 66
     1
 10
0.0
 20
0.0
 30
0.0
  0
VERTEX
  5
2CC
330
2CB
100
AcDbEntity
  8
_U+30EC_U+30A4_U+30E4_U+30FC 1
  6
AI-Linetype-16
 62
     7
420
 16777215
370
     9
100
AcDbVertex
100
AcDb2dVertex
 10
84.71936950529549
 20
-114.532551082478
 30
0.0
  0
VERTEX
  5
2CD
330
2CB
100
AcDbEntity
  8
_U+30EC_U+30A4_U+30E4_U+30FC 1
  6
AI-Linetype-16
 62
     7
420
 16777215
370
     9
100
AcDbVertex
100
AcDb2dVertex
 10
84.71936950529549
 20
-114.4078441380647
 30
0.0
  0
SEQEND
  5
2CF
330
2CB
100
AcDbEntity
  8
_U+30EC_U+30A4_U+30E4_U+30FC 1
  6
AI-Linetype-16
 62
     7
420
 16777215
370
     9
  0
POLYLINE
  5
2D0
330
1F
100
AcDbEntity
  8
_U+30EC_U+30A4_U+30E4_U+30FC 1
  6
AI-Linetype-17
 62
     7
420
 16777215
370
     9
100
AcDb2dPolyline
 66
     1
 10
0.0
 20
0.0
 30
0.0
  0
VERTEX
  5
2D1
330
2D0
100
AcDbEntity
  8
_U+30EC_U+30A4_U+30E4_U+30FC 1
  6
AI-Linetype-17
 62
     7
420
 16777215
370
     9
100
AcDbVertex
100
AcDb2dVertex
 10
85.96926114007476
 20
-114.532551082478
 30
0.0
  0
VERTEX
  5
2D2
330
2D0
100
AcDbEntity
  8
_U+30EC_U+30A4_U+30E4_U+30FC 1
  6
AI-Linetype-17
 62
     7
420
 16777215
370
     9
100
AcDbVertex
100
AcDb2dVertex
 10
84.71936950529549
 20
-114.532551082478
 30
0.0
  0
SEQEND
  5
2D4
330
2D0
100
AcDbEntity
  8
_U+30EC_U+30A4_U+30E4_U+30FC 1
  6
AI-Linetype-17
 62
     7
420
 16777215
370
     9
  0
POLYLINE
  5
2D5
330
1F
100
AcDbEntity
  8
_U+30EC_U+30A4_U+30E4_U+30FC 1
  6
AI-Linetype-18
 62
     7
420
 16777215
370
     9
100
AcDb2dPolyline
 66
     1
 10
0.0
 20
0.0
 30
0.0
  0
VERTEX
  5
2D6
330
2D5
100
AcDbEntity
  8
_U+30EC_U+30A4_U+30E4_U+30FC 1
  6
AI-Linetype-18
 62
     7
420
 16777215
370
     9
100
AcDbVertex
100
AcDb2dVertex
 10
78.34421661238363
 20
-119.9075791366896
 30
0.0
  0
VERTEX
  5
2D7
330
2D5
100
AcDbEntity
  8
_U+30EC_U+30A4_U+30E4_U+30FC 1
  6
AI-Linetype-18
 62
     7
420
 16777215
370
     9
100
AcDbVertex
100
AcDb2dVertex
 10
77.84433051402567
 20
-120.0950099699763
 30
0.0
  0
SEQEND
  5
2D9
330
2D5
100
AcDbEntity
  8
_U+30EC_U+30A4_U+30E4_U+30FC 1
  6
AI-Linetype-18
 62
     7
420
 16777215
370
     9
  0
POLYLINE
  5
2DA
330
1F
100
AcDbEntity
  8
_U+30EC_U+30A4_U+30E4_U+30FC 1
  6
AI-Linetype-19
 62
     7
420
 16777215
370
     9
100
AcDb2dPolyline
 66
     1
 10
0.0
 20
0.0
 30
0.0
  0
VERTEX
  5
2DB
330
2DA
100
AcDbEntity
  8
_U+30EC_U+30A4_U+30E4_U+30FC 1
  6
AI-Linetype-19
 62
     7
420
 16777215
370
     9
100
AcDbVertex
100
AcDb2dVertex
 10
77.21973747440481
 20
-120.0950099699763
 30
0.0
  0
VERTEX
  5
2DC
330
2DA
100
AcDbEntity
  8
_U+30EC_U+30A4_U+30E4_U+30FC 1
  6
AI-Linetype-19
 62
     7
420
 16777215
370
     9
100
AcDbVertex
100
AcDb2dVertex
 10
77.84433051402567
 20
-120.0950099699763
 30
0.0
  0
SEQEND
  5
2DE
330
2DA
100
AcDbEntity
  8
_U+30EC_U+30A4_U+30E4_U+30FC 1
  6
AI-Linetype-19
 62
     7
420
 16777215
370
     9
  0
POLYLINE
  5
2DF
330
1F
100
AcDbEntity
  8
_U+30EC_U+30A4_U+30E4_U+30FC 1
  6
AI-Linetype-20
 62
     7
420
 16777215
370
     9
100
AcDb2dPolyline
 66
     1
 10
0.0
 20
0.0
 30
0.0
  0
VERTEX
  5
2E0
330
2DF
100
AcDbEntity
  8
_U+30EC_U+30A4_U+30E4_U+30FC 1
  6
AI-Linetype-20
 62
     7
420
 16777215
370
     9
100
AcDbVertex
100
AcDb2dVertex
 10
77.21973747440481
 20
-121.2201594141395
 30
0.0
  0
VERTEX
  5
2E1
330
2DF
100
AcDbEntity
  8
_U+30EC_U+30A4_U+30E4_U+30FC 1
  6
AI-Linetype-20
 62
     7
420
 16777215
370
     9
100
AcDbVertex
100
AcDb2dVertex
 10
77.84433051402567
 20
-121.2201594141395
 30
0.0
  0
SEQEND
  5
2E3
330
2DF
100
AcDbEntity
  8
_U+30EC_U+30A4_U+30E4_U+30FC 1
  6
AI-Linetype-20
 62
     7
420
 16777215
370
     9
  0
POLYLINE
  5
2E4
330
1F
100
AcDbEntity
  8
_U+30EC_U+30A4_U+30E4_U+30FC 1
  6
AI-Linetype-21
 62
     7
420
 16777215
370
     9
100
AcDb2dPolyline
 66
     1
 10
0.0
 20
0.0
 30
0.0
  0
VERTEX
  5
2E5
330
2E4
100
AcDbEntity
  8
_U+30EC_U+30A4_U+30E4_U+30FC 1
  6
AI-Linetype-21
 62
     7
420
 16777215
370
     9
100
AcDbVertex
100
AcDb2dVertex
 10
78.34421661238363
 20
-121.4075902474259
 30
0.0
  0
VERTEX
  5
2E6
330
2E4
100
AcDbEntity
  8
_U+30EC_U+30A4_U+30E4_U+30FC 1
  6
AI-Linetype-21
 62
     7
420
 16777215
370
     9
100
AcDbVertex
100
AcDb2dVertex
 10
77.84433051402567
 20
-121.2201594141395
 30
0.0
  0
SEQEND
  5
2E8
330
2E4
100
AcDbEntity
  8
_U+30EC_U+30A4_U+30E4_U+30FC 1
  6
AI-Linetype-21
 62
     7
420
 16777215
370
     9
  0
POLYLINE
  5
2E9
330
1F
100
AcDbEntity
  8
_U+30EC_U+30A4_U+30E4_U+30FC 1
  6
AI-Linetype-22
 62
     7
420
 16777215
370
     9
100
AcDb2dPolyline
 66
     1
 10
0.0
 20
0.0
 30
0.0
  0
VERTEX
  5
2EA
330
2E9
100
AcDbEntity
  8
_U+30EC_U+30A4_U+30E4_U+30FC 1
  6
AI-Linetype-22
 62
     7
420
 16777215
370
     9
100
AcDbVertex
100
AcDb2dVertex
 10
77.84433051402567
 20
-120.0950099699763
 30
0.0
  0
VERTEX
  5
2EB
330
2E9
100
AcDbEntity
  8
_U+30EC_U+30A4_U+30E4_U+30FC 1
  6
AI-Linetype-22
 62
     7
420
 16777215
370
     9
100
AcDbVertex
100
AcDb2dVertex
 10
77.84433051402567
 20
-121.2201594141395
 30
0.0
  0
SEQEND
  5
2ED
330
2E9
100
AcDbEntity
  8
_U+30EC_U+30A4_U+30E4_U+30FC 1
  6
AI-Linetype-22
 62
     7
420
 16777215
370
     9
  0
POLYLINE
  5
2EE
330
1F
100
AcDbEntity
  8
_U+30EC_U+30A4_U+30E4_U+30FC 1
  6
AI-Linetype-23
 62
     7
420
 16777215
370
     9
100
AcDb2dPolyline
 66
     1
 10
0.0
 20
0.0
 30
0.0
  0
VERTEX
  5
2EF
330
2EE
100
AcDbEntity
  8
_U+30EC_U+30A4_U+30E4_U+30FC 1
  6
AI-Linetype-23
 62
     7
420
 16777215
370
     9
100
AcDbVertex
100
AcDb2dVertex
 10
82.90690316264646
 20
-115.0327546934642
 30
0.0
  0
VERTEX
  5
2F0
330
2EE
100
AcDbEntity
  8
_U+30EC_U+30A4_U+30E4_U+30FC 1
  6
AI-Linetype-23
 62
     7
420
 16777215
370
     9
100
AcDbVertex
100
AcDb2dVertex
 10
84.03173507839405
 20
-115.0327546934642
 30
0.0
  0
SEQEND
  5
2F2
330
2EE
100
AcDbEntity
  8
_U+30EC_U+30A4_U+30E4_U+30FC 1
  6
AI-Linetype-23
 62
     7
420
 16777215
370
     9
  0
POLYLINE
  5
2F3
330
1F
100
AcDbEntity
  8
_U+30EC_U+30A4_U+30E4_U+30FC 1
  6
AI-Linetype-24
 62
     7
420
 16777215
370
     9
100
AcDb2dPolyline
 66
     1
 10
0.0
 20
0.0
 30
0.0
  0
VERTEX
  5
2F4
330
2F3
100
AcDbEntity
  8
_U+30EC_U+30A4_U+30E4_U+30FC 1
  6
AI-Linetype-24
 62
     7
420
 16777215
370
     9
100
AcDbVertex
100
AcDb2dVertex
 10
84.21913062916876
 20
-115.5323233044502
 30
0.0
  0
VERTEX
  5
2F5
330
2F3
100
AcDbEntity
  8
_U+30EC_U+30A4_U+30E4_U+30FC 1
  6
AI-Linetype-24
 62
     7
420
 16777215
370
     9
100
AcDbVertex
100
AcDb2dVertex
 10
84.03173507839405
 20
-115.0327546934642
 30
0.0
  0
SEQEND
  5
2F7
330
2F3
100
AcDbEntity
  8
_U+30EC_U+30A4_U+30E4_U+30FC 1
  6
AI-Linetype-24
 62
     7
420
 16777215
370
     9
  0
POLYLINE
  5
2F8
330
1F
100
AcDbEntity
  8
_U+30EC_U+30A4_U+30E4_U+30FC 1
  6
AI-Linetype-25
 62
     7
420
 16777215
370
     9
100
AcDb2dPolyline
 66
     1
 10
0.0
 20
0.0
 30
0.0
  0
VERTEX
  5
2F9
330
2F8
100
AcDbEntity
  8
_U+30EC_U+30A4_U+30E4_U+30FC 1
  6
AI-Linetype-25
 62
     7
420
 16777215
370
     9
100
AcDbVertex
100
AcDb2dVertex
 10
84.03173507839405
 20
-114.4078441380647
 30
0.0
  0
VERTEX
  5
2FA
330
2F8
100
AcDbEntity
  8
_U+30EC_U+30A4_U+30E4_U+30FC 1
  6
AI-Linetype-25
 62
     7
420
 16777215
370
     9
100
AcDbVertex
100
AcDb2dVertex
 10
84.03173507839405
 20
-115.0327546934642
 30
0.0
  0
SEQEND
  5
2FC
330
2F8
100
AcDbEntity
  8
_U+30EC_U+30A4_U+30E4_U+30FC 1
  6
AI-Linetype-25
 62
     7
420
 16777215
370
     9
  0
POLYLINE
  5
2FD
330
1F
100
AcDbEntity
  8
_U+30EC_U+30A4_U+30E4_U+30FC 1
  6
AI-Linetype-26
 62
     7
420
 16777215
370
     9
100
AcDb2dPolyline
 66
     1
 10
0.0
 20
0.0
 30
0.0
  0
VERTEX
  5
2FE
330
2FD
100
AcDbEntity
  8
_U+30EC_U+30A4_U+30E4_U+30FC 1
  6
AI-Linetype-26
 62
     7
420
 16777215
370
     9
100
AcDbVertex
100
AcDb2dVertex
 10
82.90690316264646
 20
-114.4078441380647
 30
0.0
  0
VERTEX
  5
2FF
330
2FD
100
AcDbEntity
  8
_U+30EC_U+30A4_U+30E4_U+30FC 1
  6
AI-Linetype-26
 62
     7
420
 16777215
370
     9
100
AcDbVertex
100
AcDb2dVertex
 10
82.90690316264646
 20
-115.0327546934642
 30
0.0
  0
SEQEND
  5
301
330
2FD
100
AcDbEntity
  8
_U+30EC_U+30A4_U+30E4_U+30FC 1
  6
AI-Linetype-26
 62
     7
420
 16777215
370
     9
  0
POLYLINE
  5
302
330
1F
100
AcDbEntity
  8
_U+30EC_U+30A4_U+30E4_U+30FC 1
  6
AI-Linetype-27
 62
     7
420
 16777215
370
     9
100
AcDb2dPolyline
 66
     1
 10
0.0
 20
0.0
 30
0.0
  0
VERTEX
  5
303
330
302
100
AcDbEntity
  8
_U+30EC_U+30A4_U+30E4_U+30FC 1
  6
AI-Linetype-27
 62
     7
420
 16777215
370
     9
100
AcDbVertex
100
AcDb2dVertex
 10
82.71880205633421
 20
-115.5323233044502
 30
0.0
  0
VERTEX
  5
304
330
302
100
AcDbEntity
  8
_U+30EC_U+30A4_U+30E4_U+30FC 1
  6
AI-Linetype-27
 62
     7
420
 16777215
370
     9
100
AcDbVertex
100
AcDb2dVertex
 10
82.90690316264646
 20
-115.0327546934642
 30
0.0
  0
SEQEND
  5
306
330
302
100
AcDbEntity
  8
_U+30EC_U+30A4_U+30E4_U+30FC 1
  6
AI-Linetype-27
 62
     7
420
 16777215
370
     9
  0
SPLINE
  5
307
330
1F
100
AcDbEntity
  8
_U+30EC_U+30A4_U+30E4_U+30FC 1
 62
     7
420
 16777215
370
     9
100
AcDbSpline
210
0.0
220
0.0
230
1.0
 70
     8
 71
     3
 72
    11
 73
     7
 74
     0
 42
0.0000000001
 43
0.0000000001
 12
1.0
 22
0.0
 32
0.0
 13
1.0
 23
0.0
 33
0.0
 40
0.0
 40
0.0
 40
0.0
 40
0.0
 40
1.0
 40
1.0
 40
1.0
 40
2.0
 40
2.0
 40
2.0
 40
2.0
 10
77.21973747440481
 20
-136.1952938548399
 30
0.0
 10
77.21973747440481
 20
-136.1952938548399
 30
0.0
 10
77.21973747440481
 20
-136.1952938548399
 30
0.0
 10
77.21973747440481
 20
-136.1952938548399
 30
0.0
 10
77.21973747440481
 20
-140.7517716314789
 30
0.0
 10
80.91289738018446
 20
-144.4456019083332
 30
0.0
 10
85.46866948617925
 20
-144.4456019083332
 30
0.0
  0
SPLINE
  5
308
330
1F
100
AcDbEntity
  8
_U+30EC_U+30A4_U+30E4_U+30FC 1
 62
     7
420
 16777215
370
     9
100
AcDbSpline
210
0.0
220
0.0
230
1.0
 70
     8
 71
     3
 72
    11
 73
     7
 74
     0
 42
0.0000000001
 43
0.0000000001
 12
1.0
 22
0.0
 32
0.0
 13
1.0
 23
0.0
 33
0.0
 40
0.0
 40
0.0
 40
0.0
 40
0.0
 40
1.0
 40
1.0
 40
1.0
 40
2.0
 40
2.0
 40
2.0
 40
2.0
 10
78.34421661238363
 20
-130.2456260785495
 30
0.0
 10
78.34421661238363
 20
-130.2456260785495
 30
0.0
 10
78.34421661238363
 20
-130.2456260785495
 30
0.0
 10
78.34421661238363
 20
-130.2456260785495
 30
0.0
 10
78.34421661238363
 20
-129.8032780231046
 30
0.0
 10
77.98593551041303
 20
-129.4456671898608
 30
0.0
 10
77.54425774390339
 20
-129.4456671898608
 30
0.0
  0
POLYLINE
  5
309
330
1F
100
AcDbEntity
  8
_U+30EC_U+30A4_U+30E4_U+30FC 1
 62
     7
420
 16777215
370
     9
100
AcDb2dPolyline
 66
     1
 10
0.0
 20
0.0
 30
0.0
  0
VERTEX
  5
30A
330
309
100
AcDbEntity
  8
_U+30EC_U+30A4_U+30E4_U+30FC 1
 62
     7
420
 16777215
370
     9
100
AcDbVertex
100
AcDb2dVertex
 10
77.21973747440481
 20
-129.4456671898608
 30
0.0
  0
VERTEX
  5
30B
330
309
100
AcDbEntity
  8
_U+30EC_U+30A4_U+30E4_U+30FC 1
 62
     7
420
 16777215
370
     9
100
AcDbVertex
100
AcDb2dVertex
 10
85.96890836230598
 20
-129.4456671898608
 30
0.0
  0
SEQEND
  5
30C
330
309
100
AcDbEntity
  8
_U+30EC_U+30A4_U+30E4_U+30FC 1
 62
     7
420
 16777215
370
     9
  0
SPLINE
  5
30D
330
1F
100
AcDbEntity
  8
_U+30EC_U+30A4_U+30E4_U+30FC 1
 62
     7
420
 16777215
370
     9
100
AcDbSpline
210
0.0
220
0.0
230
1.0
 70
     8
 71
     3
 72
    11
 73
     7
 74
     0
 42
0.0000000001
 43
0.0000000001
 12
1.0
 22
0.0
 32
0.0
 13
1.0
 23
0.0
 33
0.0
 40
0.0
 40
0.0
 40
0.0
 40
0.0
 40
1.0
 40
1.0
 40
1.0
 40
2.0
 40
2.0
 40
2.0
 40
2.0
 10
78.34421661238363
 20
-136.1952938548399
 30
0.0
 10
78.34421661238363
 20
-136.1952938548399
 30
0.0
 10
78.34421661238363
 20
-136.1952938548399
 30
0.0
 10
78.34421661238363
 20
-136.1952938548399
 30
0.0
 10
78.34421661238363
 20
-140.0255785761046
 30
0.0
 10
81.37210820180235
 20
-143.1702396864298
 30
0.0
 10
85.1999586597013
 20
-143.3156194086155
 30
0.0
  0
POLYLINE
  5
30E
330
1F
100
AcDbEntity
  8
_U+30EC_U+30A4_U+30E4_U+30FC 1
 62
     7
420
 16777215
370
     9
100
AcDb2dPolyline
 66
     1
 10
0.0
 20
0.0
 30
0.0
  0
VERTEX
  5
30F
330
30E
100
AcDbEntity
  8
_U+30EC_U+30A4_U+30E4_U+30FC 1
 62
     7
420
 16777215
370
     9
100
AcDbVertex
100
AcDb2dVertex
 10
85.96890836230598
 20
-144.4456019083332
 30
0.0
  0
VERTEX
  5
310
330
30E
100
AcDbEntity
  8
_U+30EC_U+30A4_U+30E4_U+30FC 1
 62
     7
420
 16777215
370
     9
100
AcDbVertex
100
AcDb2dVertex
 10
77.21973747440481
 20
-144.4456019083332
 30
0.0
  0
SEQEND
  5
311
330
30E
100
AcDbEntity
  8
_U+30EC_U+30A4_U+30E4_U+30FC 1
 62
     7
420
 16777215
370
     9
  0
POLYLINE
  5
312
330
1F
100
AcDbEntity
  8
_U+30EC_U+30A4_U+30E4_U+30FC 1
 62
     7
420
 16777215
370
     9
100
AcDb2dPolyline
 66
     1
 10
0.0
 20
0.0
 30
0.0
  0
VERTEX
  5
313
330
312
100
AcDbEntity
  8
_U+30EC_U+30A4_U+30E4_U+30FC 1
 62
     7
420
 16777215
370
     9
100
AcDbVertex
100
AcDb2dVertex
 10
82.03219068496225
 20
-143.6952788529648
 30
0.0
  0
VERTEX
  5
314
330
312
100
AcDbEntity
  8
_U+30EC_U+30A4_U+30E4_U+30FC 1
 62
     7
420
 16777215
370
     9
100
AcDbVertex
100
AcDb2dVertex
 10
77.21973747440481
 20
-143.6952788529648
 30
0.0
  0
SEQEND
  5
315
330
312
100
AcDbEntity
  8
_U+30EC_U+30A4_U+30E4_U+30FC 1
 62
     7
420
 16777215
370
     9
  0
POLYLINE
  5
316
330
1F
100
AcDbEntity
  8
_U+30EC_U+30A4_U+30E4_U+30FC 1
 62
     7
420
 16777215
370
     9
100
AcDb2dPolyline
 66
     1
 10
0.0
 20
0.0
 30
0.0
  0
VERTEX
  5
317
330
316
100
AcDbEntity
  8
_U+30EC_U+30A4_U+30E4_U+30FC 1
 62
     7
420
 16777215
370
     9
100
AcDbVertex
100
AcDb2dVertex
 10
77.21973747440481
 20
-129.4456671898608
 30
0.0
  0
VERTEX
  5
318
330
316
100
AcDbEntity
  8
_U+30EC_U+30A4_U+30E4_U+30FC 1
 62
     7
420
 16777215
370
     9
100
AcDbVertex
100
AcDb2dVertex
 10
77.21973747440481
 20
-136.1952938548399
 30
0.0
  0
SEQEND
  5
319
330
316
100
AcDbEntity
  8
_U+30EC_U+30A4_U+30E4_U+30FC 1
 62
     7
420
 16777215
370
     9
  0
POLYLINE
  5
31A
330
1F
100
AcDbEntity
  8
_U+30EC_U+30A4_U+30E4_U+30FC 1
 62
     7
420
 16777215
370
     9
100
AcDb2dPolyline
 66
     1
 10
0.0
 20
0.0
 30
0.0
  0
VERTEX
  5
31B
330
31A
100
AcDbEntity
  8
_U+30EC_U+30A4_U+30E4_U+30FC 1
 62
     7
420
 16777215
370
     9
100
AcDbVertex
100
AcDb2dVertex
 10
77.34412691567582
 20
-130.1953199674512
 30
0.0
  0
VERTEX
  5
31C
330
31A
100
AcDbEntity
  8
_U+30EC_U+30A4_U+30E4_U+30FC 1
 62
     7
420
 16777215
370
     9
100
AcDbVertex
100
AcDb2dVertex
 10
77.34412691567582
 20
-136.1952938548399
 30
0.0
  0
SEQEND
  5
31D
330
31A
100
AcDbEntity
  8
_U+30EC_U+30A4_U+30E4_U+30FC 1
 62
     7
420
 16777215
370
     9
  0
POLYLINE
  5
31E
330
1F
100
AcDbEntity
  8
_U+30EC_U+30A4_U+30E4_U+30FC 1
 62
     7
420
 16777215
370
     9
100
AcDb2dPolyline
 66
     1
 10
0.0
 20
0.0
 30
0.0
  0
VERTEX
  5
31F
330
31E
100
AcDbEntity
  8
_U+30EC_U+30A4_U+30E4_U+30FC 1
 62
     7
420
 16777215
370
     9
100
AcDbVertex
100
AcDb2dVertex
 10
77.21973747440481
 20
-143.6952788529648
 30
0.0
  0
VERTEX
  5
320
330
31E
100
AcDbEntity
  8
_U+30EC_U+30A4_U+30E4_U+30FC 1
 62
     7
420
 16777215
370
     9
100
AcDbVertex
100
AcDb2dVertex
 10
77.21973747440481
 20
-144.4456019083332
 30
0.0
  0
SEQEND
  5
321
330
31E
100
AcDbEntity
  8
_U+30EC_U+30A4_U+30E4_U+30FC 1
 62
     7
420
 16777215
370
     9
  0
POLYLINE
  5
322
330
1F
100
AcDbEntity
  8
_U+30EC_U+30A4_U+30E4_U+30FC 1
 62
     7
420
 16777215
370
     9
100
AcDb2dPolyline
 66
     1
 10
0.0
 20
0.0
 30
0.0
  0
VERTEX
  5
323
330
322
100
AcDbEntity
  8
_U+30EC_U+30A4_U+30E4_U+30FC 1
 62
     7
420
 16777215
370
     9
100
AcDbVertex
100
AcDb2dVertex
 10
77.21973747440481
 20
-136.1952938548399
 30
0.0
  0
VERTEX
  5
324
330
322
100
AcDbEntity
  8
_U+30EC_U+30A4_U+30E4_U+30FC 1
 62
     7
420
 16777215
370
     9
100
AcDbVertex
100
AcDb2dVertex
 10
77.34412691567582
 20
-136.1952938548399
 30
0.0
  0
SEQEND
  5
325
330
322
100
AcDbEntity
  8
_U+30EC_U+30A4_U+30E4_U+30FC 1
 62
     7
420
 16777215
370
     9
  0
POLYLINE
  5
326
330
1F
100
AcDbEntity
  8
_U+30EC_U+30A4_U+30E4_U+30FC 1
 62
     7
420
 16777215
370
     9
100
AcDb2dPolyline
 66
     1
 10
0.0
 20
0.0
 30
0.0
  0
VERTEX
  5
327
330
326
100
AcDbEntity
  8
_U+30EC_U+30A4_U+30E4_U+30FC 1
 62
     7
420
 16777215
370
     9
100
AcDbVertex
100
AcDb2dVertex
 10
77.54425774390339
 20
-129.4456671898608
 30
0.0
  0
VERTEX
  5
328
330
326
100
AcDbEntity
  8
_U+30EC_U+30A4_U+30E4_U+30FC 1
 62
     7
420
 16777215
370
     9
100
AcDbVertex
100
AcDb2dVertex
 10
77.21973747440481
 20
-129.4456671898608
 30
0.0
  0
SEQEND
  5
329
330
326
100
AcDbEntity
  8
_U+30EC_U+30A4_U+30E4_U+30FC 1
 62
     7
420
 16777215
370
     9
  0
POLYLINE
  5
32A
330
1F
100
AcDbEntity
  8
_U+30EC_U+30A4_U+30E4_U+30FC 1
 62
     7
420
 16777215
370
     9
100
AcDb2dPolyline
 66
     1
 10
0.0
 20
0.0
 30
0.0
  0
VERTEX
  5
32B
330
32A
100
AcDbEntity
  8
_U+30EC_U+30A4_U+30E4_U+30FC 1
 62
     7
420
 16777215
370
     9
100
AcDbVertex
100
AcDb2dVertex
 10
77.21973747440481
 20
-130.1953199674512
 30
0.0
  0
VERTEX
  5
32C
330
32A
100
AcDbEntity
  8
_U+30EC_U+30A4_U+30E4_U+30FC 1
 62
     7
420
 16777215
370
     9
100
AcDbVertex
100
AcDb2dVertex
 10
77.34412691567582
 20
-130.1953199674512
 30
0.0
  0
SEQEND
  5
32D
330
32A
100
AcDbEntity
  8
_U+30EC_U+30A4_U+30E4_U+30FC 1
 62
     7
420
 16777215
370
     9
  0
POLYLINE
  5
32E
330
1F
100
AcDbEntity
  8
_U+30EC_U+30A4_U+30E4_U+30FC 1
 62
     7
420
 16777215
370
     9
100
AcDb2dPolyline
 66
     1
 10
0.0
 20
0.0
 30
0.0
  0
VERTEX
  5
32F
330
32E
100
AcDbEntity
  8
_U+30EC_U+30A4_U+30E4_U+30FC 1
 62
     7
420
 16777215
370
     9
100
AcDbVertex
100
AcDb2dVertex
 10
85.96890836230598
 20
-129.4456671898608
 30
0.0
  0
VERTEX
  5
330
330
32E
100
AcDbEntity
  8
_U+30EC_U+30A4_U+30E4_U+30FC 1
 62
     7
420
 16777215
370
     9
100
AcDbVertex
100
AcDb2dVertex
 10
85.96890836230598
 20
-144.4456019083332
 30
0.0
  0
SEQEND
  5
331
330
32E
100
AcDbEntity
  8
_U+30EC_U+30A4_U+30E4_U+30FC 1
 62
     7
420
 16777215
370
     9
  0
POLYLINE
  5
332
330
1F
100
AcDbEntity
  8
_U+30EC_U+30A4_U+30E4_U+30FC 1
 62
     7
420
 16777215
370
     9
100
AcDb2dPolyline
 66
     1
 10
0.0
 20
0.0
 30
0.0
  0
VERTEX
  5
333
330
332
100
AcDbEntity
  8
_U+30EC_U+30A4_U+30E4_U+30FC 1
 62
     7
420
 16777215
370
     9
100
AcDbVertex
100
AcDb2dVertex
 10
78.34421661238363
 20
-136.2070060770591
 30
0.0
  0
VERTEX
  5
334
330
332
100
AcDbEntity
  8
_U+30EC_U+30A4_U+30E4_U+30FC 1
 62
     7
420
 16777215
370
     9
100
AcDbVertex
100
AcDb2dVertex
 10
78.34421661238363
 20
-130.2456260785495
 30
0.0
  0
SEQEND
  5
335
330
332
100
AcDbEntity
  8
_U+30EC_U+30A4_U+30E4_U+30FC 1
 62
     7
420
 16777215
370
     9
  0
SPLINE
  5
336
330
1F
100
AcDbEntity
  8
_U+30EC_U+30A4_U+30E4_U+30FC 1
 62
     7
420
 16777215
370
     9
100
AcDbSpline
210
0.0
220
0.0
230
1.0
 70
     8
 71
     3
 72
    11
 73
     7
 74
     0
 42
0.0000000001
 43
0.0000000001
 12
1.0
 22
0.0
 32
0.0
 13
1.0
 23
0.0
 33
0.0
 40
0.0
 40
0.0
 40
0.0
 40
0.0
 40
1.0
 40
1.0
 40
1.0
 40
2.0
 40
2.0
 40
2.0
 40
2.0
 10
85.96890836230598
 20
-144.1148727417492
 30
0.0
 10
85.96890836230598
 20
-144.1148727417492
 30
0.0
 10
85.96890836230598
 20
-144.1148727417492
 30
0.0
 10
85.96890836230598
 20
-144.1148727417492
 30
0.0
 10
85.96890836230598
 20
-143.6849424640785
 30
0.0
 10
85.62921864874997
 20
-143.331459130834
 30
0.0
 10
85.1999586597013
 20
-143.3156194086155
 30
0.0
  0
SPLINE
  5
337
330
1F
100
AcDbEntity
  8
_U+30EC_U+30A4_U+30E4_U+30FC 1
 62
     7
420
 16777215
370
     9
100
AcDbSpline
210
0.0
220
0.0
230
1.0
 70
    11
 71
     3
 72
    17
 73
    13
 74
     0
 42
0.0000000001
 43
0.0000000001
 12
1.0
 22
0.0
 32
0.0
 13
1.0
 23
0.0
 33
0.0
 40
0.0
 40
0.0
 40
0.0
 40
0.0
 40
1.0
 40
1.0
 40
1.0
 40
2.0
 40
2.0
 40
2.0
 40
3.0
 40
3.0
 40
3.0
 40
4.0
 40
4.0
 40
4.0
 40
4.0
 10
84.03173507839405
 20
-133.1949541333678
 30
0.0
 10
84.03173507839405
 20
-132.8845802445569
 30
0.0
 10
83.77988702926368
 20
-132.6330849668419
 30
0.0
 10
83.4691603705243
 20
-132.6330849668419
 30
0.0
 10
83.15910398954561
 20
-132.6330849668419
 30
0.0
 10
82.90690316264646
 20
-132.8845802445569
 30
0.0
 10
82.90690316264646
 20
-133.1949541333678
 30
0.0
 10
82.90690316264646
 20
-133.5060688555124
 30
0.0
 10
83.15910398954561
 20
-133.7582344110048
 30
0.0
 10
83.4691603705243
 20
-133.7582344110048
 30
0.0
 10
83.77988702926368
 20
-133.7582344110048
 30
0.0
 10
84.03173507839405
 20
-133.5060688555124
 30
0.0
 10
84.03173507839405
 20
-133.1949541333678
 30
0.0
  0
SPLINE
  5
338
330
1F
100
AcDbEntity
  8
_U+30EC_U+30A4_U+30E4_U+30FC 1
 62
     7
420
 16777215
370
     9
100
AcDbSpline
210
0.0
220
0.0
230
1.0
 70
    11
 71
     3
 72
    17
 73
    13
 74
     0
 42
0.0000000001
 43
0.0000000001
 12
1.0
 22
0.0
 32
0.0
 13
1.0
 23
0.0
 33
0.0
 40
0.0
 40
0.0
 40
0.0
 40
0.0
 40
1.0
 40
1.0
 40
1.0
 40
2.0
 40
2.0
 40
2.0
 40
3.0
 40
3.0
 40
3.0
 40
4.0
 40
4.0
 40
4.0
 40
4.0
 10
84.21881312917685
 20
-133.1949541333678
 30
0.0
 10
84.21881312917685
 20
-132.7812163556933
 30
0.0
 10
83.88360369328431
 20
-132.4453013557774
 30
0.0
 10
83.4691603705243
 20
-132.4453013557774
 30
0.0
 10
83.05503454775621
 20
-132.4453013557774
 30
0.0
 10
82.71880205633421
 20
-132.7812163556933
 30
0.0
 10
82.71880205633421
 20
-133.1949541333678
 30
0.0
 10
82.71880205633421
 20
-133.6094327443753
 30
0.0
 10
83.05503454775621
 20
-133.9456652442914
 30
0.0
 10
83.4691603705243
 20
-133.9456652442914
 30
0.0
 10
83.88360369328431
 20
-133.9456652442914
 30
0.0
 10
84.21881312917685
 20
-133.6094327443753
 30
0.0
 10
84.21881312917685
 20
-133.1949541333678
 30
0.0
  0
POLYLINE
  5
339
330
1F
100
AcDbEntity
  8
_U+30EC_U+30A4_U+30E4_U+30FC 1
  6
AI-Linetype-28
 62
     7
420
 16777215
370
     9
100
AcDb2dPolyline
 66
     1
 10
0.0
 20
0.0
 30
0.0
  0
VERTEX
  5
33A
330
339
100
AcDbEntity
  8
_U+30EC_U+30A4_U+30E4_U+30FC 1
  6
AI-Linetype-28
 62
     7
420
 16777215
370
     9
100
AcDbVertex
100
AcDb2dVertex
 10
83.4691603705243
 20
-134.6953180218818
 30
0.0
  0
VERTEX
  5
33B
330
339
100
AcDbEntity
  8
_U+30EC_U+30A4_U+30E4_U+30FC 1
  6
AI-Linetype-28
 62
     7
420
 16777215
370
     9
100
AcDbVertex
100
AcDb2dVertex
 10
83.4691603705243
 20
-131.6953310781875
 30
0.0
  0
SEQEND
  5
33D
330
339
100
AcDbEntity
  8
_U+30EC_U+30A4_U+30E4_U+30FC 1
  6
AI-Linetype-28
 62
     7
420
 16777215
370
     9
  0
POLYLINE
  5
33E
330
1F
100
AcDbEntity
  8
_U+30EC_U+30A4_U+30E4_U+30FC 1
  6
AI-Linetype-29
 62
     7
420
 16777215
370
     9
100
AcDb2dPolyline
 66
     1
 10
0.0
 20
0.0
 30
0.0
  0
VERTEX
  5
33F
330
33E
100
AcDbEntity
  8
_U+30EC_U+30A4_U+30E4_U+30FC 1
  6
AI-Linetype-29
 62
     7
420
 16777215
370
     9
100
AcDbVertex
100
AcDb2dVertex
 10
81.96914929768167
 20
-133.1949541333678
 30
0.0
  0
VERTEX
  5
340
330
33E
100
AcDbEntity
  8
_U+30EC_U+30A4_U+30E4_U+30FC 1
  6
AI-Linetype-29
 62
     7
420
 16777215
370
     9
100
AcDbVertex
100
AcDb2dVertex
 10
84.96948894335885
 20
-133.1949541333678
 30
0.0
  0
SEQEND
  5
342
330
33E
100
AcDbEntity
  8
_U+30EC_U+30A4_U+30E4_U+30FC 1
  6
AI-Linetype-29
 62
     7
420
 16777215
370
     9
  0
POLYLINE
  5
343
330
1F
100
AcDbEntity
  8
_U+30EC_U+30A4_U+30E4_U+30FC 1
  6
AI-Linetype-30
 62
     7
420
 16777215
370
     9
100
AcDb2dPolyline
 66
     1
 10
0.0
 20
0.0
 30
0.0
  0
VERTEX
  5
344
330
343
100
AcDbEntity
  8
_U+30EC_U+30A4_U+30E4_U+30FC 1
  6
AI-Linetype-30
 62
     7
420
 16777215
370
     9
100
AcDbVertex
100
AcDb2dVertex
 10
76.65645721099752
 20
-133.1949541333678
 30
0.0
  0
VERTEX
  5
345
330
343
100
AcDbEntity
  8
_U+30EC_U+30A4_U+30E4_U+30FC 1
  6
AI-Linetype-30
 62
     7
420
 16777215
370
     9
100
AcDbVertex
100
AcDb2dVertex
 10
78.90714409802216
 20
-133.1949541333678
 30
0.0
  0
SEQEND
  5
347
330
343
100
AcDbEntity
  8
_U+30EC_U+30A4_U+30E4_U+30FC 1
  6
AI-Linetype-30
 62
     7
420
 16777215
370
     9
  0
POLYLINE
  5
348
330
1F
100
AcDbEntity
  8
_U+30EC_U+30A4_U+30E4_U+30FC 1
  6
AI-Linetype-31
 62
     7
420
 16777215
370
     9
100
AcDb2dPolyline
 66
     1
 10
0.0
 20
0.0
 30
0.0
  0
VERTEX
  5
349
330
348
100
AcDbEntity
  8
_U+30EC_U+30A4_U+30E4_U+30FC 1
  6
AI-Linetype-31
 62
     7
420
 16777215
370
     9
100
AcDbVertex
100
AcDb2dVertex
 10
84.71936950529549
 20
-136.1952938548399
 30
0.0
  0
VERTEX
  5
34A
330
348
100
AcDbEntity
  8
_U+30EC_U+30A4_U+30E4_U+30FC 1
  6
AI-Linetype-31
 62
     7
420
 16777215
370
     9
100
AcDbVertex
100
AcDb2dVertex
 10
84.71936950529549
 20
-130.195672745229
 30
0.0
  0
SEQEND
  5
34C
330
348
100
AcDbEntity
  8
_U+30EC_U+30A4_U+30E4_U+30FC 1
  6
AI-Linetype-31
 62
     7
420
 16777215
370
     9
  0
POLYLINE
  5
34D
330
1F
100
AcDbEntity
  8
_U+30EC_U+30A4_U+30E4_U+30FC 1
  6
AI-Linetype-32
 62
     7
420
 16777215
370
     9
100
AcDb2dPolyline
 66
     1
 10
0.0
 20
0.0
 30
0.0
  0
VERTEX
  5
34E
330
34D
100
AcDbEntity
  8
_U+30EC_U+30A4_U+30E4_U+30FC 1
  6
AI-Linetype-32
 62
     7
420
 16777215
370
     9
100
AcDbVertex
100
AcDb2dVertex
 10
85.96926114007476
 20
-136.1952938548399
 30
0.0
  0
VERTEX
  5
34F
330
34D
100
AcDbEntity
  8
_U+30EC_U+30A4_U+30E4_U+30FC 1
  6
AI-Linetype-32
 62
     7
420
 16777215
370
     9
100
AcDbVertex
100
AcDb2dVertex
 10
84.71936950529549
 20
-136.1952938548399
 30
0.0
  0
SEQEND
  5
351
330
34D
100
AcDbEntity
  8
_U+30EC_U+30A4_U+30E4_U+30FC 1
  6
AI-Linetype-32
 62
     7
420
 16777215
370
     9
  0
POLYLINE
  5
352
330
1F
100
AcDbEntity
  8
_U+30EC_U+30A4_U+30E4_U+30FC 1
  6
AI-Linetype-33
 62
     7
420
 16777215
370
     9
100
AcDb2dPolyline
 66
     1
 10
0.0
 20
0.0
 30
0.0
  0
VERTEX
  5
353
330
352
100
AcDbEntity
  8
_U+30EC_U+30A4_U+30E4_U+30FC 1
  6
AI-Linetype-33
 62
     7
420
 16777215
370
     9
100
AcDbVertex
100
AcDb2dVertex
 10
85.96926114007476
 20
-130.195672745229
 30
0.0
  0
VERTEX
  5
354
330
352
100
AcDbEntity
  8
_U+30EC_U+30A4_U+30E4_U+30FC 1
  6
AI-Linetype-33
 62
     7
420
 16777215
370
     9
100
AcDbVertex
100
AcDb2dVertex
 10
84.71936950529549
 20
-130.195672745229
 30
0.0
  0
SEQEND
  5
356
330
352
100
AcDbEntity
  8
_U+30EC_U+30A4_U+30E4_U+30FC 1
  6
AI-Linetype-33
 62
     7
420
 16777215
370
     9
  0
POLYLINE
  5
357
330
1F
100
AcDbEntity
  8
_U+30EC_U+30A4_U+30E4_U+30FC 1
  6
AI-Linetype-34
 62
     7
420
 16777215
370
     9
100
AcDb2dPolyline
 66
     1
 10
0.0
 20
0.0
 30
0.0
  0
VERTEX
  5
358
330
357
100
AcDbEntity
  8
_U+30EC_U+30A4_U+30E4_U+30FC 1
  6
AI-Linetype-34
 62
     7
420
 16777215
370
     9
100
AcDbVertex
100
AcDb2dVertex
 10
77.84433051402567
 20
-132.6330849668419
 30
0.0
  0
VERTEX
  5
359
330
357
100
AcDbEntity
  8
_U+30EC_U+30A4_U+30E4_U+30FC 1
  6
AI-Linetype-34
 62
     7
420
 16777215
370
     9
100
AcDbVertex
100
AcDb2dVertex
 10
77.84433051402567
 20
-133.7582344110048
 30
0.0
  0
SEQEND
  5
35B
330
357
100
AcDbEntity
  8
_U+30EC_U+30A4_U+30E4_U+30FC 1
  6
AI-Linetype-34
 62
     7
420
 16777215
370
     9
  0
POLYLINE
  5
35C
330
1F
100
AcDbEntity
  8
_U+30EC_U+30A4_U+30E4_U+30FC 1
  6
AI-Linetype-35
 62
     7
420
 16777215
370
     9
100
AcDb2dPolyline
 66
     1
 10
0.0
 20
0.0
 30
0.0
  0
VERTEX
  5
35D
330
35C
100
AcDbEntity
  8
_U+30EC_U+30A4_U+30E4_U+30FC 1
  6
AI-Linetype-35
 62
     7
420
 16777215
370
     9
100
AcDbVertex
100
AcDb2dVertex
 10
78.34421661238363
 20
-133.9456652442914
 30
0.0
  0
VERTEX
  5
35E
330
35C
100
AcDbEntity
  8
_U+30EC_U+30A4_U+30E4_U+30FC 1
  6
AI-Linetype-35
 62
     7
420
 16777215
370
     9
100
AcDbVertex
100
AcDb2dVertex
 10
77.84433051402567
 20
-133.7582344110048
 30
0.0
  0
SEQEND
  5
360
330
35C
100
AcDbEntity
  8
_U+30EC_U+30A4_U+30E4_U+30FC 1
  6
AI-Linetype-35
 62
     7
420
 16777215
370
     9
  0
POLYLINE
  5
361
330
1F
100
AcDbEntity
  8
_U+30EC_U+30A4_U+30E4_U+30FC 1
  6
AI-Linetype-36
 62
     7
420
 16777215
370
     9
100
AcDb2dPolyline
 66
     1
 10
0.0
 20
0.0
 30
0.0
  0
VERTEX
  5
362
330
361
100
AcDbEntity
  8
_U+30EC_U+30A4_U+30E4_U+30FC 1
  6
AI-Linetype-36
 62
     7
420
 16777215
370
     9
100
AcDbVertex
100
AcDb2dVertex
 10
77.21973747440481
 20
-133.7582344110048
 30
0.0
  0
VERTEX
  5
363
330
361
100
AcDbEntity
  8
_U+30EC_U+30A4_U+30E4_U+30FC 1
  6
AI-Linetype-36
 62
     7
420
 16777215
370
     9
100
AcDbVertex
100
AcDb2dVertex
 10
77.84433051402567
 20
-133.7582344110048
 30
0.0
  0
SEQEND
  5
365
330
361
100
AcDbEntity
  8
_U+30EC_U+30A4_U+30E4_U+30FC 1
  6
AI-Linetype-36
 62
     7
420
 16777215
370
     9
  0
POLYLINE
  5
366
330
1F
100
AcDbEntity
  8
_U+30EC_U+30A4_U+30E4_U+30FC 1
  6
AI-Linetype-37
 62
     7
420
 16777215
370
     9
100
AcDb2dPolyline
 66
     1
 10
0.0
 20
0.0
 30
0.0
  0
VERTEX
  5
367
330
366
100
AcDbEntity
  8
_U+30EC_U+30A4_U+30E4_U+30FC 1
  6
AI-Linetype-37
 62
     7
420
 16777215
370
     9
100
AcDbVertex
100
AcDb2dVertex
 10
77.21973747440481
 20
-132.6330849668419
 30
0.0
  0
VERTEX
  5
368
330
366
100
AcDbEntity
  8
_U+30EC_U+30A4_U+30E4_U+30FC 1
  6
AI-Linetype-37
 62
     7
420
 16777215
370
     9
100
AcDbVertex
100
AcDb2dVertex
 10
77.84433051402567
 20
-132.6330849668419
 30
0.0
  0
SEQEND
  5
36A
330
366
100
AcDbEntity
  8
_U+30EC_U+30A4_U+30E4_U+30FC 1
  6
AI-Linetype-37
 62
     7
420
 16777215
370
     9
  0
POLYLINE
  5
36B
330
1F
100
AcDbEntity
  8
_U+30EC_U+30A4_U+30E4_U+30FC 1
  6
AI-Linetype-38
 62
     7
420
 16777215
370
     9
100
AcDb2dPolyline
 66
     1
 10
0.0
 20
0.0
 30
0.0
  0
VERTEX
  5
36C
330
36B
100
AcDbEntity
  8
_U+30EC_U+30A4_U+30E4_U+30FC 1
  6
AI-Linetype-38
 62
     7
420
 16777215
370
     9
100
AcDbVertex
100
AcDb2dVertex
 10
78.34421661238363
 20
-132.4456541335552
 30
0.0
  0
VERTEX
  5
36D
330
36B
100
AcDbEntity
  8
_U+30EC_U+30A4_U+30E4_U+30FC 1
  6
AI-Linetype-38
 62
     7
420
 16777215
370
     9
100
AcDbVertex
100
AcDb2dVertex
 10
77.84433051402567
 20
-132.6330849668419
 30
0.0
  0
SEQEND
  5
36F
330
36B
100
AcDbEntity
  8
_U+30EC_U+30A4_U+30E4_U+30FC 1
  6
AI-Linetype-38
 62
     7
420
 16777215
370
     9
  0
ENDSEC
  0
SECTION
  2
OBJECTS
  0
DICTIONARY
  5
C
330
0
100
AcDbDictionary
281
     1
  3
ACAD_GROUP
350
D
  3
ACAD_LAYOUT
350
1A
  3
ACAD_MATERIAL
350
3B
  3
ACAD_MLEADERSTYLE
350
371
  3
ACAD_MLINESTYLE
350
17
  3
ACAD_PLOTSETTINGS
350
19
  3
ACAD_PLOTSTYLENAME
350
E
  3
ACAD_TABLESTYLE
350
370
  3
ACAD_VISUALSTYLE
350
2A
  0
SUN
  5
3F
330
29
100
AcDbSun
 90
        1
290
     0
 63
     7
421
 16777215
 40
1.0
291
     1
 91
  2455826
 92
 54000000
292
     0
 70
     2
 71
   256
280
     1
  0
DICTIONARY
  5
D
102
{ACAD_REACTORS
330
C
102
}
330
C
100
AcDbDictionary
281
     1
  0
DICTIONARY
  5
1A
102
{ACAD_REACTORS
330
C
102
}
330
C
100
AcDbDictionary
281
     1
  3
Layout1
350
1E
  3
Layout2
350
26
  3
Model
350
22
  0
DICTIONARY
  5
3B
102
{ACAD_REACTORS
330
C
102
}
330
C
100
AcDbDictionary
281
     1
  3
ByBlock
350
3D
  3
ByLayer
350
3C
  3
Global
350
3E
  0
DICTIONARY
  5
371
102
{ACAD_REACTORS
330
C
102
}
330
C
100
AcDbDictionary
281
     1
  0
DICTIONARY
  5
17
102
{ACAD_REACTORS
330
C
102
}
330
C
100
AcDbDictionary
281
     1
  3
Standard
350
18
  0
DICTIONARY
  5
19
102
{ACAD_REACTORS
330
C
102
}
330
C
100
AcDbDictionary
281
     1
  0
ACDBDICTIONARYWDFLT
  5
E
102
{ACAD_REACTORS
330
C
102
}
330
C
100
AcDbDictionary
281
     1
  3
Normal
350
F
100
AcDbDictionaryWithDefault
340
F
  0
DICTIONARY
  5
370
102
{ACAD_REACTORS
330
C
102
}
330
C
100
AcDbDictionary
281
     1
  0
DICTIONARY
  5
2A
102
{ACAD_REACTORS
330
C
102
}
330
C
100
AcDbDictionary
281
     1
  3
2dWireframe
350
2F
  3
3D Hidden
350
31
  3
3dWireframe
350
30
  3
Basic
350
32
  3
Brighten
350
36
  3
ColorChange
350
3A
  3
Conceptual
350
34
  3
Dim
350
35
  3
Facepattern
350
39
  3
Flat
350
2B
  3
FlatWithEdges
350
2C
  3
Gouraud
350
2D
  3
GouraudWithEdges
350
2E
  3
Linepattern
350
38
  3
Realistic
350
33
  3
Thicken
350
37
  0
LAYOUT
  5
1E
102
{ACAD_REACTORS
330
1A
102
}
330
1A
100
AcDbPlotSettings
  1

  2
none_device
  4

  6

 40
0.0
 41
0.0
 42
0.0
 43
0.0
 44
0.0
 45
0.0
 46
0.0
 47
0.0
 48
0.0
 49
0.0
140
0.0
141
0.0
142
1.0
143
1.0
 70
   688
 72
     0
 73
     0
 74
     5
  7

 75
    16
 76
     0
 77
     2
 78
   300
147
1.0
148
0.0
149
0.0
100
AcDbLayout
  1
Layout1
 70
     1
 71
     1
 10
0.0
 20
0.0
 11
12.0
 21
9.0
 12
0.0
 22
0.0
 32
0.0
 14
1.000000000000000E+20
 24
1.000000000000000E+20
 34
1.000000000000000E+20
 15
-1.000000000000000E+20
 25
-1.000000000000000E+20
 35
-1.000000000000000E+20
146
0.0
 13
0.0
 23
0.0
 33
0.0
 16
1.0
 26
0.0
 36
0.0
 17
0.0
 27
1.0
 37
0.0
 76
     0
330
1B
  0
LAYOUT
  5
26
102
{ACAD_REACTORS
330
1A
102
}
330
1A
100
AcDbPlotSettings
  1

  2
none_device
  4

  6

 40
0.0
 41
0.0
 42
0.0
 43
0.0
 44
0.0
 45
0.0
 46
0.0
 47
0.0
 48
0.0
 49
0.0
140
0.0
141
0.0
142
1.0
143
1.0
 70
   688
 72
     0
 73
     0
 74
     5
  7

 75
    16
 76
     0
 77
     2
 78
   300
147
1.0
148
0.0
149
0.0
100
AcDbLayout
  1
Layout2
 70
     1
 71
     2
 10
0.0
 20
0.0
 11
0.0
 21
0.0
 12
0.0
 22
0.0
 32
0.0
 14
0.0
 24
0.0
 34
0.0
 15
0.0
 25
0.0
 35
0.0
146
0.0
 13
0.0
 23
0.0
 33
0.0
 16
1.0
 26
0.0
 36
0.0
 17
0.0
 27
1.0
 37
0.0
 76
     0
330
23
  0
LAYOUT
  5
22
102
{ACAD_REACTORS
330
1A
102
}
330
1A
100
AcDbPlotSettings
  1

  2
none_device
  4

  6

 40
0.0
 41
0.0
 42
0.0
 43
0.0
 44
0.0
 45
0.0
 46
0.0
 47
0.0
 48
0.0
 49
0.0
140
0.0
141
0.0
142
1.0
143
1.0
 70
  1712
 72
     0
 73
     0
 74
     0
  7

 75
     0
 76
     0
 77
     2
 78
   300
147
1.0
148
0.0
149
0.0
100
AcDbLayout
  1
Model
 70
     1
 71
     0
 10
0.0
 20
0.0
 11
12.0
 21
9.0
 12
0.0
 22
0.0
 32
0.0
 14
1.000000000000000E+20
 24
1.000000000000000E+20
 34
1.000000000000000E+20
 15
-1.000000000000000E+20
 25
-1.000000000000000E+20
 35
-1.000000000000000E+20
146
0.0
 13
0.0
 23
0.0
 33
0.0
 16
1.0
 26
0.0
 36
0.0
 17
0.0
 27
1.0
 37
0.0
 76
     0
330
1F
331
29
  0
MATERIAL
  5
3D
102
{ACAD_REACTORS
330
3B
102
}
330
3B
100
AcDbMaterial
  1
ByBlock
 72
     1
 94
      127
  0
MATERIAL
  5
3C
102
{ACAD_REACTORS
330
3B
102
}
330
3B
100
AcDbMaterial
  1
ByLayer
 72
     1
 94
      127
  0
MATERIAL
  5
3E
102
{ACAD_REACTORS
330
3B
102
}
330
3B
100
AcDbMaterial
  1
Global
 72
     1
 94
      127
  0
MLINESTYLE
  5
18
102
{ACAD_REACTORS
330
17
102
}
330
17
100
AcDbMlineStyle
  2
Standard
 70
     0
  3

 62
   256
 51
90.0
 52
90.0
 71
     2
 49
0.5
 62
   256
  6
BYLAYER
 49
-0.5
 62
   256
  6
BYLAYER
  0
ACDBPLACEHOLDER
  5
F
102
{ACAD_REACTORS
330
E
102
}
330
E
  0
VISUALSTYLE
  5
2F
102
{ACAD_REACTORS
330
2A
102
}
330
2A
100
AcDbVisualStyle
  2
2dWireframe
 70
     4
177
     2
291
     0
 71
     0
176
     1
 72
     2
176
     1
 73
     0
176
     1
 90
        0
176
     1
 40
-0.6
176
     1
 41
-30.0
176
     1
 62
     5
 63
     7
421
 16777215
176
     1
 74
     1
176
     1
 91
        4
176
     1
 64
     7
176
     1
 65
   257
176
     1
 75
     1
176
     1
175
     1
176
     1
 42
1.0
176
     1
 92
        0
176
     1
 66
   257
176
     1
 43
1.0
176
     1
 76
     1
176
     1
 77
     6
176
     1
 78
     2
176
     1
 67
     7
176
     1
 79
     5
176
     1
170
     0
176
     1
171
     0
176
     1
290
     0
176
     1
 93
        1
176
     1
 44
0.0
176
     1
173
     0
176
     1
  0
VISUALSTYLE
  5
31
102
{ACAD_REACTORS
330
2A
102
}
330
2A
100
AcDbVisualStyle
  2
3D Hidden
 70
     6
177
     2
291
     0
 71
     1
176
     1
 72
     2
176
     1
 73
     2
176
     1
 90
        0
176
     1
 40
-0.6
176
     1
 41
-30.0
176
     1
 62
     5
 63
     7
421
 16777215
176
     1
 74
     2
176
     1
 91
        2
176
     1
 64
     7
176
     1
 65
   257
176
     1
 75
     2
176
     1
175
     1
176
     1
 42
40.0
176
     1
 92
        0
176
     1
 66
   257
176
     1
 43
1.0
176
     1
 76
     1
176
     1
 77
     6
176
     1
 78
     2
176
     1
 67
     7
176
     1
 79
     3
176
     1
170
     0
176
     1
171
     0
176
     1
290
     0
176
     1
 93
        1
176
     1
 44
0.0
176
     1
173
     0
176
     1
  0
VISUALSTYLE
  5
30
102
{ACAD_REACTORS
330
2A
102
}
330
2A
100
AcDbVisualStyle
  2
3dWireframe
 70
     5
177
     2
291
     0
 71
     0
176
     1
 72
     2
176
     1
 73
     0
176
     1
 90
        0
176
     1
 40
-0.6
176
     1
 41
-30.0
176
     1
 62
     5
 63
     7
421
 16777215
176
     1
 74
     1
176
     1
 91
        4
176
     1
 64
     7
176
     1
 65
   257
176
     1
 75
     1
176
     1
175
     1
176
     1
 42
1.0
176
     1
 92
        0
176
     1
 66
   257
176
     1
 43
1.0
176
     1
 76
     1
176
     1
 77
     6
176
     1
 78
     2
176
     1
 67
     7
176
     1
 79
     5
176
     1
170
     0
176
     1
171
     0
176
     1
290
     0
176
     1
 93
        1
176
     1
 44
0.0
176
     1
173
     0
176
     1
  0
VISUALSTYLE
  5
32
102
{ACAD_REACTORS
330
2A
102
}
330
2A
100
AcDbVisualStyle
  2
Basic
 70
     7
177
     2
291
     1
 71
     1
176
     1
 72
     0
176
     1
 73
     1
176
     1
 90
        0
176
     1
 40
-0.6
176
     1
 41
-30.0
176
     1
 62
     5
 63
     7
421
 16777215
176
     1
 74
     0
176
     1
 91
        4
176
     1
 64
     7
176
     1
 65
   257
176
     1
 75
     1
176
     1
175
     1
176
     1
 42
1.0
176
     1
 92
        8
176
     1
 66
     7
176
     1
 43
1.0
176
     1
 76
     1
176
     1
 77
     6
176
     1
 78
     2
176
     1
 67
     7
176
     1
 79
     5
176
     1
170
     0
176
     1
171
     0
176
     1
290
     0
176
     1
 93
        1
176
     1
 44
0.0
176
     1
173
     0
176
     1
  0
VISUALSTYLE
  5
36
102
{ACAD_REACTORS
330
2A
102
}
330
2A
100
AcDbVisualStyle
  2
Brighten
 70
    12
177
     2
291
     1
 71
     2
176
     1
 72
     2
176
     1
 73
     0
176
     1
 90
        0
176
     1
 40
-0.6
176
     1
 41
-30.0
176
     1
 62
     5
 63
     7
421
 16777215
176
     1
 74
     1
176
     1
 91
        4
176
     1
 64
     7
176
     1
 65
   257
176
     1
 75
     1
176
     1
175
     1
176
     1
 42
1.0
176
     1
 92
        8
176
     1
 66
     7
176
     1
 43
1.0
176
     1
 76
     1
176
     1
 77
     6
176
     1
 78
     2
176
     1
 67
     7
176
     1
 79
     5
176
     1
170
     0
176
     1
171
     0
176
     1
290
     0
176
     1
 93
        1
176
     1
 44
50.0
176
     1
173
     0
176
     1
  0
VISUALSTYLE
  5
3A
102
{ACAD_REACTORS
330
2A
102
}
330
2A
100
AcDbVisualStyle
  2
ColorChange
 70
    16
177
     2
291
     1
 71
     2
176
     1
 72
     2
176
     1
 73
     3
176
     1
 90
        0
176
     1
 40
-0.6
176
     1
 41
-30.0
176
     1
 62
     5
 63
     8
421
  8421504
176
     1
 74
     1
176
     1
 91
        4
176
     1
 64
     7
176
     1
 65
   257
176
     1
 75
     1
176
     1
175
     1
176
     1
 42
1.0
176
     1
 92
        8
176
     1
 66
     8
424
  8421504
176
     1
 43
1.0
176
     1
 76
     1
176
     1
 77
     6
176
     1
 78
     2
176
     1
 67
     7
176
     1
 79
     5
176
     1
170
     0
176
     1
171
     0
176
     1
290
     0
176
     1
 93
        1
176
     1
 44
0.0
176
     1
173
     0
176
     1
  0
VISUALSTYLE
  5
34
102
{ACAD_REACTORS
330
2A
102
}
330
2A
100
AcDbVisualStyle
  2
Conceptual
 70
     9
177
     2
291
     0
 71
     3
176
     1
 72
     2
176
     1
 73
     0
176
     1
 90
        0
176
     1
 40
-0.6
176
     1
 41
-30.0
176
     1
 62
     5
 63
     7
421
 16777215
176
     1
 74
     2
176
     1
 91
        2
176
     1
 64
     7
176
     1
 65
   257
176
     1
 75
     1
176
     1
175
     1
176
     1
 42
40.0
176
     1
 92
        8
176
     1
 66
     7
176
     1
 43
1.0
176
     1
 76
     1
176
     1
 77
     6
176
     1
 78
     2
176
     1
 67
     7
176
     1
 79
     3
176
     1
170
     0
176
     1
171
     0
176
     1
290
     0
176
     1
 93
        1
176
     1
 44
0.0
176
     1
173
     0
176
     1
  0
VISUALSTYLE
  5
35
102
{ACAD_REACTORS
330
2A
102
}
330
2A
100
AcDbVisualStyle
  2
Dim
 70
    11
177
     2
291
     1
 71
     2
176
     1
 72
     2
176
     1
 73
     0
176
     1
 90
        0
176
     1
 40
-0.6
176
     1
 41
-30.0
176
     1
 62
     5
 63
     7
421
 16777215
176
     1
 74
     1
176
     1
 91
        4
176
     1
 64
     7
176
     1
 65
   257
176
     1
 75
     1
176
     1
175
     1
176
     1
 42
1.0
176
     1
 92
        8
176
     1
 66
     7
176
     1
 43
1.0
176
     1
 76
     1
176
     1
 77
     6
176
     1
 78
     2
176
     1
 67
     7
176
     1
 79
     5
176
     1
170
     0
176
     1
171
     0
176
     1
290
     0
176
     1
 93
        1
176
     1
 44
-50.0
176
     1
173
     0
176
     1
  0
VISUALSTYLE
  5
39
102
{ACAD_REACTORS
330
2A
102
}
330
2A
100
AcDbVisualStyle
  2
Facepattern
 70
    15
177
     2
291
     1
 71
     2
176
     1
 72
     2
176
     1
 73
     0
176
     1
 90
        0
176
     1
 40
-0.6
176
     1
 41
-30.0
176
     1
 62
     5
 63
     7
421
 16777215
176
     1
 74
     1
176
     1
 91
        4
176
     1
 64
     7
176
     1
 65
   257
176
     1
 75
     1
176
     1
175
     1
176
     1
 42
1.0
176
     1
 92
        8
176
     1
 66
     7
176
     1
 43
1.0
176
     1
 76
     1
176
     1
 77
     6
176
     1
 78
     2
176
     1
 67
     7
176
     1
 79
     5
176
     1
170
     0
176
     1
171
     0
176
     1
290
     0
176
     1
 93
        1
176
     1
 44
0.0
176
     1
173
     0
176
     1
  0
VISUALSTYLE
  5
2B
102
{ACAD_REACTORS
330
2A
102
}
330
2A
100
AcDbVisualStyle
  2
Flat
 70
     0
177
     2
291
     1
 71
     2
176
     1
 72
     1
176
     1
 73
     1
176
     1
 90
        2
176
     1
 40
-0.6
176
     1
 41
30.0
176
     1
 62
     5
 63
     7
421
 16777215
176
     1
 74
     0
176
     1
 91
        4
176
     1
 64
     7
176
     1
 65
   257
176
     1
 75
     1
176
     1
175
     1
176
     1
 42
1.0
176
     1
 92
        8
176
     1
 66
     7
176
     1
 43
1.0
176
     1
 76
     1
176
     1
 77
     6
176
     1
 78
     2
176
     1
 67
     7
176
     1
 79
     5
176
     1
170
     0
176
     1
171
     0
176
     1
290
     0
176
     1
 93
       13
176
     1
 44
0.0
176
     1
173
     0
176
     1
  0
VISUALSTYLE
  5
2C
102
{ACAD_REACTORS
330
2A
102
}
330
2A
100
AcDbVisualStyle
  2
FlatWithEdges
 70
     1
177
     2
291
     1
 71
     2
176
     1
 72
     1
176
     1
 73
     1
176
     1
 90
        2
176
     1
 40
-0.6
176
     1
 41
30.0
176
     1
 62
     5
 63
     7
421
 16777215
176
     1
 74
     1
176
     1
 91
        4
176
     1
 64
     7
176
     1
 65
   257
176
     1
 75
     1
176
     1
175
     1
176
     1
 42
1.0
176
     1
 92
        0
176
     1
 66
   257
176
     1
 43
1.0
176
     1
 76
     1
176
     1
 77
     6
176
     1
 78
     2
176
     1
 67
     7
176
     1
 79
     5
176
     1
170
     0
176
     1
171
     0
176
     1
290
     0
176
     1
 93
       13
176
     1
 44
0.0
176
     1
173
     0
176
     1
  0
VISUALSTYLE
  5
2D
102
{ACAD_REACTORS
330
2A
102
}
330
2A
100
AcDbVisualStyle
  2
Gouraud
 70
     2
177
     2
291
     1
 71
     2
176
     1
 72
     2
176
     1
 73
     1
176
     1
 90
        2
176
     1
 40
-0.6
176
     1
 41
30.0
176
     1
 62
     5
 63
     7
421
 16777215
176
     1
 74
     0
176
     1
 91
        4
176
     1
 64
     7
176
     1
 65
   257
176
     1
 75
     1
176
     1
175
     1
176
     1
 42
1.0
176
     1
 92
        0
176
     1
 66
     7
176
     1
 43
1.0
176
     1
 76
     1
176
     1
 77
     6
176
     1
 78
     2
176
     1
 67
     7
176
     1
 79
     5
176
     1
170
     0
176
     1
171
     0
176
     1
290
     0
176
     1
 93
       13
176
     1
 44
0.0
176
     1
173
     0
176
     1
  0
VISUALSTYLE
  5
2E
102
{ACAD_REACTORS
330
2A
102
}
330
2A
100
AcDbVisualStyle
  2
GouraudWithEdges
 70
     3
177
     2
291
     1
 71
     2
176
     1
 72
     2
176
     1
 73
     1
176
     1
 90
        2
176
     1
 40
-0.6
176
     1
 41
30.0
176
     1
 62
     5
 63
     7
421
 16777215
176
     1
 74
     1
176
     1
 91
        4
176
     1
 64
     7
176
     1
 65
   257
176
     1
 75
     1
176
     1
175
     1
176
     1
 42
1.0
176
     1
 92
        0
176
     1
 66
   257
176
     1
 43
1.0
176
     1
 76
     1
176
     1
 77
     6
176
     1
 78
     2
176
     1
 67
     7
176
     1
 79
     5
176
     1
170
     0
176
     1
171
     0
176
     1
290
     0
176
     1
 93
       13
176
     1
 44
0.0
176
     1
173
     0
176
     1
  0
VISUALSTYLE
  5
38
102
{ACAD_REACTORS
330
2A
102
}
330
2A
100
AcDbVisualStyle
  2
Linepattern
 70
    14
177
     2
291
     1
 71
     2
176
     1
 72
     2
176
     1
 73
     0
176
     1
 90
        0
176
     1
 40
-0.6
176
     1
 41
-30.0
176
     1
 62
     5
 63
     7
421
 16777215
176
     1
 74
     1
176
     1
 91
        4
176
     1
 64
     7
176
     1
 65
   257
176
     1
 75
     7
176
     1
175
     7
176
     1
 42
1.0
176
     1
 92
        8
176
     1
 66
     7
176
     1
 43
1.0
176
     1
 76
     1
176
     1
 77
     6
176
     1
 78
     2
176
     1
 67
     7
176
     1
 79
     5
176
     1
170
     0
176
     1
171
     0
176
     1
290
     0
176
     1
 93
        1
176
     1
 44
0.0
176
     1
173
     0
176
     1
  0
VISUALSTYLE
  5
33
102
{ACAD_REACTORS
330
2A
102
}
330
2A
100
AcDbVisualStyle
  2
Realistic
 70
     8
177
     2
291
     0
 71
     2
176
     1
 72
     2
176
     1
 73
     0
176
     1
 90
        0
176
     1
 40
-0.6
176
     1
 41
-30.0
176
     1
 62
     5
 63
     7
421
 16777215
176
     1
 74
     1
176
     1
 91
        0
176
     1
 64
     7
176
     1
 65
   257
176
     1
 75
     1
176
     1
175
     1
176
     1
 42
1.0
176
     1
 92
        8
176
     1
 66
     8
424
  7895160
176
     1
 43
1.0
176
     1
 76
     1
176
     1
 77
     6
176
     1
 78
     2
176
     1
 67
     7
176
     1
 79
     5
176
     1
170
     0
176
     1
171
     0
176
     1
290
     0
176
     1
 93
       13
176
     1
 44
0.0
176
     1
173
     0
176
     1
  0
VISUALSTYLE
  5
37
102
{ACAD_REACTORS
330
2A
102
}
330
2A
100
AcDbVisualStyle
  2
Thicken
 70
    13
177
     2
291
     1
 71
     2
176
     1
 72
     2
176
     1
 73
     0
176
     1
 90
        0
176
     1
 40
-0.6
176
     1
 41
-30.0
176
     1
 62
     5
 63
     7
421
 16777215
176
     1
 74
     1
176
     1
 91
        4
176
     1
 64
     7
176
     1
 65
   257
176
     1
 75
     1
176
     1
175
     1
176
     1
 42
1.0
176
     1
 92
       12
176
     1
 66
     7
176
     1
 43
1.0
176
     1
 76
     1
176
     1
 77
     6
176
     1
 78
     2
176
     1
 67
     7
176
     1
 79
     5
176
     1
170
     0
176
     1
171
     0
176
     1
290
     0
176
     1
 93
        1
176
     1
 44
0.0
176
     1
173
     0
176
     1
  0
ENDSEC
  0
EOF
