  0
SECTION
  2
HEADER
  9
$ACADVER
  1
AC1024
  9
$ACADMAINTVER
 70
   226
  9
$DWGCODEPAGE
  3
ANSI_932
  9
$INSBASE
 10
0.0
 20
0.0
 30
0.0
  9
$EXTMIN
 10
1.000000000000000E+20
 20
1.000000000000000E+20
 30
1.000000000000000E+20
  9
$EXTMAX
 10
-1.000000000000000E+20
 20
-1.000000000000000E+20
 30
-1.000000000000000E+20
  9
$LIMMIN
 10
0.0
 20
0.0
  9
$LIMMAX
 10
12.0
 20
9.0
  9
$ORTHOMODE
 70
     0
  9
$REGENMODE
 70
     1
  9
$FILLMODE
 70
     1
  9
$QTEXTMODE
 70
     0
  9
$MIRRTEXT
 70
     0
  9
$LTSCALE
 40
1.0
  9
$ATTMODE
 70
     1
  9
$TEXTSIZE
 40
0.2
  9
$TRACEWID
 40
0.05
  9
$TEXTSTYLE
  7
Standard
  9
$CLAYER
  8
0
  9
$CELTYPE
  6
ByLayer
  9
$CECOLOR
 62
   256
  9
$CELTSCALE
 40
1.0
  9
$DISPSILH
 70
     0
  9
$DIMSCALE
 40
1.0
  9
$DIMASZ
 40
0.18
  9
$DIMEXO
 40
0.0625
  9
$DIMDLI
 40
0.38
  9
$DIMRND
 40
0.0
  9
$DIMDLE
 40
0.0
  9
$DIMEXE
 40
0.18
  9
$DIMTP
 40
0.0
  9
$DIMTM
 40
0.0
  9
$DIMTXT
 40
0.18
  9
$DIMCEN
 40
0.09
  9
$DIMTSZ
 40
0.0
  9
$DIMTOL
 70
     0
  9
$DIMLIM
 70
     0
  9
$DIMTIH
 70
     1
  9
$DIMTOH
 70
     1
  9
$DIMSE1
 70
     0
  9
$DIMSE2
 70
     0
  9
$DIMTAD
 70
     0
  9
$DIMZIN
 70
     0
  9
$DIMBLK
  1

  9
$DIMASO
 70
     1
  9
$DIMSHO
 70
     1
  9
$DIMPOST
  1

  9
$DIMAPOST
  1

  9
$DIMALT
 70
     0
  9
$DIMALTD
 70
     2
  9
$DIMALTF
 40
25.4
  9
$DIMLFAC
 40
1.0
  9
$DIMTOFL
 70
     0
  9
$DIMTVP
 40
0.0
  9
$DIMTIX
 70
     0
  9
$DIMSOXD
 70
     0
  9
$DIMSAH
 70
     0
  9
$DIMBLK1
  1

  9
$DIMBLK2
  1

  9
$DIMSTYLE
  2
Standard
  9
$DIMCLRD
 70
     0
  9
$DIMCLRE
 70
     0
  9
$DIMCLRT
 70
     0
  9
$DIMTFAC
 40
1.0
  9
$DIMGAP
 40
0.09
  9
$DIMJUST
 70
     0
  9
$DIMSD1
 70
     0
  9
$DIMSD2
 70
     0
  9
$DIMTOLJ
 70
     1
  9
$DIMTZIN
 70
     0
  9
$DIMALTZ
 70
     0
  9
$DIMALTTZ
 70
     0
  9
$DIMUPT
 70
     0
  9
$DIMDEC
 70
     4
  9
$DIMTDEC
 70
     4
  9
$DIMALTU
 70
     2
  9
$DIMALTTD
 70
     2
  9
$DIMTXSTY
  7
Standard
  9
$DIMAUNIT
 70
     0
  9
$DIMADEC
 70
     0
  9
$DIMALTRND
 40
0.0
  9
$DIMAZIN
 70
     0
  9
$DIMDSEP
 70
    46
  9
$DIMATFIT
 70
     3
  9
$DIMFRAC
 70
     0
  9
$DIMLDRBLK
  1

  9
$DIMLUNIT
 70
     2
  9
$DIMLWD
 70
    -2
  9
$DIMLWE
 70
    -2
  9
$DIMTMOVE
 70
     0
  9
$DIMFXL
 40
1.0
  9
$DIMFXLON
 70
     0
  9
$DIMJOGANG
 40
0.7853981633974483
  9
$DIMTFILL
 70
     0
  9
$DIMTFILLCLR
 70
     0
  9
$DIMARCSYM
 70
     0
  9
$DIMLTYPE
  6

  9
$DIMLTEX1
  6

  9
$DIMLTEX2
  6

  9
$DIMTXTDIRECTION
 70
     0
  9
$LUNITS
 70
     2
  9
$LUPREC
 70
     4
  9
$SKETCHINC
 40
0.1
  9
$FILLETRAD
 40
0.0
  9
$AUNITS
 70
     0
  9
$AUPREC
 70
     0
  9
$MENU
  1
.
  9
$ELEVATION
 40
0.0
  9
$PELEVATION
 40
0.0
  9
$THICKNESS
 40
0.0
  9
$LIMCHECK
 70
     0
  9
$CHAMFERA
 40
0.0
  9
$CHAMFERB
 40
0.0
  9
$CHAMFERC
 40
0.0
  9
$CHAMFERD
 40
0.0
  9
$SKPOLY
 70
     0
  9
$TDCREATE
 40
2459569.490543981
  9
$TDUCREATE
 40
2459569.115543982
  9
$TDUPDATE
 40
2459569.490543981
  9
$TDUUPDATE
 40
2459569.115543982
  9
$TDINDWG
 40
0.0000000000
  9
$TDUSRTIMER
 40
0.0000000000
  9
$USRTIMER
 70
     1
  9
$ANGBASE
 50
0.0
  9
$ANGDIR
 70
     0
  9
$PDMODE
 70
     0
  9
$PDSIZE
 40
0.0
  9
$PLINEWID
 40
0.0
  9
$SPLFRAME
 70
     0
  9
$SPLINETYPE
 70
     6
  9
$SPLINESEGS
 70
     8
  9
$HANDSEED
  5
138
  9
$SURFTAB1
 70
     6
  9
$SURFTAB2
 70
     6
  9
$SURFTYPE
 70
     6
  9
$SURFU
 70
     6
  9
$SURFV
 70
     6
  9
$UCSBASE
  2

  9
$UCSNAME
  2

  9
$UCSORG
 10
0.0
 20
0.0
 30
0.0
  9
$UCSXDIR
 10
1.0
 20
0.0
 30
0.0
  9
$UCSYDIR
 10
0.0
 20
1.0
 30
0.0
  9
$UCSORTHOREF
  2

  9
$UCSORTHOVIEW
 70
     0
  9
$UCSORGTOP
 10
0.0
 20
0.0
 30
0.0
  9
$UCSORGBOTTOM
 10
0.0
 20
0.0
 30
0.0
  9
$UCSORGLEFT
 10
0.0
 20
0.0
 30
0.0
  9
$UCSORGRIGHT
 10
0.0
 20
0.0
 30
0.0
  9
$UCSORGFRONT
 10
0.0
 20
0.0
 30
0.0
  9
$UCSORGBACK
 10
0.0
 20
0.0
 30
0.0
  9
$PUCSBASE
  2

  9
$PUCSNAME
  2

  9
$PUCSORG
 10
0.0
 20
0.0
 30
0.0
  9
$PUCSXDIR
 10
1.0
 20
0.0
 30
0.0
  9
$PUCSYDIR
 10
0.0
 20
1.0
 30
0.0
  9
$PUCSORTHOREF
  2

  9
$PUCSORTHOVIEW
 70
     0
  9
$PUCSORGTOP
 10
0.0
 20
0.0
 30
0.0
  9
$PUCSORGBOTTOM
 10
0.0
 20
0.0
 30
0.0
  9
$PUCSORGLEFT
 10
0.0
 20
0.0
 30
0.0
  9
$PUCSORGRIGHT
 10
0.0
 20
0.0
 30
0.0
  9
$PUCSORGFRONT
 10
0.0
 20
0.0
 30
0.0
  9
$PUCSORGBACK
 10
0.0
 20
0.0
 30
0.0
  9
$USERI1
 70
     0
  9
$USERI2
 70
     0
  9
$USERI3
 70
     0
  9
$USERI4
 70
     0
  9
$USERI5
 70
     0
  9
$USERR1
 40
0.0
  9
$USERR2
 40
0.0
  9
$USERR3
 40
0.0
  9
$USERR4
 40
0.0
  9
$USERR5
 40
0.0
  9
$WORLDVIEW
 70
     1
  9
$SHADEDGE
 70
     3
  9
$SHADEDIF
 70
    70
  9
$TILEMODE
 70
     1
  9
$MAXACTVP
 70
    64
  9
$PINSBASE
 10
0.0
 20
0.0
 30
0.0
  9
$PLIMCHECK
 70
     0
  9
$PEXTMIN
 10
1.000000000000000E+20
 20
1.000000000000000E+20
 30
1.000000000000000E+20
  9
$PEXTMAX
 10
-1.000000000000000E+20
 20
-1.000000000000000E+20
 30
-1.000000000000000E+20
  9
$PLIMMIN
 10
0.0
 20
0.0
  9
$PLIMMAX
 10
12.0
 20
9.0
  9
$UNITMODE
 70
     0
  9
$VISRETAIN
 70
     1
  9
$PLINEGEN
 70
     0
  9
$PSLTSCALE
 70
     1
  9
$TREEDEPTH
 70
  3020
  9
$CMLSTYLE
  2
Standard
  9
$CMLJUST
 70
     0
  9
$CMLSCALE
 40
1.0
  9
$PROXYGRAPHICS
 70
     1
  9
$MEASUREMENT
 70
     0
  9
$CELWEIGHT
370
    -1
  9
$ENDCAPS
280
     0
  9
$JOINSTYLE
280
     0
  9
$LWDISPLAY
290
     1
  9
$INSUNITS
 70
     4
  9
$HYPERLINKBASE
  1

  9
$STYLESHEET
  1

  9
$XEDIT
290
     1
  9
$CEPSNTYPE
380
     0
  9
$PSTYLEMODE
290
     1
  9
$FINGERPRINTGUID
  2
{B640F7B1-DB69-3041-89ED-024A6D9DD796}
  9
$VERSIONGUID
  2
{4109D122-7D88-EB45-8EF6-FCB71EA13FE9}
  9
$EXTNAMES
290
     1
  9
$PSVPSCALE
 40
0.0
  9
$OLESTARTUP
290
     0
  9
$SORTENTS
280
   127
  9
$INDEXCTL
280
     0
  9
$HIDETEXT
280
     1
  9
$XCLIPFRAME
280
     2
  9
$HALOGAP
280
     0
  9
$OBSCOLOR
 70
   257
  9
$OBSLTYPE
280
     0
  9
$INTERSECTIONDISPLAY
280
     0
  9
$INTERSECTIONCOLOR
 70
   257
  9
$DIMASSOC
280
     2
  9
$PROJECTNAME
  1

  9
$CAMERADISPLAY
290
     0
  9
$LENSLENGTH
 40
50.0
  9
$CAMERAHEIGHT
 40
0.0
  9
$STEPSPERSEC
 40
2.0
  9
$STEPSIZE
 40
6.0
  9
$3DDWFPREC
 40
2.0
  9
$PSOLWIDTH
 40
0.25
  9
$PSOLHEIGHT
 40
4.0
  9
$LOFTANG1
 40
1.570796326794896
  9
$LOFTANG2
 40
1.570796326794896
  9
$LOFTMAG1
 40
0.0
  9
$LOFTMAG2
 40
0.0
  9
$LOFTPARAM
 70
     7
  9
$LOFTNORMALS
280
     1
  9
$LATITUDE
 40
37.795
  9
$LONGITUDE
 40
-122.394
  9
$NORTHDIRECTION
 40
0.0
  9
$TIMEZONE
 70
 -8000
  9
$LIGHTGLYPHDISPLAY
280
     1
  9
$TILEMODELIGHTSYNCH
280
     1
  9
$CMATERIAL
347
11
  9
$SOLIDHIST
280
     0
  9
$SHOWHIST
280
     1
  9
$DWFFRAME
280
     2
  9
$DGNFRAME
280
     0
  9
$REALWORLDSCALE
290
     1
  9
$INTERFERECOLOR
 62
     1
  9
$INTERFEREOBJVS
345
33
  9
$INTERFEREVPVS
346
30
  9
$CSHADOW
280
     0
  9
$SHADOWPLANELOCATION
 40
0.0
  0
ENDSEC
  0
SECTION
  2
CLASSES
  0
CLASS
  1
ACDBDICTIONARYWDFLT
  2
AcDbDictionaryWithDefault
  3
ObjectDBX Classes
 90
        0
 91
        1
280
     0
281
     0
  0
CLASS
  1
MATERIAL
  2
AcDbMaterial
  3
ObjectDBX Classes
 90
     1153
 91
        3
280
     0
281
     0
  0
CLASS
  1
VISUALSTYLE
  2
AcDbVisualStyle
  3
ObjectDBX Classes
 90
     4095
 91
       24
280
     0
281
     0
  0
CLASS
  1
SCALE
  2
AcDbScale
  3
ObjectDBX Classes
 90
     1153
 91
       17
280
     0
281
     0
  0
CLASS
  1
TABLESTYLE
  2
AcDbTableStyle
  3
ObjectDBX Classes
 90
     4095
 91
        1
280
     0
281
     0
  0
CLASS
  1
MLEADERSTYLE
  2
AcDbMLeaderStyle
  3
ACDB_MLEADERSTYLE_CLASS
 90
     4095
 91
        1
280
     0
281
     0
  0
CLASS
  1
ACDBSECTIONVIEWSTYLE
  2
AcDbSectionViewStyle
  3
ObjectDBX Classes
 90
     1025
 91
        1
280
     0
281
     0
  0
CLASS
  1
ACDBDETAILVIEWSTYLE
  2
AcDbDetailViewStyle
  3
ObjectDBX Classes
 90
     1025
 91
        1
280
     0
281
     0
  0
CLASS
  1
DICTIONARYVAR
  2
AcDbDictionaryVar
  3
ObjectDBX Classes
 90
        0
 91
        5
280
     0
281
     0
  0
CLASS
  1
CELLSTYLEMAP
  2
AcDbCellStyleMap
  3
ObjectDBX Classes
 90
     1152
 91
        1
280
     0
281
     0
  0
ENDSEC
  0
SECTION
  2
TABLES
  0
TABLE
  2
VPORT
  5
8
330
0
100
AcDbSymbolTable
 70
     1
  0
VPORT
  5
57
330
8
100
AcDbSymbolTableRecord
100
AcDbViewportTableRecord
  2
*Active
 70
     0
 10
0.0
 20
0.0
 11
1.0
 21
1.0
 12
0.0
 22
0.0
 13
0.0
 23
0.0
 14
1.0
 24
1.0
 15
0.0
 25
0.0
 16
0.0
 26
0.0
 36
1.0
 17
104.9999999737534
 27
-148.4999999628701
 37
0.0
 40
302.939999924255
 41
0.7070707070707534
 42
50.0
 43
0.0
 44
0.0
 50
0.0
 51
0.0
 71
     0
 72
   100
 73
     1
 74
     0
 75
     1
 76
     0
 77
     0
 78
     0
281
     0
 65
     1
110
0.0
120
0.0
130
0.0
111
1.0
121
0.0
131
0.0
112
0.0
122
1.0
132
0.0
 79
     0
146
0.0
 60
     3
 61
     5
292
     1
282
     1
141
0.0
142
0.0
 63
   250
421
  3355443
  0
ENDTAB
  0
TABLE
  2
LTYPE
  5
5
330
0
100
AcDbSymbolTable
 70
     1
  0
LTYPE
  5
5B
330
5
100
AcDbSymbolTableRecord
100
AcDbLinetypeTableRecord
  2
ByBlock
 70
     0
  3

 72
    65
 73
     0
 40
0.0
  0
LTYPE
  5
5C
330
5
100
AcDbSymbolTableRecord
100
AcDbLinetypeTableRecord
  2
ByLayer
 70
     0
  3

 72
    65
 73
     0
 40
0.0
  0
LTYPE
  5
5D
330
5
100
AcDbSymbolTableRecord
100
AcDbLinetypeTableRecord
  2
Continuous
 70
     0
  3
Solid line
 72
    65
 73
     0
 40
0.0
  0
ENDTAB
  0
TABLE
  2
LAYER
  5
2
330
0
100
AcDbSymbolTable
 70
     2
  0
LAYER
  5
54
330
2
100
AcDbSymbolTableRecord
100
AcDbLayerTableRecord
  2
0
 70
     0
 62
     7
  6
Continuous
370
    -3
390
F
347
21
  0
LAYER
  5
78
330
2
100
AcDbSymbolTableRecord
100
AcDbLayerTableRecord
  2
レイヤー 1
 70
     0
 62
     7
  6
Continuous
370
     0
390
F
347
21
  0
ENDTAB
  0
TABLE
  2
STYLE
  5
3
330
0
100
AcDbSymbolTable
 70
     2
  0
STYLE
  5
55
330
3
100
AcDbSymbolTableRecord
100
AcDbTextStyleTableRecord
  2
Standard
 70
     0
 40
0.0
 41
1.0
 50
0.0
 71
     0
 42
0.2
  3
txt
  4

  0
STYLE
  5
5A
330
3
100
AcDbSymbolTableRecord
100
AcDbTextStyleTableRecord
  2
Annotative
 70
     0
 40
0.0
 41
1.0
 50
0.0
 71
     0
 42
0.2
  3
txt
  4

1001
AcadAnnotative
1000
AnnotativeData
1002
{
1070
     1
1070
     1
1002
}
  0
ENDTAB
  0
TABLE
  2
VIEW
  5
6
330
0
100
AcDbSymbolTable
 70
     0
  0
ENDTAB
  0
TABLE
  2
UCS
  5
7
330
0
100
AcDbSymbolTable
 70
     0
  0
ENDTAB
  0
TABLE
  2
APPID
  5
9
330
0
100
AcDbSymbolTable
 70
     2
  0
APPID
  5
56
330
9
100
AcDbSymbolTableRecord
100
AcDbRegAppTableRecord
  2
ACAD
 70
     0
  0
APPID
  5
5E
330
9
100
AcDbSymbolTableRecord
100
AcDbRegAppTableRecord
  2
AcadAnnotative
 70
     0
  0
ENDTAB
  0
TABLE
  2
DIMSTYLE
  5
A
330
0
100
AcDbSymbolTable
 70
     2
100
AcDbDimStyleTable
 71
     0
  0
DIMSTYLE
105
58
330
A
100
AcDbSymbolTableRecord
100
AcDbDimStyleTableRecord
  2
Standard
 70
     0
340
55
  0
DIMSTYLE
105
59
330
A
100
AcDbSymbolTableRecord
100
AcDbDimStyleTableRecord
  2
Annotative
 70
     0
340
55
1001
AcadAnnotative
1000
AnnotativeData
1002
{
1070
     1
1070
     1
1002
}
  0
ENDTAB
  0
TABLE
  2
BLOCK_RECORD
  5
1
330
0
100
AcDbSymbolTable
 70
    16
  0
BLOCK_RECORD
  5
70
330
1
100
AcDbSymbolTableRecord
100
AcDbBlockTableRecord
  2
*Model_Space
340
73
 70
     0
280
     1
281
     0
  0
BLOCK_RECORD
  5
6C
330
1
100
AcDbSymbolTableRecord
100
AcDbBlockTableRecord
  2
*Paper_Space
340
6F
 70
     0
280
     1
281
     0
  0
BLOCK_RECORD
  5
74
330
1
100
AcDbSymbolTableRecord
100
AcDbBlockTableRecord
  2
*Paper_Space0
340
77
 70
     0
280
     1
281
     0
  0
BLOCK_RECORD
  5
8F
330
1
100
AcDbSymbolTableRecord
100
AcDbBlockTableRecord
  2
Block_0
340
0
102
{BLKREFS
331
90
102
}
 70
     0
280
     1
281
     0
  0
BLOCK_RECORD
  5
93
330
1
100
AcDbSymbolTableRecord
100
AcDbBlockTableRecord
  2
Block_1
340
0
102
{BLKREFS
331
94
102
}
 70
     0
280
     1
281
     0
  0
BLOCK_RECORD
  5
9B
330
1
100
AcDbSymbolTableRecord
100
AcDbBlockTableRecord
  2
Block_2
340
0
102
{BLKREFS
331
9C
102
}
 70
     0
280
     1
281
     0
  0
BLOCK_RECORD
  5
9F
330
1
100
AcDbSymbolTableRecord
100
AcDbBlockTableRecord
  2
Block_3
340
0
102
{BLKREFS
331
A0
102
}
 70
     0
280
     1
281
     0
  0
BLOCK_RECORD
  5
A7
330
1
100
AcDbSymbolTableRecord
100
AcDbBlockTableRecord
  2
Block_4
340
0
102
{BLKREFS
331
A8
102
}
 70
     0
280
     1
281
     0
  0
BLOCK_RECORD
  5
AB
330
1
100
AcDbSymbolTableRecord
100
AcDbBlockTableRecord
  2
Block_5
340
0
102
{BLKREFS
331
AC
102
}
 70
     0
280
     1
281
     0
  0
BLOCK_RECORD
  5
B5
330
1
100
AcDbSymbolTableRecord
100
AcDbBlockTableRecord
  2
Block_6
340
0
102
{BLKREFS
331
B6
102
}
 70
     0
280
     1
281
     0
  0
BLOCK_RECORD
  5
B9
330
1
100
AcDbSymbolTableRecord
100
AcDbBlockTableRecord
  2
Block_7
340
0
102
{BLKREFS
331
BA
102
}
 70
     0
280
     1
281
     0
  0
BLOCK_RECORD
  5
C3
330
1
100
AcDbSymbolTableRecord
100
AcDbBlockTableRecord
  2
Block_8
340
0
102
{BLKREFS
331
C4
102
}
 70
     0
280
     1
281
     0
  0
BLOCK_RECORD
  5
C9
330
1
100
AcDbSymbolTableRecord
100
AcDbBlockTableRecord
  2
Block_9
340
0
102
{BLKREFS
331
CA
102
}
 70
     0
280
     1
281
     0
  0
BLOCK_RECORD
  5
CD
330
1
100
AcDbSymbolTableRecord
100
AcDbBlockTableRecord
  2
Block_10
340
0
102
{BLKREFS
331
CE
102
}
 70
     0
280
     1
281
     0
  0
BLOCK_RECORD
  5
D8
330
1
100
AcDbSymbolTableRecord
100
AcDbBlockTableRecord
  2
Block_11
340
0
102
{BLKREFS
331
D9
102
}
 70
     0
280
     1
281
     0
  0
BLOCK_RECORD
  5
DC
330
1
100
AcDbSymbolTableRecord
100
AcDbBlockTableRecord
  2
Block_12
340
0
102
{BLKREFS
331
DD
102
}
 70
     0
280
     1
281
     0
  0
BLOCK_RECORD
  5
E9
330
1
100
AcDbSymbolTableRecord
100
AcDbBlockTableRecord
  2
Block_13
340
0
102
{BLKREFS
331
EA
102
}
 70
     0
280
     1
281
     0
  0
BLOCK_RECORD
  5
ED
330
1
100
AcDbSymbolTableRecord
100
AcDbBlockTableRecord
  2
Block_14
340
0
102
{BLKREFS
331
EE
102
}
 70
     0
280
     1
281
     0
  0
ENDTAB
  0
ENDSEC
  0
SECTION
  2
BLOCKS
  0
BLOCK
  5
71
330
70
100
AcDbEntity
  8
0
100
AcDbBlockBegin
  2
*Model_Space
 70
     0
 10
0.0
 20
0.0
 30
0.0
  3
*Model_Space
  1

  0
ENDBLK
  5
72
330
70
100
AcDbEntity
  8
0
100
AcDbBlockEnd
  0
BLOCK
  5
6D
330
6C
100
AcDbEntity
 67
     1
  8
0
100
AcDbBlockBegin
  2
*Paper_Space
 70
     0
 10
0.0
 20
0.0
 30
0.0
  3
*Paper_Space
  1

  0
ENDBLK
  5
6E
330
6C
100
AcDbEntity
 67
     1
  8
0
100
AcDbBlockEnd
  0
BLOCK
  5
75
330
74
100
AcDbEntity
 67
     1
  8
0
100
AcDbBlockBegin
  2
*Paper_Space0
 70
     0
 10
0.0
 20
0.0
 30
0.0
  3
*Paper_Space0
  1

  0
ENDBLK
  5
76
330
74
100
AcDbEntity
 67
     1
  8
0
100
AcDbBlockEnd
  0
BLOCK
  5
91
330
8F
100
AcDbEntity
  8
0
100
AcDbBlockBegin
  2
Block_0
 70
     0
 10
0.0
 20
0.0
 30
0.0
  3
Block_0
  1

  0
INSERT
  5
94
330
8F
100
AcDbEntity
  8
レイヤー 1
100
AcDbBlockReference
  2
Block_1
 10
0.0
 20
0.0
 30
0.0
  0
ENDBLK
  5
92
330
8F
100
AcDbEntity
  8
0
100
AcDbBlockEnd
  0
BLOCK
  5
95
330
93
100
AcDbEntity
  8
0
100
AcDbBlockBegin
  2
Block_1
 70
     0
 10
0.0
 20
0.0
 30
0.0
  3
Block_1
  1

  0
SPLINE
  5
97
330
93
100
AcDbEntity
  8
レイヤー 1
100
AcDbSpline
210
0.0
220
0.0
230
1.0
 70
    11
 71
     3
 72
    26
 73
    22
 74
     0
 42
0.0000000001
 43
0.0000000001
 40
0.0
 40
0.0
 40
0.0
 40
0.0
 40
1.0
 40
1.0
 40
1.0
 40
2.0
 40
2.0
 40
2.0
 40
3.0
 40
3.0
 40
3.0
 40
4.0
 40
4.0
 40
4.0
 40
5.0
 40
5.0
 40
5.0
 40
6.0
 40
6.0
 40
6.0
 40
7.0
 40
7.0
 40
7.0
 40
7.0
 10
138.204484014928
 20
-166.093565496671
 30
0.0
 10
138.204484014928
 20
-166.093565496671
 30
0.0
 10
137.0999864023569
 20
-166.093565496671
 30
0.0
 10
137.0999864023569
 20
-166.093565496671
 30
0.0
 10
137.0999864023569
 20
-166.093565496671
 30
0.0
 10
137.0999864023569
 20
-166.423605644158
 30
0.0
 10
137.0999864023569
 20
-166.423605644158
 30
0.0
 10
137.0999864023569
 20
-166.423605644158
 30
0.0
 10
136.9521918060397
 20
-166.423605644158
 30
0.0
 10
136.9521918060397
 20
-166.423605644158
 30
0.0
 10
136.9373778954531
 20
-166.0914984393799
 30
0.0
 10
136.7744248790008
 20
-166.044989650329
 30
0.0
 10
136.6600477088905
 20
-166.0153618291559
 30
0.0
 10
136.6600477088905
 20
-166.0153618291559
 30
0.0
 10
136.6600477088905
 20
-165.8692897805813
 30
0.0
 10
136.6600477088905
 20
-165.8692897805813
 30
0.0
 10
136.6600477088905
 20
-165.8692897805813
 30
0.0
 10
138.204484014928
 20
-165.8692897805813
 30
0.0
 10
138.204484014928
 20
-165.8692897805813
 30
0.0
 10
138.204484014928
 20
-165.8692897805813
 30
0.0
 10
138.204484014928
 20
-166.093565496671
 30
0.0
 10
138.204484014928
 20
-166.093565496671
 30
0.0
  0
HATCH
  5
98
330
93
100
AcDbEntity
  8
レイヤー 1
 62
    18
420
        0
440
 33554687
100
AcDbHatch
 10
0.0
 20
0.0
 30
0.0
210
0.0
220
0.0
230
1.0
  2
SOLID
 70
     1
 71
     1
 91
        1
 92
        1
 93
        1
 72
     4
 94
        3
 73
     0
 74
     0
 95
       26
 96
       22
 40
0.0
 40
0.0
 40
0.0
 40
0.0
 40
1.0
 40
1.0
 40
1.0
 40
2.0
 40
2.0
 40
2.0
 40
3.0
 40
3.0
 40
3.0
 40
4.0
 40
4.0
 40
4.0
 40
5.0
 40
5.0
 40
5.0
 40
6.0
 40
6.0
 40
6.0
 40
7.0
 40
7.0
 40
7.0
 40
7.0
 10
138.204484014928
 20
-166.093565496671
 10
138.204484014928
 20
-166.093565496671
 10
137.0999864023569
 20
-166.093565496671
 10
137.0999864023569
 20
-166.093565496671
 10
137.0999864023569
 20
-166.093565496671
 10
137.0999864023569
 20
-166.423605644158
 10
137.0999864023569
 20
-166.423605644158
 10
137.0999864023569
 20
-166.423605644158
 10
136.9521918060397
 20
-166.423605644158
 10
136.9521918060397
 20
-166.423605644158
 10
136.9373778954531
 20
-166.0914984393799
 10
136.7744248790008
 20
-166.044989650329
 10
136.6600477088905
 20
-166.0153618291559
 10
136.6600477088905
 20
-166.0153618291559
 10
136.6600477088905
 20
-165.8692897805813
 10
136.6600477088905
 20
-165.8692897805813
 10
136.6600477088905
 20
-165.8692897805813
 10
138.204484014928
 20
-165.8692897805813
 10
138.204484014928
 20
-165.8692897805813
 10
138.204484014928
 20
-165.8692897805813
 10
138.204484014928
 20
-166.093565496671
 10
138.204484014928
 20
-166.093565496671
 97
        0
 97
        1
330
97
 75
     2
 76
     1
 98
        1
 10
0.0
 20
0.0
450
        0
451
        0
460
0.0
461
0.0
452
        0
462
0.0
453
        0
470

  0
SPLINE
  5
99
330
93
100
AcDbEntity
  8
レイヤー 1
100
AcDbSpline
210
0.0
220
0.0
230
1.0
 70
     9
 71
     3
 72
    44
 73
    40
 74
     0
 42
0.0000000001
 43
0.0000000001
 40
0.0
 40
0.0
 40
0.0
 40
0.0
 40
1.0
 40
1.0
 40
1.0
 40
2.0
 40
2.0
 40
2.0
 40
3.0
 40
3.0
 40
3.0
 40
4.0
 40
4.0
 40
4.0
 40
5.0
 40
5.0
 40
5.0
 40
6.0
 40
6.0
 40
6.0
 40
7.0
 40
7.0
 40
7.0
 40
8.0
 40
8.0
 40
8.0
 40
9.0
 40
9.0
 40
9.0
 40
10.0
 40
10.0
 40
10.0
 40
11.0
 40
11.0
 40
11.0
 40
12.0
 40
12.0
 40
12.0
 40
13.0
 40
13.0
 40
13.0
 40
13.0
 10
137.6226073874693
 20
-164.7751274544659
 30
0.0
 10
137.7814262893394
 20
-164.9928574891337
 30
0.0
 10
137.8554958422722
 20
-165.0858750672355
 30
0.0
 10
137.9991563240071
 20
-165.134795423126
 30
0.0
 10
137.9991563240071
 20
-165.134795423126
 30
0.0
 10
137.9991563240071
 20
-164.3562038434595
 30
0.0
 10
137.9991563240071
 20
-164.3562038434595
 30
0.0
 10
137.9991563240071
 20
-164.3562038434595
 30
0.0
 10
138.204484014928
 20
-164.3562038434595
 30
0.0
 10
138.204484014928
 20
-164.3562038434595
 30
0.0
 10
138.204484014928
 20
-164.3562038434595
 30
0.0
 10
138.204484014928
 20
-165.3842203362581
 30
0.0
 10
138.204484014928
 20
-165.3842203362581
 30
0.0
 10
137.8468831035591
 20
-165.3525254577938
 30
0.0
 10
137.7686794360439
 20
-165.2870686435741
 30
0.0
 10
137.4703341670213
 20
-164.9019069683231
 30
0.0
 10
137.2715521575224
 20
-164.645936373769
 30
0.0
 10
137.203683776463
 20
-164.5804795595493
 30
0.0
 10
137.0662244666015
 20
-164.5804795595493
 30
0.0
 10
136.9477131819089
 20
-164.5804795595493
 30
0.0
 10
136.8167995534694
 20
-164.652482055191
 30
0.0
 10
136.8167995534694
 20
-164.8491970073988
 30
0.0
 10
136.8167995534694
 20
-165.1093017165352
 30
0.0
 10
137.0472764414326
 20
-165.1179144552483
 30
0.0
 10
137.1637206688341
 20
-165.1220485698306
 30
0.0
 10
137.1637206688341
 20
-165.1220485698306
 30
0.0
 10
137.1637206688341
 20
-165.3463242859203
 30
0.0
 10
137.1637206688341
 20
-165.3463242859203
 30
0.0
 10
137.0365966454283
 20
-165.3377115472072
 30
0.0
 10
136.9246310421577
 20
-165.327031751203
 30
0.0
 10
136.8061197574651
 20
-165.2467610263966
 30
0.0
 10
136.6452337983039
 20
-165.1368624804172
 30
0.0
 10
136.6114718625485
 20
-164.9504828146651
 30
0.0
 10
136.6114718625485
 20
-164.8343830968122
 30
0.0
 10
136.6114718625485
 20
-164.5570529102496
 30
0.0
 10
136.7954399614608
 20
-164.3496581620376
 30
0.0
 10
137.0682915238926
 20
-164.3496581620376
 30
0.0
 10
137.2967013545647
 20
-164.3496581620376
 30
0.0
 10
137.3962646140884
 20
-164.466102389439
 30
0.0
 10
137.6226073874693
 20
-164.7751274544659
 30
0.0
  0
HATCH
  5
9A
330
93
100
AcDbEntity
  8
レイヤー 1
 62
    18
420
        0
440
 33554687
100
AcDbHatch
 10
0.0
 20
0.0
 30
0.0
210
0.0
220
0.0
230
1.0
  2
SOLID
 70
     1
 71
     1
 91
        1
 92
        1
 93
        1
 72
     4
 94
        3
 73
     0
 74
     0
 95
       44
 96
       40
 40
0.0
 40
0.0
 40
0.0
 40
0.0
 40
1.0
 40
1.0
 40
1.0
 40
2.0
 40
2.0
 40
2.0
 40
3.0
 40
3.0
 40
3.0
 40
4.0
 40
4.0
 40
4.0
 40
5.0
 40
5.0
 40
5.0
 40
6.0
 40
6.0
 40
6.0
 40
7.0
 40
7.0
 40
7.0
 40
8.0
 40
8.0
 40
8.0
 40
9.0
 40
9.0
 40
9.0
 40
10.0
 40
10.0
 40
10.0
 40
11.0
 40
11.0
 40
11.0
 40
12.0
 40
12.0
 40
12.0
 40
13.0
 40
13.0
 40
13.0
 40
13.0
 10
137.6226073874693
 20
-164.7751274544659
 10
137.7814262893394
 20
-164.9928574891337
 10
137.8554958422722
 20
-165.0858750672355
 10
137.9991563240071
 20
-165.134795423126
 10
137.9991563240071
 20
-165.134795423126
 10
137.9991563240071
 20
-164.3562038434595
 10
137.9991563240071
 20
-164.3562038434595
 10
137.9991563240071
 20
-164.3562038434595
 10
138.204484014928
 20
-164.3562038434595
 10
138.204484014928
 20
-164.3562038434595
 10
138.204484014928
 20
-164.3562038434595
 10
138.204484014928
 20
-165.3842203362581
 10
138.204484014928
 20
-165.3842203362581
 10
137.8468831035591
 20
-165.3525254577938
 10
137.7686794360439
 20
-165.2870686435741
 10
137.4703341670213
 20
-164.9019069683231
 10
137.2715521575224
 20
-164.645936373769
 10
137.203683776463
 20
-164.5804795595493
 10
137.0662244666015
 20
-164.5804795595493
 10
136.9477131819089
 20
-164.5804795595493
 10
136.8167995534694
 20
-164.652482055191
 10
136.8167995534694
 20
-164.8491970073988
 10
136.8167995534694
 20
-165.1093017165352
 10
137.0472764414326
 20
-165.1179144552483
 10
137.1637206688341
 20
-165.1220485698306
 10
137.1637206688341
 20
-165.1220485698306
 10
137.1637206688341
 20
-165.3463242859203
 10
137.1637206688341
 20
-165.3463242859203
 10
137.0365966454283
 20
-165.3377115472072
 10
136.9246310421577
 20
-165.327031751203
 10
136.8061197574651
 20
-165.2467610263966
 10
136.6452337983039
 20
-165.1368624804172
 10
136.6114718625485
 20
-164.9504828146651
 10
136.6114718625485
 20
-164.8343830968122
 10
136.6114718625485
 20
-164.5570529102496
 10
136.7954399614608
 20
-164.3496581620376
 10
137.0682915238926
 20
-164.3496581620376
 10
137.2967013545647
 20
-164.3496581620376
 10
137.3962646140884
 20
-164.466102389439
 10
137.6226073874693
 20
-164.7751274544659
 97
        0
 97
        1
330
99
 75
     2
 76
     1
 98
        1
 10
0.0
 20
0.0
450
        0
451
        0
460
0.0
461
0.0
452
        0
462
0.0
453
        0
470

  0
ENDBLK
  5
96
330
93
100
AcDbEntity
  8
0
100
AcDbBlockEnd
  0
BLOCK
  5
9D
330
9B
100
AcDbEntity
  8
0
100
AcDbBlockBegin
  2
Block_2
 70
     0
 10
0.0
 20
0.0
 30
0.0
  3
Block_2
  1

  0
INSERT
  5
A0
330
9B
100
AcDbEntity
  8
レイヤー 1
100
AcDbBlockReference
  2
Block_3
 10
0.0
 20
0.0
 30
0.0
  0
ENDBLK
  5
9E
330
9B
100
AcDbEntity
  8
0
100
AcDbBlockEnd
  0
BLOCK
  5
A1
330
9F
100
AcDbEntity
  8
0
100
AcDbBlockBegin
  2
Block_3
 70
     0
 10
0.0
 20
0.0
 30
0.0
  3
Block_3
  1

  0
SPLINE
  5
A3
330
9F
100
AcDbEntity
  8
レイヤー 1
100
AcDbSpline
210
0.0
220
0.0
230
1.0
 70
    11
 71
     3
 72
    26
 73
    22
 74
     0
 42
0.0000000001
 43
0.0000000001
 40
0.0
 40
0.0
 40
0.0
 40
0.0
 40
1.0
 40
1.0
 40
1.0
 40
2.0
 40
2.0
 40
2.0
 40
3.0
 40
3.0
 40
3.0
 40
4.0
 40
4.0
 40
4.0
 40
5.0
 40
5.0
 40
5.0
 40
6.0
 40
6.0
 40
6.0
 40
7.0
 40
7.0
 40
7.0
 40
7.0
 10
138.204484014928
 20
-153.5971706430243
 30
0.0
 10
138.204484014928
 20
-153.5971706430243
 30
0.0
 10
137.0999864023569
 20
-153.5971706430243
 30
0.0
 10
137.0999864023569
 20
-153.5971706430243
 30
0.0
 10
137.0999864023569
 20
-153.5971706430243
 30
0.0
 10
137.0999864023569
 20
-153.9272107905112
 30
0.0
 10
137.0999864023569
 20
-153.9272107905112
 30
0.0
 10
137.0999864023569
 20
-153.9272107905112
 30
0.0
 10
136.9521918060397
 20
-153.9272107905112
 30
0.0
 10
136.9521918060397
 20
-153.9272107905112
 30
0.0
 10
136.9373778954531
 20
-153.5951035857332
 30
0.0
 10
136.7744248790008
 20
-153.5485947966823
 30
0.0
 10
136.6600477088905
 20
-153.5189669755091
 30
0.0
 10
136.6600477088905
 20
-153.5189669755091
 30
0.0
 10
136.6600477088905
 20
-153.3728949269345
 30
0.0
 10
136.6600477088905
 20
-153.3728949269345
 30
0.0
 10
136.6600477088905
 20
-153.3728949269345
 30
0.0
 10
138.204484014928
 20
-153.3728949269345
 30
0.0
 10
138.204484014928
 20
-153.3728949269345
 30
0.0
 10
138.204484014928
 20
-153.3728949269345
 30
0.0
 10
138.204484014928
 20
-153.5971706430243
 30
0.0
 10
138.204484014928
 20
-153.5971706430243
 30
0.0
  0
HATCH
  5
A4
330
9F
100
AcDbEntity
  8
レイヤー 1
 62
    18
420
        0
440
 33554687
100
AcDbHatch
 10
0.0
 20
0.0
 30
0.0
210
0.0
220
0.0
230
1.0
  2
SOLID
 70
     1
 71
     1
 91
        1
 92
        1
 93
        1
 72
     4
 94
        3
 73
     0
 74
     0
 95
       26
 96
       22
 40
0.0
 40
0.0
 40
0.0
 40
0.0
 40
1.0
 40
1.0
 40
1.0
 40
2.0
 40
2.0
 40
2.0
 40
3.0
 40
3.0
 40
3.0
 40
4.0
 40
4.0
 40
4.0
 40
5.0
 40
5.0
 40
5.0
 40
6.0
 40
6.0
 40
6.0
 40
7.0
 40
7.0
 40
7.0
 40
7.0
 10
138.204484014928
 20
-153.5971706430243
 10
138.204484014928
 20
-153.5971706430243
 10
137.0999864023569
 20
-153.5971706430243
 10
137.0999864023569
 20
-153.5971706430243
 10
137.0999864023569
 20
-153.5971706430243
 10
137.0999864023569
 20
-153.9272107905112
 10
137.0999864023569
 20
-153.9272107905112
 10
137.0999864023569
 20
-153.9272107905112
 10
136.9521918060397
 20
-153.9272107905112
 10
136.9521918060397
 20
-153.9272107905112
 10
136.9373778954531
 20
-153.5951035857332
 10
136.7744248790008
 20
-153.5485947966823
 10
136.6600477088905
 20
-153.5189669755091
 10
136.6600477088905
 20
-153.5189669755091
 10
136.6600477088905
 20
-153.3728949269345
 10
136.6600477088905
 20
-153.3728949269345
 10
136.6600477088905
 20
-153.3728949269345
 10
138.204484014928
 20
-153.3728949269345
 10
138.204484014928
 20
-153.3728949269345
 10
138.204484014928
 20
-153.3728949269345
 10
138.204484014928
 20
-153.5971706430243
 10
138.204484014928
 20
-153.5971706430243
 97
        0
 97
        1
330
A3
 75
     2
 76
     1
 98
        1
 10
0.0
 20
0.0
450
        0
451
        0
460
0.0
461
0.0
452
        0
462
0.0
453
        0
470

  0
SPLINE
  5
A5
330
9F
100
AcDbEntity
  8
レイヤー 1
100
AcDbSpline
210
0.0
220
0.0
230
1.0
 70
     9
 71
     3
 72
    62
 73
    58
 74
     0
 42
0.0000000001
 43
0.0000000001
 40
0.0
 40
0.0
 40
0.0
 40
0.0
 40
1.0
 40
1.0
 40
1.0
 40
2.0
 40
2.0
 40
2.0
 40
3.0
 40
3.0
 40
3.0
 40
4.0
 40
4.0
 40
4.0
 40
5.0
 40
5.0
 40
5.0
 40
6.0
 40
6.0
 40
6.0
 40
7.0
 40
7.0
 40
7.0
 40
8.0
 40
8.0
 40
8.0
 40
9.0
 40
9.0
 40
9.0
 40
10.0
 40
10.0
 40
10.0
 40
11.0
 40
11.0
 40
11.0
 40
12.0
 40
12.0
 40
12.0
 40
13.0
 40
13.0
 40
13.0
 40
14.0
 40
14.0
 40
14.0
 40
15.0
 40
15.0
 40
15.0
 40
16.0
 40
16.0
 40
16.0
 40
17.0
 40
17.0
 40
17.0
 40
18.0
 40
18.0
 40
18.0
 40
19.0
 40
19.0
 40
19.0
 40
19.0
 10
138.2551269185612
 20
-152.3800184080855
 30
0.0
 10
138.2551269185612
 20
-152.4754475530269
 30
0.0
 10
138.2341118361012
 20
-152.6931775876948
 30
0.0
 10
138.0477321703492
 20
-152.8182345538093
 30
0.0
 10
137.9357665670785
 20
-152.8923041067422
 30
0.0
 10
137.8362033075548
 20
-152.8964382213245
 30
0.0
 10
137.7517984681662
 20
-152.9005723359068
 30
0.0
 10
137.7517984681662
 20
-152.9005723359068
 30
0.0
 10
137.7517984681662
 20
-152.6804307343993
 30
0.0
 10
137.7517984681662
 20
-152.6804307343993
 30
0.0
 10
137.8258680210991
 20
-152.6783636771082
 30
0.0
 10
138.0604790236446
 20
-152.6680283906524
 30
0.0
 10
138.0604790236446
 20
-152.3844970322164
 30
0.0
 10
138.0604790236446
 20
-152.2470377223549
 30
0.0
 10
137.9908880948425
 20
-152.0944199923583
 30
0.0
 10
137.7621337546219
 20
-152.0944199923583
 30
0.0
 10
137.646034036769
 20
-152.0944199923583
 30
0.0
 10
137.5971136808785
 20
-152.1326605522446
 30
0.0
 10
137.5654188024142
 20
-152.1643554307089
 30
0.0
 10
137.4913492494813
 20
-152.2384249836417
 30
0.0
 10
137.4789469057344
 20
-152.3548692110432
 30
0.0
 10
137.4789469057344
 20
-152.4096462292587
 30
0.0
 10
137.4789469057344
 20
-152.4289387639761
 30
0.0
 10
137.4810139630256
 20
-152.4647677570227
 30
0.0
 10
137.4851480776078
 20
-152.4923285209047
 30
0.0
 10
137.4851480776078
 20
-152.4923285209047
 30
0.0
 10
137.2905001826912
 20
-152.4923285209047
 30
0.0
 10
137.2905001826912
 20
-152.4923285209047
 30
0.0
 10
137.2967013545647
 20
-152.4540879610184
 30
0.0
 10
137.2991129214044
 20
-152.4120577960984
 30
0.0
 10
137.2991129214044
 20
-152.4055121146764
 30
0.0
 10
137.2991129214044
 20
-152.3400553004566
 30
0.0
 10
137.2777533293958
 20
-152.1412732909577
 30
0.0
 10
137.0407307600106
 20
-152.1412732909577
 30
0.0
 10
136.8633083425203
 20
-152.1412732909577
 30
0.0
 10
136.8081868147563
 20
-152.2721869193972
 30
0.0
 10
136.8081868147563
 20
-152.3824299749252
 30
0.0
 10
136.8081868147563
 20
-152.6466687986439
 30
0.0
 10
137.0407307600106
 20
-152.655281537357
 30
0.0
 10
137.1127332556524
 20
-152.6594156519393
 30
0.0
 10
137.1127332556524
 20
-152.6594156519393
 30
0.0
 10
137.1127332556524
 20
-152.862676285569
 30
0.0
 10
137.1127332556524
 20
-152.862676285569
 30
0.0
 10
136.9880207990863
 20
-152.8540635468559
 30
0.0
 10
136.6114718625485
 20
-152.8265027829739
 30
0.0
 10
136.6114718625485
 20
-152.3696831216298
 30
0.0
 10
136.6114718625485
 20
-152.14540740554
 30
0.0
 10
136.7382513764057
 20
-151.9042507215725
 30
0.0
 10
137.0345295881372
 20
-151.9042507215725
 30
0.0
 10
137.2205647443407
 20
-151.9042507215725
 30
0.0
 10
137.3032470359867
 20
-151.9993353569654
 30
0.0
 10
137.3645697356241
 20
-152.0988986164891
 30
0.0
 10
137.3921304995061
 20
-152.0375759168517
 30
0.0
 10
137.4724012243124
 20
-151.8556748752305
 30
0.0
 10
137.7497314108751
 20
-151.8556748752305
 30
0.0
 10
138.0880397875266
 20
-151.8556748752305
 30
0.0
 10
138.2551269185612
 20
-152.1030327310714
 30
0.0
 10
138.2551269185612
 20
-152.3800184080855
 30
0.0
  0
HATCH
  5
A6
330
9F
100
AcDbEntity
  8
レイヤー 1
 62
    18
420
        0
440
 33554687
100
AcDbHatch
 10
0.0
 20
0.0
 30
0.0
210
0.0
220
0.0
230
1.0
  2
SOLID
 70
     1
 71
     1
 91
        1
 92
        1
 93
        1
 72
     4
 94
        3
 73
     0
 74
     0
 95
       62
 96
       58
 40
0.0
 40
0.0
 40
0.0
 40
0.0
 40
1.0
 40
1.0
 40
1.0
 40
2.0
 40
2.0
 40
2.0
 40
3.0
 40
3.0
 40
3.0
 40
4.0
 40
4.0
 40
4.0
 40
5.0
 40
5.0
 40
5.0
 40
6.0
 40
6.0
 40
6.0
 40
7.0
 40
7.0
 40
7.0
 40
8.0
 40
8.0
 40
8.0
 40
9.0
 40
9.0
 40
9.0
 40
10.0
 40
10.0
 40
10.0
 40
11.0
 40
11.0
 40
11.0
 40
12.0
 40
12.0
 40
12.0
 40
13.0
 40
13.0
 40
13.0
 40
14.0
 40
14.0
 40
14.0
 40
15.0
 40
15.0
 40
15.0
 40
16.0
 40
16.0
 40
16.0
 40
17.0
 40
17.0
 40
17.0
 40
18.0
 40
18.0
 40
18.0
 40
19.0
 40
19.0
 40
19.0
 40
19.0
 10
138.2551269185612
 20
-152.3800184080855
 10
138.2551269185612
 20
-152.4754475530269
 10
138.2341118361012
 20
-152.6931775876948
 10
138.0477321703492
 20
-152.8182345538093
 10
137.9357665670785
 20
-152.8923041067422
 10
137.8362033075548
 20
-152.8964382213245
 10
137.7517984681662
 20
-152.9005723359068
 10
137.7517984681662
 20
-152.9005723359068
 10
137.7517984681662
 20
-152.6804307343993
 10
137.7517984681662
 20
-152.6804307343993
 10
137.8258680210991
 20
-152.6783636771082
 10
138.0604790236446
 20
-152.6680283906524
 10
138.0604790236446
 20
-152.3844970322164
 10
138.0604790236446
 20
-152.2470377223549
 10
137.9908880948425
 20
-152.0944199923583
 10
137.7621337546219
 20
-152.0944199923583
 10
137.646034036769
 20
-152.0944199923583
 10
137.5971136808785
 20
-152.1326605522446
 10
137.5654188024142
 20
-152.1643554307089
 10
137.4913492494813
 20
-152.2384249836417
 10
137.4789469057344
 20
-152.3548692110432
 10
137.4789469057344
 20
-152.4096462292587
 10
137.4789469057344
 20
-152.4289387639761
 10
137.4810139630256
 20
-152.4647677570227
 10
137.4851480776078
 20
-152.4923285209047
 10
137.4851480776078
 20
-152.4923285209047
 10
137.2905001826912
 20
-152.4923285209047
 10
137.2905001826912
 20
-152.4923285209047
 10
137.2967013545647
 20
-152.4540879610184
 10
137.2991129214044
 20
-152.4120577960984
 10
137.2991129214044
 20
-152.4055121146764
 10
137.2991129214044
 20
-152.3400553004566
 10
137.2777533293958
 20
-152.1412732909577
 10
137.0407307600106
 20
-152.1412732909577
 10
136.8633083425203
 20
-152.1412732909577
 10
136.8081868147563
 20
-152.2721869193972
 10
136.8081868147563
 20
-152.3824299749252
 10
136.8081868147563
 20
-152.6466687986439
 10
137.0407307600106
 20
-152.655281537357
 10
137.1127332556524
 20
-152.6594156519393
 10
137.1127332556524
 20
-152.6594156519393
 10
137.1127332556524
 20
-152.862676285569
 10
137.1127332556524
 20
-152.862676285569
 10
136.9880207990863
 20
-152.8540635468559
 10
136.6114718625485
 20
-152.8265027829739
 10
136.6114718625485
 20
-152.3696831216298
 10
136.6114718625485
 20
-152.14540740554
 10
136.7382513764057
 20
-151.9042507215725
 10
137.0345295881372
 20
-151.9042507215725
 10
137.2205647443407
 20
-151.9042507215725
 10
137.3032470359867
 20
-151.9993353569654
 10
137.3645697356241
 20
-152.0988986164891
 10
137.3921304995061
 20
-152.0375759168517
 10
137.4724012243124
 20
-151.8556748752305
 10
137.7497314108751
 20
-151.8556748752305
 10
138.0880397875266
 20
-151.8556748752305
 10
138.2551269185612
 20
-152.1030327310714
 10
138.2551269185612
 20
-152.3800184080855
 97
        0
 97
        1
330
A5
 75
     2
 76
     1
 98
        1
 10
0.0
 20
0.0
450
        0
451
        0
460
0.0
461
0.0
452
        0
462
0.0
453
        0
470

  0
ENDBLK
  5
A2
330
9F
100
AcDbEntity
  8
0
100
AcDbBlockEnd
  0
BLOCK
  5
A9
330
A7
100
AcDbEntity
  8
0
100
AcDbBlockBegin
  2
Block_4
 70
     0
 10
0.0
 20
0.0
 30
0.0
  3
Block_4
  1

  0
INSERT
  5
AC
330
A7
100
AcDbEntity
  8
レイヤー 1
100
AcDbBlockReference
  2
Block_5
 10
0.0
 20
0.0
 30
0.0
  0
ENDBLK
  5
AA
330
A7
100
AcDbEntity
  8
0
100
AcDbBlockEnd
  0
BLOCK
  5
AD
330
AB
100
AcDbEntity
  8
0
100
AcDbBlockBegin
  2
Block_5
 70
     0
 10
0.0
 20
0.0
 30
0.0
  3
Block_5
  1

  0
SPLINE
  5
AF
330
AB
100
AcDbEntity
  8
レイヤー 1
100
AcDbSpline
210
0.0
220
0.0
230
1.0
 70
    11
 71
     3
 72
    26
 73
    22
 74
     0
 42
0.0000000001
 43
0.0000000001
 40
0.0
 40
0.0
 40
0.0
 40
0.0
 40
1.0
 40
1.0
 40
1.0
 40
2.0
 40
2.0
 40
2.0
 40
3.0
 40
3.0
 40
3.0
 40
4.0
 40
4.0
 40
4.0
 40
5.0
 40
5.0
 40
5.0
 40
6.0
 40
6.0
 40
6.0
 40
7.0
 40
7.0
 40
7.0
 40
7.0
 10
139.7037895701087
 20
-147.3229627452873
 30
0.0
 10
139.7037895701087
 20
-147.3229627452873
 30
0.0
 10
138.5992919575377
 20
-147.3229627452873
 30
0.0
 10
138.5992919575377
 20
-147.3229627452873
 30
0.0
 10
138.5992919575377
 20
-147.3229627452873
 30
0.0
 10
138.5992919575377
 20
-147.6530028927742
 30
0.0
 10
138.5992919575377
 20
-147.6530028927742
 30
0.0
 10
138.5992919575377
 20
-147.6530028927742
 30
0.0
 10
138.4514973612205
 20
-147.6530028927742
 30
0.0
 10
138.4514973612205
 20
-147.6530028927742
 30
0.0
 10
138.4366834506339
 20
-147.3208956879962
 30
0.0
 10
138.2737304341816
 20
-147.2743868989453
 30
0.0
 10
138.1593532640713
 20
-147.2447590777721
 30
0.0
 10
138.1593532640713
 20
-147.2447590777721
 30
0.0
 10
138.1593532640713
 20
-147.0986870291975
 30
0.0
 10
138.1593532640713
 20
-147.0986870291975
 30
0.0
 10
138.1593532640713
 20
-147.0986870291975
 30
0.0
 10
139.7037895701087
 20
-147.0986870291975
 30
0.0
 10
139.7037895701087
 20
-147.0986870291975
 30
0.0
 10
139.7037895701087
 20
-147.0986870291975
 30
0.0
 10
139.7037895701087
 20
-147.3229627452873
 30
0.0
 10
139.7037895701087
 20
-147.3229627452873
 30
0.0
  0
HATCH
  5
B0
330
AB
100
AcDbEntity
  8
レイヤー 1
 62
    18
420
        0
440
 33554687
100
AcDbHatch
 10
0.0
 20
0.0
 30
0.0
210
0.0
220
0.0
230
1.0
  2
SOLID
 70
     1
 71
     1
 91
        1
 92
        1
 93
        1
 72
     4
 94
        3
 73
     0
 74
     0
 95
       26
 96
       22
 40
0.0
 40
0.0
 40
0.0
 40
0.0
 40
1.0
 40
1.0
 40
1.0
 40
2.0
 40
2.0
 40
2.0
 40
3.0
 40
3.0
 40
3.0
 40
4.0
 40
4.0
 40
4.0
 40
5.0
 40
5.0
 40
5.0
 40
6.0
 40
6.0
 40
6.0
 40
7.0
 40
7.0
 40
7.0
 40
7.0
 10
139.7037895701087
 20
-147.3229627452873
 10
139.7037895701087
 20
-147.3229627452873
 10
138.5992919575377
 20
-147.3229627452873
 10
138.5992919575377
 20
-147.3229627452873
 10
138.5992919575377
 20
-147.3229627452873
 10
138.5992919575377
 20
-147.6530028927742
 10
138.5992919575377
 20
-147.6530028927742
 10
138.5992919575377
 20
-147.6530028927742
 10
138.4514973612205
 20
-147.6530028927742
 10
138.4514973612205
 20
-147.6530028927742
 10
138.4366834506339
 20
-147.3208956879962
 10
138.2737304341816
 20
-147.2743868989453
 10
138.1593532640713
 20
-147.2447590777721
 10
138.1593532640713
 20
-147.2447590777721
 10
138.1593532640713
 20
-147.0986870291975
 10
138.1593532640713
 20
-147.0986870291975
 10
138.1593532640713
 20
-147.0986870291975
 10
139.7037895701087
 20
-147.0986870291975
 10
139.7037895701087
 20
-147.0986870291975
 10
139.7037895701087
 20
-147.0986870291975
 10
139.7037895701087
 20
-147.3229627452873
 10
139.7037895701087
 20
-147.3229627452873
 97
        0
 97
        1
330
AF
 75
     2
 76
     1
 98
        1
 10
0.0
 20
0.0
450
        0
451
        0
460
0.0
461
0.0
452
        0
462
0.0
453
        0
470

  0
SPLINE
  5
B1
330
AB
100
AcDbEntity
  8
レイヤー 1
100
AcDbSpline
210
0.0
220
0.0
230
1.0
 70
    11
 71
     3
 72
    17
 73
    13
 74
     0
 42
0.0000000001
 43
0.0000000001
 40
0.0
 40
0.0
 40
0.0
 40
0.0
 40
1.0
 40
1.0
 40
1.0
 40
2.0
 40
2.0
 40
2.0
 40
3.0
 40
3.0
 40
3.0
 40
4.0
 40
4.0
 40
4.0
 40
4.0
 10
139.7037895701087
 20
-146.5374809746503
 30
0.0
 10
139.7037895701087
 20
-146.5374809746503
 30
0.0
 10
139.451953090137
 20
-146.5374809746503
 30
0.0
 10
139.451953090137
 20
-146.5374809746503
 30
0.0
 10
139.451953090137
 20
-146.5374809746503
 30
0.0
 10
139.451953090137
 20
-146.2856444946786
 30
0.0
 10
139.451953090137
 20
-146.2856444946786
 30
0.0
 10
139.451953090137
 20
-146.2856444946786
 30
0.0
 10
139.7037895701087
 20
-146.2856444946786
 30
0.0
 10
139.7037895701087
 20
-146.2856444946786
 30
0.0
 10
139.7037895701087
 20
-146.2856444946786
 30
0.0
 10
139.7037895701087
 20
-146.5374809746503
 30
0.0
 10
139.7037895701087
 20
-146.5374809746503
 30
0.0
  0
HATCH
  5
B2
330
AB
100
AcDbEntity
  8
レイヤー 1
 62
    18
420
        0
440
 33554687
100
AcDbHatch
 10
0.0
 20
0.0
 30
0.0
210
0.0
220
0.0
230
1.0
  2
SOLID
 70
     1
 71
     1
 91
        1
 92
        1
 93
        1
 72
     4
 94
        3
 73
     0
 74
     0
 95
       17
 96
       13
 40
0.0
 40
0.0
 40
0.0
 40
0.0
 40
1.0
 40
1.0
 40
1.0
 40
2.0
 40
2.0
 40
2.0
 40
3.0
 40
3.0
 40
3.0
 40
4.0
 40
4.0
 40
4.0
 40
4.0
 10
139.7037895701087
 20
-146.5374809746503
 10
139.7037895701087
 20
-146.5374809746503
 10
139.451953090137
 20
-146.5374809746503
 10
139.451953090137
 20
-146.5374809746503
 10
139.451953090137
 20
-146.5374809746503
 10
139.451953090137
 20
-146.2856444946786
 10
139.451953090137
 20
-146.2856444946786
 10
139.451953090137
 20
-146.2856444946786
 10
139.7037895701087
 20
-146.2856444946786
 10
139.7037895701087
 20
-146.2856444946786
 10
139.7037895701087
 20
-146.2856444946786
 10
139.7037895701087
 20
-146.5374809746503
 10
139.7037895701087
 20
-146.5374809746503
 97
        0
 97
        1
330
B1
 75
     2
 76
     1
 98
        1
 10
0.0
 20
0.0
450
        0
451
        0
460
0.0
461
0.0
452
        0
462
0.0
453
        0
470

  0
SPLINE
  5
B3
330
AB
100
AcDbEntity
  8
レイヤー 1
100
AcDbSpline
210
0.0
220
0.0
230
1.0
 70
     9
 71
     3
 72
    44
 73
    40
 74
     0
 42
0.0000000001
 43
0.0000000001
 40
0.0
 40
0.0
 40
0.0
 40
0.0
 40
1.0
 40
1.0
 40
1.0
 40
2.0
 40
2.0
 40
2.0
 40
3.0
 40
3.0
 40
3.0
 40
4.0
 40
4.0
 40
4.0
 40
5.0
 40
5.0
 40
5.0
 40
6.0
 40
6.0
 40
6.0
 40
7.0
 40
7.0
 40
7.0
 40
8.0
 40
8.0
 40
8.0
 40
9.0
 40
9.0
 40
9.0
 40
10.0
 40
10.0
 40
10.0
 40
11.0
 40
11.0
 40
11.0
 40
12.0
 40
12.0
 40
12.0
 40
13.0
 40
13.0
 40
13.0
 40
13.0
 10
139.1219129426501
 20
-145.4564100113789
 30
0.0
 10
139.2807318445201
 20
-145.6741400460467
 30
0.0
 10
139.3548013974529
 20
-145.7671576241485
 30
0.0
 10
139.4984618791879
 20
-145.816077980039
 30
0.0
 10
139.4984618791879
 20
-145.816077980039
 30
0.0
 10
139.4984618791879
 20
-145.0374864003726
 30
0.0
 10
139.4984618791879
 20
-145.0374864003726
 30
0.0
 10
139.4984618791879
 20
-145.0374864003726
 30
0.0
 10
139.7037895701087
 20
-145.0374864003726
 30
0.0
 10
139.7037895701087
 20
-145.0374864003726
 30
0.0
 10
139.7037895701087
 20
-145.0374864003726
 30
0.0
 10
139.7037895701087
 20
-146.0655028931711
 30
0.0
 10
139.7037895701087
 20
-146.0655028931711
 30
0.0
 10
139.3461886587398
 20
-146.0338080147068
 30
0.0
 10
139.2679849912246
 20
-145.9683512004871
 30
0.0
 10
138.969639722202
 20
-145.5831895252361
 30
0.0
 10
138.7708577127031
 20
-145.3272189306821
 30
0.0
 10
138.7029893316437
 20
-145.2617621164623
 30
0.0
 10
138.5655300217822
 20
-145.2617621164623
 30
0.0
 10
138.4470187370896
 20
-145.2617621164623
 30
0.0
 10
138.3161051086501
 20
-145.333764612104
 30
0.0
 10
138.3161051086501
 20
-145.5304795643118
 30
0.0
 10
138.3161051086501
 20
-145.7905842734482
 30
0.0
 10
138.5465819966133
 20
-145.7988525026128
 30
0.0
 10
138.6630262240148
 20
-145.8033311267436
 30
0.0
 10
138.6630262240148
 20
-145.8033311267436
 30
0.0
 10
138.6630262240148
 20
-146.0276068428334
 30
0.0
 10
138.6630262240148
 20
-146.0276068428334
 30
0.0
 10
138.5359022006091
 20
-146.0189941041202
 30
0.0
 10
138.4239365973384
 20
-146.008314308116
 30
0.0
 10
138.3054253126458
 20
-145.9280435833096
 30
0.0
 10
138.1445393534847
 20
-145.8181450373302
 30
0.0
 10
138.1107774177292
 20
-145.6317653715782
 30
0.0
 10
138.1107774177292
 20
-145.5156656537252
 30
0.0
 10
138.1107774177292
 20
-145.2383354671626
 30
0.0
 10
138.2947455166416
 20
-145.0309407189506
 30
0.0
 10
138.5675970790734
 20
-145.0309407189506
 30
0.0
 10
138.7960069097454
 20
-145.0309407189506
 30
0.0
 10
138.8955701692692
 20
-145.147384946352
 30
0.0
 10
139.1219129426501
 20
-145.4564100113789
 30
0.0
  0
HATCH
  5
B4
330
AB
100
AcDbEntity
  8
レイヤー 1
 62
    18
420
        0
440
 33554687
100
AcDbHatch
 10
0.0
 20
0.0
 30
0.0
210
0.0
220
0.0
230
1.0
  2
SOLID
 70
     1
 71
     1
 91
        1
 92
        1
 93
        1
 72
     4
 94
        3
 73
     0
 74
     0
 95
       44
 96
       40
 40
0.0
 40
0.0
 40
0.0
 40
0.0
 40
1.0
 40
1.0
 40
1.0
 40
2.0
 40
2.0
 40
2.0
 40
3.0
 40
3.0
 40
3.0
 40
4.0
 40
4.0
 40
4.0
 40
5.0
 40
5.0
 40
5.0
 40
6.0
 40
6.0
 40
6.0
 40
7.0
 40
7.0
 40
7.0
 40
8.0
 40
8.0
 40
8.0
 40
9.0
 40
9.0
 40
9.0
 40
10.0
 40
10.0
 40
10.0
 40
11.0
 40
11.0
 40
11.0
 40
12.0
 40
12.0
 40
12.0
 40
13.0
 40
13.0
 40
13.0
 40
13.0
 10
139.1219129426501
 20
-145.4564100113789
 10
139.2807318445201
 20
-145.6741400460467
 10
139.3548013974529
 20
-145.7671576241485
 10
139.4984618791879
 20
-145.816077980039
 10
139.4984618791879
 20
-145.816077980039
 10
139.4984618791879
 20
-145.0374864003726
 10
139.4984618791879
 20
-145.0374864003726
 10
139.4984618791879
 20
-145.0374864003726
 10
139.7037895701087
 20
-145.0374864003726
 10
139.7037895701087
 20
-145.0374864003726
 10
139.7037895701087
 20
-145.0374864003726
 10
139.7037895701087
 20
-146.0655028931711
 10
139.7037895701087
 20
-146.0655028931711
 10
139.3461886587398
 20
-146.0338080147068
 10
139.2679849912246
 20
-145.9683512004871
 10
138.969639722202
 20
-145.5831895252361
 10
138.7708577127031
 20
-145.3272189306821
 10
138.7029893316437
 20
-145.2617621164623
 10
138.5655300217822
 20
-145.2617621164623
 10
138.4470187370896
 20
-145.2617621164623
 10
138.3161051086501
 20
-145.333764612104
 10
138.3161051086501
 20
-145.5304795643118
 10
138.3161051086501
 20
-145.7905842734482
 10
138.5465819966133
 20
-145.7988525026128
 10
138.6630262240148
 20
-145.8033311267436
 10
138.6630262240148
 20
-145.8033311267436
 10
138.6630262240148
 20
-146.0276068428334
 10
138.6630262240148
 20
-146.0276068428334
 10
138.5359022006091
 20
-146.0189941041202
 10
138.4239365973384
 20
-146.008314308116
 10
138.3054253126458
 20
-145.9280435833096
 10
138.1445393534847
 20
-145.8181450373302
 10
138.1107774177292
 20
-145.6317653715782
 10
138.1107774177292
 20
-145.5156656537252
 10
138.1107774177292
 20
-145.2383354671626
 10
138.2947455166416
 20
-145.0309407189506
 10
138.5675970790734
 20
-145.0309407189506
 10
138.7960069097454
 20
-145.0309407189506
 10
138.8955701692692
 20
-145.147384946352
 10
139.1219129426501
 20
-145.4564100113789
 97
        0
 97
        1
330
B3
 75
     2
 76
     1
 98
        1
 10
0.0
 20
0.0
450
        0
451
        0
460
0.0
461
0.0
452
        0
462
0.0
453
        0
470

  0
ENDBLK
  5
AE
330
AB
100
AcDbEntity
  8
0
100
AcDbBlockEnd
  0
BLOCK
  5
B7
330
B5
100
AcDbEntity
  8
0
100
AcDbBlockBegin
  2
Block_6
 70
     0
 10
0.0
 20
0.0
 30
0.0
  3
Block_6
  1

  0
INSERT
  5
BA
330
B5
100
AcDbEntity
  8
レイヤー 1
100
AcDbBlockReference
  2
Block_7
 10
0.0
 20
0.0
 30
0.0
  0
ENDBLK
  5
B8
330
B5
100
AcDbEntity
  8
0
100
AcDbBlockEnd
  0
BLOCK
  5
BB
330
B9
100
AcDbEntity
  8
0
100
AcDbBlockBegin
  2
Block_7
 70
     0
 10
0.0
 20
0.0
 30
0.0
  3
Block_7
  1

  0
SPLINE
  5
BD
330
B9
100
AcDbEntity
  8
レイヤー 1
100
AcDbSpline
210
0.0
220
0.0
230
1.0
 70
     9
 71
     3
 72
    44
 73
    40
 74
     0
 42
0.0000000001
 43
0.0000000001
 40
0.0
 40
0.0
 40
0.0
 40
0.0
 40
1.0
 40
1.0
 40
1.0
 40
2.0
 40
2.0
 40
2.0
 40
3.0
 40
3.0
 40
3.0
 40
4.0
 40
4.0
 40
4.0
 40
5.0
 40
5.0
 40
5.0
 40
6.0
 40
6.0
 40
6.0
 40
7.0
 40
7.0
 40
7.0
 40
8.0
 40
8.0
 40
8.0
 40
9.0
 40
9.0
 40
9.0
 40
10.0
 40
10.0
 40
10.0
 40
11.0
 40
11.0
 40
11.0
 40
12.0
 40
12.0
 40
12.0
 40
13.0
 40
13.0
 40
13.0
 40
13.0
 10
137.6226073874693
 20
-133.8128485451058
 30
0.0
 10
137.7814262893394
 20
-134.0305785797736
 30
0.0
 10
137.8554958422722
 20
-134.1235961578753
 30
0.0
 10
137.9991563240071
 20
-134.1725165137659
 30
0.0
 10
137.9991563240071
 20
-134.1725165137659
 30
0.0
 10
137.9991563240071
 20
-133.3939249340994
 30
0.0
 10
137.9991563240071
 20
-133.3939249340994
 30
0.0
 10
137.9991563240071
 20
-133.3939249340994
 30
0.0
 10
138.204484014928
 20
-133.3939249340994
 30
0.0
 10
138.204484014928
 20
-133.3939249340994
 30
0.0
 10
138.204484014928
 20
-133.3939249340994
 30
0.0
 10
138.204484014928
 20
-134.421941426898
 30
0.0
 10
138.204484014928
 20
-134.421941426898
 30
0.0
 10
137.8468831035591
 20
-134.3902465484337
 30
0.0
 10
137.7686794360439
 20
-134.3247897342139
 30
0.0
 10
137.4703341670213
 20
-133.939628058963
 30
0.0
 10
137.2715521575224
 20
-133.6836574644089
 30
0.0
 10
137.203683776463
 20
-133.6182006501892
 30
0.0
 10
137.0662244666015
 20
-133.6182006501892
 30
0.0
 10
136.9477131819089
 20
-133.6182006501892
 30
0.0
 10
136.8167995534694
 20
-133.6902031458309
 30
0.0
 10
136.8167995534694
 20
-133.8869180980387
 30
0.0
 10
136.8167995534694
 20
-134.147022807175
 30
0.0
 10
137.0472764414326
 20
-134.1556355458882
 30
0.0
 10
137.1637206688341
 20
-134.1597696604705
 30
0.0
 10
137.1637206688341
 20
-134.1597696604705
 30
0.0
 10
137.1637206688341
 20
-134.3840453765602
 30
0.0
 10
137.1637206688341
 20
-134.3840453765602
 30
0.0
 10
137.0365966454283
 20
-134.3754326378471
 30
0.0
 10
136.9246310421577
 20
-134.3647528418428
 30
0.0
 10
136.8061197574651
 20
-134.2844821170365
 30
0.0
 10
136.6452337983039
 20
-134.174583571057
 30
0.0
 10
136.6114718625485
 20
-133.988203905305
 30
0.0
 10
136.6114718625485
 20
-133.8721041874521
 30
0.0
 10
136.6114718625485
 20
-133.5947740008895
 30
0.0
 10
136.7954399614608
 20
-133.3873792526774
 30
0.0
 10
137.0682915238926
 20
-133.3873792526774
 30
0.0
 10
137.2967013545647
 20
-133.3873792526774
 30
0.0
 10
137.3962646140884
 20
-133.5038234800789
 30
0.0
 10
137.6226073874693
 20
-133.8128485451058
 30
0.0
  0
HATCH
  5
BE
330
B9
100
AcDbEntity
  8
レイヤー 1
 62
    18
420
        0
440
 33554687
100
AcDbHatch
 10
0.0
 20
0.0
 30
0.0
210
0.0
220
0.0
230
1.0
  2
SOLID
 70
     1
 71
     1
 91
        1
 92
        1
 93
        1
 72
     4
 94
        3
 73
     0
 74
     0
 95
       44
 96
       40
 40
0.0
 40
0.0
 40
0.0
 40
0.0
 40
1.0
 40
1.0
 40
1.0
 40
2.0
 40
2.0
 40
2.0
 40
3.0
 40
3.0
 40
3.0
 40
4.0
 40
4.0
 40
4.0
 40
5.0
 40
5.0
 40
5.0
 40
6.0
 40
6.0
 40
6.0
 40
7.0
 40
7.0
 40
7.0
 40
8.0
 40
8.0
 40
8.0
 40
9.0
 40
9.0
 40
9.0
 40
10.0
 40
10.0
 40
10.0
 40
11.0
 40
11.0
 40
11.0
 40
12.0
 40
12.0
 40
12.0
 40
13.0
 40
13.0
 40
13.0
 40
13.0
 10
137.6226073874693
 20
-133.8128485451058
 10
137.7814262893394
 20
-134.0305785797736
 10
137.8554958422722
 20
-134.1235961578753
 10
137.9991563240071
 20
-134.1725165137659
 10
137.9991563240071
 20
-134.1725165137659
 10
137.9991563240071
 20
-133.3939249340994
 10
137.9991563240071
 20
-133.3939249340994
 10
137.9991563240071
 20
-133.3939249340994
 10
138.204484014928
 20
-133.3939249340994
 10
138.204484014928
 20
-133.3939249340994
 10
138.204484014928
 20
-133.3939249340994
 10
138.204484014928
 20
-134.421941426898
 10
138.204484014928
 20
-134.421941426898
 10
137.8468831035591
 20
-134.3902465484337
 10
137.7686794360439
 20
-134.3247897342139
 10
137.4703341670213
 20
-133.939628058963
 10
137.2715521575224
 20
-133.6836574644089
 10
137.203683776463
 20
-133.6182006501892
 10
137.0662244666015
 20
-133.6182006501892
 10
136.9477131819089
 20
-133.6182006501892
 10
136.8167995534694
 20
-133.6902031458309
 10
136.8167995534694
 20
-133.8869180980387
 10
136.8167995534694
 20
-134.147022807175
 10
137.0472764414326
 20
-134.1556355458882
 10
137.1637206688341
 20
-134.1597696604705
 10
137.1637206688341
 20
-134.1597696604705
 10
137.1637206688341
 20
-134.3840453765602
 10
137.1637206688341
 20
-134.3840453765602
 10
137.0365966454283
 20
-134.3754326378471
 10
136.9246310421577
 20
-134.3647528418428
 10
136.8061197574651
 20
-134.2844821170365
 10
136.6452337983039
 20
-134.174583571057
 10
136.6114718625485
 20
-133.988203905305
 10
136.6114718625485
 20
-133.8721041874521
 10
136.6114718625485
 20
-133.5947740008895
 10
136.7954399614608
 20
-133.3873792526774
 10
137.0682915238926
 20
-133.3873792526774
 10
137.2967013545647
 20
-133.3873792526774
 10
137.3962646140884
 20
-133.5038234800789
 10
137.6226073874693
 20
-133.8128485451058
 97
        0
 97
        1
330
BD
 75
     2
 76
     1
 98
        1
 10
0.0
 20
0.0
450
        0
451
        0
460
0.0
461
0.0
452
        0
462
0.0
453
        0
470

  0
SPLINE
  5
BF
330
B9
100
AcDbEntity
  8
レイヤー 1
100
AcDbSpline
210
0.0
220
0.0
230
1.0
 70
     9
 71
     3
 72
    17
 73
    13
 74
     0
 42
0.0000000001
 43
0.0000000001
 40
0.0
 40
0.0
 40
0.0
 40
0.0
 40
1.0
 40
1.0
 40
1.0
 40
2.0
 40
2.0
 40
2.0
 40
3.0
 40
3.0
 40
3.0
 40
4.0
 40
4.0
 40
4.0
 40
4.0
 10
137.4641329951478
 20
-132.7290215054462
 30
0.0
 10
137.4641329951478
 20
-132.8726819871811
 30
0.0
 10
137.5506048918276
 20
-133.0252997171777
 30
0.0
 10
137.7538655254573
 20
-133.0252997171777
 30
0.0
 10
137.9588487068297
 20
-133.0252997171777
 30
0.0
 10
138.0604790236446
 20
-132.898175693772
 30
0.0
 10
138.0604790236446
 20
-132.7290215054462
 30
0.0
 10
138.0604790236446
 20
-132.5429863492427
 30
0.0
 10
137.9378336243697
 20
-132.4327432937147
 30
0.0
 10
137.7600666973308
 20
-132.4327432937147
 30
0.0
 10
137.5378580385322
 20
-132.4327432937147
 30
0.0
 10
137.4641329951478
 20
-132.595696310167
 30
0.0
 10
137.4641329951478
 20
-132.7290215054462
 30
0.0
  0
SPLINE
  5
C0
330
B9
100
AcDbEntity
  8
レイヤー 1
100
AcDbSpline
210
0.0
220
0.0
230
1.0
 70
     9
 71
     3
 72
    17
 73
    13
 74
     0
 42
0.0000000001
 43
0.0000000001
 40
0.0
 40
0.0
 40
0.0
 40
0.0
 40
1.0
 40
1.0
 40
1.0
 40
2.0
 40
2.0
 40
2.0
 40
3.0
 40
3.0
 40
3.0
 40
4.0
 40
4.0
 40
4.0
 40
4.0
 10
136.804052700174
 20
-132.7290215054462
 30
0.0
 10
136.804052700174
 20
-132.8940415791897
 30
0.0
 10
136.8991373355669
 20
-132.9787909281268
 30
0.0
 10
137.0345295881372
 20
-132.9787909281268
 30
0.0
 10
137.1571749874121
 20
-132.9787909281268
 30
0.0
 10
137.2756862721047
 20
-132.9067884324851
 30
0.0
 10
137.2756862721047
 20
-132.7290215054462
 30
0.0
 10
137.2756862721047
 20
-132.5512545784073
 30
0.0
 10
137.1571749874121
 20
-132.4792520827656
 30
0.0
 10
137.0345295881372
 20
-132.4792520827656
 30
0.0
 10
136.8991373355669
 20
-132.4792520827656
 30
0.0
 10
136.804052700174
 20
-132.5660684889939
 30
0.0
 10
136.804052700174
 20
-132.7290215054462
 30
0.0
  0
SPLINE
  5
C1
330
B9
100
AcDbEntity
  8
レイヤー 1
100
AcDbSpline
210
0.0
220
0.0
230
1.0
 70
     9
 71
     3
 72
    29
 73
    25
 74
     0
 42
0.0000000001
 43
0.0000000001
 40
0.0
 40
0.0
 40
0.0
 40
0.0
 40
1.0
 40
1.0
 40
1.0
 40
2.0
 40
2.0
 40
2.0
 40
3.0
 40
3.0
 40
3.0
 40
4.0
 40
4.0
 40
4.0
 40
5.0
 40
5.0
 40
5.0
 40
6.0
 40
6.0
 40
6.0
 40
7.0
 40
7.0
 40
7.0
 40
8.0
 40
8.0
 40
8.0
 40
8.0
 10
138.2551269185612
 20
-132.7290215054462
 30
0.0
 10
138.2551269185612
 20
-132.9956718960045
 30
0.0
 10
138.1176676086997
 20
-133.2495754332674
 30
0.0
 10
137.7686794360439
 20
-133.2495754332674
 30
0.0
 10
137.5127088414899
 20
-133.2495754332674
 30
0.0
 10
137.4172796965484
 20
-133.1076374992751
 30
0.0
 10
137.355956996911
 20
-133.001873067878
 30
0.0
 10
137.2967013545647
 20
-133.126585524444
 30
0.0
 10
137.1826686940029
 20
-133.2027221346681
 30
0.0
 10
137.0217827348418
 20
-133.2027221346681
 30
0.0
 10
136.7468641151188
 20
-133.2027221346681
 30
0.0
 10
136.6114718625485
 20
-133.0039401251691
 30
0.0
 10
136.6114718625485
 20
-132.7290215054462
 30
0.0
 10
136.6114718625485
 20
-132.4454901470101
 30
0.0
 10
136.7551323442834
 20
-132.2549763666758
 30
0.0
 10
137.0217827348418
 20
-132.2549763666758
 30
0.0
 10
137.1826686940029
 20
-132.2549763666758
 30
0.0
 10
137.2967013545647
 20
-132.3335245437395
 30
0.0
 10
137.355956996911
 20
-132.4582370003056
 30
0.0
 10
137.4069444100927
 20
-132.3693535367861
 30
0.0
 10
137.5020290454856
 20
-132.2105346349161
 30
0.0
 10
137.7645453214616
 20
-132.2105346349161
 30
0.0
 10
138.1386826911597
 20
-132.2105346349161
 30
0.0
 10
138.2551269185612
 20
-132.4899318787698
 30
0.0
 10
138.2551269185612
 20
-132.7290215054462
 30
0.0
  0
HATCH
  5
C2
330
B9
100
AcDbEntity
  8
レイヤー 1
 62
    18
420
        0
440
 33554687
100
AcDbHatch
 10
0.0
 20
0.0
 30
0.0
210
0.0
220
0.0
230
1.0
  2
SOLID
 70
     1
 71
     1
 91
        3
 92
        1
 93
        1
 72
     4
 94
        3
 73
     0
 74
     0
 95
       17
 96
       13
 40
0.0
 40
0.0
 40
0.0
 40
0.0
 40
1.0
 40
1.0
 40
1.0
 40
2.0
 40
2.0
 40
2.0
 40
3.0
 40
3.0
 40
3.0
 40
4.0
 40
4.0
 40
4.0
 40
4.0
 10
137.4641329951478
 20
-132.7290215054462
 10
137.4641329951478
 20
-132.8726819871811
 10
137.5506048918276
 20
-133.0252997171777
 10
137.7538655254573
 20
-133.0252997171777
 10
137.9588487068297
 20
-133.0252997171777
 10
138.0604790236446
 20
-132.898175693772
 10
138.0604790236446
 20
-132.7290215054462
 10
138.0604790236446
 20
-132.5429863492427
 10
137.9378336243697
 20
-132.4327432937147
 10
137.7600666973308
 20
-132.4327432937147
 10
137.5378580385322
 20
-132.4327432937147
 10
137.4641329951478
 20
-132.595696310167
 10
137.4641329951478
 20
-132.7290215054462
 97
        0
 97
        1
330
BF
 92
        1
 93
        1
 72
     4
 94
        3
 73
     0
 74
     0
 95
       17
 96
       13
 40
0.0
 40
0.0
 40
0.0
 40
0.0
 40
1.0
 40
1.0
 40
1.0
 40
2.0
 40
2.0
 40
2.0
 40
3.0
 40
3.0
 40
3.0
 40
4.0
 40
4.0
 40
4.0
 40
4.0
 10
136.804052700174
 20
-132.7290215054462
 10
136.804052700174
 20
-132.8940415791897
 10
136.8991373355669
 20
-132.9787909281268
 10
137.0345295881372
 20
-132.9787909281268
 10
137.1571749874121
 20
-132.9787909281268
 10
137.2756862721047
 20
-132.9067884324851
 10
137.2756862721047
 20
-132.7290215054462
 10
137.2756862721047
 20
-132.5512545784073
 10
137.1571749874121
 20
-132.4792520827656
 10
137.0345295881372
 20
-132.4792520827656
 10
136.8991373355669
 20
-132.4792520827656
 10
136.804052700174
 20
-132.5660684889939
 10
136.804052700174
 20
-132.7290215054462
 97
        0
 97
        1
330
C0
 92
        1
 93
        1
 72
     4
 94
        3
 73
     0
 74
     0
 95
       29
 96
       25
 40
0.0
 40
0.0
 40
0.0
 40
0.0
 40
1.0
 40
1.0
 40
1.0
 40
2.0
 40
2.0
 40
2.0
 40
3.0
 40
3.0
 40
3.0
 40
4.0
 40
4.0
 40
4.0
 40
5.0
 40
5.0
 40
5.0
 40
6.0
 40
6.0
 40
6.0
 40
7.0
 40
7.0
 40
7.0
 40
8.0
 40
8.0
 40
8.0
 40
8.0
 10
138.2551269185612
 20
-132.7290215054462
 10
138.2551269185612
 20
-132.9956718960045
 10
138.1176676086997
 20
-133.2495754332674
 10
137.7686794360439
 20
-133.2495754332674
 10
137.5127088414899
 20
-133.2495754332674
 10
137.4172796965484
 20
-133.1076374992751
 10
137.355956996911
 20
-133.001873067878
 10
137.2967013545647
 20
-133.126585524444
 10
137.1826686940029
 20
-133.2027221346681
 10
137.0217827348418
 20
-133.2027221346681
 10
136.7468641151188
 20
-133.2027221346681
 10
136.6114718625485
 20
-133.0039401251691
 10
136.6114718625485
 20
-132.7290215054462
 10
136.6114718625485
 20
-132.4454901470101
 10
136.7551323442834
 20
-132.2549763666758
 10
137.0217827348418
 20
-132.2549763666758
 10
137.1826686940029
 20
-132.2549763666758
 10
137.2967013545647
 20
-132.3335245437395
 10
137.355956996911
 20
-132.4582370003056
 10
137.4069444100927
 20
-132.3693535367861
 10
137.5020290454856
 20
-132.2105346349161
 10
137.7645453214616
 20
-132.2105346349161
 10
138.1386826911597
 20
-132.2105346349161
 10
138.2551269185612
 20
-132.4899318787698
 10
138.2551269185612
 20
-132.7290215054462
 97
        0
 97
        1
330
C1
 75
     2
 76
     1
 98
        1
 10
0.0
 20
0.0
450
        0
451
        0
460
0.0
461
0.0
452
        0
462
0.0
453
        0
470

  0
ENDBLK
  5
BC
330
B9
100
AcDbEntity
  8
0
100
AcDbBlockEnd
  0
BLOCK
  5
C5
330
C3
100
AcDbEntity
  8
0
100
AcDbBlockBegin
  2
Block_8
 70
     0
 10
0.0
 20
0.0
 30
0.0
  3
Block_8
  1

  0
SPLINE
  5
C7
330
C3
100
AcDbEntity
  8
レイヤー 1
100
AcDbSpline
210
0.0
220
0.0
230
1.0
 70
     9
 71
     3
 72
    53
 73
    49
 74
     0
 42
0.0000000001
 43
0.0000000001
 40
0.0
 40
0.0
 40
0.0
 40
0.0
 40
1.0
 40
1.0
 40
1.0
 40
2.0
 40
2.0
 40
2.0
 40
3.0
 40
3.0
 40
3.0
 40
4.0
 40
4.0
 40
4.0
 40
5.0
 40
5.0
 40
5.0
 40
6.0
 40
6.0
 40
6.0
 40
7.0
 40
7.0
 40
7.0
 40
8.0
 40
8.0
 40
8.0
 40
9.0
 40
9.0
 40
9.0
 40
10.0
 40
10.0
 40
10.0
 40
11.0
 40
11.0
 40
11.0
 40
12.0
 40
12.0
 40
12.0
 40
13.0
 40
13.0
 40
13.0
 40
14.0
 40
14.0
 40
14.0
 40
15.0
 40
15.0
 40
15.0
 40
16.0
 40
16.0
 40
16.0
 40
16.0
 10
96.76687551834302
 20
-139.7940510718223
 30
0.0
 10
96.76687551834302
 20
-139.8722547393375
 30
0.0
 10
96.74982229569103
 20
-139.9738850561524
 30
0.0
 10
96.68643253876242
 20
-140.0755153729672
 30
0.0
 10
96.57636173800868
 20
-140.2488036758753
 30
0.0
 10
96.44527585479494
 20
-140.2701632678838
 30
0.0
 10
96.33744436610662
 20
-140.2891112930527
 30
0.0
 10
96.33744436610662
 20
-140.2891112930527
 30
0.0
 10
96.33744436610662
 20
-140.0669026342541
 30
0.0
 10
96.33744436610662
 20
-140.0669026342541
 30
0.0
 10
96.53622637560554
 20
-140.0121256160386
 30
0.0
 10
96.56585419677867
 20
-139.8850015926329
 30
0.0
 10
96.56585419677867
 20
-139.7919840145312
 30
0.0
 10
96.56585419677867
 20
-139.6524576473785
 30
0.0
 10
96.46646319202922
 20
-139.5001844269305
 30
0.0
 10
96.23374699200059
 20
-139.5001844269305
 30
0.0
 10
95.97777639744654
 20
-139.5001844269305
 30
0.0
 10
95.90801321387022
 20
-139.6800184112605
 30
0.0
 10
95.90801321387022
 20
-139.8005967532443
 30
0.0
 10
95.90801321387022
 20
-139.8322916317086
 30
0.0
 10
95.90801321387022
 20
-139.9738850561524
 30
0.0
 10
96.03703203979284
 20
-140.0627685196718
 30
0.0
 10
96.03703203979284
 20
-140.0627685196718
 30
0.0
 10
96.01791175984971
 20
-140.2384683894195
 30
0.0
 10
96.01791175984971
 20
-140.2384683894195
 30
0.0
 10
96.01791175984971
 20
-140.2384683894195
 30
0.0
 10
95.17179630867232
 20
-140.1178900474358
 30
0.0
 10
95.17179630867232
 20
-140.1178900474358
 30
0.0
 10
95.17179630867232
 20
-140.1178900474358
 30
0.0
 10
95.17179630867232
 20
-139.3392984677693
 30
0.0
 10
95.17179630867232
 20
-139.3392984677693
 30
0.0
 10
95.17179630867232
 20
-139.3392984677693
 30
0.0
 10
95.36644420358895
 20
-139.3392984677693
 30
0.0
 10
95.36644420358895
 20
-139.3392984677693
 30
0.0
 10
95.36644420358895
 20
-139.3392984677693
 30
0.0
 10
95.36644420358895
 20
-139.9549370309835
 30
0.0
 10
95.36644420358895
 20
-139.9549370309835
 30
0.0
 10
95.36644420358895
 20
-139.9549370309835
 30
0.0
 10
95.78950192917764
 20
-140.0203938452032
 30
0.0
 10
95.78950192917764
 20
-140.0203938452032
 30
0.0
 10
95.75556773864791
 20
-139.9590711455658
 30
0.0
 10
95.71543237624476
 20
-139.8767333634683
 30
0.0
 10
95.71543237624476
 20
-139.7582220787757
 30
0.0
 10
95.71543237624476
 20
-139.5043185415128
 30
0.0
 10
95.9016397872225
 20
-139.2672959721276
 30
0.0
 10
96.21462671205746
 20
-139.2672959721276
 30
0.0
 10
96.53209226102324
 20
-139.2672959721276
 30
0.0
 10
96.76687551834302
 20
-139.4915716882174
 30
0.0
 10
96.76687551834302
 20
-139.7940510718223
 30
0.0
  0
HATCH
  5
C8
330
C3
100
AcDbEntity
  8
レイヤー 1
 62
    18
420
        0
440
 33554687
100
AcDbHatch
 10
0.0
 20
0.0
 30
0.0
210
0.0
220
0.0
230
1.0
  2
SOLID
 70
     1
 71
     1
 91
        1
 92
        1
 93
        1
 72
     4
 94
        3
 73
     0
 74
     0
 95
       53
 96
       49
 40
0.0
 40
0.0
 40
0.0
 40
0.0
 40
1.0
 40
1.0
 40
1.0
 40
2.0
 40
2.0
 40
2.0
 40
3.0
 40
3.0
 40
3.0
 40
4.0
 40
4.0
 40
4.0
 40
5.0
 40
5.0
 40
5.0
 40
6.0
 40
6.0
 40
6.0
 40
7.0
 40
7.0
 40
7.0
 40
8.0
 40
8.0
 40
8.0
 40
9.0
 40
9.0
 40
9.0
 40
10.0
 40
10.0
 40
10.0
 40
11.0
 40
11.0
 40
11.0
 40
12.0
 40
12.0
 40
12.0
 40
13.0
 40
13.0
 40
13.0
 40
14.0
 40
14.0
 40
14.0
 40
15.0
 40
15.0
 40
15.0
 40
16.0
 40
16.0
 40
16.0
 40
16.0
 10
96.76687551834302
 20
-139.7940510718223
 10
96.76687551834302
 20
-139.8722547393375
 10
96.74982229569103
 20
-139.9738850561524
 10
96.68643253876242
 20
-140.0755153729672
 10
96.57636173800868
 20
-140.2488036758753
 10
96.44527585479494
 20
-140.2701632678838
 10
96.33744436610662
 20
-140.2891112930527
 10
96.33744436610662
 20
-140.2891112930527
 10
96.33744436610662
 20
-140.0669026342541
 10
96.33744436610662
 20
-140.0669026342541
 10
96.53622637560554
 20
-140.0121256160386
 10
96.56585419677867
 20
-139.8850015926329
 10
96.56585419677867
 20
-139.7919840145312
 10
96.56585419677867
 20
-139.6524576473785
 10
96.46646319202922
 20
-139.5001844269305
 10
96.23374699200059
 20
-139.5001844269305
 10
95.97777639744654
 20
-139.5001844269305
 10
95.90801321387022
 20
-139.6800184112605
 10
95.90801321387022
 20
-139.8005967532443
 10
95.90801321387022
 20
-139.8322916317086
 10
95.90801321387022
 20
-139.9738850561524
 10
96.03703203979284
 20
-140.0627685196718
 10
96.03703203979284
 20
-140.0627685196718
 10
96.01791175984971
 20
-140.2384683894195
 10
96.01791175984971
 20
-140.2384683894195
 10
96.01791175984971
 20
-140.2384683894195
 10
95.17179630867232
 20
-140.1178900474358
 10
95.17179630867232
 20
-140.1178900474358
 10
95.17179630867232
 20
-140.1178900474358
 10
95.17179630867232
 20
-139.3392984677693
 10
95.17179630867232
 20
-139.3392984677693
 10
95.17179630867232
 20
-139.3392984677693
 10
95.36644420358895
 20
-139.3392984677693
 10
95.36644420358895
 20
-139.3392984677693
 10
95.36644420358895
 20
-139.3392984677693
 10
95.36644420358895
 20
-139.9549370309835
 10
95.36644420358895
 20
-139.9549370309835
 10
95.36644420358895
 20
-139.9549370309835
 10
95.78950192917764
 20
-140.0203938452032
 10
95.78950192917764
 20
-140.0203938452032
 10
95.75556773864791
 20
-139.9590711455658
 10
95.71543237624476
 20
-139.8767333634683
 10
95.71543237624476
 20
-139.7582220787757
 10
95.71543237624476
 20
-139.5043185415128
 10
95.9016397872225
 20
-139.2672959721276
 10
96.21462671205746
 20
-139.2672959721276
 10
96.53209226102324
 20
-139.2672959721276
 10
96.76687551834302
 20
-139.4915716882174
 10
96.76687551834302
 20
-139.7940510718223
 97
        0
 97
        1
330
C7
 75
     2
 76
     1
 98
        1
 10
0.0
 20
0.0
450
        0
451
        0
460
0.0
461
0.0
452
        0
462
0.0
453
        0
470

  0
ENDBLK
  5
C6
330
C3
100
AcDbEntity
  8
0
100
AcDbBlockEnd
  0
BLOCK
  5
CB
330
C9
100
AcDbEntity
  8
0
100
AcDbBlockBegin
  2
Block_9
 70
     0
 10
0.0
 20
0.0
 30
0.0
  3
Block_9
  1

  0
INSERT
  5
CE
330
C9
100
AcDbEntity
  8
レイヤー 1
100
AcDbBlockReference
  2
Block_10
 10
0.0
 20
0.0
 30
0.0
  0
ENDBLK
  5
CC
330
C9
100
AcDbEntity
  8
0
100
AcDbBlockEnd
  0
BLOCK
  5
CF
330
CD
100
AcDbEntity
  8
0
100
AcDbBlockBegin
  2
Block_10
 70
     0
 10
0.0
 20
0.0
 30
0.0
  3
Block_10
  1

  0
SPLINE
  5
D1
330
CD
100
AcDbEntity
  8
レイヤー 1
100
AcDbSpline
210
0.0
220
0.0
230
1.0
 70
     9
 71
     3
 72
    62
 73
    58
 74
     0
 42
0.0000000001
 43
0.0000000001
 40
0.0
 40
0.0
 40
0.0
 40
0.0
 40
1.0
 40
1.0
 40
1.0
 40
2.0
 40
2.0
 40
2.0
 40
3.0
 40
3.0
 40
3.0
 40
4.0
 40
4.0
 40
4.0
 40
5.0
 40
5.0
 40
5.0
 40
6.0
 40
6.0
 40
6.0
 40
7.0
 40
7.0
 40
7.0
 40
8.0
 40
8.0
 40
8.0
 40
9.0
 40
9.0
 40
9.0
 40
10.0
 40
10.0
 40
10.0
 40
11.0
 40
11.0
 40
11.0
 40
12.0
 40
12.0
 40
12.0
 40
13.0
 40
13.0
 40
13.0
 40
14.0
 40
14.0
 40
14.0
 40
15.0
 40
15.0
 40
15.0
 40
16.0
 40
16.0
 40
16.0
 40
17.0
 40
17.0
 40
17.0
 40
18.0
 40
18.0
 40
18.0
 40
19.0
 40
19.0
 40
19.0
 40
19.0
 10
71.60493162272377
 20
-154.5907361809703
 30
0.0
 10
71.60493162272377
 20
-154.6861653259118
 30
0.0
 10
71.58374428548949
 20
-154.9038953605796
 30
0.0
 10
71.39753687451173
 20
-155.0289523266942
 30
0.0
 10
71.28539901646686
 20
-155.103021879627
 30
0.0
 10
71.18600801171739
 20
-155.1071559942093
 30
0.0
 10
71.10143091755451
 20
-155.1112901087916
 30
0.0
 10
71.10143091755451
 20
-155.1112901087916
 30
0.0
 10
71.10143091755451
 20
-154.8911485072841
 30
0.0
 10
71.10143091755451
 20
-154.8911485072841
 30
0.0
 10
71.17550047048737
 20
-154.889081449993
 30
0.0
 10
71.41028372780716
 20
-154.8787461635372
 30
0.0
 10
71.41028372780716
 20
-154.5952148051012
 30
0.0
 10
71.41028372780716
 20
-154.4577554952397
 30
0.0
 10
71.34052054423084
 20
-154.3051377652431
 30
0.0
 10
71.11193845878452
 20
-154.3051377652431
 30
0.0
 10
70.99566648615733
 20
-154.3051377652431
 30
0.0
 10
70.94691838504104
 20
-154.3433783251294
 30
0.0
 10
70.91522350657675
 20
-154.3750732035937
 30
0.0
 10
70.84115395364388
 20
-154.4491427565266
 30
0.0
 10
70.82857935512271
 20
-154.565586983928
 30
0.0
 10
70.82857935512271
 20
-154.6203640021435
 30
0.0
 10
70.82857935512271
 20
-154.6396565368609
 30
0.0
 10
70.83064641241387
 20
-154.6754855299075
 30
0.0
 10
70.83478052699617
 20
-154.7030462937895
 30
0.0
 10
70.83478052699617
 20
-154.7030462937895
 30
0.0
 10
70.64013263207955
 20
-154.7030462937895
 30
0.0
 10
70.64013263207955
 20
-154.7030462937895
 30
0.0
 10
70.64650605872727
 20
-154.6648057339032
 30
0.0
 10
70.64874537079268
 20
-154.6227755689832
 30
0.0
 10
70.64874537079268
 20
-154.6162298875612
 30
0.0
 10
70.64874537079268
 20
-154.5507730733415
 30
0.0
 10
70.62755803355838
 20
-154.3519910638426
 30
0.0
 10
70.3905354641732
 20
-154.3519910638426
 30
0.0
 10
70.21294079190858
 20
-154.3519910638426
 30
0.0
 10
70.15781926414458
 20
-154.4829046922821
 30
0.0
 10
70.15781926414458
 20
-154.5931477478101
 30
0.0
 10
70.15781926414458
 20
-154.8573865715287
 30
0.0
 10
70.3905354641732
 20
-154.8659993102418
 30
0.0
 10
70.46253795981492
 20
-154.8701334248241
 30
0.0
 10
70.46253795981492
 20
-154.8701334248241
 30
0.0
 10
70.46253795981492
 20
-155.0733940584539
 30
0.0
 10
70.46253795981492
 20
-155.0733940584539
 30
0.0
 10
70.33765324847462
 20
-155.0647813197407
 30
0.0
 10
69.96110431193681
 20
-155.0372205558588
 30
0.0
 10
69.96110431193681
 20
-154.5804008945146
 30
0.0
 10
69.96110431193681
 20
-154.3561251784248
 30
0.0
 10
70.08805608056826
 20
-154.1149684944574
 30
0.0
 10
70.38416203752548
 20
-154.1149684944574
 30
0.0
 10
70.57036944850324
 20
-154.1149684944574
 30
0.0
 10
70.65287948537498
 20
-154.2100531298502
 30
0.0
 10
70.71420218501242
 20
-154.309616389374
 30
0.0
 10
70.74176294889442
 20
-154.2482936897365
 30
0.0
 10
70.822205928475
 20
-154.0663926481153
 30
0.0
 10
71.09936386026335
 20
-154.0663926481153
 30
0.0
 10
71.43784449168915
 20
-154.0663926481153
 30
0.0
 10
71.60493162272377
 20
-154.3137505039563
 30
0.0
 10
71.60493162272377
 20
-154.5907361809703
 30
0.0
  0
HATCH
  5
D2
330
CD
100
AcDbEntity
  8
レイヤー 1
 62
    18
420
        0
440
 33554687
100
AcDbHatch
 10
0.0
 20
0.0
 30
0.0
210
0.0
220
0.0
230
1.0
  2
SOLID
 70
     1
 71
     1
 91
        1
 92
        1
 93
        1
 72
     4
 94
        3
 73
     0
 74
     0
 95
       62
 96
       58
 40
0.0
 40
0.0
 40
0.0
 40
0.0
 40
1.0
 40
1.0
 40
1.0
 40
2.0
 40
2.0
 40
2.0
 40
3.0
 40
3.0
 40
3.0
 40
4.0
 40
4.0
 40
4.0
 40
5.0
 40
5.0
 40
5.0
 40
6.0
 40
6.0
 40
6.0
 40
7.0
 40
7.0
 40
7.0
 40
8.0
 40
8.0
 40
8.0
 40
9.0
 40
9.0
 40
9.0
 40
10.0
 40
10.0
 40
10.0
 40
11.0
 40
11.0
 40
11.0
 40
12.0
 40
12.0
 40
12.0
 40
13.0
 40
13.0
 40
13.0
 40
14.0
 40
14.0
 40
14.0
 40
15.0
 40
15.0
 40
15.0
 40
16.0
 40
16.0
 40
16.0
 40
17.0
 40
17.0
 40
17.0
 40
18.0
 40
18.0
 40
18.0
 40
19.0
 40
19.0
 40
19.0
 40
19.0
 10
71.60493162272377
 20
-154.5907361809703
 10
71.60493162272377
 20
-154.6861653259118
 10
71.58374428548949
 20
-154.9038953605796
 10
71.39753687451173
 20
-155.0289523266942
 10
71.28539901646686
 20
-155.103021879627
 10
71.18600801171739
 20
-155.1071559942093
 10
71.10143091755451
 20
-155.1112901087916
 10
71.10143091755451
 20
-155.1112901087916
 10
71.10143091755451
 20
-154.8911485072841
 10
71.10143091755451
 20
-154.8911485072841
 10
71.17550047048737
 20
-154.889081449993
 10
71.41028372780716
 20
-154.8787461635372
 10
71.41028372780716
 20
-154.5952148051012
 10
71.41028372780716
 20
-154.4577554952397
 10
71.34052054423084
 20
-154.3051377652431
 10
71.11193845878452
 20
-154.3051377652431
 10
70.99566648615733
 20
-154.3051377652431
 10
70.94691838504104
 20
-154.3433783251294
 10
70.91522350657675
 20
-154.3750732035937
 10
70.84115395364388
 20
-154.4491427565266
 10
70.82857935512271
 20
-154.565586983928
 10
70.82857935512271
 20
-154.6203640021435
 10
70.82857935512271
 20
-154.6396565368609
 10
70.83064641241387
 20
-154.6754855299075
 10
70.83478052699617
 20
-154.7030462937895
 10
70.83478052699617
 20
-154.7030462937895
 10
70.64013263207955
 20
-154.7030462937895
 10
70.64013263207955
 20
-154.7030462937895
 10
70.64650605872727
 20
-154.6648057339032
 10
70.64874537079268
 20
-154.6227755689832
 10
70.64874537079268
 20
-154.6162298875612
 10
70.64874537079268
 20
-154.5507730733415
 10
70.62755803355838
 20
-154.3519910638426
 10
70.3905354641732
 20
-154.3519910638426
 10
70.21294079190858
 20
-154.3519910638426
 10
70.15781926414458
 20
-154.4829046922821
 10
70.15781926414458
 20
-154.5931477478101
 10
70.15781926414458
 20
-154.8573865715287
 10
70.3905354641732
 20
-154.8659993102418
 10
70.46253795981492
 20
-154.8701334248241
 10
70.46253795981492
 20
-154.8701334248241
 10
70.46253795981492
 20
-155.0733940584539
 10
70.46253795981492
 20
-155.0733940584539
 10
70.33765324847462
 20
-155.0647813197407
 10
69.96110431193681
 20
-155.0372205558588
 10
69.96110431193681
 20
-154.5804008945146
 10
69.96110431193681
 20
-154.3561251784248
 10
70.08805608056826
 20
-154.1149684944574
 10
70.38416203752548
 20
-154.1149684944574
 10
70.57036944850324
 20
-154.1149684944574
 10
70.65287948537498
 20
-154.2100531298502
 10
70.71420218501242
 20
-154.309616389374
 10
70.74176294889442
 20
-154.2482936897365
 10
70.822205928475
 20
-154.0663926481153
 10
71.09936386026335
 20
-154.0663926481153
 10
71.43784449168915
 20
-154.0663926481153
 10
71.60493162272377
 20
-154.3137505039563
 10
71.60493162272377
 20
-154.5907361809703
 97
        0
 97
        1
330
D1
 75
     2
 76
     1
 98
        1
 10
0.0
 20
0.0
450
        0
451
        0
460
0.0
461
0.0
452
        0
462
0.0
453
        0
470

  0
SPLINE
  5
D3
330
CD
100
AcDbEntity
  8
レイヤー 1
100
AcDbSpline
210
0.0
220
0.0
230
1.0
 70
     9
 71
     3
 72
    53
 73
    49
 74
     0
 42
0.0000000001
 43
0.0000000001
 40
0.0
 40
0.0
 40
0.0
 40
0.0
 40
1.0
 40
1.0
 40
1.0
 40
2.0
 40
2.0
 40
2.0
 40
3.0
 40
3.0
 40
3.0
 40
4.0
 40
4.0
 40
4.0
 40
5.0
 40
5.0
 40
5.0
 40
6.0
 40
6.0
 40
6.0
 40
7.0
 40
7.0
 40
7.0
 40
8.0
 40
8.0
 40
8.0
 40
9.0
 40
9.0
 40
9.0
 40
10.0
 40
10.0
 40
10.0
 40
11.0
 40
11.0
 40
11.0
 40
12.0
 40
12.0
 40
12.0
 40
13.0
 40
13.0
 40
13.0
 40
14.0
 40
14.0
 40
14.0
 40
15.0
 40
15.0
 40
15.0
 40
16.0
 40
16.0
 40
16.0
 40
16.0
 10
71.60493162272377
 20
-153.4245713592133
 30
0.0
 10
71.60493162272377
 20
-153.5027750267284
 30
0.0
 10
71.58787840007178
 20
-153.6044053435433
 30
0.0
 10
71.52448864314319
 20
-153.7060356603582
 30
0.0
 10
71.41441784238946
 20
-153.8793239632662
 30
0.0
 10
71.28333195917569
 20
-153.9006835552748
 30
0.0
 10
71.17550047048737
 20
-153.9196315804437
 30
0.0
 10
71.17550047048737
 20
-153.9196315804437
 30
0.0
 10
71.17550047048737
 20
-153.6974229216451
 30
0.0
 10
71.17550047048737
 20
-153.6974229216451
 30
0.0
 10
71.37428247998629
 20
-153.6426459034296
 30
0.0
 10
71.40391030115944
 20
-153.5155218800239
 30
0.0
 10
71.40391030115944
 20
-153.4225043019221
 30
0.0
 10
71.40391030115944
 20
-153.2829779347695
 30
0.0
 10
71.30451929640997
 20
-153.1307047143215
 30
0.0
 10
71.07180309638136
 20
-153.1307047143215
 30
0.0
 10
70.8158325018273
 20
-153.1307047143215
 30
0.0
 10
70.74606931825099
 20
-153.3105386986515
 30
0.0
 10
70.74606931825099
 20
-153.4311170406352
 30
0.0
 10
70.74606931825099
 20
-153.4628119190996
 30
0.0
 10
70.74606931825099
 20
-153.6044053435433
 30
0.0
 10
70.87508814417359
 20
-153.6932888070628
 30
0.0
 10
70.87508814417359
 20
-153.6932888070628
 30
0.0
 10
70.85596786423045
 20
-153.8689886768105
 30
0.0
 10
70.85596786423045
 20
-153.8689886768105
 30
0.0
 10
70.85596786423045
 20
-153.8689886768105
 30
0.0
 10
70.00985241305309
 20
-153.7484103348267
 30
0.0
 10
70.00985241305309
 20
-153.7484103348267
 30
0.0
 10
70.00985241305309
 20
-153.7484103348267
 30
0.0
 10
70.00985241305309
 20
-152.9698187551603
 30
0.0
 10
70.00985241305309
 20
-152.9698187551603
 30
0.0
 10
70.00985241305309
 20
-152.9698187551603
 30
0.0
 10
70.20450030796971
 20
-152.9698187551603
 30
0.0
 10
70.20450030796971
 20
-152.9698187551603
 30
0.0
 10
70.20450030796971
 20
-152.9698187551603
 30
0.0
 10
70.20450030796971
 20
-153.5854573183744
 30
0.0
 10
70.20450030796971
 20
-153.5854573183744
 30
0.0
 10
70.20450030796971
 20
-153.5854573183744
 30
0.0
 10
70.62755803355838
 20
-153.6509141325942
 30
0.0
 10
70.62755803355838
 20
-153.6509141325942
 30
0.0
 10
70.59362384302868
 20
-153.5895914329568
 30
0.0
 10
70.55348848062552
 20
-153.5072536508593
 30
0.0
 10
70.55348848062552
 20
-153.3887423661667
 30
0.0
 10
70.55348848062552
 20
-153.1348388289038
 30
0.0
 10
70.73969589160327
 20
-152.8978162595186
 30
0.0
 10
71.05268281643822
 20
-152.8978162595186
 30
0.0
 10
71.37014836540399
 20
-152.8978162595186
 30
0.0
 10
71.60493162272377
 20
-153.1220919756084
 30
0.0
 10
71.60493162272377
 20
-153.4245713592133
 30
0.0
  0
HATCH
  5
D4
330
CD
100
AcDbEntity
  8
レイヤー 1
 62
    18
420
        0
440
 33554687
100
AcDbHatch
 10
0.0
 20
0.0
 30
0.0
210
0.0
220
0.0
230
1.0
  2
SOLID
 70
     1
 71
     1
 91
        1
 92
        1
 93
        1
 72
     4
 94
        3
 73
     0
 74
     0
 95
       53
 96
       49
 40
0.0
 40
0.0
 40
0.0
 40
0.0
 40
1.0
 40
1.0
 40
1.0
 40
2.0
 40
2.0
 40
2.0
 40
3.0
 40
3.0
 40
3.0
 40
4.0
 40
4.0
 40
4.0
 40
5.0
 40
5.0
 40
5.0
 40
6.0
 40
6.0
 40
6.0
 40
7.0
 40
7.0
 40
7.0
 40
8.0
 40
8.0
 40
8.0
 40
9.0
 40
9.0
 40
9.0
 40
10.0
 40
10.0
 40
10.0
 40
11.0
 40
11.0
 40
11.0
 40
12.0
 40
12.0
 40
12.0
 40
13.0
 40
13.0
 40
13.0
 40
14.0
 40
14.0
 40
14.0
 40
15.0
 40
15.0
 40
15.0
 40
16.0
 40
16.0
 40
16.0
 40
16.0
 10
71.60493162272377
 20
-153.4245713592133
 10
71.60493162272377
 20
-153.5027750267284
 10
71.58787840007178
 20
-153.6044053435433
 10
71.52448864314319
 20
-153.7060356603582
 10
71.41441784238946
 20
-153.8793239632662
 10
71.28333195917569
 20
-153.9006835552748
 10
71.17550047048737
 20
-153.9196315804437
 10
71.17550047048737
 20
-153.9196315804437
 10
71.17550047048737
 20
-153.6974229216451
 10
71.17550047048737
 20
-153.6974229216451
 10
71.37428247998629
 20
-153.6426459034296
 10
71.40391030115944
 20
-153.5155218800239
 10
71.40391030115944
 20
-153.4225043019221
 10
71.40391030115944
 20
-153.2829779347695
 10
71.30451929640997
 20
-153.1307047143215
 10
71.07180309638136
 20
-153.1307047143215
 10
70.8158325018273
 20
-153.1307047143215
 10
70.74606931825099
 20
-153.3105386986515
 10
70.74606931825099
 20
-153.4311170406352
 10
70.74606931825099
 20
-153.4628119190996
 10
70.74606931825099
 20
-153.6044053435433
 10
70.87508814417359
 20
-153.6932888070628
 10
70.87508814417359
 20
-153.6932888070628
 10
70.85596786423045
 20
-153.8689886768105
 10
70.85596786423045
 20
-153.8689886768105
 10
70.85596786423045
 20
-153.8689886768105
 10
70.00985241305309
 20
-153.7484103348267
 10
70.00985241305309
 20
-153.7484103348267
 10
70.00985241305309
 20
-153.7484103348267
 10
70.00985241305309
 20
-152.9698187551603
 10
70.00985241305309
 20
-152.9698187551603
 10
70.00985241305309
 20
-152.9698187551603
 10
70.20450030796971
 20
-152.9698187551603
 10
70.20450030796971
 20
-152.9698187551603
 10
70.20450030796971
 20
-152.9698187551603
 10
70.20450030796971
 20
-153.5854573183744
 10
70.20450030796971
 20
-153.5854573183744
 10
70.20450030796971
 20
-153.5854573183744
 10
70.62755803355838
 20
-153.6509141325942
 10
70.62755803355838
 20
-153.6509141325942
 10
70.59362384302868
 20
-153.5895914329568
 10
70.55348848062552
 20
-153.5072536508593
 10
70.55348848062552
 20
-153.3887423661667
 10
70.55348848062552
 20
-153.1348388289038
 10
70.73969589160327
 20
-152.8978162595186
 10
71.05268281643822
 20
-152.8978162595186
 10
71.37014836540399
 20
-152.8978162595186
 10
71.60493162272377
 20
-153.1220919756084
 10
71.60493162272377
 20
-153.4245713592133
 97
        0
 97
        1
330
D3
 75
     2
 76
     1
 98
        1
 10
0.0
 20
0.0
450
        0
451
        0
460
0.0
461
0.0
452
        0
462
0.0
453
        0
470

  0
ENDBLK
  5
D0
330
CD
100
AcDbEntity
  8
0
100
AcDbBlockEnd
  0
BLOCK
  5
DA
330
D8
100
AcDbEntity
  8
0
100
AcDbBlockBegin
  2
Block_11
 70
     0
 10
0.0
 20
0.0
 30
0.0
  3
Block_11
  1

  0
INSERT
  5
DD
330
D8
100
AcDbEntity
  8
レイヤー 1
100
AcDbBlockReference
  2
Block_12
 10
0.0
 20
0.0
 30
0.0
  0
ENDBLK
  5
DB
330
D8
100
AcDbEntity
  8
0
100
AcDbBlockEnd
  0
BLOCK
  5
DE
330
DC
100
AcDbEntity
  8
0
100
AcDbBlockBegin
  2
Block_12
 70
     0
 10
0.0
 20
0.0
 30
0.0
  3
Block_12
  1

  0
SPLINE
  5
E0
330
DC
100
AcDbEntity
  8
レイヤー 1
100
AcDbSpline
210
0.0
220
0.0
230
1.0
 70
     9
 71
     3
 72
    20
 73
    16
 74
     0
 42
0.0000000001
 43
0.0000000001
 40
0.0
 40
0.0
 40
0.0
 40
0.0
 40
1.0
 40
1.0
 40
1.0
 40
2.0
 40
2.0
 40
2.0
 40
3.0
 40
3.0
 40
3.0
 40
4.0
 40
4.0
 40
4.0
 40
5.0
 40
5.0
 40
5.0
 40
5.0
 10
75.51235892209414
 20
-177.1078802725633
 30
0.0
 10
75.51235892209414
 20
-177.1078802725633
 30
0.0
 10
75.06811385927116
 20
-177.1078802725633
 30
0.0
 10
75.06811385927116
 20
-177.1078802725633
 30
0.0
 10
75.06811385927116
 20
-177.1078802725633
 30
0.0
 10
75.06811385927116
 20
-177.5881265832071
 30
0.0
 10
75.06811385927116
 20
-177.5881265832071
 30
0.0
 10
75.06811385927116
 20
-177.5881265832071
 30
0.0
 10
75.51029186480298
 20
-177.5881265832071
 30
0.0
 10
75.51029186480298
 20
-177.5881265832071
 30
0.0
 10
75.60968286955244
 20
-177.5881265832071
 30
0.0
 10
75.74507512212275
 20
-177.5119899729831
 30
0.0
 10
75.74507512212275
 20
-177.3407687273662
 30
0.0
 10
75.74507512212275
 20
-177.262565059851
 30
0.0
 10
75.71131318636732
 20
-177.1078802725633
 30
0.0
 10
75.51235892209414
 20
-177.1078802725633
 30
0.0
  0
SPLINE
  5
E1
330
DC
100
AcDbEntity
  8
レイヤー 1
100
AcDbSpline
210
0.0
220
0.0
230
1.0
 70
     9
 71
     3
 72
    44
 73
    40
 74
     0
 42
0.0000000001
 43
0.0000000001
 40
0.0
 40
0.0
 40
0.0
 40
0.0
 40
1.0
 40
1.0
 40
1.0
 40
2.0
 40
2.0
 40
2.0
 40
3.0
 40
3.0
 40
3.0
 40
4.0
 40
4.0
 40
4.0
 40
5.0
 40
5.0
 40
5.0
 40
6.0
 40
6.0
 40
6.0
 40
7.0
 40
7.0
 40
7.0
 40
8.0
 40
8.0
 40
8.0
 40
9.0
 40
9.0
 40
9.0
 40
10.0
 40
10.0
 40
10.0
 40
11.0
 40
11.0
 40
11.0
 40
12.0
 40
12.0
 40
12.0
 40
13.0
 40
13.0
 40
13.0
 40
13.0
 10
75.7641954020659
 20
-178.4407877158064
 30
0.0
 10
75.7407687527662
 20
-178.3963459840467
 30
0.0
 10
75.71975367030617
 20
-178.3436360231224
 30
0.0
 10
75.71751435824076
 20
-178.1128146256107
 30
0.0
 10
75.71338024365847
 20
-177.869590884352
 30
0.0
 10
75.65412460131216
 20
-177.7996554460015
 30
0.0
 10
75.47635767427327
 20
-177.7996554460015
 30
0.0
 10
75.47635767427327
 20
-177.7996554460015
 30
0.0
 10
75.06811385927116
 20
-177.7996554460015
 30
0.0
 10
75.06811385927116
 20
-177.7996554460015
 30
0.0
 10
75.06811385927116
 20
-177.7996554460015
 30
0.0
 10
75.06811385927116
 20
-178.4407877158064
 30
0.0
 10
75.06811385927116
 20
-178.4407877158064
 30
0.0
 10
75.06811385927116
 20
-178.4407877158064
 30
0.0
 10
74.83333060195139
 20
-178.4407877158064
 30
0.0
 10
74.83333060195139
 20
-178.4407877158064
 30
0.0
 10
74.83333060195139
 20
-178.4407877158064
 30
0.0
 10
74.83333060195139
 20
-176.896351409769
 30
0.0
 10
74.83333060195139
 20
-176.896351409769
 30
0.0
 10
74.83333060195139
 20
-176.896351409769
 30
0.0
 10
75.50805255273757
 20
-176.896351409769
 30
0.0
 10
75.50805255273757
 20
-176.896351409769
 30
0.0
 10
75.81483830569907
 20
-176.896351409769
 30
0.0
 10
75.98209769150795
 20
-177.0679171649344
 30
0.0
 10
75.98209769150795
 20
-177.3238877594885
 30
0.0
 10
75.98209769150795
 20
-177.3745306631216
 30
0.0
 10
75.97348495279482
 20
-177.4572129547676
 30
0.0
 10
75.9290432210351
 20
-177.5374836795739
 30
0.0
 10
75.86995983346307
 20
-177.64118105368
 30
0.0
 10
75.80433076446905
 20
-177.6601290788488
 30
0.0
 10
75.74300806483162
 20
-177.6770100467266
 30
0.0
 10
75.88046737469309
 20
-177.7193847211951
 30
0.0
 10
75.94816350097824
 20
-177.7679605675372
 30
0.0
 10
75.95246987033481
 20
-178.0831868044375
 30
0.0
 10
75.95660398491711
 20
-178.3539713095782
 30
0.0
 10
75.99260523273795
 20
-178.3856661880425
 30
0.0
 10
76.06030135902313
 20
-178.4407877158064
 30
0.0
 10
76.06030135902313
 20
-178.4407877158064
 30
0.0
 10
75.7641954020659
 20
-178.4407877158064
 30
0.0
 10
75.7641954020659
 20
-178.4407877158064
 30
0.0
  0
HATCH
  5
E2
330
DC
100
AcDbEntity
  8
レイヤー 1
 62
    18
420
        0
440
 33554687
100
AcDbHatch
 10
0.0
 20
0.0
 30
0.0
210
0.0
220
0.0
230
1.0
  2
SOLID
 70
     1
 71
     1
 91
        2
 92
        1
 93
        1
 72
     4
 94
        3
 73
     0
 74
     0
 95
       20
 96
       16
 40
0.0
 40
0.0
 40
0.0
 40
0.0
 40
1.0
 40
1.0
 40
1.0
 40
2.0
 40
2.0
 40
2.0
 40
3.0
 40
3.0
 40
3.0
 40
4.0
 40
4.0
 40
4.0
 40
5.0
 40
5.0
 40
5.0
 40
5.0
 10
75.51235892209414
 20
-177.1078802725633
 10
75.51235892209414
 20
-177.1078802725633
 10
75.06811385927116
 20
-177.1078802725633
 10
75.06811385927116
 20
-177.1078802725633
 10
75.06811385927116
 20
-177.1078802725633
 10
75.06811385927116
 20
-177.5881265832071
 10
75.06811385927116
 20
-177.5881265832071
 10
75.06811385927116
 20
-177.5881265832071
 10
75.51029186480298
 20
-177.5881265832071
 10
75.51029186480298
 20
-177.5881265832071
 10
75.60968286955244
 20
-177.5881265832071
 10
75.74507512212275
 20
-177.5119899729831
 10
75.74507512212275
 20
-177.3407687273662
 10
75.74507512212275
 20
-177.262565059851
 10
75.71131318636732
 20
-177.1078802725633
 10
75.51235892209414
 20
-177.1078802725633
 97
        0
 97
        1
330
E0
 92
        1
 93
        1
 72
     4
 94
        3
 73
     0
 74
     0
 95
       44
 96
       40
 40
0.0
 40
0.0
 40
0.0
 40
0.0
 40
1.0
 40
1.0
 40
1.0
 40
2.0
 40
2.0
 40
2.0
 40
3.0
 40
3.0
 40
3.0
 40
4.0
 40
4.0
 40
4.0
 40
5.0
 40
5.0
 40
5.0
 40
6.0
 40
6.0
 40
6.0
 40
7.0
 40
7.0
 40
7.0
 40
8.0
 40
8.0
 40
8.0
 40
9.0
 40
9.0
 40
9.0
 40
10.0
 40
10.0
 40
10.0
 40
11.0
 40
11.0
 40
11.0
 40
12.0
 40
12.0
 40
12.0
 40
13.0
 40
13.0
 40
13.0
 40
13.0
 10
75.7641954020659
 20
-178.4407877158064
 10
75.7407687527662
 20
-178.3963459840467
 10
75.71975367030617
 20
-178.3436360231224
 10
75.71751435824076
 20
-178.1128146256107
 10
75.71338024365847
 20
-177.869590884352
 10
75.65412460131216
 20
-177.7996554460015
 10
75.47635767427327
 20
-177.7996554460015
 10
75.47635767427327
 20
-177.7996554460015
 10
75.06811385927116
 20
-177.7996554460015
 10
75.06811385927116
 20
-177.7996554460015
 10
75.06811385927116
 20
-177.7996554460015
 10
75.06811385927116
 20
-178.4407877158064
 10
75.06811385927116
 20
-178.4407877158064
 10
75.06811385927116
 20
-178.4407877158064
 10
74.83333060195139
 20
-178.4407877158064
 10
74.83333060195139
 20
-178.4407877158064
 10
74.83333060195139
 20
-178.4407877158064
 10
74.83333060195139
 20
-176.896351409769
 10
74.83333060195139
 20
-176.896351409769
 10
74.83333060195139
 20
-176.896351409769
 10
75.50805255273757
 20
-176.896351409769
 10
75.50805255273757
 20
-176.896351409769
 10
75.81483830569907
 20
-176.896351409769
 10
75.98209769150795
 20
-177.0679171649344
 10
75.98209769150795
 20
-177.3238877594885
 10
75.98209769150795
 20
-177.3745306631216
 10
75.97348495279482
 20
-177.4572129547676
 10
75.9290432210351
 20
-177.5374836795739
 10
75.86995983346307
 20
-177.64118105368
 10
75.80433076446905
 20
-177.6601290788488
 10
75.74300806483162
 20
-177.6770100467266
 10
75.88046737469309
 20
-177.7193847211951
 10
75.94816350097824
 20
-177.7679605675372
 10
75.95246987033481
 20
-178.0831868044375
 10
75.95660398491711
 20
-178.3539713095782
 10
75.99260523273795
 20
-178.3856661880425
 10
76.06030135902313
 20
-178.4407877158064
 10
76.06030135902313
 20
-178.4407877158064
 10
75.7641954020659
 20
-178.4407877158064
 10
75.7641954020659
 20
-178.4407877158064
 97
        0
 97
        1
330
E1
 75
     2
 76
     1
 98
        1
 10
0.0
 20
0.0
450
        0
451
        0
460
0.0
461
0.0
452
        0
462
0.0
453
        0
470

  0
SPLINE
  5
E3
330
DC
100
AcDbEntity
  8
レイヤー 1
100
AcDbSpline
210
0.0
220
0.0
230
1.0
 70
     9
 71
     3
 72
    17
 73
    13
 74
     0
 42
0.0000000001
 43
0.0000000001
 40
0.0
 40
0.0
 40
0.0
 40
0.0
 40
1.0
 40
1.0
 40
1.0
 40
2.0
 40
2.0
 40
2.0
 40
3.0
 40
3.0
 40
3.0
 40
4.0
 40
4.0
 40
4.0
 40
4.0
 10
76.69781627856861
 20
-177.0403564010524
 30
0.0
 10
76.579304993876
 20
-177.0403564010524
 30
0.0
 10
76.40377737890253
 20
-177.0975449861076
 30
0.0
 10
76.40377737890253
 20
-177.3831434018348
 30
0.0
 10
76.40377737890253
 20
-177.6094861752157
 30
0.0
 10
76.54330374605514
 20
-177.7045708106086
 30
0.0
 10
76.67869599862547
 20
-177.7045708106086
 30
0.0
 10
76.94104001982724
 20
-177.7045708106086
 30
0.0
 10
76.97910832493924
 20
-177.4951090051054
 30
0.0
 10
76.97910832493924
 20
-177.3786647777039
 30
0.0
 10
76.97910832493924
 20
-177.2033094175047
 30
0.0
 10
76.88402368954635
 20
-177.0403564010524
 30
0.0
 10
76.69781627856861
 20
-177.0403564010524
 30
0.0
  0
SPLINE
  5
E4
330
DC
100
AcDbEntity
  8
レイヤー 1
100
AcDbSpline
210
0.0
220
0.0
230
1.0
 70
     9
 71
     3
 72
    32
 73
    28
 74
     0
 42
0.0000000001
 43
0.0000000001
 40
0.0
 40
0.0
 40
0.0
 40
0.0
 40
1.0
 40
1.0
 40
1.0
 40
2.0
 40
2.0
 40
2.0
 40
3.0
 40
3.0
 40
3.0
 40
4.0
 40
4.0
 40
4.0
 40
5.0
 40
5.0
 40
5.0
 40
6.0
 40
6.0
 40
6.0
 40
7.0
 40
7.0
 40
7.0
 40
8.0
 40
8.0
 40
8.0
 40
9.0
 40
9.0
 40
9.0
 40
9.0
 10
76.65768091616545
 20
-178.4914306194396
 30
0.0
 10
76.48404810370886
 20
-178.4914306194396
 30
0.0
 10
76.23875730515907
 20
-178.4218396906376
 30
0.0
 10
76.20068900004705
 20
-178.0897324858595
 30
0.0
 10
76.20068900004705
 20
-178.0897324858595
 30
0.0
 10
76.41428492013254
 20
-178.0897324858595
 30
0.0
 10
76.41428492013254
 20
-178.0897324858595
 30
0.0
 10
76.42496471613681
 20
-178.1489881282058
 30
0.0
 10
76.45665959460112
 20
-178.296782724523
 30
0.0
 10
76.65974797345659
 20
-178.296782724523
 30
0.0
 10
76.95171981583152
 20
-178.296782724523
 30
0.0
 10
76.98978812094352
 20
-177.9667425770361
 30
0.0
 10
77.00236271946469
 20
-177.7617593956637
 30
0.0
 10
76.91141219865409
 20
-177.84203012047
 30
0.0
 10
76.84371607236894
 20
-177.8992187055252
 30
0.0
 10
76.66181503074774
 20
-177.8992187055252
 30
0.0
 10
76.4819810464177
 20
-177.8992187055252
 30
0.0
 10
76.17950166281277
 20
-177.793454274128
 30
0.0
 10
76.17950166281277
 20
-177.387277516417
 30
0.0
 10
76.17950166281277
 20
-177.0679171649344
 30
0.0
 10
76.37828367231168
 20
-176.8477755634269
 30
0.0
 10
76.69574922127745
 20
-176.8477755634269
 30
0.0
 10
77.20975746767672
 20
-176.8477755634269
 30
0.0
 10
77.22026500890674
 20
-177.4020914270036
 30
0.0
 10
77.22026500890674
 20
-177.6156873470891
 30
0.0
 10
77.22026500890674
 20
-177.8461642350523
 30
0.0
 10
77.20131698373787
 20
-178.4914306194396
 30
0.0
 10
76.65768091616545
 20
-178.4914306194396
 30
0.0
  0
HATCH
  5
E5
330
DC
100
AcDbEntity
  8
レイヤー 1
 62
    18
420
        0
440
 33554687
100
AcDbHatch
 10
0.0
 20
0.0
 30
0.0
210
0.0
220
0.0
230
1.0
  2
SOLID
 70
     1
 71
     1
 91
        2
 92
        1
 93
        1
 72
     4
 94
        3
 73
     0
 74
     0
 95
       17
 96
       13
 40
0.0
 40
0.0
 40
0.0
 40
0.0
 40
1.0
 40
1.0
 40
1.0
 40
2.0
 40
2.0
 40
2.0
 40
3.0
 40
3.0
 40
3.0
 40
4.0
 40
4.0
 40
4.0
 40
4.0
 10
76.69781627856861
 20
-177.0403564010524
 10
76.579304993876
 20
-177.0403564010524
 10
76.40377737890253
 20
-177.0975449861076
 10
76.40377737890253
 20
-177.3831434018348
 10
76.40377737890253
 20
-177.6094861752157
 10
76.54330374605514
 20
-177.7045708106086
 10
76.67869599862547
 20
-177.7045708106086
 10
76.94104001982724
 20
-177.7045708106086
 10
76.97910832493924
 20
-177.4951090051054
 10
76.97910832493924
 20
-177.3786647777039
 10
76.97910832493924
 20
-177.2033094175047
 10
76.88402368954635
 20
-177.0403564010524
 10
76.69781627856861
 20
-177.0403564010524
 97
        0
 97
        1
330
E3
 92
        1
 93
        1
 72
     4
 94
        3
 73
     0
 74
     0
 95
       32
 96
       28
 40
0.0
 40
0.0
 40
0.0
 40
0.0
 40
1.0
 40
1.0
 40
1.0
 40
2.0
 40
2.0
 40
2.0
 40
3.0
 40
3.0
 40
3.0
 40
4.0
 40
4.0
 40
4.0
 40
5.0
 40
5.0
 40
5.0
 40
6.0
 40
6.0
 40
6.0
 40
7.0
 40
7.0
 40
7.0
 40
8.0
 40
8.0
 40
8.0
 40
9.0
 40
9.0
 40
9.0
 40
9.0
 10
76.65768091616545
 20
-178.4914306194396
 10
76.48404810370886
 20
-178.4914306194396
 10
76.23875730515907
 20
-178.4218396906376
 10
76.20068900004705
 20
-178.0897324858595
 10
76.20068900004705
 20
-178.0897324858595
 10
76.41428492013254
 20
-178.0897324858595
 10
76.41428492013254
 20
-178.0897324858595
 10
76.42496471613681
 20
-178.1489881282058
 10
76.45665959460112
 20
-178.296782724523
 10
76.65974797345659
 20
-178.296782724523
 10
76.95171981583152
 20
-178.296782724523
 10
76.98978812094352
 20
-177.9667425770361
 10
77.00236271946469
 20
-177.7617593956637
 10
76.91141219865409
 20
-177.84203012047
 10
76.84371607236894
 20
-177.8992187055252
 10
76.66181503074774
 20
-177.8992187055252
 10
76.4819810464177
 20
-177.8992187055252
 10
76.17950166281277
 20
-177.793454274128
 10
76.17950166281277
 20
-177.387277516417
 10
76.17950166281277
 20
-177.0679171649344
 10
76.37828367231168
 20
-176.8477755634269
 10
76.69574922127745
 20
-176.8477755634269
 10
77.20975746767672
 20
-176.8477755634269
 10
77.22026500890674
 20
-177.4020914270036
 10
77.22026500890674
 20
-177.6156873470891
 10
77.22026500890674
 20
-177.8461642350523
 10
77.20131698373787
 20
-178.4914306194396
 10
76.65768091616545
 20
-178.4914306194396
 97
        0
 97
        1
330
E4
 75
     2
 76
     1
 98
        1
 10
0.0
 20
0.0
450
        0
451
        0
460
0.0
461
0.0
452
        0
462
0.0
453
        0
470

  0
ENDBLK
  5
DF
330
DC
100
AcDbEntity
  8
0
100
AcDbBlockEnd
  0
BLOCK
  5
EB
330
E9
100
AcDbEntity
  8
0
100
AcDbBlockBegin
  2
Block_13
 70
     0
 10
0.0
 20
0.0
 30
0.0
  3
Block_13
  1

  0
INSERT
  5
EE
330
E9
100
AcDbEntity
  8
レイヤー 1
100
AcDbBlockReference
  2
Block_14
 10
0.0
 20
0.0
 30
0.0
  0
ENDBLK
  5
EC
330
E9
100
AcDbEntity
  8
0
100
AcDbBlockEnd
  0
BLOCK
  5
EF
330
ED
100
AcDbEntity
  8
0
100
AcDbBlockBegin
  2
Block_14
 70
     0
 10
0.0
 20
0.0
 30
0.0
  3
Block_14
  1

  0
SPLINE
  5
F1
330
ED
100
AcDbEntity
  8
レイヤー 1
100
AcDbSpline
210
0.0
220
0.0
230
1.0
 70
     9
 71
     3
 72
    20
 73
    16
 74
     0
 42
0.0000000001
 43
0.0000000001
 40
0.0
 40
0.0
 40
0.0
 40
0.0
 40
1.0
 40
1.0
 40
1.0
 40
2.0
 40
2.0
 40
2.0
 40
3.0
 40
3.0
 40
3.0
 40
4.0
 40
4.0
 40
4.0
 40
5.0
 40
5.0
 40
5.0
 40
5.0
 10
118.6056803088902
 20
-177.5936387359835
 30
0.0
 10
118.6056803088902
 20
-177.5936387359835
 30
0.0
 10
118.1616075008415
 20
-177.5936387359835
 30
0.0
 10
118.1616075008415
 20
-177.5936387359835
 30
0.0
 10
118.1616075008415
 20
-177.5936387359835
 30
0.0
 10
118.1616075008415
 20
-178.0738850466273
 30
0.0
 10
118.1616075008415
 20
-178.0738850466273
 30
0.0
 10
118.1616075008415
 20
-178.0738850466273
 30
0.0
 10
118.6036132515991
 20
-178.0738850466273
 30
0.0
 10
118.6036132515991
 20
-178.0738850466273
 30
0.0
 10
118.7031765111228
 20
-178.0738850466273
 30
0.0
 10
118.8385687636931
 20
-177.9977484364033
 30
0.0
 10
118.8385687636931
 20
-177.8265271907864
 30
0.0
 10
118.8385687636931
 20
-177.7483235232713
 30
0.0
 10
118.8048068279377
 20
-177.5936387359835
 30
0.0
 10
118.6056803088902
 20
-177.5936387359835
 30
0.0
  0
SPLINE
  5
F2
330
ED
100
AcDbEntity
  8
レイヤー 1
100
AcDbSpline
210
0.0
220
0.0
230
1.0
 70
     9
 71
     3
 72
    44
 73
    40
 74
     0
 42
0.0000000001
 43
0.0000000001
 40
0.0
 40
0.0
 40
0.0
 40
0.0
 40
1.0
 40
1.0
 40
1.0
 40
2.0
 40
2.0
 40
2.0
 40
3.0
 40
3.0
 40
3.0
 40
4.0
 40
4.0
 40
4.0
 40
5.0
 40
5.0
 40
5.0
 40
6.0
 40
6.0
 40
6.0
 40
7.0
 40
7.0
 40
7.0
 40
8.0
 40
8.0
 40
8.0
 40
9.0
 40
9.0
 40
9.0
 40
10.0
 40
10.0
 40
10.0
 40
11.0
 40
11.0
 40
11.0
 40
12.0
 40
12.0
 40
12.0
 40
13.0
 40
13.0
 40
13.0
 40
13.0
 10
118.857516788862
 20
-178.9265461792267
 30
0.0
 10
118.8340901395623
 20
-178.882104447467
 30
0.0
 10
118.8130750571023
 20
-178.8293944865426
 30
0.0
 10
118.8110079998111
 20
-178.5985730890309
 30
0.0
 10
118.8068738852288
 20
-178.3553493477723
 30
0.0
 10
118.7476182428825
 20
-178.2854139094217
 30
0.0
 10
118.5698513158436
 20
-178.2854139094217
 30
0.0
 10
118.5698513158436
 20
-178.2854139094217
 30
0.0
 10
118.1616075008415
 20
-178.2854139094217
 30
0.0
 10
118.1616075008415
 20
-178.2854139094217
 30
0.0
 10
118.1616075008415
 20
-178.2854139094217
 30
0.0
 10
118.1616075008415
 20
-178.9265461792267
 30
0.0
 10
118.1616075008415
 20
-178.9265461792267
 30
0.0
 10
118.1616075008415
 20
-178.9265461792267
 30
0.0
 10
117.9266519887475
 20
-178.9265461792267
 30
0.0
 10
117.9266519887475
 20
-178.9265461792267
 30
0.0
 10
117.9266519887475
 20
-178.9265461792267
 30
0.0
 10
117.9266519887475
 20
-177.3821098731892
 30
0.0
 10
117.9266519887475
 20
-177.3821098731892
 30
0.0
 10
117.9266519887475
 20
-177.3821098731892
 30
0.0
 10
118.6015461943079
 20
-177.3821098731892
 30
0.0
 10
118.6015461943079
 20
-177.3821098731892
 30
0.0
 10
118.9081596924952
 20
-177.3821098731892
 30
0.0
 10
119.0755913330783
 20
-177.5536756283546
 30
0.0
 10
119.0755913330783
 20
-177.8096462229087
 30
0.0
 10
119.0755913330783
 20
-177.8602891265419
 30
0.0
 10
119.0669785943652
 20
-177.9429714181879
 30
0.0
 10
119.0225368626055
 20
-178.0232421429942
 30
0.0
 10
118.9632812202592
 20
-178.1269395171002
 30
0.0
 10
118.8978244060394
 20
-178.1458875422691
 30
0.0
 10
118.836501706402
 20
-178.1627685101468
 30
0.0
 10
118.9739610162634
 20
-178.2051431846154
 30
0.0
 10
119.0414848877743
 20
-178.2537190309574
 30
0.0
 10
119.0459635119052
 20
-178.5689452678577
 30
0.0
 10
119.0500976264875
 20
-178.8397297729984
 30
0.0
 10
119.085926619534
 20
-178.8714246514627
 30
0.0
 10
119.1537950005935
 20
-178.9265461792267
 30
0.0
 10
119.1537950005935
 20
-178.9265461792267
 30
0.0
 10
118.857516788862
 20
-178.9265461792267
 30
0.0
 10
118.857516788862
 20
-178.9265461792267
 30
0.0
  0
HATCH
  5
F3
330
ED
100
AcDbEntity
  8
レイヤー 1
 62
    18
420
        0
440
 33554687
100
AcDbHatch
 10
0.0
 20
0.0
 30
0.0
210
0.0
220
0.0
230
1.0
  2
SOLID
 70
     1
 71
     1
 91
        2
 92
        1
 93
        1
 72
     4
 94
        3
 73
     0
 74
     0
 95
       20
 96
       16
 40
0.0
 40
0.0
 40
0.0
 40
0.0
 40
1.0
 40
1.0
 40
1.0
 40
2.0
 40
2.0
 40
2.0
 40
3.0
 40
3.0
 40
3.0
 40
4.0
 40
4.0
 40
4.0
 40
5.0
 40
5.0
 40
5.0
 40
5.0
 10
118.6056803088902
 20
-177.5936387359835
 10
118.6056803088902
 20
-177.5936387359835
 10
118.1616075008415
 20
-177.5936387359835
 10
118.1616075008415
 20
-177.5936387359835
 10
118.1616075008415
 20
-177.5936387359835
 10
118.1616075008415
 20
-178.0738850466273
 10
118.1616075008415
 20
-178.0738850466273
 10
118.1616075008415
 20
-178.0738850466273
 10
118.6036132515991
 20
-178.0738850466273
 10
118.6036132515991
 20
-178.0738850466273
 10
118.7031765111228
 20
-178.0738850466273
 10
118.8385687636931
 20
-177.9977484364033
 10
118.8385687636931
 20
-177.8265271907864
 10
118.8385687636931
 20
-177.7483235232713
 10
118.8048068279377
 20
-177.5936387359835
 10
118.6056803088902
 20
-177.5936387359835
 97
        0
 97
        1
330
F1
 92
        1
 93
        1
 72
     4
 94
        3
 73
     0
 74
     0
 95
       44
 96
       40
 40
0.0
 40
0.0
 40
0.0
 40
0.0
 40
1.0
 40
1.0
 40
1.0
 40
2.0
 40
2.0
 40
2.0
 40
3.0
 40
3.0
 40
3.0
 40
4.0
 40
4.0
 40
4.0
 40
5.0
 40
5.0
 40
5.0
 40
6.0
 40
6.0
 40
6.0
 40
7.0
 40
7.0
 40
7.0
 40
8.0
 40
8.0
 40
8.0
 40
9.0
 40
9.0
 40
9.0
 40
10.0
 40
10.0
 40
10.0
 40
11.0
 40
11.0
 40
11.0
 40
12.0
 40
12.0
 40
12.0
 40
13.0
 40
13.0
 40
13.0
 40
13.0
 10
118.857516788862
 20
-178.9265461792267
 10
118.8340901395623
 20
-178.882104447467
 10
118.8130750571023
 20
-178.8293944865426
 10
118.8110079998111
 20
-178.5985730890309
 10
118.8068738852288
 20
-178.3553493477723
 10
118.7476182428825
 20
-178.2854139094217
 10
118.5698513158436
 20
-178.2854139094217
 10
118.5698513158436
 20
-178.2854139094217
 10
118.1616075008415
 20
-178.2854139094217
 10
118.1616075008415
 20
-178.2854139094217
 10
118.1616075008415
 20
-178.2854139094217
 10
118.1616075008415
 20
-178.9265461792267
 10
118.1616075008415
 20
-178.9265461792267
 10
118.1616075008415
 20
-178.9265461792267
 10
117.9266519887475
 20
-178.9265461792267
 10
117.9266519887475
 20
-178.9265461792267
 10
117.9266519887475
 20
-178.9265461792267
 10
117.9266519887475
 20
-177.3821098731892
 10
117.9266519887475
 20
-177.3821098731892
 10
117.9266519887475
 20
-177.3821098731892
 10
118.6015461943079
 20
-177.3821098731892
 10
118.6015461943079
 20
-177.3821098731892
 10
118.9081596924952
 20
-177.3821098731892
 10
119.0755913330783
 20
-177.5536756283546
 10
119.0755913330783
 20
-177.8096462229087
 10
119.0755913330783
 20
-177.8602891265419
 10
119.0669785943652
 20
-177.9429714181879
 10
119.0225368626055
 20
-178.0232421429942
 10
118.9632812202592
 20
-178.1269395171002
 10
118.8978244060394
 20
-178.1458875422691
 10
118.836501706402
 20
-178.1627685101468
 10
118.9739610162634
 20
-178.2051431846154
 10
119.0414848877743
 20
-178.2537190309574
 10
119.0459635119052
 20
-178.5689452678577
 10
119.0500976264875
 20
-178.8397297729984
 10
119.085926619534
 20
-178.8714246514627
 10
119.1537950005935
 20
-178.9265461792267
 10
119.1537950005935
 20
-178.9265461792267
 10
118.857516788862
 20
-178.9265461792267
 10
118.857516788862
 20
-178.9265461792267
 97
        0
 97
        1
330
F2
 75
     2
 76
     1
 98
        1
 10
0.0
 20
0.0
450
        0
451
        0
460
0.0
461
0.0
452
        0
462
0.0
453
        0
470

  0
SPLINE
  5
F4
330
ED
100
AcDbEntity
  8
レイヤー 1
100
AcDbSpline
210
0.0
220
0.0
230
1.0
 70
     9
 71
     3
 72
    44
 73
    40
 74
     0
 42
0.0000000001
 43
0.0000000001
 40
0.0
 40
0.0
 40
0.0
 40
0.0
 40
1.0
 40
1.0
 40
1.0
 40
2.0
 40
2.0
 40
2.0
 40
3.0
 40
3.0
 40
3.0
 40
4.0
 40
4.0
 40
4.0
 40
5.0
 40
5.0
 40
5.0
 40
6.0
 40
6.0
 40
6.0
 40
7.0
 40
7.0
 40
7.0
 40
8.0
 40
8.0
 40
8.0
 40
9.0
 40
9.0
 40
9.0
 40
10.0
 40
10.0
 40
10.0
 40
11.0
 40
11.0
 40
11.0
 40
12.0
 40
12.0
 40
12.0
 40
13.0
 40
13.0
 40
13.0
 40
13.0
 10
119.8865668103061
 20
-178.344669551768
 30
0.0
 10
119.6684922660898
 20
-178.503488453638
 30
0.0
 10
119.5754746879881
 20
-178.5775580065709
 30
0.0
 10
119.526898841646
 20
-178.7212184883058
 30
0.0
 10
119.526898841646
 20
-178.7212184883058
 30
0.0
 10
120.305145911764
 20
-178.7212184883058
 30
0.0
 10
120.305145911764
 20
-178.7212184883058
 30
0.0
 10
120.305145911764
 20
-178.7212184883058
 30
0.0
 10
120.305145911764
 20
-178.9265461792267
 30
0.0
 10
120.305145911764
 20
-178.9265461792267
 30
0.0
 10
120.305145911764
 20
-178.9265461792267
 30
0.0
 10
119.2771294189654
 20
-178.9265461792267
 30
0.0
 10
119.2771294189654
 20
-178.9265461792267
 30
0.0
 10
119.3088242974297
 20
-178.5689452678577
 30
0.0
 10
119.374625621198
 20
-178.4907416003426
 30
0.0
 10
119.7594427869004
 20
-178.1923963313199
 30
0.0
 10
120.0154133814544
 20
-177.993614321821
 30
0.0
 10
120.0808701956742
 20
-177.9257459407616
 30
0.0
 10
120.0808701956742
 20
-177.7882866309001
 30
0.0
 10
120.0808701956742
 20
-177.6697753462075
 30
0.0
 10
120.009212209581
 20
-177.538861717768
 30
0.0
 10
119.8124972573732
 20
-177.538861717768
 30
0.0
 10
119.5520480386884
 20
-177.538861717768
 30
0.0
 10
119.5437798095237
 20
-177.7693386057313
 30
0.0
 10
119.5393011853929
 20
-177.8857828331327
 30
0.0
 10
119.5393011853929
 20
-177.8857828331327
 30
0.0
 10
119.3153699788517
 20
-177.8857828331327
 30
0.0
 10
119.3153699788517
 20
-177.8857828331327
 30
0.0
 10
119.3236382080163
 20
-177.758658809727
 30
0.0
 10
119.3343180040206
 20
-177.6466932064564
 30
0.0
 10
119.4145887288269
 20
-177.5281819217638
 30
0.0
 10
119.5244872748064
 20
-177.3672959626026
 30
0.0
 10
119.7108669405584
 20
-177.3335340268472
 30
0.0
 10
119.8273111679598
 20
-177.3335340268472
 30
0.0
 10
120.1042968449739
 20
-177.3335340268472
 30
0.0
 10
120.3116915931859
 20
-177.5175021257595
 30
0.0
 10
120.3116915931859
 20
-177.7903536881913
 30
0.0
 10
120.3116915931859
 20
-178.0191080284119
 30
0.0
 10
120.1952473657845
 20
-178.1183267783871
 30
0.0
 10
119.8865668103061
 20
-178.344669551768
 30
0.0
  0
HATCH
  5
F5
330
ED
100
AcDbEntity
  8
レイヤー 1
 62
    18
420
        0
440
 33554687
100
AcDbHatch
 10
0.0
 20
0.0
 30
0.0
210
0.0
220
0.0
230
1.0
  2
SOLID
 70
     1
 71
     1
 91
        1
 92
        1
 93
        1
 72
     4
 94
        3
 73
     0
 74
     0
 95
       44
 96
       40
 40
0.0
 40
0.0
 40
0.0
 40
0.0
 40
1.0
 40
1.0
 40
1.0
 40
2.0
 40
2.0
 40
2.0
 40
3.0
 40
3.0
 40
3.0
 40
4.0
 40
4.0
 40
4.0
 40
5.0
 40
5.0
 40
5.0
 40
6.0
 40
6.0
 40
6.0
 40
7.0
 40
7.0
 40
7.0
 40
8.0
 40
8.0
 40
8.0
 40
9.0
 40
9.0
 40
9.0
 40
10.0
 40
10.0
 40
10.0
 40
11.0
 40
11.0
 40
11.0
 40
12.0
 40
12.0
 40
12.0
 40
13.0
 40
13.0
 40
13.0
 40
13.0
 10
119.8865668103061
 20
-178.344669551768
 10
119.6684922660898
 20
-178.503488453638
 10
119.5754746879881
 20
-178.5775580065709
 10
119.526898841646
 20
-178.7212184883058
 10
119.526898841646
 20
-178.7212184883058
 10
120.305145911764
 20
-178.7212184883058
 10
120.305145911764
 20
-178.7212184883058
 10
120.305145911764
 20
-178.7212184883058
 10
120.305145911764
 20
-178.9265461792267
 10
120.305145911764
 20
-178.9265461792267
 10
120.305145911764
 20
-178.9265461792267
 10
119.2771294189654
 20
-178.9265461792267
 10
119.2771294189654
 20
-178.9265461792267
 10
119.3088242974297
 20
-178.5689452678577
 10
119.374625621198
 20
-178.4907416003426
 10
119.7594427869004
 20
-178.1923963313199
 10
120.0154133814544
 20
-177.993614321821
 10
120.0808701956742
 20
-177.9257459407616
 10
120.0808701956742
 20
-177.7882866309001
 10
120.0808701956742
 20
-177.6697753462075
 10
120.009212209581
 20
-177.538861717768
 10
119.8124972573732
 20
-177.538861717768
 10
119.5520480386884
 20
-177.538861717768
 10
119.5437798095237
 20
-177.7693386057313
 10
119.5393011853929
 20
-177.8857828331327
 10
119.5393011853929
 20
-177.8857828331327
 10
119.3153699788517
 20
-177.8857828331327
 10
119.3153699788517
 20
-177.8857828331327
 10
119.3236382080163
 20
-177.758658809727
 10
119.3343180040206
 20
-177.6466932064564
 10
119.4145887288269
 20
-177.5281819217638
 10
119.5244872748064
 20
-177.3672959626026
 10
119.7108669405584
 20
-177.3335340268472
 10
119.8273111679598
 20
-177.3335340268472
 10
120.1042968449739
 20
-177.3335340268472
 10
120.3116915931859
 20
-177.5175021257595
 10
120.3116915931859
 20
-177.7903536881913
 10
120.3116915931859
 20
-178.0191080284119
 10
120.1952473657845
 20
-178.1183267783871
 10
119.8865668103061
 20
-178.344669551768
 97
        0
 97
        1
330
F4
 75
     2
 76
     1
 98
        1
 10
0.0
 20
0.0
450
        0
451
        0
460
0.0
461
0.0
452
        0
462
0.0
453
        0
470

  0
ENDBLK
  5
F0
330
ED
100
AcDbEntity
  8
0
100
AcDbBlockEnd
  0
ENDSEC
  0
SECTION
  2
ENTITIES
  0
LINE
  5
79
330
70
100
AcDbEntity
  8
レイヤー 1
 62
    18
420
        0
370
     9
100
AcDbLine
 10
108.1312445531526
 20
-117.823702506098
 30
0.0
 11
136.9369992685301
 21
-117.8237025062221
 31
0.0
  0
SPLINE
  5
7A
330
70
100
AcDbEntity
  8
レイヤー 1
 62
    18
420
        0
370
     9
100
AcDbSpline
210
0.0
220
0.0
230
1.0
 70
     9
 71
     3
 72
    17
 73
    13
 74
     0
 42
0.0000000001
 43
0.0000000001
 40
0.0
 40
0.0
 40
0.0
 40
0.0
 40
1.0
 40
1.0
 40
1.0
 40
2.0
 40
2.0
 40
2.0
 40
3.0
 40
3.0
 40
3.0
 40
4.0
 40
4.0
 40
4.0
 40
4.0
 10
135.7575829287547
 20
-117.816695965358
 30
0.0
 10
135.7575829287572
 20
-117.761556800098
 30
0.0
 10
135.8023504276177
 20
-117.7167893012421
 30
0.0
 10
135.8574895928764
 20
-117.716789301245
 30
0.0
 10
135.9122407025919
 20
-117.7167893012466
 30
0.0
 10
135.9570434792241
 20
-117.7615568001074
 30
0.0
 10
135.9570434792216
 20
-117.816695965367
 30
0.0
 10
135.957043479219
 20
-117.8725054083876
 30
0.0
 10
135.912240702583
 20
-117.9172729072432
 30
0.0
 10
135.8574895928674
 20
-117.917272907241
 30
0.0
 10
135.8023504276087
 20
-117.9172729072385
 30
0.0
 10
135.7575829287521
 20
-117.8725054083786
 30
0.0
 10
135.7575829287547
 20
-117.816695965358
 30
0.0
  0
LINE
  5
7B
330
70
100
AcDbEntity
  8
レイヤー 1
 62
    18
420
        0
370
     9
100
AcDbLine
 10
135.8649425406148
 20
-171.9389900005826
 30
0.0
 11
135.8649425412001
 21
-160.1394783823659
 31
0.0
  0
LINE
  5
7C
330
70
100
AcDbEntity
  8
レイヤー 1
 62
    18
420
        0
370
     9
100
AcDbLine
 10
114.9781102675544
 20
-172.0458845211726
 30
0.0
 11
136.9503531170404
 21
-172.045884521297
 31
0.0
  0
SPLINE
  5
7D
330
70
100
AcDbEntity
  8
レイヤー 1
 62
    18
420
        0
370
     9
100
AcDbSpline
210
0.0
220
0.0
230
1.0
 70
     9
 71
     3
 72
    17
 73
    13
 74
     0
 42
0.0000000001
 43
0.0000000001
 40
0.0
 40
0.0
 40
0.0
 40
0.0
 40
1.0
 40
1.0
 40
1.0
 40
2.0
 40
2.0
 40
2.0
 40
3.0
 40
3.0
 40
3.0
 40
4.0
 40
4.0
 40
4.0
 40
4.0
 10
135.7708919874536
 20
-172.0388964392574
 30
0.0
 10
135.7708919874561
 20
-171.9837572739975
 30
0.0
 10
135.8156594863166
 20
-171.9389897751422
 30
0.0
 10
135.8707986515753
 20
-171.9389897751447
 30
0.0
 10
135.9255497612908
 20
-171.938989775146
 30
0.0
 10
135.9703525379231
 20
-171.9837572740065
 30
0.0
 10
135.9703525379205
 20
-172.0388964392664
 30
0.0
 10
135.9703525379179
 20
-172.094705882287
 30
0.0
 10
135.9255497612819
 20
-172.1394733811424
 30
0.0
 10
135.8707986515663
 20
-172.1394733811411
 30
0.0
 10
135.8156594863076
 20
-172.1394733811385
 30
0.0
 10
135.770891987451
 20
-172.0947058822781
 30
0.0
 10
135.7708919874536
 20
-172.0388964392574
 30
0.0
  0
LINE
  5
7E
330
70
100
AcDbEntity
  8
レイヤー 1
 62
    18
420
        0
370
     9
100
AcDbLine
 10
115.5272862799233
 20
-160.0458850058602
 30
0.0
 11
136.9503531197124
 21
-160.0458850059847
 31
0.0
  0
SPLINE
  5
7F
330
70
100
AcDbEntity
  8
レイヤー 1
 62
    18
420
        0
370
     9
100
AcDbSpline
210
0.0
220
0.0
230
1.0
 70
     9
 71
     3
 72
    17
 73
    13
 74
     0
 42
0.0000000001
 43
0.0000000001
 40
0.0
 40
0.0
 40
0.0
 40
0.0
 40
1.0
 40
1.0
 40
1.0
 40
2.0
 40
2.0
 40
2.0
 40
3.0
 40
3.0
 40
3.0
 40
4.0
 40
4.0
 40
4.0
 40
4.0
 10
135.7708921562666
 20
-160.0389014493787
 30
0.0
 10
135.7708921562692
 20
-159.9837622841188
 30
0.0
 10
135.8156596551284
 20
-159.9389947852634
 30
0.0
 10
135.8707988203883
 20
-159.938994785266
 30
0.0
 10
135.9255499301026
 20
-159.9389947852686
 30
0.0
 10
135.9703527067361
 20
-159.9837622841278
 30
0.0
 10
135.9703527067335
 20
-160.0389014493877
 30
0.0
 10
135.970352706731
 20
-160.0947108924083
 30
0.0
 10
135.9255499300936
 20
-160.1394783912649
 30
0.0
 10
135.8707988203793
 20
-160.1394783912624
 30
0.0
 10
135.8156596551194
 20
-160.1394783912598
 30
0.0
 10
135.7708921562641
 20
-160.0947108923993
 30
0.0
 10
135.7708921562666
 20
-160.0389014493787
 30
0.0
  0
LINE
  5
80
330
70
100
AcDbEntity
  8
レイヤー 1
 62
    18
420
        0
370
     9
100
AcDbLine
 10
135.870616335707
 20
-160.0392395799357
 30
0.0
 11
135.8706163362935
 21
-147.039239474737
 31
0.0
  0
LINE
  5
81
330
70
100
AcDbEntity
  8
レイヤー 1
 62
    18
420
        0
370
     9
100
AcDbLine
 10
134.4503531161223
 20
-147.0458854885968
 30
0.0
 11
136.9503531154977
 21
-147.0458854887207
 31
0.0
  0
SPLINE
  5
82
330
70
100
AcDbEntity
  8
レイヤー 1
 62
    18
420
        0
370
     9
100
AcDbSpline
210
0.0
220
0.0
230
1.0
 70
     9
 71
     3
 72
    17
 73
    13
 74
     0
 42
0.0000000001
 43
0.0000000001
 40
0.0
 40
0.0
 40
0.0
 40
0.0
 40
1.0
 40
1.0
 40
1.0
 40
2.0
 40
2.0
 40
2.0
 40
3.0
 40
3.0
 40
3.0
 40
4.0
 40
4.0
 40
4.0
 40
4.0
 10
135.7708921562666
 20
-147.0389019321153
 30
0.0
 10
135.7708921562692
 20
-146.9837627668554
 30
0.0
 10
135.8156596551284
 20
-146.9389952679994
 30
0.0
 10
135.8707988203883
 20
-146.9389952680019
 30
0.0
 10
135.9255499301026
 20
-146.9389952680045
 30
0.0
 10
135.9703527067361
 20
-146.9837627668644
 30
0.0
 10
135.9703527067335
 20
-147.0389019321243
 30
0.0
 10
135.970352706731
 20
-147.0947113751449
 30
0.0
 10
135.9255499300936
 20
-147.1394788740009
 30
0.0
 10
135.8707988203793
 20
-147.1394788739983
 30
0.0
 10
135.8156596551194
 20
-147.1394788739961
 30
0.0
 10
135.7708921562641
 20
-147.0947113751359
 30
0.0
 10
135.7708921562666
 20
-147.0389019321153
 30
0.0
  0
LINE
  5
83
330
70
100
AcDbEntity
  8
レイヤー 1
 62
    18
420
        0
370
     9
100
AcDbLine
 10
135.8706225300522
 20
-146.9692854478319
 30
0.0
 11
135.8706225301061
 21
-145.7692854481322
 31
0.0
  0
LINE
  5
84
330
70
100
AcDbEntity
  8
レイヤー 1
 62
    18
420
        0
370
     9
100
AcDbLine
 10
134.4503531161223
 20
-145.8237029810894
 30
0.0
 11
136.9503531154977
 21
-145.8237029812132
 31
0.0
  0
SPLINE
  5
85
330
70
100
AcDbEntity
  8
レイヤー 1
 62
    18
420
        0
370
     9
100
AcDbSpline
210
0.0
220
0.0
230
1.0
 70
     9
 71
     3
 72
    17
 73
    13
 74
     0
 42
0.0000000001
 43
0.0000000001
 40
0.0
 40
0.0
 40
0.0
 40
0.0
 40
1.0
 40
1.0
 40
1.0
 40
2.0
 40
2.0
 40
2.0
 40
3.0
 40
3.0
 40
3.0
 40
4.0
 40
4.0
 40
4.0
 40
4.0
 10
135.7708921562666
 20
-145.8167194246079
 30
0.0
 10
135.7708921562692
 20
-145.7615802593479
 30
0.0
 10
135.8156596551284
 20
-145.716812760492
 30
0.0
 10
135.8707988203883
 20
-145.7168127604945
 30
0.0
 10
135.9255499301026
 20
-145.7168127604971
 30
0.0
 10
135.9703527067361
 20
-145.7615802593569
 30
0.0
 10
135.9703527067335
 20
-145.8167194246168
 30
0.0
 10
135.970352706731
 20
-145.8725288676375
 30
0.0
 10
135.9255499300936
 20
-145.9172963664931
 30
0.0
 10
135.8707988203793
 20
-145.9172963664909
 30
0.0
 10
135.8156596551194
 20
-145.9172963664883
 30
0.0
 10
135.7708921562641
 20
-145.8725288676285
 30
0.0
 10
135.7708921562666
 20
-145.8167194246079
 30
0.0
  0
LINE
  5
86
330
70
100
AcDbEntity
  8
レイヤー 1
 62
    18
420
        0
370
     9
100
AcDbLine
 10
135.8706224354298
 20
-145.7747693945306
 30
0.0
 11
135.8706224354838
 21
-117.8170314310229
 31
0.0
  0
LINE
  5
87
330
70
100
AcDbEntity
  8
レイヤー 1
 62
    18
420
        0
370
     9
100
AcDbLine
 10
94.5535427957294
 20
-142.274707598656
 30
0.0
 11
94.55354279631526
 21
-137.2747075999058
 31
0.0
  0
LINE
  5
88
330
70
100
AcDbEntity
  8
レイヤー 1
 62
    18
420
        0
370
     9
100
AcDbLine
 10
92.19083893421689
 20
-137.2747077523039
 30
0.0
 11
95.45318505861947
 21
-137.2747077521798
 31
0.0
  0
SPLINE
  5
89
330
70
100
AcDbEntity
  8
レイヤー 1
 62
    18
420
        0
370
     9
100
AcDbSpline
210
0.0
220
0.0
230
1.0
 70
     9
 71
     3
 72
    17
 73
    13
 74
     0
 42
0.0000000001
 43
0.0000000001
 40
0.0
 40
0.0
 40
0.0
 40
0.0
 40
1.0
 40
1.0
 40
1.0
 40
2.0
 40
2.0
 40
2.0
 40
3.0
 40
3.0
 40
3.0
 40
4.0
 40
4.0
 40
4.0
 40
4.0
 10
94.45949224256812
 20
-137.2816753886407
 30
0.0
 10
94.4594922425707
 20
-137.336814553901
 30
0.0
 10
94.50425974143115
 20
-137.3815820527563
 30
0.0
 10
94.55939890669046
 20
-137.3815820527534
 30
0.0
 10
94.6141500164054
 20
-137.3815820527521
 30
0.0
 10
94.65895279303824
 20
-137.3368145538917
 30
0.0
 10
94.65895279303566
 20
-137.281675388632
 30
0.0
 10
94.6589527930331
 20
-137.2258659456111
 30
0.0
 10
94.61415001639673
 20
-137.1810984467558
 30
0.0
 10
94.55939890668147
 20
-137.1810984467568
 30
0.0
 10
94.50425974142218
 20
-137.1810984467596
 30
0.0
 10
94.45949224256557
 20
-137.2258659456204
 30
0.0
 10
94.45949224256812
 20
-137.2816753886407
 30
0.0
  0
LINE
  5
8A
330
70
100
AcDbEntity
  8
レイヤー 1
 62
    18
420
        0
370
     9
100
AcDbLine
 10
72.23540865686572
 20
-171.938971800984
 30
0.0
 11
72.23540865820398
 21
-137.2414908293013
 31
0.0
  0
LINE
  5
8B
330
70
100
AcDbEntity
  8
レイヤー 1
 62
    18
420
        0
370
     9
100
AcDbLine
 10
77.48671141909255
 20
-137.241489818465
 30
0.0
 11
71.15565503622211
 21
-137.241489817288
 31
0.0
  0
SPLINE
  5
8C
330
70
100
AcDbEntity
  8
レイヤー 1
 62
    18
420
        0
370
     9
100
AcDbSpline
210
0.0
220
0.0
230
1.0
 70
     9
 71
     3
 72
    17
 73
    13
 74
     0
 42
0.0000000001
 43
0.0000000001
 40
0.0
 40
0.0
 40
0.0
 40
0.0
 40
1.0
 40
1.0
 40
1.0
 40
2.0
 40
2.0
 40
2.0
 40
3.0
 40
3.0
 40
3.0
 40
4.0
 40
4.0
 40
4.0
 40
4.0
 10
72.33507093422815
 20
-137.2344832764775
 30
0.0
 10
72.33507093422815
 20
-137.1793441112172
 30
0.0
 10
72.29030343536995
 20
-137.1345766123594
 30
0.0
 10
72.23516427011097
 20
-137.1345766123594
 30
0.0
 10
72.18041316039602
 20
-137.1345766123587
 30
0.0
 10
72.13561038376126
 20
-137.1793441112172
 30
0.0
 10
72.13561038376126
 20
-137.2344832764775
 30
0.0
 10
72.13561038376126
 20
-137.2902927194978
 30
0.0
 10
72.18041316039602
 20
-137.3350602183554
 30
0.0
 10
72.23516427011097
 20
-137.3350602183557
 30
0.0
 10
72.29030343536995
 20
-137.3350602183557
 30
0.0
 10
72.33507093422815
 20
-137.2902927194978
 30
0.0
 10
72.33507093422815
 20
-137.2344832764775
 30
0.0
  0
LINE
  5
8D
330
70
100
AcDbEntity
  8
レイヤー 1
 62
    18
420
        0
370
     9
100
AcDbLine
 10
77.48671141909255
 20
-172.0458845529405
 30
0.0
 11
71.15565503622211
 21
-172.0458845517649
 31
0.0
  0
SPLINE
  5
8E
330
70
100
AcDbEntity
  8
レイヤー 1
 62
    18
420
        0
370
     9
100
AcDbSpline
210
0.0
220
0.0
230
1.0
 70
     9
 71
     3
 72
    17
 73
    13
 74
     0
 42
0.0000000001
 43
0.0000000001
 40
0.0
 40
0.0
 40
0.0
 40
0.0
 40
1.0
 40
1.0
 40
1.0
 40
2.0
 40
2.0
 40
2.0
 40
3.0
 40
3.0
 40
3.0
 40
4.0
 40
4.0
 40
4.0
 40
4.0
 10
72.33507093422815
 20
-172.0388780109534
 30
0.0
 10
72.33507093422815
 20
-171.9837388456935
 30
0.0
 10
72.29030343536995
 20
-171.9389713468356
 30
0.0
 10
72.23516427011097
 20
-171.9389713468356
 30
0.0
 10
72.18041316039602
 20
-171.9389713468356
 30
0.0
 10
72.13561038376126
 20
-171.9837388456935
 30
0.0
 10
72.13561038376126
 20
-172.0388780109534
 30
0.0
 10
72.13561038376126
 20
-172.094687453974
 30
0.0
 10
72.18041316039602
 20
-172.1394549528319
 30
0.0
 10
72.23516427011097
 20
-172.1394549528319
 30
0.0
 10
72.29030343536995
 20
-172.1394549528319
 30
0.0
 10
72.33507093422815
 20
-172.094687453974
 30
0.0
 10
72.33507093422815
 20
-172.0388780109534
 30
0.0
  0
INSERT
  5
90
330
70
100
AcDbEntity
  8
レイヤー 1
100
AcDbBlockReference
  2
Block_0
 10
0.0
 20
0.0
 30
0.0
  0
INSERT
  5
9C
330
70
100
AcDbEntity
  8
レイヤー 1
100
AcDbBlockReference
  2
Block_2
 10
0.0
 20
0.0
 30
0.0
  0
INSERT
  5
A8
330
70
100
AcDbEntity
  8
レイヤー 1
100
AcDbBlockReference
  2
Block_4
 10
0.0
 20
0.0
 30
0.0
  0
INSERT
  5
B6
330
70
100
AcDbEntity
  8
レイヤー 1
100
AcDbBlockReference
  2
Block_6
 10
0.0
 20
0.0
 30
0.0
  0
INSERT
  5
C4
330
70
100
AcDbEntity
  8
レイヤー 1
100
AcDbBlockReference
  2
Block_8
 10
0.0
 20
0.0
 30
0.0
  0
INSERT
  5
CA
330
70
100
AcDbEntity
  8
レイヤー 1
100
AcDbBlockReference
  2
Block_9
 10
0.0
 20
0.0
 30
0.0
  0
LINE
  5
D5
330
70
100
AcDbEntity
  8
レイヤー 1
 62
    18
420
        0
370
     9
100
AcDbLine
 10
81.37252829817771
 20
-171.0240063535205
 30
0.0
 11
82.15213190909386
 21
-170.5740735872215
 31
0.0
  0
LINE
  5
D6
330
70
100
AcDbEntity
  8
レイヤー 1
 62
    18
420
        0
370
     9
100
AcDbLine
 10
81.7018816314288
 20
-171.3533596784514
 30
0.0
 11
82.15213190909386
 21
-170.5740735872215
 31
0.0
  0
LINE
  5
D7
330
70
100
AcDbEntity
  8
レイヤー 1
 62
    18
420
        0
370
     9
100
AcDbLine
 10
76.42103764546114
 20
-176.3051628704149
 30
0.0
 11
82.15213190909386
 21
-170.5740735872215
 31
0.0
  0
INSERT
  5
D9
330
70
100
AcDbEntity
  8
レイヤー 1
100
AcDbBlockReference
  2
Block_11
 10
0.0
 20
0.0
 30
0.0
  0
LINE
  5
E6
330
70
100
AcDbEntity
  8
レイヤー 1
 62
    18
420
        0
370
     9
100
AcDbLine
 10
114.7476480277604
 20
-172.7670363915261
 30
0.0
 11
113.9680444168641
 21
-172.3171036251911
 31
0.0
  0
LINE
  5
E7
330
70
100
AcDbEntity
  8
レイヤー 1
 62
    18
420
        0
370
     9
100
AcDbLine
 10
114.4182946944952
 20
-173.0963897164415
 30
0.0
 11
113.9680444168641
 21
-172.3171036251911
 31
0.0
  0
LINE
  5
E8
330
70
100
AcDbEntity
  8
レイヤー 1
 62
    18
420
        0
370
     9
100
AcDbLine
 10
118.4395463044504
 20
-176.7886000068495
 30
0.0
 11
113.9680444168654
 21
-172.3171036251911
 31
0.0
  0
INSERT
  5
EA
330
70
100
AcDbEntity
  8
レイヤー 1
100
AcDbBlockReference
  2
Block_13
 10
0.0
 20
0.0
 30
0.0
  0
SPLINE
  5
F6
330
70
100
AcDbEntity
  8
レイヤー 1
 62
    18
420
        0
370
    25
100
AcDbSpline
210
0.0
220
0.0
230
1.0
 70
    11
 71
     3
 72
    44
 73
    40
 74
     0
 42
0.0000000001
 43
0.0000000001
 40
0.0
 40
0.0
 40
0.0
 40
0.0
 40
1.0
 40
1.0
 40
1.0
 40
2.0
 40
2.0
 40
2.0
 40
3.0
 40
3.0
 40
3.0
 40
4.0
 40
4.0
 40
4.0
 40
5.0
 40
5.0
 40
5.0
 40
6.0
 40
6.0
 40
6.0
 40
7.0
 40
7.0
 40
7.0
 40
8.0
 40
8.0
 40
8.0
 40
9.0
 40
9.0
 40
9.0
 40
10.0
 40
10.0
 40
10.0
 40
11.0
 40
11.0
 40
11.0
 40
12.0
 40
12.0
 40
12.0
 40
13.0
 40
13.0
 40
13.0
 40
13.0
 10
108.332058126166
 20
-161.3405609219358
 30
0.0
 10
108.332058126166
 20
-161.3405609219358
 30
0.0
 10
108.3168351104905
 20
-147.0071790478111
 30
0.0
 10
108.3168351104905
 20
-147.0071790478111
 30
0.0
 10
108.3168351104905
 20
-147.0071790478111
 30
0.0
 10
104.6805260609605
 20
-147.0071790478111
 30
0.0
 10
104.6805260609605
 20
-147.0071790478111
 30
0.0
 10
104.6805260609605
 20
-147.0071790478111
 30
0.0
 10
104.6805260609605
 20
-143.5010099136784
 30
0.0
 10
104.6805260609605
 20
-143.5010099136784
 30
0.0
 10
104.6805260609605
 20
-143.5010099136784
 30
0.0
 10
90.46447949700629
 20
-143.5010059913639
 30
0.0
 10
90.46447949700629
 20
-143.5010059913639
 30
0.0
 10
90.46447949700629
 20
-143.5010059913639
 30
0.0
 10
90.46447949700629
 20
-138.4752038041706
 30
0.0
 10
90.46447949700629
 20
-138.4752038041706
 30
0.0
 10
90.46447949700629
 20
-138.4752038041706
 30
0.0
 10
81.67595478674682
 20
-138.4752038041706
 30
0.0
 10
81.67595478674682
 20
-138.4752038041706
 30
0.0
 10
81.23819080980549
 20
-138.4798977467696
 30
0.0
 10
80.88450869455101
 20
-138.8354531326938
 30
0.0
 10
80.88450869455101
 20
-139.2743367656682
 30
0.0
 10
80.88450869455101
 20
-139.2743367656682
 30
0.0
 10
80.88450869455101
 20
-163.3494391630786
 30
0.0
 10
80.88450869455101
 20
-163.3494391630786
 30
0.0
 10
80.88450869455101
 20
-163.3494391630786
 30
0.0
 10
81.56597011338021
 20
-170.581383605715
 30
0.0
 10
89.20949580727013
 20
-170.9929433251217
 30
0.0
 10
89.20949580727013
 20
-170.9929433251217
 30
0.0
 10
111.3650555958396
 20
-170.9819190195689
 30
0.0
 10
111.3650555958396
 20
-170.9819190195689
 30
0.0
 10
111.3650555958396
 20
-170.9819190195689
 30
0.0
 10
113.3053333731323
 20
-171.1252349917553
 30
0.0
 10
113.3384062897907
 20
-169.6369537421273
 30
0.0
 10
113.3384062897907
 20
-169.6369537421273
 30
0.0
 10
113.3384062897907
 20
-161.3552671732885
 30
0.0
 10
113.3384062897907
 20
-161.3552671732885
 30
0.0
 10
113.3384062897907
 20
-161.3552671732885
 30
0.0
 10
108.332058126166
 20
-161.3405609219358
 30
0.0
 10
108.332058126166
 20
-161.3405609219358
 30
0.0
  0
SPLINE
  5
F7
330
70
100
AcDbEntity
  8
レイヤー 1
 62
    18
420
        0
370
    25
100
AcDbSpline
210
0.0
220
0.0
230
1.0
 70
    11
 71
     3
 72
    80
 73
    76
 74
     0
 42
0.0000000001
 43
0.0000000001
 40
0.0
 40
0.0
 40
0.0
 40
0.0
 40
1.0
 40
1.0
 40
1.0
 40
2.0
 40
2.0
 40
2.0
 40
3.0
 40
3.0
 40
3.0
 40
4.0
 40
4.0
 40
4.0
 40
5.0
 40
5.0
 40
5.0
 40
6.0
 40
6.0
 40
6.0
 40
7.0
 40
7.0
 40
7.0
 40
8.0
 40
8.0
 40
8.0
 40
9.0
 40
9.0
 40
9.0
 40
10.0
 40
10.0
 40
10.0
 40
11.0
 40
11.0
 40
11.0
 40
12.0
 40
12.0
 40
12.0
 40
13.0
 40
13.0
 40
13.0
 40
14.0
 40
14.0
 40
14.0
 40
15.0
 40
15.0
 40
15.0
 40
16.0
 40
16.0
 40
16.0
 40
17.0
 40
17.0
 40
17.0
 40
18.0
 40
18.0
 40
18.0
 40
19.0
 40
19.0
 40
19.0
 40
20.0
 40
20.0
 40
20.0
 40
21.0
 40
21.0
 40
21.0
 40
22.0
 40
22.0
 40
22.0
 40
23.0
 40
23.0
 40
23.0
 40
24.0
 40
24.0
 40
24.0
 40
25.0
 40
25.0
 40
25.0
 40
25.0
 10
133.8766633124027
 20
-145.8115614700479
 30
0.0
 10
133.8766633124027
 20
-145.8115614700479
 30
0.0
 10
133.8766633124027
 20
-147.0071790478111
 30
0.0
 10
133.8766633124027
 20
-147.0071790478111
 30
0.0
 10
133.8766633124027
 20
-147.0071790478111
 30
0.0
 10
124.8649179465459
 20
-147.0097010842778
 30
0.0
 10
124.8649179465459
 20
-147.0097010842778
 30
0.0
 10
124.8649179465459
 20
-147.0097010842778
 30
0.0
 10
124.5773386009146
 20
-146.6946686339981
 30
0.0
 10
124.5773386009146
 20
-146.6946686339981
 30
0.0
 10
124.5773386009146
 20
-146.6946686339981
 30
0.0
 10
124.3026568315063
 20
-147.0113375046333
 30
0.0
 10
124.3026568315063
 20
-147.0113375046333
 30
0.0
 10
124.3026568315063
 20
-147.0113375046333
 30
0.0
 10
109.5607298991336
 20
-147.0071790478111
 30
0.0
 10
109.5607298991336
 20
-147.0071790478111
 30
0.0
 10
109.5607298991336
 20
-147.0071790478111
 30
0.0
 10
109.5350208740749
 20
-160.131563873966
 30
0.0
 10
109.5350208740749
 20
-160.131563873966
 30
0.0
 10
109.5350208740749
 20
-160.131563873966
 30
0.0
 10
114.5608984227316
 20
-160.131563873966
 30
0.0
 10
114.5608984227316
 20
-160.131563873966
 30
0.0
 10
114.5608984227316
 20
-160.131563873966
 30
0.0
 10
114.4849340672819
 20
-169.6259240536129
 30
0.0
 10
114.4849340672819
 20
-169.6259240536129
 30
0.0
 10
114.6613229561266
 20
-171.9630768308063
 30
0.0
 10
112.0154896234548
 20
-172.1394657196511
 30
0.0
 10
112.0154896234548
 20
-172.1394657196511
 30
0.0
 10
112.0154896234548
 20
-172.1394657196511
 30
0.0
 10
88.32755136304617
 20
-172.1394657196511
 30
0.0
 10
88.32755136304617
 20
-172.1394657196511
 30
0.0
 10
80.16956525397455
 20
-171.0811323865824
 30
0.0
 10
79.68449580965137
 20
-163.4523129440451
 30
0.0
 10
79.68449580965137
 20
-163.4523129440451
 30
0.0
 10
79.68449580965137
 20
-163.4523129440451
 30
0.0
 10
79.68449580965137
 20
-139.2743313827065
 30
0.0
 10
79.68449580965137
 20
-139.2743313827065
 30
0.0
 10
79.68449580965137
 20
-138.169769174595
 30
0.0
 10
80.57991918996137
 20
-137.2743457942851
 30
0.0
 10
81.68450292991961
 20
-137.2743457942851
 30
0.0
 10
81.68450292991961
 20
-137.2743457942851
 30
0.0
 10
81.6843737388389
 20
-137.2737429025751
 30
0.0
 10
81.6843737388389
 20
-137.2737429025751
 30
0.0
 10
81.6843737388389
 20
-137.2737429025751
 30
0.0
 10
91.68449546756717
 20
-137.2737429025751
 30
0.0
 10
91.68449546756717
 20
-137.2737429025751
 30
0.0
 10
91.68449546756717
 20
-137.2737429025751
 30
0.0
 10
91.68449546756717
 20
-142.3008262346517
 30
0.0
 10
91.68449546756717
 20
-142.3008262346517
 30
0.0
 10
91.68449546756717
 20
-142.3008262346517
 30
0.0
 10
104.6844880044647
 20
-142.3008262346517
 30
0.0
 10
104.6844880044647
 20
-142.3008262346517
 30
0.0
 10
104.6844880044647
 20
-142.3008262346517
 30
0.0
 10
104.6844880044647
 20
-127.4685274509249
 30
0.0
 10
104.6844880044647
 20
-127.4685274509249
 30
0.0
 10
104.6844880044647
 20
-127.4685274509249
 30
0.0
 10
104.9951710216939
 20
-127.1705912869911
 30
0.0
 10
104.9951710216939
 20
-127.1705912869911
 30
0.0
 10
104.9951710216939
 20
-127.1705912869911
 30
0.0
 10
104.6844880044647
 20
-126.9068692275952
 30
0.0
 10
104.6844880044647
 20
-126.9068692275952
 30
0.0
 10
104.6844880044647
 20
-126.9068692275952
 30
0.0
 10
104.6844880044647
 20
-117.8170278534571
 30
0.0
 10
104.6844880044647
 20
-117.8170278534571
 30
0.0
 10
104.6844880044647
 20
-117.8170278534571
 30
0.0
 10
105.879010268435
 20
-117.8170278534571
 30
0.0
 10
105.879010268435
 20
-117.8170278534571
 30
0.0
 10
105.879010268435
 20
-117.8170278534571
 30
0.0
 10
105.879010268435
 20
-145.8115614700479
 30
0.0
 10
105.879010268435
 20
-145.8115614700479
 30
0.0
 10
105.879010268435
 20
-145.8115614700479
 30
0.0
 10
124.2808235388685
 20
-145.8115614700479
 30
0.0
 10
124.2808235388685
 20
-145.8115614700479
 30
0.0
 10
124.2808235388685
 20
-145.8115614700479
 30
0.0
 10
133.8766633124027
 20
-145.8115614700479
 30
0.0
 10
133.8766633124027
 20
-145.8115614700479
 30
0.0
  0
HATCH
  5
F8
330
70
100
AcDbEntity
  8
レイヤー 1
 62
   253
420
 11776947
440
 33554687
100
AcDbHatch
 10
0.0
 20
0.0
 30
0.0
210
0.0
220
0.0
230
1.0
  2
SOLID
 70
     1
 71
     1
 91
        2
 92
        1
 93
        1
 72
     4
 94
        3
 73
     0
 74
     0
 95
       44
 96
       40
 40
0.0
 40
0.0
 40
0.0
 40
0.0
 40
1.0
 40
1.0
 40
1.0
 40
2.0
 40
2.0
 40
2.0
 40
3.0
 40
3.0
 40
3.0
 40
4.0
 40
4.0
 40
4.0
 40
5.0
 40
5.0
 40
5.0
 40
6.0
 40
6.0
 40
6.0
 40
7.0
 40
7.0
 40
7.0
 40
8.0
 40
8.0
 40
8.0
 40
9.0
 40
9.0
 40
9.0
 40
10.0
 40
10.0
 40
10.0
 40
11.0
 40
11.0
 40
11.0
 40
12.0
 40
12.0
 40
12.0
 40
13.0
 40
13.0
 40
13.0
 40
13.0
 10
108.332058126166
 20
-161.3405609219358
 10
108.332058126166
 20
-161.3405609219358
 10
108.3168351104905
 20
-147.0071790478111
 10
108.3168351104905
 20
-147.0071790478111
 10
108.3168351104905
 20
-147.0071790478111
 10
104.6805260609605
 20
-147.0071790478111
 10
104.6805260609605
 20
-147.0071790478111
 10
104.6805260609605
 20
-147.0071790478111
 10
104.6805260609605
 20
-143.5010099136784
 10
104.6805260609605
 20
-143.5010099136784
 10
104.6805260609605
 20
-143.5010099136784
 10
90.46447949700629
 20
-143.5010059913639
 10
90.46447949700629
 20
-143.5010059913639
 10
90.46447949700629
 20
-143.5010059913639
 10
90.46447949700629
 20
-138.4752038041706
 10
90.46447949700629
 20
-138.4752038041706
 10
90.46447949700629
 20
-138.4752038041706
 10
81.67595478674682
 20
-138.4752038041706
 10
81.67595478674682
 20
-138.4752038041706
 10
81.23819080980549
 20
-138.4798977467696
 10
80.88450869455101
 20
-138.8354531326938
 10
80.88450869455101
 20
-139.2743367656682
 10
80.88450869455101
 20
-139.2743367656682
 10
80.88450869455101
 20
-163.3494391630786
 10
80.88450869455101
 20
-163.3494391630786
 10
80.88450869455101
 20
-163.3494391630786
 10
81.56597011338021
 20
-170.581383605715
 10
89.20949580727013
 20
-170.9929433251217
 10
89.20949580727013
 20
-170.9929433251217
 10
111.3650555958396
 20
-170.9819190195689
 10
111.3650555958396
 20
-170.9819190195689
 10
111.3650555958396
 20
-170.9819190195689
 10
113.3053333731323
 20
-171.1252349917553
 10
113.3384062897907
 20
-169.6369537421273
 10
113.3384062897907
 20
-169.6369537421273
 10
113.3384062897907
 20
-161.3552671732885
 10
113.3384062897907
 20
-161.3552671732885
 10
113.3384062897907
 20
-161.3552671732885
 10
108.332058126166
 20
-161.3405609219358
 10
108.332058126166
 20
-161.3405609219358
 97
        0
 97
        1
330
F6
 92
        1
 93
        1
 72
     4
 94
        3
 73
     0
 74
     0
 95
       80
 96
       76
 40
0.0
 40
0.0
 40
0.0
 40
0.0
 40
1.0
 40
1.0
 40
1.0
 40
2.0
 40
2.0
 40
2.0
 40
3.0
 40
3.0
 40
3.0
 40
4.0
 40
4.0
 40
4.0
 40
5.0
 40
5.0
 40
5.0
 40
6.0
 40
6.0
 40
6.0
 40
7.0
 40
7.0
 40
7.0
 40
8.0
 40
8.0
 40
8.0
 40
9.0
 40
9.0
 40
9.0
 40
10.0
 40
10.0
 40
10.0
 40
11.0
 40
11.0
 40
11.0
 40
12.0
 40
12.0
 40
12.0
 40
13.0
 40
13.0
 40
13.0
 40
14.0
 40
14.0
 40
14.0
 40
15.0
 40
15.0
 40
15.0
 40
16.0
 40
16.0
 40
16.0
 40
17.0
 40
17.0
 40
17.0
 40
18.0
 40
18.0
 40
18.0
 40
19.0
 40
19.0
 40
19.0
 40
20.0
 40
20.0
 40
20.0
 40
21.0
 40
21.0
 40
21.0
 40
22.0
 40
22.0
 40
22.0
 40
23.0
 40
23.0
 40
23.0
 40
24.0
 40
24.0
 40
24.0
 40
25.0
 40
25.0
 40
25.0
 40
25.0
 10
133.8766633124027
 20
-145.8115614700479
 10
133.8766633124027
 20
-145.8115614700479
 10
133.8766633124027
 20
-147.0071790478111
 10
133.8766633124027
 20
-147.0071790478111
 10
133.8766633124027
 20
-147.0071790478111
 10
124.8649179465459
 20
-147.0097010842778
 10
124.8649179465459
 20
-147.0097010842778
 10
124.8649179465459
 20
-147.0097010842778
 10
124.5773386009146
 20
-146.6946686339981
 10
124.5773386009146
 20
-146.6946686339981
 10
124.5773386009146
 20
-146.6946686339981
 10
124.3026568315063
 20
-147.0113375046333
 10
124.3026568315063
 20
-147.0113375046333
 10
124.3026568315063
 20
-147.0113375046333
 10
109.5607298991336
 20
-147.0071790478111
 10
109.5607298991336
 20
-147.0071790478111
 10
109.5607298991336
 20
-147.0071790478111
 10
109.5350208740749
 20
-160.131563873966
 10
109.5350208740749
 20
-160.131563873966
 10
109.5350208740749
 20
-160.131563873966
 10
114.5608984227316
 20
-160.131563873966
 10
114.5608984227316
 20
-160.131563873966
 10
114.5608984227316
 20
-160.131563873966
 10
114.4849340672819
 20
-169.6259240536129
 10
114.4849340672819
 20
-169.6259240536129
 10
114.6613229561266
 20
-171.9630768308063
 10
112.0154896234548
 20
-172.1394657196511
 10
112.0154896234548
 20
-172.1394657196511
 10
112.0154896234548
 20
-172.1394657196511
 10
88.32755136304617
 20
-172.1394657196511
 10
88.32755136304617
 20
-172.1394657196511
 10
80.16956525397455
 20
-171.0811323865824
 10
79.68449580965137
 20
-163.4523129440451
 10
79.68449580965137
 20
-163.4523129440451
 10
79.68449580965137
 20
-163.4523129440451
 10
79.68449580965137
 20
-139.2743313827065
 10
79.68449580965137
 20
-139.2743313827065
 10
79.68449580965137
 20
-138.169769174595
 10
80.57991918996137
 20
-137.2743457942851
 10
81.68450292991961
 20
-137.2743457942851
 10
81.68450292991961
 20
-137.2743457942851
 10
81.6843737388389
 20
-137.2737429025751
 10
81.6843737388389
 20
-137.2737429025751
 10
81.6843737388389
 20
-137.2737429025751
 10
91.68449546756717
 20
-137.2737429025751
 10
91.68449546756717
 20
-137.2737429025751
 10
91.68449546756717
 20
-137.2737429025751
 10
91.68449546756717
 20
-142.3008262346517
 10
91.68449546756717
 20
-142.3008262346517
 10
91.68449546756717
 20
-142.3008262346517
 10
104.6844880044647
 20
-142.3008262346517
 10
104.6844880044647
 20
-142.3008262346517
 10
104.6844880044647
 20
-142.3008262346517
 10
104.6844880044647
 20
-127.4685274509249
 10
104.6844880044647
 20
-127.4685274509249
 10
104.6844880044647
 20
-127.4685274509249
 10
104.9951710216939
 20
-127.1705912869911
 10
104.9951710216939
 20
-127.1705912869911
 10
104.9951710216939
 20
-127.1705912869911
 10
104.6844880044647
 20
-126.9068692275952
 10
104.6844880044647
 20
-126.9068692275952
 10
104.6844880044647
 20
-126.9068692275952
 10
104.6844880044647
 20
-117.8170278534571
 10
104.6844880044647
 20
-117.8170278534571
 10
104.6844880044647
 20
-117.8170278534571
 10
105.879010268435
 20
-117.8170278534571
 10
105.879010268435
 20
-117.8170278534571
 10
105.879010268435
 20
-117.8170278534571
 10
105.879010268435
 20
-145.8115614700479
 10
105.879010268435
 20
-145.8115614700479
 10
105.879010268435
 20
-145.8115614700479
 10
124.2808235388685
 20
-145.8115614700479
 10
124.2808235388685
 20
-145.8115614700479
 10
124.2808235388685
 20
-145.8115614700479
 10
133.8766633124027
 20
-145.8115614700479
 10
133.8766633124027
 20
-145.8115614700479
 97
        0
 97
        1
330
F7
 75
     2
 76
     1
 98
        1
 10
0.0
 20
0.0
450
        0
451
        0
460
0.0
461
0.0
452
        0
462
0.0
453
        0
470

  0
ENDSEC
  0
SECTION
  2
OBJECTS
  0
DICTIONARY
  5
C
330
0
100
AcDbDictionary
281
     1
  3
ACAD_COLOR
350
63
  3
ACAD_DETAILVIEWSTYLE
350
6A
  3
ACAD_GROUP
350
D
  3
ACAD_LAYOUT
350
62
  3
ACAD_MATERIAL
350
10
  3
ACAD_MLEADERSTYLE
350
66
  3
ACAD_MLINESTYLE
350
5F
  3
ACAD_PLOTSETTINGS
350
61
  3
ACAD_PLOTSTYLENAME
350
E
  3
ACAD_SCALELIST
350
42
  3
ACAD_SECTIONVIEWSTYLE
350
68
  3
ACAD_TABLESTYLE
350
64
  3
ACAD_VISUALSTYLE
350
29
  3
ACDB_RECOMPOSE_DATA
350
101
  3
AcDbVariableDictionary
350
F9
  0
DICTIONARY
  5
63
102
{ACAD_REACTORS
330
C
102
}
330
C
100
AcDbDictionary
281
     1
  0
DICTIONARY
  5
6A
102
{ACAD_REACTORS
330
C
102
}
330
C
100
AcDbDictionary
281
     1
  3
Imperial24
350
6B
  0
DICTIONARY
  5
D
102
{ACAD_REACTORS
330
C
102
}
330
C
100
AcDbDictionary
281
     1
  0
DICTIONARY
  5
62
102
{ACAD_REACTORS
330
C
102
}
330
C
100
AcDbDictionary
281
     1
  3
Layout1
350
6F
  3
Layout2
350
77
  3
Model
350
73
  0
DICTIONARY
  5
10
102
{ACAD_REACTORS
330
C
102
}
330
C
100
AcDbDictionary
281
     1
  3
ByBlock
350
19
  3
ByLayer
350
11
  3
Global
350
21
  0
DICTIONARY
  5
66
102
{ACAD_REACTORS
330
C
102
}
330
C
100
AcDbDictionary
281
     1
  3
Standard
350
67
  0
DICTIONARY
  5
5F
102
{ACAD_REACTORS
330
C
102
}
330
C
100
AcDbDictionary
281
     1
  3
Standard
350
60
  0
DICTIONARY
  5
61
102
{ACAD_REACTORS
330
C
102
}
330
C
100
AcDbDictionary
281
     1
  0
ACDBDICTIONARYWDFLT
  5
E
102
{ACAD_REACTORS
330
C
102
}
330
C
100
AcDbDictionary
281
     1
  3
Normal
350
F
100
AcDbDictionaryWithDefault
340
F
  0
DICTIONARY
  5
42
102
{ACAD_REACTORS
330
C
102
}
330
C
100
AcDbDictionary
281
     1
  3
A0
350
43
  3
A1
350
44
  3
A2
350
45
  3
A3
350
46
  3
A4
350
47
  3
A5
350
48
  3
A6
350
49
  3
A7
350
4A
  3
A8
350
4B
  3
A9
350
4C
  3
B0
350
4D
  3
B1
350
4E
  3
B2
350
4F
  3
B3
350
50
  3
B4
350
51
  3
B5
350
52
  3
B6
350
53
  0
DICTIONARY
  5
68
102
{ACAD_REACTORS
330
C
102
}
330
C
100
AcDbDictionary
281
     1
  3
Imperial24
350
69
  0
DICTIONARY
  5
64
102
{ACAD_REACTORS
330
C
102
}
330
C
100
AcDbDictionary
281
     1
  3
Standard
350
65
  0
DICTIONARY
  5
29
102
{ACAD_REACTORS
330
C
102
}
330
C
100
AcDbDictionary
281
     1
  3
2dWireframe
350
2F
  3
Basic
350
2E
  3
Brighten
350
35
  3
ColorChange
350
39
  3
Conceptual
350
32
  3
Dim
350
34
  3
EdgeColorOff
350
41
  3
Facepattern
350
38
  3
Flat
350
2A
  3
FlatWithEdges
350
2B
  3
Gouraud
350
2C
  3
GouraudWithEdges
350
2D
  3
Hidden
350
31
  3
JitterOff
350
3F
  3
Linepattern
350
37
  3
OverhangOff
350
40
  3
Realistic
350
33
  3
Shaded
350
3E
  3
Shaded with edges
350
3D
  3
Shades of Gray
350
3A
  3
Sketchy
350
3B
  3
Thicken
350
36
  3
Wireframe
350
30
  3
X-Ray
350
3C
  0
XRECORD
  5
101
102
{ACAD_REACTORS
330
C
102
}
330
C
100
AcDbXrecord
280
     1
 90
        1
330
65
  0
DICTIONARY
  5
F9
102
{ACAD_REACTORS
330
C
102
}
330
C
100
AcDbDictionary
281
     1
  3
CANNOSCALE
350
FE
  3
CMLEADERSTYLE
350
FB
  3
CTABLESTYLE
350
FA
  3
CVIEWDETAILSTYLE
350
FC
  3
CVIEWSECTIONSTYLE
350
FD
  0
ACDBDETAILVIEWSTYLE
  5
6B
102
{ACAD_XDICTIONARY
360
136
102
}
102
{ACAD_REACTORS
330
6A
102
}
330
6A
100
AcDbModelDocViewStyle
 70
     0
  3
Imperial24
290
     0
100
AcDbDetailViewStyle
 70
     0
 71
     0
 90
        3
 71
     1
340
55
 62
   256
 40
0.24
340
0
 62
   256
 40
0.24
300

 40
0.36
280
     3
 71
     2
340
5D
 90
       25
 62
   256
 71
     3
340
55
 62
   256
 40
0.24
 90
        1
 40
0.75
 90
        1
300
%<\AcVar ViewType \f "%tc1">% %<\AcVar ViewDetailId>%\PSCALE %<\AcVar ViewScale \f "%sn">%
 71
     4
340
5D
 90
       25
 62
   256
340
5D
 90
       25
 62
   256
280
     0
  0
LAYOUT
  5
6F
102
{ACAD_REACTORS
330
62
102
}
330
62
100
AcDbPlotSettings
  1

  2

  4

  6

 40
0.0
 41
0.0
 42
0.0
 43
0.0
 44
0.0
 45
0.0
 46
0.0
 47
0.0
 48
0.0
 49
0.0
140
0.0
141
0.0
142
1.0
143
1.0
 70
   688
 72
     0
 73
     0
 74
     5
  7

 75
    16
147
1.0
 76
     0
 77
     2
 78
   300
148
0.0
149
0.0
100
AcDbLayout
  1
Layout1
 70
     1
 71
     1
 10
0.0
 20
0.0
 11
12.0
 21
9.0
 12
0.0
 22
0.0
 32
0.0
 14
0.0
 24
0.0
 34
0.0
 15
0.0
 25
0.0
 35
0.0
146
0.0
 13
0.0
 23
0.0
 33
0.0
 16
1.0
 26
0.0
 36
0.0
 17
0.0
 27
1.0
 37
0.0
 76
     0
330
6C
  0
LAYOUT
  5
77
102
{ACAD_REACTORS
330
62
102
}
330
62
100
AcDbPlotSettings
  1

  2

  4

  6

 40
0.0
 41
0.0
 42
0.0
 43
0.0
 44
0.0
 45
0.0
 46
0.0
 47
0.0
 48
0.0
 49
0.0
140
0.0
141
0.0
142
1.0
143
1.0
 70
   688
 72
     0
 73
     0
 74
     5
  7

 75
    16
147
1.0
 76
     0
 77
     2
 78
   300
148
0.0
149
0.0
100
AcDbLayout
  1
Layout2
 70
     1
 71
     2
 10
0.0
 20
0.0
 11
12.0
 21
9.0
 12
0.0
 22
0.0
 32
0.0
 14
0.0
 24
0.0
 34
0.0
 15
0.0
 25
0.0
 35
0.0
146
0.0
 13
0.0
 23
0.0
 33
0.0
 16
1.0
 26
0.0
 36
0.0
 17
0.0
 27
1.0
 37
0.0
 76
     0
330
74
  0
LAYOUT
  5
73
102
{ACAD_REACTORS
330
62
102
}
330
62
100
AcDbPlotSettings
  1

  2

  4

  6

 40
0.0
 41
0.0
 42
0.0
 43
0.0
 44
0.0
 45
0.0
 46
0.0
 47
0.0
 48
0.0
 49
0.0
140
0.0
141
0.0
142
1.0
143
1.0
 70
  1712
 72
     0
 73
     0
 74
     0
  7

 75
     0
147
1.0
 76
     0
 77
     2
 78
   300
148
0.0
149
0.0
100
AcDbLayout
  1
Model
 70
     1
 71
     0
 10
0.0
 20
0.0
 11
12.0
 21
9.0
 12
0.0
 22
0.0
 32
0.0
 14
0.0
 24
0.0
 34
0.0
 15
0.0
 25
0.0
 35
0.0
146
0.0
 13
0.0
 23
0.0
 33
0.0
 16
1.0
 26
0.0
 36
0.0
 17
0.0
 27
1.0
 37
0.0
 76
     0
330
70
  0
MATERIAL
  5
19
102
{ACAD_XDICTIONARY
360
1A
102
}
102
{ACAD_REACTORS
330
10
102
}
330
10
100
AcDbMaterial
  1
ByBlock
 72
     0
 43
0.0208333333333333
 43
0.0
 43
0.0
 43
0.0
 43
0.0
 43
0.0208333333333333
 43
0.0
 43
0.0
 43
0.0
 43
0.0
 43
1.0
 43
0.0
 43
0.0
 43
0.0
 43
0.0
 43
1.0
 77
     0
 47
0.0208333333333333
 47
0.0
 47
0.0
 47
0.0
 47
0.0
 47
0.0208333333333333
 47
0.0
 47
0.0
 47
0.0
 47
0.0
 47
1.0
 47
0.0
 47
0.0
 47
0.0
 47
0.0
 47
1.0
171
     0
 49
0.0208333333333333
 49
0.0
 49
0.0
 49
0.0
 49
0.0
 49
0.0208333333333333
 49
0.0
 49
0.0
 49
0.0
 49
0.0
 49
1.0
 49
0.0
 49
0.0
 49
0.0
 49
0.0
 49
1.0
175
     0
142
0.0208333333333333
142
0.0
142
0.0
142
0.0
142
0.0
142
0.0208333333333333
142
0.0
142
0.0
142
0.0
142
0.0
142
1.0
142
0.0
142
0.0
142
0.0
142
0.0
142
1.0
179
     0
144
0.0208333333333333
144
0.0
144
0.0
144
0.0
144
0.0
144
0.0208333333333333
144
0.0
144
0.0
144
0.0
144
0.0
144
1.0
144
0.0
144
0.0
144
0.0
144
0.0
144
1.0
147
0.0208333333333333
147
0.0
147
0.0
147
0.0
147
0.0
147
0.0208333333333333
147
0.0
147
0.0
147
0.0
147
0.0
147
1.0
147
0.0
147
0.0
147
0.0
147
0.0
147
1.0
  0
MATERIAL
  5
11
102
{ACAD_XDICTIONARY
360
12
102
}
102
{ACAD_REACTORS
330
10
102
}
330
10
100
AcDbMaterial
  1
ByLayer
 72
     0
 43
0.0208333333333333
 43
0.0
 43
0.0
 43
0.0
 43
0.0
 43
0.0208333333333333
 43
0.0
 43
0.0
 43
0.0
 43
0.0
 43
1.0
 43
0.0
 43
0.0
 43
0.0
 43
0.0
 43
1.0
 77
     0
 47
0.0208333333333333
 47
0.0
 47
0.0
 47
0.0
 47
0.0
 47
0.0208333333333333
 47
0.0
 47
0.0
 47
0.0
 47
0.0
 47
1.0
 47
0.0
 47
0.0
 47
0.0
 47
0.0
 47
1.0
171
     0
 49
0.0208333333333333
 49
0.0
 49
0.0
 49
0.0
 49
0.0
 49
0.0208333333333333
 49
0.0
 49
0.0
 49
0.0
 49
0.0
 49
1.0
 49
0.0
 49
0.0
 49
0.0
 49
0.0
 49
1.0
175
     0
142
0.0208333333333333
142
0.0
142
0.0
142
0.0
142
0.0
142
0.0208333333333333
142
0.0
142
0.0
142
0.0
142
0.0
142
1.0
142
0.0
142
0.0
142
0.0
142
0.0
142
1.0
179
     0
144
0.0208333333333333
144
0.0
144
0.0
144
0.0
144
0.0
144
0.0208333333333333
144
0.0
144
0.0
144
0.0
144
0.0
144
1.0
144
0.0
144
0.0
144
0.0
144
0.0
144
1.0
147
0.0208333333333333
147
0.0
147
0.0
147
0.0
147
0.0
147
0.0208333333333333
147
0.0
147
0.0
147
0.0
147
0.0
147
1.0
147
0.0
147
0.0
147
0.0
147
0.0
147
1.0
  0
MATERIAL
  5
21
102
{ACAD_XDICTIONARY
360
22
102
}
102
{ACAD_REACTORS
330
10
102
}
330
10
100
AcDbMaterial
  1
Global
 72
     0
 43
0.0208333333333333
 43
0.0
 43
0.0
 43
0.0
 43
0.0
 43
0.0208333333333333
 43
0.0
 43
0.0
 43
0.0
 43
0.0
 43
1.0
 43
0.0
 43
0.0
 43
0.0
 43
0.0
 43
1.0
 77
     0
 47
0.0208333333333333
 47
0.0
 47
0.0
 47
0.0
 47
0.0
 47
0.0208333333333333
 47
0.0
 47
0.0
 47
0.0
 47
0.0
 47
1.0
 47
0.0
 47
0.0
 47
0.0
 47
0.0
 47
1.0
171
     0
 49
0.0208333333333333
 49
0.0
 49
0.0
 49
0.0
 49
0.0
 49
0.0208333333333333
 49
0.0
 49
0.0
 49
0.0
 49
0.0
 49
1.0
 49
0.0
 49
0.0
 49
0.0
 49
0.0
 49
1.0
175
     0
142
0.0208333333333333
142
0.0
142
0.0
142
0.0
142
0.0
142
0.0208333333333333
142
0.0
142
0.0
142
0.0
142
0.0
142
1.0
142
0.0
142
0.0
142
0.0
142
0.0
142
1.0
179
     0
144
0.0208333333333333
144
0.0
144
0.0
144
0.0
144
0.0
144
0.0208333333333333
144
0.0
144
0.0
144
0.0
144
0.0
144
1.0
144
0.0
144
0.0
144
0.0
144
0.0
144
1.0
147
0.0208333333333333
147
0.0
147
0.0
147
0.0
147
0.0
147
0.0208333333333333
147
0.0
147
0.0
147
0.0
147
0.0
147
1.0
147
0.0
147
0.0
147
0.0
147
0.0
147
1.0
  0
MLEADERSTYLE
  5
67
102
{ACAD_XDICTIONARY
360
132
102
}
102
{ACAD_REACTORS
330
66
102
}
330
66
100
AcDbMLeaderStyle
179
     2
170
     2
171
     1
172
     0
 90
        2
 40
0.0
 41
0.0
173
     1
 91
-1056964608
340
5B
 92
       -2
290
     1
 42
0.09
291
     1
 43
0.36
  3
Standard
 44
0.18
300

342
55
174
     1
178
     6
175
     1
176
     0
 93
-1056964608
 45
0.18
292
     0
297
     0
 46
0.18
 94
-1056964608
 47
1.0
 49
1.0
140
1.0
293
     1
141
0.0
294
     1
177
     0
142
1.0
295
     0
296
     0
143
0.125
271
     0
272
     9
273
     9
  0
MLINESTYLE
  5
60
102
{ACAD_REACTORS
330
5F
102
}
330
5F
100
AcDbMlineStyle
  2
STANDARD
 70
     0
  3

 62
   256
 51
90.0
 52
90.0
 71
     2
 49
0.5
 62
   256
  6
BYLAYER
 49
-0.5
 62
   256
  6
BYLAYER
  0
ACDBPLACEHOLDER
  5
F
102
{ACAD_REACTORS
330
E
102
}
330
E
  0
SCALE
  5
43
102
{ACAD_REACTORS
330
42
102
}
330
42
100
AcDbScale
 70
     0
300
1:1
140
1.0
141
1.0
290
     1
  0
SCALE
  5
44
102
{ACAD_REACTORS
330
42
102
}
330
42
100
AcDbScale
 70
     0
300
1/128" = 1'-0"
140
0.0078125
141
12.0
290
     0
  0
SCALE
  5
45
102
{ACAD_REACTORS
330
42
102
}
330
42
100
AcDbScale
 70
     0
300
1/64" = 1'-0"
140
0.015625
141
12.0
290
     0
  0
SCALE
  5
46
102
{ACAD_REACTORS
330
42
102
}
330
42
100
AcDbScale
 70
     0
300
1/32" = 1'-0"
140
0.03125
141
12.0
290
     0
  0
SCALE
  5
47
102
{ACAD_REACTORS
330
42
102
}
330
42
100
AcDbScale
 70
     0
300
1/16" = 1'-0"
140
0.0625
141
12.0
290
     0
  0
SCALE
  5
48
102
{ACAD_REACTORS
330
42
102
}
330
42
100
AcDbScale
 70
     0
300
3/32" = 1'-0"
140
0.09375
141
12.0
290
     0
  0
SCALE
  5
49
102
{ACAD_REACTORS
330
42
102
}
330
42
100
AcDbScale
 70
     0
300
1/8" = 1'-0"
140
0.125
141
12.0
290
     0
  0
SCALE
  5
4A
102
{ACAD_REACTORS
330
42
102
}
330
42
100
AcDbScale
 70
     0
300
3/16" = 1'-0"
140
0.1875
141
12.0
290
     0
  0
SCALE
  5
4B
102
{ACAD_REACTORS
330
42
102
}
330
42
100
AcDbScale
 70
     0
300
1/4" = 1'-0"
140
0.25
141
12.0
290
     0
  0
SCALE
  5
4C
102
{ACAD_REACTORS
330
42
102
}
330
42
100
AcDbScale
 70
     0
300
3/8" = 1'-0"
140
0.375
141
12.0
290
     0
  0
SCALE
  5
4D
102
{ACAD_REACTORS
330
42
102
}
330
42
100
AcDbScale
 70
     0
300
1/2" = 1'-0"
140
0.5
141
12.0
290
     0
  0
SCALE
  5
4E
102
{ACAD_REACTORS
330
42
102
}
330
42
100
AcDbScale
 70
     0
300
3/4" = 1'-0"
140
0.75
141
12.0
290
     0
  0
SCALE
  5
4F
102
{ACAD_REACTORS
330
42
102
}
330
42
100
AcDbScale
 70
     0
300
1" = 1'-0"
140
1.0
141
12.0
290
     0
  0
SCALE
  5
50
102
{ACAD_REACTORS
330
42
102
}
330
42
100
AcDbScale
 70
     0
300
1-1/2" = 1'-0"
140
1.5
141
12.0
290
     0
  0
SCALE
  5
51
102
{ACAD_REACTORS
330
42
102
}
330
42
100
AcDbScale
 70
     0
300
3" = 1'-0"
140
3.0
141
12.0
290
     0
  0
SCALE
  5
52
102
{ACAD_REACTORS
330
42
102
}
330
42
100
AcDbScale
 70
     0
300
6" = 1'-0"
140
6.0
141
12.0
290
     0
  0
SCALE
  5
53
102
{ACAD_REACTORS
330
42
102
}
330
42
100
AcDbScale
 70
     0
300
1'-0" = 1'-0"
140
12.0
141
12.0
290
     0
  0
ACDBSECTIONVIEWSTYLE
  5
69
102
{ACAD_XDICTIONARY
360
134
102
}
102
{ACAD_REACTORS
330
68
102
}
330
68
100
AcDbModelDocViewStyle
 70
     0
  3
Imperial24
290
     0
100
AcDbSectionViewStyle
 70
     0
 71
     0
 90
       78
 71
     1
340
55
 62
   256
 40
0.24
340
0
340
0
 62
   256
 40
0.24
300
I, O, Q, S, X, Z
 40
0.48
 90
        3
 40
0.18
 90
        1
 71
     2
340
5D
 90
       25
 62
   256
340
5D
 90
       50
 62
   256
 40
0.24
 40
0.0
 40
0.24
 71
     3
340
55
 62
   256
 40
0.24
 90
        1
 40
0.75
 90
        1
300
%<\AcVar ViewType \f "%tc1">% %<\AcVar ViewSectionStartId>%-%<\AcVar ViewSectionEndId>%\PSCALE %<\AcVar ViewScale \f "%sn">%
 71
     4
 62
   256
 62
   257
300
ANSI31
 40
1.0
 90
        0
290
     0
290
     0
 90
        6
 40
0.0
 40
1.570796326794896
 40
0.2617993877991494
 40
1.308996938995747
 40
-0.2617993877991494
 40
1.832595714594046
  0
TABLESTYLE
  5
65
102
{ACAD_XDICTIONARY
360
FF
102
}
102
{ACAD_REACTORS
330
64
102
}
330
64
100
AcDbTableStyle
280
     0
  3
Standard
 70
     0
 71
     0
 40
0.06
 41
0.06
280
     0
281
     0
  7
Standard
140
0.18
170
     2
 62
     0
 63
     7
283
     0
 90
      512
 91
        0
  1

274
    -2
284
     1
 64
     0
275
    -2
285
     1
 65
     0
276
    -2
286
     1
 66
     0
277
    -2
287
     1
 67
     0
278
    -2
288
     1
 68
     0
279
    -2
289
     1
 69
     0
  7
Standard
140
0.25
170
     5
 62
     0
 63
     7
283
     0
 90
      512
 91
        0
  1

274
    -2
284
     1
 64
     0
275
    -2
285
     1
 65
     0
276
    -2
286
     1
 66
     0
277
    -2
287
     1
 67
     0
278
    -2
288
     1
 68
     0
279
    -2
289
     1
 69
     0
  7
Standard
140
0.18
170
     5
 62
     0
 63
     7
283
     0
 90
      512
 91
        0
  1

274
    -2
284
     1
 64
     0
275
    -2
285
     1
 65
     0
276
    -2
286
     1
 66
     0
277
    -2
287
     1
 67
     0
278
    -2
288
     1
 68
     0
279
    -2
289
     1
 69
     0
  0
VISUALSTYLE
  5
2F
102
{ACAD_XDICTIONARY
360
10C
102
}
102
{ACAD_REACTORS
330
29
102
}
330
29
100
AcDbVisualStyle
  2
2dWireframe
 70
     4
177
     2
291
     0
 71
     0
176
     1
 72
     2
176
     1
 73
     0
176
     1
 90
        0
176
     1
 40
0.6
176
     1
 41
30.0
176
     1
 63
     7
421
 16777215
176
     1
 74
     1
176
     1
 91
        4
176
     1
 64
     7
176
     1
 65
   257
176
     1
 75
     1
176
     1
175
     1
176
     1
 42
1.0
176
     1
 92
        0
176
     1
 66
   257
176
     1
 43
1.0
176
     1
 76
     1
176
     1
 77
     6
176
     1
 78
     2
176
     1
 67
     7
176
     1
 79
     5
176
     1
170
     0
176
     1
171
     0
176
     1
290
     0
176
     1
 93
        1
176
     1
 44
0.0
176
     1
173
     0
176
     1
1001
ACAD
1000
AcDbSavedByObjectVersion
1070
     0
  0
VISUALSTYLE
  5
2E
102
{ACAD_XDICTIONARY
360
10A
102
}
102
{ACAD_REACTORS
330
29
102
}
330
29
100
AcDbVisualStyle
  2
Basic
 70
     7
177
     2
291
     1
 71
     1
176
     1
 72
     0
176
     1
 73
     1
176
     1
 90
        0
176
     1
 40
0.6
176
     1
 41
30.0
176
     1
 63
     7
421
 16777215
176
     1
 74
     0
176
     1
 91
        4
176
     1
 64
     7
176
     1
 65
   257
176
     1
 75
     1
176
     1
175
     1
176
     1
 42
1.0
176
     1
 92
        8
176
     1
 66
     7
176
     1
 43
1.0
176
     1
 76
     1
176
     1
 77
     6
176
     1
 78
     2
176
     1
 67
     7
176
     1
 79
     5
176
     1
170
     0
176
     1
171
     0
176
     1
290
     0
176
     1
 93
        1
176
     1
 44
0.0
176
     1
173
     0
176
     1
1001
ACAD
1000
AcDbSavedByObjectVersion
1070
     0
  0
VISUALSTYLE
  5
35
102
{ACAD_XDICTIONARY
360
118
102
}
102
{ACAD_REACTORS
330
29
102
}
330
29
100
AcDbVisualStyle
  2
Brighten
 70
    12
177
     2
291
     1
 71
     2
176
     1
 72
     2
176
     1
 73
     0
176
     1
 90
        0
176
     1
 40
0.6
176
     1
 41
30.0
176
     1
 63
     7
421
 16777215
176
     1
 74
     1
176
     1
 91
        4
176
     1
 64
     7
176
     1
 65
   257
176
     1
 75
     1
176
     1
175
     1
176
     1
 42
1.0
176
     1
 92
        8
176
     1
 66
     7
176
     1
 43
1.0
176
     1
 76
     1
176
     1
 77
     6
176
     1
 78
     2
176
     1
 67
     7
176
     1
 79
     5
176
     1
170
     0
176
     1
171
     0
176
     1
290
     0
176
     1
 93
        1
176
     1
 44
50.0
176
     1
173
     0
176
     1
1001
ACAD
1000
AcDbSavedByObjectVersion
1070
     0
  0
VISUALSTYLE
  5
39
102
{ACAD_XDICTIONARY
360
120
102
}
102
{ACAD_REACTORS
330
29
102
}
330
29
100
AcDbVisualStyle
  2
ColorChange
 70
    16
177
     2
291
     1
 71
     2
176
     1
 72
     2
176
     1
 73
     3
176
     1
 90
        0
176
     1
 40
0.6
176
     1
 41
30.0
176
     1
 63
     8
421
  8421504
176
     1
 74
     1
176
     1
 91
        4
176
     1
 64
     7
176
     1
 65
   257
176
     1
 75
     1
176
     1
175
     1
176
     1
 42
1.0
176
     1
 92
        8
176
     1
 66
     8
424
  8421504
176
     1
 43
1.0
176
     1
 76
     1
176
     1
 77
     6
176
     1
 78
     2
176
     1
 67
     7
176
     1
 79
     5
176
     1
170
     0
176
     1
171
     0
176
     1
290
     0
176
     1
 93
        1
176
     1
 44
0.0
176
     1
173
     0
176
     1
1001
ACAD
1000
AcDbSavedByObjectVersion
1070
     0
  0
VISUALSTYLE
  5
32
102
{ACAD_XDICTIONARY
360
112
102
}
102
{ACAD_REACTORS
330
29
102
}
330
29
100
AcDbVisualStyle
  2
Conceptual
 70
     9
177
     2
291
     0
 71
     3
176
     1
 72
     2
176
     1
 73
     0
176
     1
 90
        0
176
     1
 40
0.6
176
     1
 41
30.0
176
     1
 63
     7
421
 16777215
176
     1
 74
     2
176
     1
 91
        2
176
     1
 64
     7
176
     1
 65
   257
176
     1
 75
     1
176
     1
175
     1
176
     1
 42
179.0
176
     1
 92
        8
176
     1
 66
     7
176
     1
 43
1.0
176
     1
 76
     1
176
     1
 77
     6
176
     1
 78
     2
176
     1
 67
     7
176
     1
 79
     3
176
     1
170
     0
176
     1
171
     0
176
     1
290
     0
176
     1
 93
        1
176
     1
 44
0.0
176
     1
173
     0
176
     1
1001
ACAD
1000
AcDbSavedByObjectVersion
1070
     0
  0
VISUALSTYLE
  5
34
102
{ACAD_XDICTIONARY
360
116
102
}
102
{ACAD_REACTORS
330
29
102
}
330
29
100
AcDbVisualStyle
  2
Dim
 70
    11
177
     2
291
     1
 71
     2
176
     1
 72
     2
176
     1
 73
     0
176
     1
 90
        0
176
     1
 40
0.6
176
     1
 41
30.0
176
     1
 63
     7
421
 16777215
176
     1
 74
     1
176
     1
 91
        4
176
     1
 64
     7
176
     1
 65
   257
176
     1
 75
     1
176
     1
175
     1
176
     1
 42
1.0
176
     1
 92
        8
176
     1
 66
     7
176
     1
 43
1.0
176
     1
 76
     1
176
     1
 77
     6
176
     1
 78
     2
176
     1
 67
     7
176
     1
 79
     5
176
     1
170
     0
176
     1
171
     0
176
     1
290
     0
176
     1
 93
        1
176
     1
 44
-50.0
176
     1
173
     0
176
     1
1001
ACAD
1000
AcDbSavedByObjectVersion
1070
     0
  0
VISUALSTYLE
  5
41
102
{ACAD_XDICTIONARY
360
130
102
}
102
{ACAD_REACTORS
330
29
102
}
330
29
100
AcDbVisualStyle
  2
EdgeColorOff
 70
    22
177
     2
291
     1
 71
     2
176
     0
 72
     2
176
     0
 73
     0
176
     0
 90
        0
176
     0
 40
0.6
176
     0
 41
30.0
176
     0
 63
     7
421
 16777215
176
     0
 74
     1
176
     0
 91
        4
176
     0
 64
     7
176
     0
 65
   257
176
     0
 75
     1
176
     0
175
     1
176
     0
 42
1.0
176
     0
 92
        8
176
     2
 66
     7
176
     0
 43
1.0
176
     0
 76
     1
176
     0
 77
     6
176
     0
 78
     2
176
     0
 67
     7
176
     0
 79
     5
176
     0
170
     0
176
     0
171
     0
176
     0
290
     0
176
     0
 93
        1
176
     0
 44
0.0
176
     0
173
     0
176
     0
1001
ACAD
1000
AcDbSavedByObjectVersion
1070
     0
  0
VISUALSTYLE
  5
38
102
{ACAD_XDICTIONARY
360
11E
102
}
102
{ACAD_REACTORS
330
29
102
}
330
29
100
AcDbVisualStyle
  2
Facepattern
 70
    15
177
     2
291
     1
 71
     2
176
     1
 72
     2
176
     1
 73
     0
176
     1
 90
        0
176
     1
 40
0.6
176
     1
 41
30.0
176
     1
 63
     7
421
 16777215
176
     1
 74
     1
176
     1
 91
        4
176
     1
 64
     7
176
     1
 65
   257
176
     1
 75
     1
176
     1
175
     1
176
     1
 42
1.0
176
     1
 92
        8
176
     1
 66
     7
176
     1
 43
1.0
176
     1
 76
     1
176
     1
 77
     6
176
     1
 78
     2
176
     1
 67
     7
176
     1
 79
     5
176
     1
170
     0
176
     1
171
     0
176
     1
290
     0
176
     1
 93
        1
176
     1
 44
0.0
176
     1
173
     0
176
     1
1001
ACAD
1000
AcDbSavedByObjectVersion
1070
     0
  0
VISUALSTYLE
  5
2A
102
{ACAD_XDICTIONARY
360
102
102
}
102
{ACAD_REACTORS
330
29
102
}
330
29
100
AcDbVisualStyle
  2
Flat
 70
     0
177
     2
291
     1
 71
     2
176
     1
 72
     1
176
     1
 73
     1
176
     1
 90
        2
176
     1
 40
0.6
176
     1
 41
30.0
176
     1
 63
     7
421
 16777215
176
     1
 74
     0
176
     1
 91
        0
176
     1
 64
     7
176
     1
 65
   257
176
     1
 75
     1
176
     1
175
     1
176
     1
 42
1.0
176
     1
 92
        8
176
     1
 66
     7
176
     1
 43
1.0
176
     1
 76
     1
176
     1
 77
     6
176
     1
 78
     2
176
     1
 67
     7
176
     1
 79
     5
176
     1
170
     0
176
     1
171
     0
176
     1
290
     0
176
     1
 93
       13
176
     1
 44
0.0
176
     1
173
     0
176
     1
1001
ACAD
1000
AcDbSavedByObjectVersion
1070
     0
  0
VISUALSTYLE
  5
2B
102
{ACAD_XDICTIONARY
360
104
102
}
102
{ACAD_REACTORS
330
29
102
}
330
29
100
AcDbVisualStyle
  2
FlatWithEdges
 70
     1
177
     2
291
     1
 71
     2
176
     1
 72
     1
176
     1
 73
     1
176
     1
 90
        2
176
     1
 40
0.6
176
     1
 41
30.0
176
     1
 63
     7
421
 16777215
176
     1
 74
     1
176
     1
 91
        0
176
     1
 64
     7
176
     1
 65
   257
176
     1
 75
     1
176
     1
175
     1
176
     1
 42
1.0
176
     1
 92
        0
176
     1
 66
   257
176
     1
 43
1.0
176
     1
 76
     1
176
     1
 77
     6
176
     1
 78
     2
176
     1
 67
     7
176
     1
 79
     5
176
     1
170
     0
176
     1
171
     0
176
     1
290
     0
176
     1
 93
       13
176
     1
 44
0.0
176
     1
173
     0
176
     1
1001
ACAD
1000
AcDbSavedByObjectVersion
1070
     0
  0
VISUALSTYLE
  5
2C
102
{ACAD_XDICTIONARY
360
106
102
}
102
{ACAD_REACTORS
330
29
102
}
330
29
100
AcDbVisualStyle
  2
Gouraud
 70
     2
177
     2
291
     1
 71
     2
176
     1
 72
     2
176
     1
 73
     1
176
     1
 90
        2
176
     1
 40
0.6
176
     1
 41
30.0
176
     1
 63
     7
421
 16777215
176
     1
 74
     0
176
     1
 91
        0
176
     1
 64
     7
176
     1
 65
   257
176
     1
 75
     1
176
     1
175
     1
176
     1
 42
1.0
176
     1
 92
        0
176
     1
 66
     7
176
     1
 43
1.0
176
     1
 76
     1
176
     1
 77
     6
176
     1
 78
     2
176
     1
 67
     7
176
     1
 79
     5
176
     1
170
     0
176
     1
171
     0
176
     1
290
     0
176
     1
 93
       13
176
     1
 44
0.0
176
     1
173
     0
176
     1
1001
ACAD
1000
AcDbSavedByObjectVersion
1070
     0
  0
VISUALSTYLE
  5
2D
102
{ACAD_XDICTIONARY
360
108
102
}
102
{ACAD_REACTORS
330
29
102
}
330
29
100
AcDbVisualStyle
  2
GouraudWithEdges
 70
     3
177
     2
291
     1
 71
     2
176
     1
 72
     2
176
     1
 73
     1
176
     1
 90
        2
176
     1
 40
0.6
176
     1
 41
30.0
176
     1
 63
     7
421
 16777215
176
     1
 74
     1
176
     1
 91
        0
176
     1
 64
     7
176
     1
 65
   257
176
     1
 75
     1
176
     1
175
     1
176
     1
 42
1.0
176
     1
 92
        0
176
     1
 66
   257
176
     1
 43
1.0
176
     1
 76
     1
176
     1
 77
     6
176
     1
 78
     2
176
     1
 67
     7
176
     1
 79
     5
176
     1
170
     0
176
     1
171
     0
176
     1
290
     0
176
     1
 93
       13
176
     1
 44
0.0
176
     1
173
     0
176
     1
1001
ACAD
1000
AcDbSavedByObjectVersion
1070
     0
  0
VISUALSTYLE
  5
31
102
{ACAD_XDICTIONARY
360
110
102
}
102
{ACAD_REACTORS
330
29
102
}
330
29
100
AcDbVisualStyle
  2
Hidden
 70
     6
177
     2
291
     0
 71
     1
176
     1
 72
     2
176
     1
 73
     2
176
     1
 90
        0
176
     1
 40
0.6
176
     1
 41
30.0
176
     1
 63
     7
421
 16777215
176
     1
 74
     2
176
     1
 91
        2
176
     1
 64
     7
176
     1
 65
   257
176
     1
 75
     2
176
     1
175
     1
176
     1
 42
40.0
176
     1
 92
        0
176
     1
 66
   257
176
     1
 43
1.0
176
     1
 76
     1
176
     1
 77
     6
176
     1
 78
     2
176
     1
 67
     7
176
     1
 79
     3
176
     1
170
     0
176
     1
171
     0
176
     1
290
     0
176
     1
 93
        1
176
     1
 44
0.0
176
     1
173
     0
176
     1
1001
ACAD
1000
AcDbSavedByObjectVersion
1070
     0
  0
VISUALSTYLE
  5
3F
102
{ACAD_XDICTIONARY
360
12C
102
}
102
{ACAD_REACTORS
330
29
102
}
330
29
100
AcDbVisualStyle
  2
JitterOff
 70
    20
177
     2
291
     1
 71
     2
176
     0
 72
     2
176
     0
 73
     0
176
     0
 90
        0
176
     0
 40
0.6
176
     0
 41
30.0
176
     0
 63
     7
421
 16777215
176
     0
 74
     1
176
     0
 91
        4
176
     0
 64
     7
176
     0
 65
   257
176
     0
 75
     1
176
     0
175
     1
176
     0
 42
1.0
176
     0
 92
       10
176
     2
 66
     7
176
     0
 43
1.0
176
     0
 76
     1
176
     0
 77
     6
176
     0
 78
     2
176
     0
 67
     7
176
     0
 79
     5
176
     0
170
     0
176
     0
171
     0
176
     0
290
     0
176
     0
 93
        1
176
     0
 44
0.0
176
     0
173
     0
176
     0
1001
ACAD
1000
AcDbSavedByObjectVersion
1070
     0
  0
VISUALSTYLE
  5
37
102
{ACAD_XDICTIONARY
360
11C
102
}
102
{ACAD_REACTORS
330
29
102
}
330
29
100
AcDbVisualStyle
  2
Linepattern
 70
    14
177
     2
291
     1
 71
     2
176
     1
 72
     2
176
     1
 73
     0
176
     1
 90
        0
176
     1
 40
0.6
176
     1
 41
30.0
176
     1
 63
     7
421
 16777215
176
     1
 74
     1
176
     1
 91
        4
176
     1
 64
     7
176
     1
 65
   257
176
     1
 75
     7
176
     1
175
     7
176
     1
 42
1.0
176
     1
 92
        8
176
     1
 66
     7
176
     1
 43
1.0
176
     1
 76
     1
176
     1
 77
     6
176
     1
 78
     2
176
     1
 67
     7
176
     1
 79
     5
176
     1
170
     0
176
     1
171
     0
176
     1
290
     0
176
     1
 93
        1
176
     1
 44
0.0
176
     1
173
     0
176
     1
1001
ACAD
1000
AcDbSavedByObjectVersion
1070
     0
  0
VISUALSTYLE
  5
40
102
{ACAD_XDICTIONARY
360
12E
102
}
102
{ACAD_REACTORS
330
29
102
}
330
29
100
AcDbVisualStyle
  2
OverhangOff
 70
    21
177
     2
291
     1
 71
     2
176
     0
 72
     2
176
     0
 73
     0
176
     0
 90
        0
176
     0
 40
0.6
176
     0
 41
30.0
176
     0
 63
     7
421
 16777215
176
     0
 74
     1
176
     0
 91
        4
176
     0
 64
     7
176
     0
 65
   257
176
     0
 75
     1
176
     0
175
     1
176
     0
 42
1.0
176
     0
 92
        9
176
     2
 66
     7
176
     0
 43
1.0
176
     0
 76
     1
176
     0
 77
     6
176
     0
 78
     2
176
     0
 67
     7
176
     0
 79
     5
176
     0
170
     0
176
     0
171
     0
176
     0
290
     0
176
     0
 93
        1
176
     0
 44
0.0
176
     0
173
     0
176
     0
1001
ACAD
1000
AcDbSavedByObjectVersion
1070
     0
  0
VISUALSTYLE
  5
33
102
{ACAD_XDICTIONARY
360
114
102
}
102
{ACAD_REACTORS
330
29
102
}
330
29
100
AcDbVisualStyle
  2
Realistic
 70
     8
177
     2
291
     0
 71
     2
176
     1
 72
     3
176
     1
 73
     0
176
     1
 90
        2
176
     1
 40
0.6
176
     1
 41
30.0
176
     1
 63
     7
421
 16777215
176
     1
 74
     0
176
     1
 91
        0
176
     1
 64
     7
176
     1
 65
   257
176
     1
 75
     1
176
     1
175
     1
176
     1
 42
1.0
176
     1
 92
        8
176
     1
 66
   257
176
     1
 43
1.0
176
     1
 76
     1
176
     1
 77
     6
176
     1
 78
     2
176
     1
 67
     7
176
     1
 79
     3
176
     1
170
     0
176
     1
171
     0
176
     1
290
     0
176
     1
 93
       13
176
     1
 44
0.0
176
     1
173
     0
176
     1
1001
ACAD
1000
AcDbSavedByObjectVersion
1070
     0
  0
VISUALSTYLE
  5
3E
102
{ACAD_XDICTIONARY
360
12A
102
}
102
{ACAD_REACTORS
330
29
102
}
330
29
100
AcDbVisualStyle
  2
Shaded
 70
    27
177
     2
291
     0
 71
     2
176
     1
 72
     2
176
     1
 73
     1
176
     1
 90
        2
176
     1
 40
0.6
176
     1
 41
30.0
176
     1
 63
     7
421
 16777215
176
     1
 74
     0
176
     1
 91
        4
176
     1
 64
     7
176
     1
 65
   257
176
     1
 75
     1
176
     1
175
     1
176
     1
 42
1.0
176
     1
 92
        8
176
     1
 66
   257
176
     1
 43
1.0
176
     1
 76
     1
176
     1
 77
     6
176
     1
 78
     2
176
     1
 67
     8
425
  7895160
176
     1
 79
     3
176
     1
170
     0
176
     1
171
     0
176
     1
290
     0
176
     1
 93
        5
176
     1
 44
0.0
176
     1
173
     0
176
     1
1001
ACAD
1000
AcDbSavedByObjectVersion
1070
     0
  0
VISUALSTYLE
  5
3D
102
{ACAD_XDICTIONARY
360
128
102
}
102
{ACAD_REACTORS
330
29
102
}
330
29
100
AcDbVisualStyle
  2
Shaded with edges
 70
    26
177
     2
291
     0
 71
     2
176
     1
 72
     2
176
     1
 73
     1
176
     1
 90
        2
176
     1
 40
0.6
176
     1
 41
30.0
176
     1
 63
     7
421
 16777215
176
     1
 74
     1
176
     1
 91
        2
176
     1
 64
     7
176
     1
 65
   257
176
     1
 75
     2
176
     1
175
     1
176
     1
 42
1.0
176
     1
 92
        8
176
     1
 66
   257
176
     1
 43
1.0
176
     1
 76
     1
176
     1
 77
     6
176
     1
 78
     2
176
     1
 67
     7
176
     1
 79
     3
176
     1
170
     0
176
     1
171
     0
176
     1
290
     0
176
     1
 93
        5
176
     1
 44
0.0
176
     1
173
     0
176
     1
1001
ACAD
1000
AcDbSavedByObjectVersion
1070
     0
  0
VISUALSTYLE
  5
3A
102
{ACAD_XDICTIONARY
360
122
102
}
102
{ACAD_REACTORS
330
29
102
}
330
29
100
AcDbVisualStyle
  2
Shades of Gray
 70
    23
177
     2
291
     0
 71
     2
176
     1
 72
     2
176
     1
 73
     3
176
     1
 90
        0
176
     1
 40
0.6
176
     1
 41
30.0
176
     1
 63
     7
421
 16777215
176
     1
 74
     2
176
     1
 91
        2
176
     1
 64
     7
176
     1
 65
     7
176
     1
 75
     1
176
     1
175
     1
176
     1
 42
40.0
176
     1
 92
        8
176
     1
 66
     7
176
     1
 43
1.0
176
     1
 76
     1
176
     1
 77
     6
176
     1
 78
     2
176
     1
 67
     7
176
     1
 79
     3
176
     1
170
     0
176
     1
171
     0
176
     1
290
     0
176
     1
 93
        1
176
     1
 44
0.0
176
     1
173
     0
176
     1
1001
ACAD
1000
AcDbSavedByObjectVersion
1070
     0
  0
VISUALSTYLE
  5
3B
102
{ACAD_XDICTIONARY
360
124
102
}
102
{ACAD_REACTORS
330
29
102
}
330
29
100
AcDbVisualStyle
  2
Sketchy
 70
    24
177
     2
291
     0
 71
     1
176
     1
 72
     2
176
     1
 73
     2
176
     1
 90
        0
176
     1
 40
0.6
176
     1
 41
30.0
176
     1
 63
     7
421
 16777215
176
     1
 74
     2
176
     1
 91
        2
176
     1
 64
     7
176
     1
 65
     7
176
     1
 75
     1
176
     1
175
     1
176
     1
 42
40.0
176
     1
 92
       11
176
     1
 66
     7
176
     1
 43
1.0
176
     1
 76
     1
176
     1
 77
     6
176
     1
 78
     2
176
     1
 67
     7
176
     1
 79
     6
176
     1
170
     0
176
     1
171
     0
176
     1
290
     0
176
     1
 93
        1
176
     1
 44
0.0
176
     1
173
     0
176
     1
1001
ACAD
1000
AcDbSavedByObjectVersion
1070
     0
  0
VISUALSTYLE
  5
36
102
{ACAD_XDICTIONARY
360
11A
102
}
102
{ACAD_REACTORS
330
29
102
}
330
29
100
AcDbVisualStyle
  2
Thicken
 70
    13
177
     2
291
     1
 71
     2
176
     1
 72
     2
176
     1
 73
     0
176
     1
 90
        0
176
     1
 40
0.6
176
     1
 41
30.0
176
     1
 63
     7
421
 16777215
176
     1
 74
     1
176
     1
 91
        4
176
     1
 64
     7
176
     1
 65
   257
176
     1
 75
     1
176
     1
175
     1
176
     1
 42
1.0
176
     1
 92
       12
176
     1
 66
     7
176
     1
 43
1.0
176
     1
 76
     1
176
     1
 77
     6
176
     1
 78
     2
176
     1
 67
     7
176
     1
 79
     5
176
     1
170
     0
176
     1
171
     0
176
     1
290
     0
176
     1
 93
        1
176
     1
 44
0.0
176
     1
173
     0
176
     1
1001
ACAD
1000
AcDbSavedByObjectVersion
1070
     0
  0
VISUALSTYLE
  5
30
102
{ACAD_XDICTIONARY
360
10E
102
}
102
{ACAD_REACTORS
330
29
102
}
330
29
100
AcDbVisualStyle
  2
Wireframe
 70
     5
177
     2
291
     0
 71
     0
176
     1
 72
     2
176
     1
 73
     0
176
     1
 90
        0
176
     1
 40
0.6
176
     1
 41
30.0
176
     1
 63
     7
421
 16777215
176
     1
 74
     1
176
     1
 91
        4
176
     1
 64
     7
176
     1
 65
   257
176
     1
 75
     1
176
     1
175
     1
176
     1
 42
1.0
176
     1
 92
        0
176
     1
 66
   257
176
     1
 43
1.0
176
     1
 76
     1
176
     1
 77
     6
176
     1
 78
     2
176
     1
 67
     7
176
     1
 79
     3
176
     1
170
     0
176
     1
171
     0
176
     1
290
     0
176
     1
 93
        1
176
     1
 44
0.0
176
     1
173
     0
176
     1
1001
ACAD
1000
AcDbSavedByObjectVersion
1070
     0
  0
VISUALSTYLE
  5
3C
102
{ACAD_XDICTIONARY
360
126
102
}
102
{ACAD_REACTORS
330
29
102
}
330
29
100
AcDbVisualStyle
  2
X-Ray
 70
    25
177
     2
291
     0
 71
     2
176
     1
 72
     2
176
     1
 73
     1
176
     1
 90
        1
176
     1
 40
0.5
176
     1
 41
30.0
176
     1
 63
     7
421
 16777215
176
     1
 74
     1
176
     1
 91
        0
176
     1
 64
     7
176
     1
 65
   257
176
     1
 75
     1
176
     1
175
     1
176
     1
 42
1.0
176
     1
 92
        8
176
     1
 66
     7
176
     1
 43
1.0
176
     1
 76
     1
176
     1
 77
     6
176
     1
 78
     2
176
     1
 67
     7
176
     1
 79
     3
176
     1
170
     0
176
     1
171
     0
176
     1
290
     0
176
     1
 93
       13
176
     1
 44
0.0
176
     1
173
     0
176
     1
1001
ACAD
1000
AcDbSavedByObjectVersion
1070
     0
  0
DICTIONARYVAR
  5
FE
102
{ACAD_REACTORS
330
F9
102
}
330
F9
100
DictionaryVariables
280
     0
  1
1:1
  0
DICTIONARYVAR
  5
FB
102
{ACAD_REACTORS
330
F9
102
}
330
F9
100
DictionaryVariables
280
     0
  1
STANDARD
  0
DICTIONARYVAR
  5
FA
102
{ACAD_REACTORS
330
F9
102
}
330
F9
100
DictionaryVariables
280
     0
  1
STANDARD
  0
DICTIONARYVAR
  5
FC
102
{ACAD_REACTORS
330
F9
102
}
330
F9
100
DictionaryVariables
280
     0
  1
Imperial24
  0
DICTIONARYVAR
  5
FD
102
{ACAD_REACTORS
330
F9
102
}
330
F9
100
DictionaryVariables
280
     0
  1
Imperial24
  0
DICTIONARY
  5
136
330
6B
100
AcDbDictionary
280
     1
281
     1
  3
ACAD_XREC_ROUNDTRIP
360
137
  0
DICTIONARY
  5
1A
330
19
100
AcDbDictionary
280
     1
281
     1
  3
BUMPTILE
360
1C
  3
DIFFUSETILE
360
1B
  3
OPACITYTILE
360
1F
  3
REFLECTIONTILE
360
1E
  3
REFRACTIONTILE
360
20
  3
SPECULARTILE
360
1D
  0
DICTIONARY
  5
12
330
11
100
AcDbDictionary
280
     1
281
     1
  3
BUMPTILE
360
14
  3
DIFFUSETILE
360
13
  3
OPACITYTILE
360
17
  3
REFLECTIONTILE
360
16
  3
REFRACTIONTILE
360
18
  3
SPECULARTILE
360
15
  0
DICTIONARY
  5
22
330
21
100
AcDbDictionary
280
     1
281
     1
  3
BUMPTILE
360
24
  3
DIFFUSETILE
360
23
  3
OPACITYTILE
360
27
  3
REFLECTIONTILE
360
26
  3
REFRACTIONTILE
360
28
  3
SPECULARTILE
360
25
  0
DICTIONARY
  5
132
330
67
100
AcDbDictionary
280
     1
281
     1
  3
ACAD_XREC_ROUNDTRIP
360
133
  0
DICTIONARY
  5
134
330
69
100
AcDbDictionary
280
     1
281
     1
  3
ACAD_XREC_ROUNDTRIP
360
135
  0
DICTIONARY
  5
FF
330
65
100
AcDbDictionary
280
     1
281
     1
  3
ACAD_ROUNDTRIP_2008_TABLESTYLE_CELLSTYLEMAP
360
100
  0
DICTIONARY
  5
10C
330
2F
100
AcDbDictionary
280
     1
281
     1
  3
ACAD_XREC_ROUNDTRIP
360
10D
  0
DICTIONARY
  5
10A
330
2E
100
AcDbDictionary
280
     1
281
     1
  3
ACAD_XREC_ROUNDTRIP
360
10B
  0
DICTIONARY
  5
118
330
35
100
AcDbDictionary
280
     1
281
     1
  3
ACAD_XREC_ROUNDTRIP
360
119
  0
DICTIONARY
  5
120
330
39
100
AcDbDictionary
280
     1
281
     1
  3
ACAD_XREC_ROUNDTRIP
360
121
  0
DICTIONARY
  5
112
330
32
100
AcDbDictionary
280
     1
281
     1
  3
ACAD_XREC_ROUNDTRIP
360
113
  0
DICTIONARY
  5
116
330
34
100
AcDbDictionary
280
     1
281
     1
  3
ACAD_XREC_ROUNDTRIP
360
117
  0
DICTIONARY
  5
130
330
41
100
AcDbDictionary
280
     1
281
     1
  3
ACAD_XREC_ROUNDTRIP
360
131
  0
DICTIONARY
  5
11E
330
38
100
AcDbDictionary
280
     1
281
     1
  3
ACAD_XREC_ROUNDTRIP
360
11F
  0
DICTIONARY
  5
102
330
2A
100
AcDbDictionary
280
     1
281
     1
  3
ACAD_XREC_ROUNDTRIP
360
103
  0
DICTIONARY
  5
104
330
2B
100
AcDbDictionary
280
     1
281
     1
  3
ACAD_XREC_ROUNDTRIP
360
105
  0
DICTIONARY
  5
106
330
2C
100
AcDbDictionary
280
     1
281
     1
  3
ACAD_XREC_ROUNDTRIP
360
107
  0
DICTIONARY
  5
108
330
2D
100
AcDbDictionary
280
     1
281
     1
  3
ACAD_XREC_ROUNDTRIP
360
109
  0
DICTIONARY
  5
110
330
31
100
AcDbDictionary
280
     1
281
     1
  3
ACAD_XREC_ROUNDTRIP
360
111
  0
DICTIONARY
  5
12C
330
3F
100
AcDbDictionary
280
     1
281
     1
  3
ACAD_XREC_ROUNDTRIP
360
12D
  0
DICTIONARY
  5
11C
330
37
100
AcDbDictionary
280
     1
281
     1
  3
ACAD_XREC_ROUNDTRIP
360
11D
  0
DICTIONARY
  5
12E
330
40
100
AcDbDictionary
280
     1
281
     1
  3
ACAD_XREC_ROUNDTRIP
360
12F
  0
DICTIONARY
  5
114
330
33
100
AcDbDictionary
280
     1
281
     1
  3
ACAD_XREC_ROUNDTRIP
360
115
  0
DICTIONARY
  5
12A
330
3E
100
AcDbDictionary
280
     1
281
     1
  3
ACAD_XREC_ROUNDTRIP
360
12B
  0
DICTIONARY
  5
128
330
3D
100
AcDbDictionary
280
     1
281
     1
  3
ACAD_XREC_ROUNDTRIP
360
129
  0
DICTIONARY
  5
122
330
3A
100
AcDbDictionary
280
     1
281
     1
  3
ACAD_XREC_ROUNDTRIP
360
123
  0
DICTIONARY
  5
124
330
3B
100
AcDbDictionary
280
     1
281
     1
  3
ACAD_XREC_ROUNDTRIP
360
125
  0
DICTIONARY
  5
11A
330
36
100
AcDbDictionary
280
     1
281
     1
  3
ACAD_XREC_ROUNDTRIP
360
11B
  0
DICTIONARY
  5
10E
330
30
100
AcDbDictionary
280
     1
281
     1
  3
ACAD_XREC_ROUNDTRIP
360
10F
  0
DICTIONARY
  5
126
330
3C
100
AcDbDictionary
280
     1
281
     1
  3
ACAD_XREC_ROUNDTRIP
360
127
  0
XRECORD
  5
137
102
{ACAD_REACTORS
330
136
102
}
330
136
100
AcDbXrecord
280
     1
102
DISPLAYNAME
  1
Imperial24
102
FLAGS
 90
        0
  0
XRECORD
  5
1C
102
{ACAD_REACTORS
330
1A
102
}
330
1A
100
AcDbXrecord
280
     1
270
     1
271
     1
  0
XRECORD
  5
1B
102
{ACAD_REACTORS
330
1A
102
}
330
1A
100
AcDbXrecord
280
     1
270
     1
271
     1
  0
XRECORD
  5
1F
102
{ACAD_REACTORS
330
1A
102
}
330
1A
100
AcDbXrecord
280
     1
270
     1
271
     1
  0
XRECORD
  5
1E
102
{ACAD_REACTORS
330
1A
102
}
330
1A
100
AcDbXrecord
280
     1
270
     1
271
     1
  0
XRECORD
  5
20
102
{ACAD_REACTORS
330
1A
102
}
330
1A
100
AcDbXrecord
280
     1
270
     1
271
     1
  0
XRECORD
  5
1D
102
{ACAD_REACTORS
330
1A
102
}
330
1A
100
AcDbXrecord
280
     1
270
     1
271
     1
  0
XRECORD
  5
14
102
{ACAD_REACTORS
330
12
102
}
330
12
100
AcDbXrecord
280
     1
270
     1
271
     1
  0
XRECORD
  5
13
102
{ACAD_REACTORS
330
12
102
}
330
12
100
AcDbXrecord
280
     1
270
     1
271
     1
  0
XRECORD
  5
17
102
{ACAD_REACTORS
330
12
102
}
330
12
100
AcDbXrecord
280
     1
270
     1
271
     1
  0
XRECORD
  5
16
102
{ACAD_REACTORS
330
12
102
}
330
12
100
AcDbXrecord
280
     1
270
     1
271
     1
  0
XRECORD
  5
18
102
{ACAD_REACTORS
330
12
102
}
330
12
100
AcDbXrecord
280
     1
270
     1
271
     1
  0
XRECORD
  5
15
102
{ACAD_REACTORS
330
12
102
}
330
12
100
AcDbXrecord
280
     1
270
     1
271
     1
  0
XRECORD
  5
24
102
{ACAD_REACTORS
330
22
102
}
330
22
100
AcDbXrecord
280
     1
270
     1
271
     1
  0
XRECORD
  5
23
102
{ACAD_REACTORS
330
22
102
}
330
22
100
AcDbXrecord
280
     1
270
     1
271
     1
  0
XRECORD
  5
27
102
{ACAD_REACTORS
330
22
102
}
330
22
100
AcDbXrecord
280
     1
270
     1
271
     1
  0
XRECORD
  5
26
102
{ACAD_REACTORS
330
22
102
}
330
22
100
AcDbXrecord
280
     1
270
     1
271
     1
  0
XRECORD
  5
28
102
{ACAD_REACTORS
330
22
102
}
330
22
100
AcDbXrecord
280
     1
270
     1
271
     1
  0
XRECORD
  5
25
102
{ACAD_REACTORS
330
22
102
}
330
22
100
AcDbXrecord
280
     1
270
     1
271
     1
  0
XRECORD
  5
133
102
{ACAD_REACTORS
330
132
102
}
330
132
100
AcDbXrecord
280
     1
102
ACAD_ROUNDTRIP_2012_MLEADER_STYLE
298
     1
  0
XRECORD
  5
135
102
{ACAD_REACTORS
330
134
102
}
330
134
100
AcDbXrecord
280
     1
102
DISPLAYNAME
  1
Imperial24
102
FLAGS
 90
        0
  0
CELLSTYLEMAP
  5
100
102
{ACAD_REACTORS
330
FF
102
}
330
FF
100
AcDbCellStyleMap
 90
        3
300
CELLSTYLE
  1
TABLEFORMAT_BEGIN
 90
        5
170
     1
 91
        0
 92
    32768
 62
   257
 93
        1
300
CONTENTFORMAT
  1
CONTENTFORMAT_BEGIN
 90
        0
 91
        0
 92
      512
 93
        0
300

 40
0.0
140
1.0
 94
        5
 62
     0
340
55
144
0.25
309
CONTENTFORMAT_END
171
     0
 94
        0
309
TABLEFORMAT_END
  1
CELLSTYLE_BEGIN
 90
        1
 91
        1
300
_TITLE
309
CELLSTYLE_END
300
CELLSTYLE
  1
TABLEFORMAT_BEGIN
 90
        5
170
     1
 91
        0
 92
        0
 62
   257
 93
        1
300
CONTENTFORMAT
  1
CONTENTFORMAT_BEGIN
 90
        0
 91
        0
 92
      512
 93
        0
300

 40
0.0
140
1.0
 94
        5
 62
     0
340
55
144
0.18
309
CONTENTFORMAT_END
171
     0
 94
        0
309
TABLEFORMAT_END
  1
CELLSTYLE_BEGIN
 90
        2
 91
        1
300
_HEADER
309
CELLSTYLE_END
300
CELLSTYLE
  1
TABLEFORMAT_BEGIN
 90
        5
170
     1
 91
        0
 92
        0
 62
   257
 93
        1
300
CONTENTFORMAT
  1
CONTENTFORMAT_BEGIN
 90
        0
 91
        0
 92
      512
 93
        0
300

 40
0.0
140
1.0
 94
        2
 62
     0
340
55
144
0.18
309
CONTENTFORMAT_END
171
     0
 94
        0
309
TABLEFORMAT_END
  1
CELLSTYLE_BEGIN
 90
        3
 91
        2
300
_DATA
309
CELLSTYLE_END
  0
XRECORD
  5
10D
102
{ACAD_REACTORS
330
10C
102
}
330
10C
100
AcDbXrecord
280
     1
102
RTVSPost2010Prop28
280
     1
102
RTVSPost2010PropOp28
 70
     1
102
RTVSPost2010Prop29
280
     1
102
RTVSPost2010PropOp29
 70
     1
102
RTVSPost2010Prop30
280
     0
102
RTVSPost2010PropOp30
 70
     1
102
RTVSPost2010Prop31
280
     0
102
RTVSPost2010PropOp31
 70
     1
102
RTVSPost2010Prop32
280
     0
102
RTVSPost2010PropOp32
 70
     1
102
RTVSPost2010Prop33
280
     0
102
RTVSPost2010PropOp33
 70
     1
102
RTVSPost2010Prop34
280
     0
102
RTVSPost2010PropOp34
 70
     1
102
RTVSPost2010Prop35
280
     0
102
RTVSPost2010PropOp35
 70
     1
102
RTVSPost2010Prop36
280
     0
102
RTVSPost2010PropOp36
 70
     1
102
RTVSPost2010Prop37
 90
       50
102
RTVSPost2010PropOp37
 70
     1
102
RTVSPost2010Prop38
140
0.0
102
RTVSPost2010PropOp38
 70
     1
102
RTVSPost2010Prop39
140
1.0
102
RTVSPost2010PropOp39
 70
     1
102
RTVSPost2010Prop40
 90
        0
102
RTVSPost2010PropOp40
 70
     1
102
RTVSPost2010Prop41ColorIndex
 90
       18
102
RTVSPost2010Prop41ColorRGB
 90
        0
102
RTVSPost2010PropOp41
 70
     1
102
RTVSPost2010Prop42
 90
       50
102
RTVSPost2010PropOp42
 70
     1
102
RTVSPost2010Prop43
 90
        3
102
RTVSPost2010PropOp43
 70
     1
102
RTVSPost2010Prop44ColorIndex
 90
        5
102
RTVSPost2010Prop44ColorRGB
 90
      255
102
RTVSPost2010PropOp44
 70
     1
102
RTVSPost2010Prop45
280
     0
102
RTVSPost2010PropOp45
 70
     1
102
RTVSPost2010Prop46
 90
       50
102
RTVSPost2010PropOp46
 70
     1
102
RTVSPost2010Prop47
 90
       50
102
RTVSPost2010PropOp47
 70
     1
102
RTVSPost2010Prop48
 90
       50
102
RTVSPost2010PropOp48
 70
     1
102
RTVSPost2010Prop49
280
     0
102
RTVSPost2010PropOp49
 70
     1
102
RTVSPost2010Prop50
 90
       50
102
RTVSPost2010PropOp50
 70
     1
102
RTVSPost2010Prop51ColorIndex
 90
      256
102
RTVSPost2010Prop51ColorRGB
 90
-16777216
102
RTVSPost2010PropOp51
 70
     0
102
RTVSPost2010Prop52
140
1.0
102
RTVSPost2010PropOp52
 70
     0
102
RTVSPost2010Prop53
 90
        2
102
RTVSPost2010PropOp53
 70
     1
102
RTVSPost2010Prop54
  1
strokes_ogs.tif
102
RTVSPost2010PropOp54
 70
     1
102
RTVSPost2010Prop55
280
     0
102
RTVSPost2010PropOp55
 70
     1
102
RTVSPost2010Prop56
140
1.0
102
RTVSPost2010PropOp56
 70
     1
102
RTVSPost2010Prop57
140
1.0
102
RTVSPost2010PropOp57
 70
     1
  0
XRECORD
  5
10B
102
{ACAD_REACTORS
330
10A
102
}
330
10A
100
AcDbXrecord
280
     1
102
RTVSPost2010Prop28
280
     0
102
RTVSPost2010PropOp28
 70
     1
102
RTVSPost2010Prop29
280
     1
102
RTVSPost2010PropOp29
 70
     1
102
RTVSPost2010Prop30
280
     1
102
RTVSPost2010PropOp30
 70
     1
102
RTVSPost2010Prop31
280
     0
102
RTVSPost2010PropOp31
 70
     1
102
RTVSPost2010Prop32
280
     0
102
RTVSPost2010PropOp32
 70
     1
102
RTVSPost2010Prop33
280
     0
102
RTVSPost2010PropOp33
 70
     1
102
RTVSPost2010Prop34
280
     0
102
RTVSPost2010PropOp34
 70
     1
102
RTVSPost2010Prop35
280
     0
102
RTVSPost2010PropOp35
 70
     1
102
RTVSPost2010Prop36
280
     0
102
RTVSPost2010PropOp36
 70
     1
102
RTVSPost2010Prop37
 90
       50
102
RTVSPost2010PropOp37
 70
     1
102
RTVSPost2010Prop38
140
0.0
102
RTVSPost2010PropOp38
 70
     1
102
RTVSPost2010Prop39
140
1.0
102
RTVSPost2010PropOp39
 70
     1
102
RTVSPost2010Prop40
 90
        0
102
RTVSPost2010PropOp40
 70
     1
102
RTVSPost2010Prop41ColorIndex
 90
       18
102
RTVSPost2010Prop41ColorRGB
 90
        0
102
RTVSPost2010PropOp41
 70
     1
102
RTVSPost2010Prop42
 90
       50
102
RTVSPost2010PropOp42
 70
     1
102
RTVSPost2010Prop43
 90
        3
102
RTVSPost2010PropOp43
 70
     1
102
RTVSPost2010Prop44ColorIndex
 90
        5
102
RTVSPost2010Prop44ColorRGB
 90
      255
102
RTVSPost2010PropOp44
 70
     1
102
RTVSPost2010Prop45
280
     0
102
RTVSPost2010PropOp45
 70
     1
102
RTVSPost2010Prop46
 90
       50
102
RTVSPost2010PropOp46
 70
     1
102
RTVSPost2010Prop47
 90
       50
102
RTVSPost2010PropOp47
 70
     1
102
RTVSPost2010Prop48
 90
       50
102
RTVSPost2010PropOp48
 70
     1
102
RTVSPost2010Prop49
280
     0
102
RTVSPost2010PropOp49
 70
     1
102
RTVSPost2010Prop50
 90
       50
102
RTVSPost2010PropOp50
 70
     1
102
RTVSPost2010Prop51ColorIndex
 90
      256
102
RTVSPost2010Prop51ColorRGB
 90
-16777216
102
RTVSPost2010PropOp51
 70
     0
102
RTVSPost2010Prop52
140
1.0
102
RTVSPost2010PropOp52
 70
     0
102
RTVSPost2010Prop53
 90
        2
102
RTVSPost2010PropOp53
 70
     1
102
RTVSPost2010Prop54
  1
strokes_ogs.tif
102
RTVSPost2010PropOp54
 70
     1
102
RTVSPost2010Prop55
280
     0
102
RTVSPost2010PropOp55
 70
     1
102
RTVSPost2010Prop56
140
1.0
102
RTVSPost2010PropOp56
 70
     1
102
RTVSPost2010Prop57
140
1.0
102
RTVSPost2010PropOp57
 70
     1
  0
XRECORD
  5
119
102
{ACAD_REACTORS
330
118
102
}
330
118
100
AcDbXrecord
280
     1
102
RTVSPost2010Prop28
280
     0
102
RTVSPost2010PropOp28
 70
     1
102
RTVSPost2010Prop29
280
     1
102
RTVSPost2010PropOp29
 70
     1
102
RTVSPost2010Prop30
280
     1
102
RTVSPost2010PropOp30
 70
     1
102
RTVSPost2010Prop31
280
     0
102
RTVSPost2010PropOp31
 70
     1
102
RTVSPost2010Prop32
280
     0
102
RTVSPost2010PropOp32
 70
     1
102
RTVSPost2010Prop33
280
     0
102
RTVSPost2010PropOp33
 70
     1
102
RTVSPost2010Prop34
280
     0
102
RTVSPost2010PropOp34
 70
     1
102
RTVSPost2010Prop35
280
     0
102
RTVSPost2010PropOp35
 70
     1
102
RTVSPost2010Prop36
280
     0
102
RTVSPost2010PropOp36
 70
     1
102
RTVSPost2010Prop37
 90
       50
102
RTVSPost2010PropOp37
 70
     1
102
RTVSPost2010Prop38
140
0.0
102
RTVSPost2010PropOp38
 70
     1
102
RTVSPost2010Prop39
140
1.0
102
RTVSPost2010PropOp39
 70
     1
102
RTVSPost2010Prop40
 90
        0
102
RTVSPost2010PropOp40
 70
     1
102
RTVSPost2010Prop41ColorIndex
 90
       18
102
RTVSPost2010Prop41ColorRGB
 90
        0
102
RTVSPost2010PropOp41
 70
     1
102
RTVSPost2010Prop42
 90
       50
102
RTVSPost2010PropOp42
 70
     1
102
RTVSPost2010Prop43
 90
        3
102
RTVSPost2010PropOp43
 70
     1
102
RTVSPost2010Prop44ColorIndex
 90
        5
102
RTVSPost2010Prop44ColorRGB
 90
      255
102
RTVSPost2010PropOp44
 70
     1
102
RTVSPost2010Prop45
280
     0
102
RTVSPost2010PropOp45
 70
     1
102
RTVSPost2010Prop46
 90
       50
102
RTVSPost2010PropOp46
 70
     1
102
RTVSPost2010Prop47
 90
       50
102
RTVSPost2010PropOp47
 70
     1
102
RTVSPost2010Prop48
 90
       50
102
RTVSPost2010PropOp48
 70
     1
102
RTVSPost2010Prop49
280
     0
102
RTVSPost2010PropOp49
 70
     1
102
RTVSPost2010Prop50
 90
       50
102
RTVSPost2010PropOp50
 70
     1
102
RTVSPost2010Prop51ColorIndex
 90
      256
102
RTVSPost2010Prop51ColorRGB
 90
-16777216
102
RTVSPost2010PropOp51
 70
     0
102
RTVSPost2010Prop52
140
1.0
102
RTVSPost2010PropOp52
 70
     0
102
RTVSPost2010Prop53
 90
        2
102
RTVSPost2010PropOp53
 70
     1
102
RTVSPost2010Prop54
  1
strokes_ogs.tif
102
RTVSPost2010PropOp54
 70
     1
102
RTVSPost2010Prop55
280
     0
102
RTVSPost2010PropOp55
 70
     1
102
RTVSPost2010Prop56
140
1.0
102
RTVSPost2010PropOp56
 70
     1
102
RTVSPost2010Prop57
140
1.0
102
RTVSPost2010PropOp57
 70
     1
  0
XRECORD
  5
121
102
{ACAD_REACTORS
330
120
102
}
330
120
100
AcDbXrecord
280
     1
102
RTVSPost2010Prop28
280
     0
102
RTVSPost2010PropOp28
 70
     1
102
RTVSPost2010Prop29
280
     1
102
RTVSPost2010PropOp29
 70
     1
102
RTVSPost2010Prop30
280
     1
102
RTVSPost2010PropOp30
 70
     1
102
RTVSPost2010Prop31
280
     0
102
RTVSPost2010PropOp31
 70
     1
102
RTVSPost2010Prop32
280
     0
102
RTVSPost2010PropOp32
 70
     1
102
RTVSPost2010Prop33
280
     0
102
RTVSPost2010PropOp33
 70
     1
102
RTVSPost2010Prop34
280
     0
102
RTVSPost2010PropOp34
 70
     1
102
RTVSPost2010Prop35
280
     0
102
RTVSPost2010PropOp35
 70
     1
102
RTVSPost2010Prop36
280
     0
102
RTVSPost2010PropOp36
 70
     1
102
RTVSPost2010Prop37
 90
       50
102
RTVSPost2010PropOp37
 70
     1
102
RTVSPost2010Prop38
140
0.0
102
RTVSPost2010PropOp38
 70
     1
102
RTVSPost2010Prop39
140
1.0
102
RTVSPost2010PropOp39
 70
     1
102
RTVSPost2010Prop40
 90
        0
102
RTVSPost2010PropOp40
 70
     1
102
RTVSPost2010Prop41ColorIndex
 90
       18
102
RTVSPost2010Prop41ColorRGB
 90
        0
102
RTVSPost2010PropOp41
 70
     1
102
RTVSPost2010Prop42
 90
       50
102
RTVSPost2010PropOp42
 70
     1
102
RTVSPost2010Prop43
 90
        3
102
RTVSPost2010PropOp43
 70
     1
102
RTVSPost2010Prop44ColorIndex
 90
        5
102
RTVSPost2010Prop44ColorRGB
 90
      255
102
RTVSPost2010PropOp44
 70
     1
102
RTVSPost2010Prop45
280
     0
102
RTVSPost2010PropOp45
 70
     1
102
RTVSPost2010Prop46
 90
       50
102
RTVSPost2010PropOp46
 70
     1
102
RTVSPost2010Prop47
 90
       50
102
RTVSPost2010PropOp47
 70
     1
102
RTVSPost2010Prop48
 90
       50
102
RTVSPost2010PropOp48
 70
     1
102
RTVSPost2010Prop49
280
     0
102
RTVSPost2010PropOp49
 70
     1
102
RTVSPost2010Prop50
 90
       50
102
RTVSPost2010PropOp50
 70
     1
102
RTVSPost2010Prop51ColorIndex
 90
      256
102
RTVSPost2010Prop51ColorRGB
 90
-16777216
102
RTVSPost2010PropOp51
 70
     0
102
RTVSPost2010Prop52
140
1.0
102
RTVSPost2010PropOp52
 70
     0
102
RTVSPost2010Prop53
 90
        2
102
RTVSPost2010PropOp53
 70
     1
102
RTVSPost2010Prop54
  1
strokes_ogs.tif
102
RTVSPost2010PropOp54
 70
     1
102
RTVSPost2010Prop55
280
     0
102
RTVSPost2010PropOp55
 70
     1
102
RTVSPost2010Prop56
140
1.0
102
RTVSPost2010PropOp56
 70
     1
102
RTVSPost2010Prop57
140
1.0
102
RTVSPost2010PropOp57
 70
     1
  0
XRECORD
  5
113
102
{ACAD_REACTORS
330
112
102
}
330
112
100
AcDbXrecord
280
     1
102
RTVSPost2010Prop28
280
     0
102
RTVSPost2010PropOp28
 70
     1
102
RTVSPost2010Prop29
280
     1
102
RTVSPost2010PropOp29
 70
     1
102
RTVSPost2010Prop30
280
     1
102
RTVSPost2010PropOp30
 70
     1
102
RTVSPost2010Prop31
280
     0
102
RTVSPost2010PropOp31
 70
     1
102
RTVSPost2010Prop32
280
     0
102
RTVSPost2010PropOp32
 70
     1
102
RTVSPost2010Prop33
280
     0
102
RTVSPost2010PropOp33
 70
     1
102
RTVSPost2010Prop34
280
     0
102
RTVSPost2010PropOp34
 70
     1
102
RTVSPost2010Prop35
280
     0
102
RTVSPost2010PropOp35
 70
     1
102
RTVSPost2010Prop36
280
     0
102
RTVSPost2010PropOp36
 70
     1
102
RTVSPost2010Prop37
 90
       50
102
RTVSPost2010PropOp37
 70
     1
102
RTVSPost2010Prop38
140
0.0
102
RTVSPost2010PropOp38
 70
     1
102
RTVSPost2010Prop39
140
1.0
102
RTVSPost2010PropOp39
 70
     1
102
RTVSPost2010Prop40
 90
        0
102
RTVSPost2010PropOp40
 70
     1
102
RTVSPost2010Prop41ColorIndex
 90
       18
102
RTVSPost2010Prop41ColorRGB
 90
        0
102
RTVSPost2010PropOp41
 70
     1
102
RTVSPost2010Prop42
 90
       50
102
RTVSPost2010PropOp42
 70
     1
102
RTVSPost2010Prop43
 90
        3
102
RTVSPost2010PropOp43
 70
     1
102
RTVSPost2010Prop44ColorIndex
 90
        5
102
RTVSPost2010Prop44ColorRGB
 90
      255
102
RTVSPost2010PropOp44
 70
     1
102
RTVSPost2010Prop45
280
     0
102
RTVSPost2010PropOp45
 70
     1
102
RTVSPost2010Prop46
 90
       50
102
RTVSPost2010PropOp46
 70
     1
102
RTVSPost2010Prop47
 90
       50
102
RTVSPost2010PropOp47
 70
     1
102
RTVSPost2010Prop48
 90
       50
102
RTVSPost2010PropOp48
 70
     1
102
RTVSPost2010Prop49
280
     0
102
RTVSPost2010PropOp49
 70
     1
102
RTVSPost2010Prop50
 90
       50
102
RTVSPost2010PropOp50
 70
     1
102
RTVSPost2010Prop51ColorIndex
 90
      256
102
RTVSPost2010Prop51ColorRGB
 90
-16777216
102
RTVSPost2010PropOp51
 70
     0
102
RTVSPost2010Prop52
140
1.0
102
RTVSPost2010PropOp52
 70
     0
102
RTVSPost2010Prop53
 90
        2
102
RTVSPost2010PropOp53
 70
     1
102
RTVSPost2010Prop54
  1
strokes_ogs.tif
102
RTVSPost2010PropOp54
 70
     1
102
RTVSPost2010Prop55
280
     0
102
RTVSPost2010PropOp55
 70
     1
102
RTVSPost2010Prop56
140
1.0
102
RTVSPost2010PropOp56
 70
     1
102
RTVSPost2010Prop57
140
1.0
102
RTVSPost2010PropOp57
 70
     1
  0
XRECORD
  5
117
102
{ACAD_REACTORS
330
116
102
}
330
116
100
AcDbXrecord
280
     1
102
RTVSPost2010Prop28
280
     0
102
RTVSPost2010PropOp28
 70
     1
102
RTVSPost2010Prop29
280
     1
102
RTVSPost2010PropOp29
 70
     1
102
RTVSPost2010Prop30
280
     1
102
RTVSPost2010PropOp30
 70
     1
102
RTVSPost2010Prop31
280
     0
102
RTVSPost2010PropOp31
 70
     1
102
RTVSPost2010Prop32
280
     0
102
RTVSPost2010PropOp32
 70
     1
102
RTVSPost2010Prop33
280
     0
102
RTVSPost2010PropOp33
 70
     1
102
RTVSPost2010Prop34
280
     0
102
RTVSPost2010PropOp34
 70
     1
102
RTVSPost2010Prop35
280
     0
102
RTVSPost2010PropOp35
 70
     1
102
RTVSPost2010Prop36
280
     0
102
RTVSPost2010PropOp36
 70
     1
102
RTVSPost2010Prop37
 90
       50
102
RTVSPost2010PropOp37
 70
     1
102
RTVSPost2010Prop38
140
0.0
102
RTVSPost2010PropOp38
 70
     1
102
RTVSPost2010Prop39
140
1.0
102
RTVSPost2010PropOp39
 70
     1
102
RTVSPost2010Prop40
 90
        0
102
RTVSPost2010PropOp40
 70
     1
102
RTVSPost2010Prop41ColorIndex
 90
       18
102
RTVSPost2010Prop41ColorRGB
 90
        0
102
RTVSPost2010PropOp41
 70
     1
102
RTVSPost2010Prop42
 90
       50
102
RTVSPost2010PropOp42
 70
     1
102
RTVSPost2010Prop43
 90
        3
102
RTVSPost2010PropOp43
 70
     1
102
RTVSPost2010Prop44ColorIndex
 90
        5
102
RTVSPost2010Prop44ColorRGB
 90
      255
102
RTVSPost2010PropOp44
 70
     1
102
RTVSPost2010Prop45
280
     0
102
RTVSPost2010PropOp45
 70
     1
102
RTVSPost2010Prop46
 90
       50
102
RTVSPost2010PropOp46
 70
     1
102
RTVSPost2010Prop47
 90
       50
102
RTVSPost2010PropOp47
 70
     1
102
RTVSPost2010Prop48
 90
       50
102
RTVSPost2010PropOp48
 70
     1
102
RTVSPost2010Prop49
280
     0
102
RTVSPost2010PropOp49
 70
     1
102
RTVSPost2010Prop50
 90
       50
102
RTVSPost2010PropOp50
 70
     1
102
RTVSPost2010Prop51ColorIndex
 90
      256
102
RTVSPost2010Prop51ColorRGB
 90
-16777216
102
RTVSPost2010PropOp51
 70
     0
102
RTVSPost2010Prop52
140
1.0
102
RTVSPost2010PropOp52
 70
     0
102
RTVSPost2010Prop53
 90
        2
102
RTVSPost2010PropOp53
 70
     1
102
RTVSPost2010Prop54
  1
strokes_ogs.tif
102
RTVSPost2010PropOp54
 70
     1
102
RTVSPost2010Prop55
280
     0
102
RTVSPost2010PropOp55
 70
     1
102
RTVSPost2010Prop56
140
1.0
102
RTVSPost2010PropOp56
 70
     1
102
RTVSPost2010Prop57
140
1.0
102
RTVSPost2010PropOp57
 70
     1
  0
XRECORD
  5
131
102
{ACAD_REACTORS
330
130
102
}
330
130
100
AcDbXrecord
280
     1
102
RTVSPost2010Prop28
280
     0
102
RTVSPost2010PropOp28
 70
     0
102
RTVSPost2010Prop29
280
     1
102
RTVSPost2010PropOp29
 70
     0
102
RTVSPost2010Prop30
280
     1
102
RTVSPost2010PropOp30
 70
     0
102
RTVSPost2010Prop31
280
     0
102
RTVSPost2010PropOp31
 70
     0
102
RTVSPost2010Prop32
280
     0
102
RTVSPost2010PropOp32
 70
     0
102
RTVSPost2010Prop33
280
     0
102
RTVSPost2010PropOp33
 70
     0
102
RTVSPost2010Prop34
280
     0
102
RTVSPost2010PropOp34
 70
     0
102
RTVSPost2010Prop35
280
     0
102
RTVSPost2010PropOp35
 70
     0
102
RTVSPost2010Prop36
280
     0
102
RTVSPost2010PropOp36
 70
     0
102
RTVSPost2010Prop37
 90
       50
102
RTVSPost2010PropOp37
 70
     0
102
RTVSPost2010Prop38
140
0.0
102
RTVSPost2010PropOp38
 70
     0
102
RTVSPost2010Prop39
140
1.0
102
RTVSPost2010PropOp39
 70
     0
102
RTVSPost2010Prop40
 90
        0
102
RTVSPost2010PropOp40
 70
     0
102
RTVSPost2010Prop41ColorIndex
 90
       18
102
RTVSPost2010Prop41ColorRGB
 90
        0
102
RTVSPost2010PropOp41
 70
     0
102
RTVSPost2010Prop42
 90
       50
102
RTVSPost2010PropOp42
 70
     0
102
RTVSPost2010Prop43
 90
        3
102
RTVSPost2010PropOp43
 70
     0
102
RTVSPost2010Prop44ColorIndex
 90
        5
102
RTVSPost2010Prop44ColorRGB
 90
      255
102
RTVSPost2010PropOp44
 70
     0
102
RTVSPost2010Prop45
280
     0
102
RTVSPost2010PropOp45
 70
     0
102
RTVSPost2010Prop46
 90
       50
102
RTVSPost2010PropOp46
 70
     0
102
RTVSPost2010Prop47
 90
       50
102
RTVSPost2010PropOp47
 70
     0
102
RTVSPost2010Prop48
 90
       50
102
RTVSPost2010PropOp48
 70
     0
102
RTVSPost2010Prop49
280
     0
102
RTVSPost2010PropOp49
 70
     0
102
RTVSPost2010Prop50
 90
       50
102
RTVSPost2010PropOp50
 70
     0
102
RTVSPost2010Prop51ColorIndex
 90
      256
102
RTVSPost2010Prop51ColorRGB
 90
-16777216
102
RTVSPost2010PropOp51
 70
     0
102
RTVSPost2010Prop52
140
1.0
102
RTVSPost2010PropOp52
 70
     0
102
RTVSPost2010Prop53
 90
        2
102
RTVSPost2010PropOp53
 70
     0
102
RTVSPost2010Prop54
  1
strokes_ogs.tif
102
RTVSPost2010PropOp54
 70
     0
102
RTVSPost2010Prop55
280
     0
102
RTVSPost2010PropOp55
 70
     0
102
RTVSPost2010Prop56
140
1.0
102
RTVSPost2010PropOp56
 70
     0
102
RTVSPost2010Prop57
140
1.0
102
RTVSPost2010PropOp57
 70
     0
  0
XRECORD
  5
11F
102
{ACAD_REACTORS
330
11E
102
}
330
11E
100
AcDbXrecord
280
     1
102
RTVSPost2010Prop28
280
     0
102
RTVSPost2010PropOp28
 70
     1
102
RTVSPost2010Prop29
280
     1
102
RTVSPost2010PropOp29
 70
     1
102
RTVSPost2010Prop30
280
     1
102
RTVSPost2010PropOp30
 70
     1
102
RTVSPost2010Prop31
280
     0
102
RTVSPost2010PropOp31
 70
     1
102
RTVSPost2010Prop32
280
     0
102
RTVSPost2010PropOp32
 70
     1
102
RTVSPost2010Prop33
280
     0
102
RTVSPost2010PropOp33
 70
     1
102
RTVSPost2010Prop34
280
     0
102
RTVSPost2010PropOp34
 70
     1
102
RTVSPost2010Prop35
280
     0
102
RTVSPost2010PropOp35
 70
     1
102
RTVSPost2010Prop36
280
     0
102
RTVSPost2010PropOp36
 70
     1
102
RTVSPost2010Prop37
 90
       50
102
RTVSPost2010PropOp37
 70
     1
102
RTVSPost2010Prop38
140
0.0
102
RTVSPost2010PropOp38
 70
     1
102
RTVSPost2010Prop39
140
1.0
102
RTVSPost2010PropOp39
 70
     1
102
RTVSPost2010Prop40
 90
        0
102
RTVSPost2010PropOp40
 70
     1
102
RTVSPost2010Prop41ColorIndex
 90
       18
102
RTVSPost2010Prop41ColorRGB
 90
        0
102
RTVSPost2010PropOp41
 70
     1
102
RTVSPost2010Prop42
 90
       50
102
RTVSPost2010PropOp42
 70
     1
102
RTVSPost2010Prop43
 90
        3
102
RTVSPost2010PropOp43
 70
     1
102
RTVSPost2010Prop44ColorIndex
 90
        5
102
RTVSPost2010Prop44ColorRGB
 90
      255
102
RTVSPost2010PropOp44
 70
     1
102
RTVSPost2010Prop45
280
     0
102
RTVSPost2010PropOp45
 70
     1
102
RTVSPost2010Prop46
 90
       50
102
RTVSPost2010PropOp46
 70
     1
102
RTVSPost2010Prop47
 90
       50
102
RTVSPost2010PropOp47
 70
     1
102
RTVSPost2010Prop48
 90
       50
102
RTVSPost2010PropOp48
 70
     1
102
RTVSPost2010Prop49
280
     0
102
RTVSPost2010PropOp49
 70
     1
102
RTVSPost2010Prop50
 90
       50
102
RTVSPost2010PropOp50
 70
     1
102
RTVSPost2010Prop51ColorIndex
 90
      256
102
RTVSPost2010Prop51ColorRGB
 90
-16777216
102
RTVSPost2010PropOp51
 70
     0
102
RTVSPost2010Prop52
140
1.0
102
RTVSPost2010PropOp52
 70
     0
102
RTVSPost2010Prop53
 90
        2
102
RTVSPost2010PropOp53
 70
     1
102
RTVSPost2010Prop54
  1
strokes_ogs.tif
102
RTVSPost2010PropOp54
 70
     1
102
RTVSPost2010Prop55
280
     0
102
RTVSPost2010PropOp55
 70
     1
102
RTVSPost2010Prop56
140
1.0
102
RTVSPost2010PropOp56
 70
     1
102
RTVSPost2010Prop57
140
1.0
102
RTVSPost2010PropOp57
 70
     1
  0
XRECORD
  5
103
102
{ACAD_REACTORS
330
102
102
}
330
102
100
AcDbXrecord
280
     1
102
RTVSPost2010Prop28
280
     0
102
RTVSPost2010PropOp28
 70
     1
102
RTVSPost2010Prop29
280
     1
102
RTVSPost2010PropOp29
 70
     1
102
RTVSPost2010Prop30
280
     1
102
RTVSPost2010PropOp30
 70
     1
102
RTVSPost2010Prop31
280
     0
102
RTVSPost2010PropOp31
 70
     1
102
RTVSPost2010Prop32
280
     0
102
RTVSPost2010PropOp32
 70
     1
102
RTVSPost2010Prop33
280
     0
102
RTVSPost2010PropOp33
 70
     1
102
RTVSPost2010Prop34
280
     0
102
RTVSPost2010PropOp34
 70
     1
102
RTVSPost2010Prop35
280
     0
102
RTVSPost2010PropOp35
 70
     1
102
RTVSPost2010Prop36
280
     0
102
RTVSPost2010PropOp36
 70
     1
102
RTVSPost2010Prop37
 90
       50
102
RTVSPost2010PropOp37
 70
     1
102
RTVSPost2010Prop38
140
0.0
102
RTVSPost2010PropOp38
 70
     1
102
RTVSPost2010Prop39
140
1.0
102
RTVSPost2010PropOp39
 70
     1
102
RTVSPost2010Prop40
 90
        0
102
RTVSPost2010PropOp40
 70
     1
102
RTVSPost2010Prop41ColorIndex
 90
       18
102
RTVSPost2010Prop41ColorRGB
 90
        0
102
RTVSPost2010PropOp41
 70
     1
102
RTVSPost2010Prop42
 90
       50
102
RTVSPost2010PropOp42
 70
     1
102
RTVSPost2010Prop43
 90
        3
102
RTVSPost2010PropOp43
 70
     1
102
RTVSPost2010Prop44ColorIndex
 90
        5
102
RTVSPost2010Prop44ColorRGB
 90
      255
102
RTVSPost2010PropOp44
 70
     1
102
RTVSPost2010Prop45
280
     0
102
RTVSPost2010PropOp45
 70
     1
102
RTVSPost2010Prop46
 90
       50
102
RTVSPost2010PropOp46
 70
     1
102
RTVSPost2010Prop47
 90
       50
102
RTVSPost2010PropOp47
 70
     1
102
RTVSPost2010Prop48
 90
       50
102
RTVSPost2010PropOp48
 70
     1
102
RTVSPost2010Prop49
280
     0
102
RTVSPost2010PropOp49
 70
     1
102
RTVSPost2010Prop50
 90
       50
102
RTVSPost2010PropOp50
 70
     1
102
RTVSPost2010Prop51ColorIndex
 90
      256
102
RTVSPost2010Prop51ColorRGB
 90
-16777216
102
RTVSPost2010PropOp51
 70
     0
102
RTVSPost2010Prop52
140
1.0
102
RTVSPost2010PropOp52
 70
     0
102
RTVSPost2010Prop53
 90
        2
102
RTVSPost2010PropOp53
 70
     1
102
RTVSPost2010Prop54
  1
strokes_ogs.tif
102
RTVSPost2010PropOp54
 70
     1
102
RTVSPost2010Prop55
280
     0
102
RTVSPost2010PropOp55
 70
     1
102
RTVSPost2010Prop56
140
1.0
102
RTVSPost2010PropOp56
 70
     1
102
RTVSPost2010Prop57
140
1.0
102
RTVSPost2010PropOp57
 70
     1
  0
XRECORD
  5
105
102
{ACAD_REACTORS
330
104
102
}
330
104
100
AcDbXrecord
280
     1
102
RTVSPost2010Prop28
280
     0
102
RTVSPost2010PropOp28
 70
     1
102
RTVSPost2010Prop29
280
     1
102
RTVSPost2010PropOp29
 70
     1
102
RTVSPost2010Prop30
280
     1
102
RTVSPost2010PropOp30
 70
     1
102
RTVSPost2010Prop31
280
     0
102
RTVSPost2010PropOp31
 70
     1
102
RTVSPost2010Prop32
280
     0
102
RTVSPost2010PropOp32
 70
     1
102
RTVSPost2010Prop33
280
     0
102
RTVSPost2010PropOp33
 70
     1
102
RTVSPost2010Prop34
280
     0
102
RTVSPost2010PropOp34
 70
     1
102
RTVSPost2010Prop35
280
     0
102
RTVSPost2010PropOp35
 70
     1
102
RTVSPost2010Prop36
280
     0
102
RTVSPost2010PropOp36
 70
     1
102
RTVSPost2010Prop37
 90
       50
102
RTVSPost2010PropOp37
 70
     1
102
RTVSPost2010Prop38
140
0.0
102
RTVSPost2010PropOp38
 70
     1
102
RTVSPost2010Prop39
140
1.0
102
RTVSPost2010PropOp39
 70
     1
102
RTVSPost2010Prop40
 90
        0
102
RTVSPost2010PropOp40
 70
     1
102
RTVSPost2010Prop41ColorIndex
 90
       18
102
RTVSPost2010Prop41ColorRGB
 90
        0
102
RTVSPost2010PropOp41
 70
     1
102
RTVSPost2010Prop42
 90
       50
102
RTVSPost2010PropOp42
 70
     1
102
RTVSPost2010Prop43
 90
        3
102
RTVSPost2010PropOp43
 70
     1
102
RTVSPost2010Prop44ColorIndex
 90
        5
102
RTVSPost2010Prop44ColorRGB
 90
      255
102
RTVSPost2010PropOp44
 70
     1
102
RTVSPost2010Prop45
280
     0
102
RTVSPost2010PropOp45
 70
     1
102
RTVSPost2010Prop46
 90
       50
102
RTVSPost2010PropOp46
 70
     1
102
RTVSPost2010Prop47
 90
       50
102
RTVSPost2010PropOp47
 70
     1
102
RTVSPost2010Prop48
 90
       50
102
RTVSPost2010PropOp48
 70
     1
102
RTVSPost2010Prop49
280
     0
102
RTVSPost2010PropOp49
 70
     1
102
RTVSPost2010Prop50
 90
       50
102
RTVSPost2010PropOp50
 70
     1
102
RTVSPost2010Prop51ColorIndex
 90
      256
102
RTVSPost2010Prop51ColorRGB
 90
-16777216
102
RTVSPost2010PropOp51
 70
     0
102
RTVSPost2010Prop52
140
1.0
102
RTVSPost2010PropOp52
 70
     0
102
RTVSPost2010Prop53
 90
        2
102
RTVSPost2010PropOp53
 70
     1
102
RTVSPost2010Prop54
  1
strokes_ogs.tif
102
RTVSPost2010PropOp54
 70
     1
102
RTVSPost2010Prop55
280
     0
102
RTVSPost2010PropOp55
 70
     1
102
RTVSPost2010Prop56
140
1.0
102
RTVSPost2010PropOp56
 70
     1
102
RTVSPost2010Prop57
140
1.0
102
RTVSPost2010PropOp57
 70
     1
  0
XRECORD
  5
107
102
{ACAD_REACTORS
330
106
102
}
330
106
100
AcDbXrecord
280
     1
102
RTVSPost2010Prop28
280
     0
102
RTVSPost2010PropOp28
 70
     1
102
RTVSPost2010Prop29
280
     1
102
RTVSPost2010PropOp29
 70
     1
102
RTVSPost2010Prop30
280
     1
102
RTVSPost2010PropOp30
 70
     1
102
RTVSPost2010Prop31
280
     0
102
RTVSPost2010PropOp31
 70
     1
102
RTVSPost2010Prop32
280
     0
102
RTVSPost2010PropOp32
 70
     1
102
RTVSPost2010Prop33
280
     0
102
RTVSPost2010PropOp33
 70
     1
102
RTVSPost2010Prop34
280
     0
102
RTVSPost2010PropOp34
 70
     1
102
RTVSPost2010Prop35
280
     0
102
RTVSPost2010PropOp35
 70
     1
102
RTVSPost2010Prop36
280
     0
102
RTVSPost2010PropOp36
 70
     1
102
RTVSPost2010Prop37
 90
       50
102
RTVSPost2010PropOp37
 70
     1
102
RTVSPost2010Prop38
140
0.0
102
RTVSPost2010PropOp38
 70
     1
102
RTVSPost2010Prop39
140
1.0
102
RTVSPost2010PropOp39
 70
     1
102
RTVSPost2010Prop40
 90
        0
102
RTVSPost2010PropOp40
 70
     1
102
RTVSPost2010Prop41ColorIndex
 90
       18
102
RTVSPost2010Prop41ColorRGB
 90
        0
102
RTVSPost2010PropOp41
 70
     1
102
RTVSPost2010Prop42
 90
       50
102
RTVSPost2010PropOp42
 70
     1
102
RTVSPost2010Prop43
 90
        3
102
RTVSPost2010PropOp43
 70
     1
102
RTVSPost2010Prop44ColorIndex
 90
        5
102
RTVSPost2010Prop44ColorRGB
 90
      255
102
RTVSPost2010PropOp44
 70
     1
102
RTVSPost2010Prop45
280
     0
102
RTVSPost2010PropOp45
 70
     1
102
RTVSPost2010Prop46
 90
       50
102
RTVSPost2010PropOp46
 70
     1
102
RTVSPost2010Prop47
 90
       50
102
RTVSPost2010PropOp47
 70
     1
102
RTVSPost2010Prop48
 90
       50
102
RTVSPost2010PropOp48
 70
     1
102
RTVSPost2010Prop49
280
     0
102
RTVSPost2010PropOp49
 70
     1
102
RTVSPost2010Prop50
 90
       50
102
RTVSPost2010PropOp50
 70
     1
102
RTVSPost2010Prop51ColorIndex
 90
      256
102
RTVSPost2010Prop51ColorRGB
 90
-16777216
102
RTVSPost2010PropOp51
 70
     0
102
RTVSPost2010Prop52
140
1.0
102
RTVSPost2010PropOp52
 70
     0
102
RTVSPost2010Prop53
 90
        2
102
RTVSPost2010PropOp53
 70
     1
102
RTVSPost2010Prop54
  1
strokes_ogs.tif
102
RTVSPost2010PropOp54
 70
     1
102
RTVSPost2010Prop55
280
     0
102
RTVSPost2010PropOp55
 70
     1
102
RTVSPost2010Prop56
140
1.0
102
RTVSPost2010PropOp56
 70
     1
102
RTVSPost2010Prop57
140
1.0
102
RTVSPost2010PropOp57
 70
     1
  0
XRECORD
  5
109
102
{ACAD_REACTORS
330
108
102
}
330
108
100
AcDbXrecord
280
     1
102
RTVSPost2010Prop28
280
     0
102
RTVSPost2010PropOp28
 70
     1
102
RTVSPost2010Prop29
280
     1
102
RTVSPost2010PropOp29
 70
     1
102
RTVSPost2010Prop30
280
     1
102
RTVSPost2010PropOp30
 70
     1
102
RTVSPost2010Prop31
280
     0
102
RTVSPost2010PropOp31
 70
     1
102
RTVSPost2010Prop32
280
     0
102
RTVSPost2010PropOp32
 70
     1
102
RTVSPost2010Prop33
280
     0
102
RTVSPost2010PropOp33
 70
     1
102
RTVSPost2010Prop34
280
     0
102
RTVSPost2010PropOp34
 70
     1
102
RTVSPost2010Prop35
280
     0
102
RTVSPost2010PropOp35
 70
     1
102
RTVSPost2010Prop36
280
     0
102
RTVSPost2010PropOp36
 70
     1
102
RTVSPost2010Prop37
 90
       50
102
RTVSPost2010PropOp37
 70
     1
102
RTVSPost2010Prop38
140
0.0
102
RTVSPost2010PropOp38
 70
     1
102
RTVSPost2010Prop39
140
1.0
102
RTVSPost2010PropOp39
 70
     1
102
RTVSPost2010Prop40
 90
        0
102
RTVSPost2010PropOp40
 70
     1
102
RTVSPost2010Prop41ColorIndex
 90
       18
102
RTVSPost2010Prop41ColorRGB
 90
        0
102
RTVSPost2010PropOp41
 70
     1
102
RTVSPost2010Prop42
 90
       50
102
RTVSPost2010PropOp42
 70
     1
102
RTVSPost2010Prop43
 90
        3
102
RTVSPost2010PropOp43
 70
     1
102
RTVSPost2010Prop44ColorIndex
 90
        5
102
RTVSPost2010Prop44ColorRGB
 90
      255
102
RTVSPost2010PropOp44
 70
     1
102
RTVSPost2010Prop45
280
     0
102
RTVSPost2010PropOp45
 70
     1
102
RTVSPost2010Prop46
 90
       50
102
RTVSPost2010PropOp46
 70
     1
102
RTVSPost2010Prop47
 90
       50
102
RTVSPost2010PropOp47
 70
     1
102
RTVSPost2010Prop48
 90
       50
102
RTVSPost2010PropOp48
 70
     1
102
RTVSPost2010Prop49
280
     0
102
RTVSPost2010PropOp49
 70
     1
102
RTVSPost2010Prop50
 90
       50
102
RTVSPost2010PropOp50
 70
     1
102
RTVSPost2010Prop51ColorIndex
 90
      256
102
RTVSPost2010Prop51ColorRGB
 90
-16777216
102
RTVSPost2010PropOp51
 70
     0
102
RTVSPost2010Prop52
140
1.0
102
RTVSPost2010PropOp52
 70
     0
102
RTVSPost2010Prop53
 90
        2
102
RTVSPost2010PropOp53
 70
     1
102
RTVSPost2010Prop54
  1
strokes_ogs.tif
102
RTVSPost2010PropOp54
 70
     1
102
RTVSPost2010Prop55
280
     0
102
RTVSPost2010PropOp55
 70
     1
102
RTVSPost2010Prop56
140
1.0
102
RTVSPost2010PropOp56
 70
     1
102
RTVSPost2010Prop57
140
1.0
102
RTVSPost2010PropOp57
 70
     1
  0
XRECORD
  5
111
102
{ACAD_REACTORS
330
110
102
}
330
110
100
AcDbXrecord
280
     1
102
RTVSPost2010Prop28
280
     0
102
RTVSPost2010PropOp28
 70
     1
102
RTVSPost2010Prop29
280
     1
102
RTVSPost2010PropOp29
 70
     1
102
RTVSPost2010Prop30
280
     1
102
RTVSPost2010PropOp30
 70
     1
102
RTVSPost2010Prop31
280
     0
102
RTVSPost2010PropOp31
 70
     1
102
RTVSPost2010Prop32
280
     0
102
RTVSPost2010PropOp32
 70
     1
102
RTVSPost2010Prop33
280
     0
102
RTVSPost2010PropOp33
 70
     1
102
RTVSPost2010Prop34
280
     0
102
RTVSPost2010PropOp34
 70
     1
102
RTVSPost2010Prop35
280
     0
102
RTVSPost2010PropOp35
 70
     1
102
RTVSPost2010Prop36
280
     0
102
RTVSPost2010PropOp36
 70
     1
102
RTVSPost2010Prop37
 90
       50
102
RTVSPost2010PropOp37
 70
     1
102
RTVSPost2010Prop38
140
0.0
102
RTVSPost2010PropOp38
 70
     1
102
RTVSPost2010Prop39
140
1.0
102
RTVSPost2010PropOp39
 70
     1
102
RTVSPost2010Prop40
 90
        0
102
RTVSPost2010PropOp40
 70
     1
102
RTVSPost2010Prop41ColorIndex
 90
       18
102
RTVSPost2010Prop41ColorRGB
 90
        0
102
RTVSPost2010PropOp41
 70
     1
102
RTVSPost2010Prop42
 90
       50
102
RTVSPost2010PropOp42
 70
     1
102
RTVSPost2010Prop43
 90
        3
102
RTVSPost2010PropOp43
 70
     1
102
RTVSPost2010Prop44ColorIndex
 90
        5
102
RTVSPost2010Prop44ColorRGB
 90
      255
102
RTVSPost2010PropOp44
 70
     1
102
RTVSPost2010Prop45
280
     0
102
RTVSPost2010PropOp45
 70
     1
102
RTVSPost2010Prop46
 90
       50
102
RTVSPost2010PropOp46
 70
     1
102
RTVSPost2010Prop47
 90
       50
102
RTVSPost2010PropOp47
 70
     1
102
RTVSPost2010Prop48
 90
       50
102
RTVSPost2010PropOp48
 70
     1
102
RTVSPost2010Prop49
280
     0
102
RTVSPost2010PropOp49
 70
     1
102
RTVSPost2010Prop50
 90
       50
102
RTVSPost2010PropOp50
 70
     1
102
RTVSPost2010Prop51ColorIndex
 90
      256
102
RTVSPost2010Prop51ColorRGB
 90
-16777216
102
RTVSPost2010PropOp51
 70
     0
102
RTVSPost2010Prop52
140
1.0
102
RTVSPost2010PropOp52
 70
     0
102
RTVSPost2010Prop53
 90
        2
102
RTVSPost2010PropOp53
 70
     1
102
RTVSPost2010Prop54
  1
strokes_ogs.tif
102
RTVSPost2010PropOp54
 70
     1
102
RTVSPost2010Prop55
280
     0
102
RTVSPost2010PropOp55
 70
     1
102
RTVSPost2010Prop56
140
1.0
102
RTVSPost2010PropOp56
 70
     1
102
RTVSPost2010Prop57
140
1.0
102
RTVSPost2010PropOp57
 70
     1
  0
XRECORD
  5
12D
102
{ACAD_REACTORS
330
12C
102
}
330
12C
100
AcDbXrecord
280
     1
102
RTVSPost2010Prop28
280
     0
102
RTVSPost2010PropOp28
 70
     0
102
RTVSPost2010Prop29
280
     1
102
RTVSPost2010PropOp29
 70
     0
102
RTVSPost2010Prop30
280
     1
102
RTVSPost2010PropOp30
 70
     0
102
RTVSPost2010Prop31
280
     0
102
RTVSPost2010PropOp31
 70
     0
102
RTVSPost2010Prop32
280
     0
102
RTVSPost2010PropOp32
 70
     0
102
RTVSPost2010Prop33
280
     0
102
RTVSPost2010PropOp33
 70
     0
102
RTVSPost2010Prop34
280
     0
102
RTVSPost2010PropOp34
 70
     0
102
RTVSPost2010Prop35
280
     0
102
RTVSPost2010PropOp35
 70
     0
102
RTVSPost2010Prop36
280
     0
102
RTVSPost2010PropOp36
 70
     0
102
RTVSPost2010Prop37
 90
       50
102
RTVSPost2010PropOp37
 70
     0
102
RTVSPost2010Prop38
140
0.0
102
RTVSPost2010PropOp38
 70
     0
102
RTVSPost2010Prop39
140
1.0
102
RTVSPost2010PropOp39
 70
     0
102
RTVSPost2010Prop40
 90
        0
102
RTVSPost2010PropOp40
 70
     0
102
RTVSPost2010Prop41ColorIndex
 90
       18
102
RTVSPost2010Prop41ColorRGB
 90
        0
102
RTVSPost2010PropOp41
 70
     0
102
RTVSPost2010Prop42
 90
       50
102
RTVSPost2010PropOp42
 70
     0
102
RTVSPost2010Prop43
 90
        3
102
RTVSPost2010PropOp43
 70
     0
102
RTVSPost2010Prop44ColorIndex
 90
        5
102
RTVSPost2010Prop44ColorRGB
 90
      255
102
RTVSPost2010PropOp44
 70
     0
102
RTVSPost2010Prop45
280
     0
102
RTVSPost2010PropOp45
 70
     0
102
RTVSPost2010Prop46
 90
       50
102
RTVSPost2010PropOp46
 70
     0
102
RTVSPost2010Prop47
 90
       50
102
RTVSPost2010PropOp47
 70
     0
102
RTVSPost2010Prop48
 90
       50
102
RTVSPost2010PropOp48
 70
     0
102
RTVSPost2010Prop49
280
     0
102
RTVSPost2010PropOp49
 70
     0
102
RTVSPost2010Prop50
 90
       50
102
RTVSPost2010PropOp50
 70
     0
102
RTVSPost2010Prop51ColorIndex
 90
      256
102
RTVSPost2010Prop51ColorRGB
 90
-16777216
102
RTVSPost2010PropOp51
 70
     0
102
RTVSPost2010Prop52
140
1.0
102
RTVSPost2010PropOp52
 70
     0
102
RTVSPost2010Prop53
 90
        2
102
RTVSPost2010PropOp53
 70
     0
102
RTVSPost2010Prop54
  1
strokes_ogs.tif
102
RTVSPost2010PropOp54
 70
     0
102
RTVSPost2010Prop55
280
     0
102
RTVSPost2010PropOp55
 70
     0
102
RTVSPost2010Prop56
140
1.0
102
RTVSPost2010PropOp56
 70
     0
102
RTVSPost2010Prop57
140
1.0
102
RTVSPost2010PropOp57
 70
     0
  0
XRECORD
  5
11D
102
{ACAD_REACTORS
330
11C
102
}
330
11C
100
AcDbXrecord
280
     1
102
RTVSPost2010Prop28
280
     0
102
RTVSPost2010PropOp28
 70
     1
102
RTVSPost2010Prop29
280
     1
102
RTVSPost2010PropOp29
 70
     1
102
RTVSPost2010Prop30
280
     1
102
RTVSPost2010PropOp30
 70
     1
102
RTVSPost2010Prop31
280
     0
102
RTVSPost2010PropOp31
 70
     1
102
RTVSPost2010Prop32
280
     0
102
RTVSPost2010PropOp32
 70
     1
102
RTVSPost2010Prop33
280
     0
102
RTVSPost2010PropOp33
 70
     1
102
RTVSPost2010Prop34
280
     0
102
RTVSPost2010PropOp34
 70
     1
102
RTVSPost2010Prop35
280
     0
102
RTVSPost2010PropOp35
 70
     1
102
RTVSPost2010Prop36
280
     0
102
RTVSPost2010PropOp36
 70
     1
102
RTVSPost2010Prop37
 90
       50
102
RTVSPost2010PropOp37
 70
     1
102
RTVSPost2010Prop38
140
0.0
102
RTVSPost2010PropOp38
 70
     1
102
RTVSPost2010Prop39
140
1.0
102
RTVSPost2010PropOp39
 70
     1
102
RTVSPost2010Prop40
 90
        0
102
RTVSPost2010PropOp40
 70
     1
102
RTVSPost2010Prop41ColorIndex
 90
       18
102
RTVSPost2010Prop41ColorRGB
 90
        0
102
RTVSPost2010PropOp41
 70
     1
102
RTVSPost2010Prop42
 90
       50
102
RTVSPost2010PropOp42
 70
     1
102
RTVSPost2010Prop43
 90
        3
102
RTVSPost2010PropOp43
 70
     1
102
RTVSPost2010Prop44ColorIndex
 90
        5
102
RTVSPost2010Prop44ColorRGB
 90
      255
102
RTVSPost2010PropOp44
 70
     1
102
RTVSPost2010Prop45
280
     0
102
RTVSPost2010PropOp45
 70
     1
102
RTVSPost2010Prop46
 90
       50
102
RTVSPost2010PropOp46
 70
     1
102
RTVSPost2010Prop47
 90
       50
102
RTVSPost2010PropOp47
 70
     1
102
RTVSPost2010Prop48
 90
       50
102
RTVSPost2010PropOp48
 70
     1
102
RTVSPost2010Prop49
280
     0
102
RTVSPost2010PropOp49
 70
     1
102
RTVSPost2010Prop50
 90
       50
102
RTVSPost2010PropOp50
 70
     1
102
RTVSPost2010Prop51ColorIndex
 90
      256
102
RTVSPost2010Prop51ColorRGB
 90
-16777216
102
RTVSPost2010PropOp51
 70
     0
102
RTVSPost2010Prop52
140
1.0
102
RTVSPost2010PropOp52
 70
     0
102
RTVSPost2010Prop53
 90
        2
102
RTVSPost2010PropOp53
 70
     1
102
RTVSPost2010Prop54
  1
strokes_ogs.tif
102
RTVSPost2010PropOp54
 70
     1
102
RTVSPost2010Prop55
280
     0
102
RTVSPost2010PropOp55
 70
     1
102
RTVSPost2010Prop56
140
1.0
102
RTVSPost2010PropOp56
 70
     1
102
RTVSPost2010Prop57
140
1.0
102
RTVSPost2010PropOp57
 70
     1
  0
XRECORD
  5
12F
102
{ACAD_REACTORS
330
12E
102
}
330
12E
100
AcDbXrecord
280
     1
102
RTVSPost2010Prop28
280
     0
102
RTVSPost2010PropOp28
 70
     0
102
RTVSPost2010Prop29
280
     1
102
RTVSPost2010PropOp29
 70
     0
102
RTVSPost2010Prop30
280
     1
102
RTVSPost2010PropOp30
 70
     0
102
RTVSPost2010Prop31
280
     0
102
RTVSPost2010PropOp31
 70
     0
102
RTVSPost2010Prop32
280
     0
102
RTVSPost2010PropOp32
 70
     0
102
RTVSPost2010Prop33
280
     0
102
RTVSPost2010PropOp33
 70
     0
102
RTVSPost2010Prop34
280
     0
102
RTVSPost2010PropOp34
 70
     0
102
RTVSPost2010Prop35
280
     0
102
RTVSPost2010PropOp35
 70
     0
102
RTVSPost2010Prop36
280
     0
102
RTVSPost2010PropOp36
 70
     0
102
RTVSPost2010Prop37
 90
       50
102
RTVSPost2010PropOp37
 70
     0
102
RTVSPost2010Prop38
140
0.0
102
RTVSPost2010PropOp38
 70
     0
102
RTVSPost2010Prop39
140
1.0
102
RTVSPost2010PropOp39
 70
     0
102
RTVSPost2010Prop40
 90
        0
102
RTVSPost2010PropOp40
 70
     0
102
RTVSPost2010Prop41ColorIndex
 90
       18
102
RTVSPost2010Prop41ColorRGB
 90
        0
102
RTVSPost2010PropOp41
 70
     0
102
RTVSPost2010Prop42
 90
       50
102
RTVSPost2010PropOp42
 70
     0
102
RTVSPost2010Prop43
 90
        3
102
RTVSPost2010PropOp43
 70
     0
102
RTVSPost2010Prop44ColorIndex
 90
        5
102
RTVSPost2010Prop44ColorRGB
 90
      255
102
RTVSPost2010PropOp44
 70
     0
102
RTVSPost2010Prop45
280
     0
102
RTVSPost2010PropOp45
 70
     0
102
RTVSPost2010Prop46
 90
       50
102
RTVSPost2010PropOp46
 70
     0
102
RTVSPost2010Prop47
 90
       50
102
RTVSPost2010PropOp47
 70
     0
102
RTVSPost2010Prop48
 90
       50
102
RTVSPost2010PropOp48
 70
     0
102
RTVSPost2010Prop49
280
     0
102
RTVSPost2010PropOp49
 70
     0
102
RTVSPost2010Prop50
 90
       50
102
RTVSPost2010PropOp50
 70
     0
102
RTVSPost2010Prop51ColorIndex
 90
      256
102
RTVSPost2010Prop51ColorRGB
 90
-16777216
102
RTVSPost2010PropOp51
 70
     0
102
RTVSPost2010Prop52
140
1.0
102
RTVSPost2010PropOp52
 70
     0
102
RTVSPost2010Prop53
 90
        2
102
RTVSPost2010PropOp53
 70
     0
102
RTVSPost2010Prop54
  1
strokes_ogs.tif
102
RTVSPost2010PropOp54
 70
     0
102
RTVSPost2010Prop55
280
     0
102
RTVSPost2010PropOp55
 70
     0
102
RTVSPost2010Prop56
140
1.0
102
RTVSPost2010PropOp56
 70
     0
102
RTVSPost2010Prop57
140
1.0
102
RTVSPost2010PropOp57
 70
     0
  0
XRECORD
  5
115
102
{ACAD_REACTORS
330
114
102
}
330
114
100
AcDbXrecord
280
     1
102
RTVSPost2010Prop28
280
     0
102
RTVSPost2010PropOp28
 70
     1
102
RTVSPost2010Prop29
280
     1
102
RTVSPost2010PropOp29
 70
     1
102
RTVSPost2010Prop30
280
     1
102
RTVSPost2010PropOp30
 70
     1
102
RTVSPost2010Prop31
280
     0
102
RTVSPost2010PropOp31
 70
     1
102
RTVSPost2010Prop32
280
     0
102
RTVSPost2010PropOp32
 70
     1
102
RTVSPost2010Prop33
280
     0
102
RTVSPost2010PropOp33
 70
     1
102
RTVSPost2010Prop34
280
     0
102
RTVSPost2010PropOp34
 70
     1
102
RTVSPost2010Prop35
280
     0
102
RTVSPost2010PropOp35
 70
     1
102
RTVSPost2010Prop36
280
     0
102
RTVSPost2010PropOp36
 70
     1
102
RTVSPost2010Prop37
 90
       50
102
RTVSPost2010PropOp37
 70
     1
102
RTVSPost2010Prop38
140
0.0
102
RTVSPost2010PropOp38
 70
     1
102
RTVSPost2010Prop39
140
1.0
102
RTVSPost2010PropOp39
 70
     1
102
RTVSPost2010Prop40
 90
        0
102
RTVSPost2010PropOp40
 70
     1
102
RTVSPost2010Prop41ColorIndex
 90
       18
102
RTVSPost2010Prop41ColorRGB
 90
        0
102
RTVSPost2010PropOp41
 70
     1
102
RTVSPost2010Prop42
 90
       50
102
RTVSPost2010PropOp42
 70
     1
102
RTVSPost2010Prop43
 90
        3
102
RTVSPost2010PropOp43
 70
     1
102
RTVSPost2010Prop44ColorIndex
 90
        5
102
RTVSPost2010Prop44ColorRGB
 90
      255
102
RTVSPost2010PropOp44
 70
     1
102
RTVSPost2010Prop45
280
     0
102
RTVSPost2010PropOp45
 70
     1
102
RTVSPost2010Prop46
 90
       50
102
RTVSPost2010PropOp46
 70
     1
102
RTVSPost2010Prop47
 90
       50
102
RTVSPost2010PropOp47
 70
     1
102
RTVSPost2010Prop48
 90
       50
102
RTVSPost2010PropOp48
 70
     1
102
RTVSPost2010Prop49
280
     0
102
RTVSPost2010PropOp49
 70
     1
102
RTVSPost2010Prop50
 90
       50
102
RTVSPost2010PropOp50
 70
     1
102
RTVSPost2010Prop51ColorIndex
 90
      256
102
RTVSPost2010Prop51ColorRGB
 90
-16777216
102
RTVSPost2010PropOp51
 70
     0
102
RTVSPost2010Prop52
140
1.0
102
RTVSPost2010PropOp52
 70
     0
102
RTVSPost2010Prop53
 90
        2
102
RTVSPost2010PropOp53
 70
     1
102
RTVSPost2010Prop54
  1
strokes_ogs.tif
102
RTVSPost2010PropOp54
 70
     1
102
RTVSPost2010Prop55
280
     0
102
RTVSPost2010PropOp55
 70
     1
102
RTVSPost2010Prop56
140
1.0
102
RTVSPost2010PropOp56
 70
     1
102
RTVSPost2010Prop57
140
1.0
102
RTVSPost2010PropOp57
 70
     1
  0
XRECORD
  5
12B
102
{ACAD_REACTORS
330
12A
102
}
330
12A
100
AcDbXrecord
280
     1
102
RTVSPost2010Prop28
280
     0
102
RTVSPost2010PropOp28
 70
     1
102
RTVSPost2010Prop29
280
     1
102
RTVSPost2010PropOp29
 70
     1
102
RTVSPost2010Prop30
280
     1
102
RTVSPost2010PropOp30
 70
     1
102
RTVSPost2010Prop31
280
     0
102
RTVSPost2010PropOp31
 70
     1
102
RTVSPost2010Prop32
280
     0
102
RTVSPost2010PropOp32
 70
     1
102
RTVSPost2010Prop33
280
     0
102
RTVSPost2010PropOp33
 70
     1
102
RTVSPost2010Prop34
280
     0
102
RTVSPost2010PropOp34
 70
     1
102
RTVSPost2010Prop35
280
     0
102
RTVSPost2010PropOp35
 70
     1
102
RTVSPost2010Prop36
280
     0
102
RTVSPost2010PropOp36
 70
     1
102
RTVSPost2010Prop37
 90
       50
102
RTVSPost2010PropOp37
 70
     1
102
RTVSPost2010Prop38
140
0.0
102
RTVSPost2010PropOp38
 70
     1
102
RTVSPost2010Prop39
140
1.0
102
RTVSPost2010PropOp39
 70
     1
102
RTVSPost2010Prop40
 90
        0
102
RTVSPost2010PropOp40
 70
     1
102
RTVSPost2010Prop41ColorIndex
 90
       18
102
RTVSPost2010Prop41ColorRGB
 90
        0
102
RTVSPost2010PropOp41
 70
     1
102
RTVSPost2010Prop42
 90
       50
102
RTVSPost2010PropOp42
 70
     1
102
RTVSPost2010Prop43
 90
        3
102
RTVSPost2010PropOp43
 70
     1
102
RTVSPost2010Prop44ColorIndex
 90
        5
102
RTVSPost2010Prop44ColorRGB
 90
      255
102
RTVSPost2010PropOp44
 70
     1
102
RTVSPost2010Prop45
280
     0
102
RTVSPost2010PropOp45
 70
     1
102
RTVSPost2010Prop46
 90
       50
102
RTVSPost2010PropOp46
 70
     1
102
RTVSPost2010Prop47
 90
       50
102
RTVSPost2010PropOp47
 70
     1
102
RTVSPost2010Prop48
 90
       50
102
RTVSPost2010PropOp48
 70
     1
102
RTVSPost2010Prop49
280
     0
102
RTVSPost2010PropOp49
 70
     1
102
RTVSPost2010Prop50
 90
       50
102
RTVSPost2010PropOp50
 70
     1
102
RTVSPost2010Prop51ColorIndex
 90
      256
102
RTVSPost2010Prop51ColorRGB
 90
-16777216
102
RTVSPost2010PropOp51
 70
     0
102
RTVSPost2010Prop52
140
1.0
102
RTVSPost2010PropOp52
 70
     0
102
RTVSPost2010Prop53
 90
        2
102
RTVSPost2010PropOp53
 70
     1
102
RTVSPost2010Prop54
  1
strokes_ogs.tif
102
RTVSPost2010PropOp54
 70
     1
102
RTVSPost2010Prop55
280
     0
102
RTVSPost2010PropOp55
 70
     1
102
RTVSPost2010Prop56
140
1.0
102
RTVSPost2010PropOp56
 70
     1
102
RTVSPost2010Prop57
140
1.0
102
RTVSPost2010PropOp57
 70
     1
  0
XRECORD
  5
129
102
{ACAD_REACTORS
330
128
102
}
330
128
100
AcDbXrecord
280
     1
102
RTVSPost2010Prop28
280
     0
102
RTVSPost2010PropOp28
 70
     1
102
RTVSPost2010Prop29
280
     1
102
RTVSPost2010PropOp29
 70
     1
102
RTVSPost2010Prop30
280
     1
102
RTVSPost2010PropOp30
 70
     1
102
RTVSPost2010Prop31
280
     0
102
RTVSPost2010PropOp31
 70
     1
102
RTVSPost2010Prop32
280
     0
102
RTVSPost2010PropOp32
 70
     1
102
RTVSPost2010Prop33
280
     0
102
RTVSPost2010PropOp33
 70
     1
102
RTVSPost2010Prop34
280
     0
102
RTVSPost2010PropOp34
 70
     1
102
RTVSPost2010Prop35
280
     0
102
RTVSPost2010PropOp35
 70
     1
102
RTVSPost2010Prop36
280
     0
102
RTVSPost2010PropOp36
 70
     1
102
RTVSPost2010Prop37
 90
       50
102
RTVSPost2010PropOp37
 70
     1
102
RTVSPost2010Prop38
140
0.0
102
RTVSPost2010PropOp38
 70
     1
102
RTVSPost2010Prop39
140
1.0
102
RTVSPost2010PropOp39
 70
     1
102
RTVSPost2010Prop40
 90
        0
102
RTVSPost2010PropOp40
 70
     1
102
RTVSPost2010Prop41ColorIndex
 90
       18
102
RTVSPost2010Prop41ColorRGB
 90
        0
102
RTVSPost2010PropOp41
 70
     1
102
RTVSPost2010Prop42
 90
       50
102
RTVSPost2010PropOp42
 70
     1
102
RTVSPost2010Prop43
 90
        3
102
RTVSPost2010PropOp43
 70
     1
102
RTVSPost2010Prop44ColorIndex
 90
        5
102
RTVSPost2010Prop44ColorRGB
 90
      255
102
RTVSPost2010PropOp44
 70
     1
102
RTVSPost2010Prop45
280
     0
102
RTVSPost2010PropOp45
 70
     1
102
RTVSPost2010Prop46
 90
       50
102
RTVSPost2010PropOp46
 70
     1
102
RTVSPost2010Prop47
 90
       50
102
RTVSPost2010PropOp47
 70
     1
102
RTVSPost2010Prop48
 90
       50
102
RTVSPost2010PropOp48
 70
     1
102
RTVSPost2010Prop49
280
     0
102
RTVSPost2010PropOp49
 70
     1
102
RTVSPost2010Prop50
 90
       50
102
RTVSPost2010PropOp50
 70
     1
102
RTVSPost2010Prop51ColorIndex
 90
      256
102
RTVSPost2010Prop51ColorRGB
 90
-16777216
102
RTVSPost2010PropOp51
 70
     0
102
RTVSPost2010Prop52
140
1.0
102
RTVSPost2010PropOp52
 70
     0
102
RTVSPost2010Prop53
 90
        2
102
RTVSPost2010PropOp53
 70
     1
102
RTVSPost2010Prop54
  1
strokes_ogs.tif
102
RTVSPost2010PropOp54
 70
     1
102
RTVSPost2010Prop55
280
     0
102
RTVSPost2010PropOp55
 70
     1
102
RTVSPost2010Prop56
140
1.0
102
RTVSPost2010PropOp56
 70
     1
102
RTVSPost2010Prop57
140
1.0
102
RTVSPost2010PropOp57
 70
     1
  0
XRECORD
  5
123
102
{ACAD_REACTORS
330
122
102
}
330
122
100
AcDbXrecord
280
     1
102
RTVSPost2010Prop28
280
     0
102
RTVSPost2010PropOp28
 70
     1
102
RTVSPost2010Prop29
280
     1
102
RTVSPost2010PropOp29
 70
     1
102
RTVSPost2010Prop30
280
     1
102
RTVSPost2010PropOp30
 70
     1
102
RTVSPost2010Prop31
280
     0
102
RTVSPost2010PropOp31
 70
     1
102
RTVSPost2010Prop32
280
     0
102
RTVSPost2010PropOp32
 70
     1
102
RTVSPost2010Prop33
280
     0
102
RTVSPost2010PropOp33
 70
     1
102
RTVSPost2010Prop34
280
     0
102
RTVSPost2010PropOp34
 70
     1
102
RTVSPost2010Prop35
280
     0
102
RTVSPost2010PropOp35
 70
     1
102
RTVSPost2010Prop36
280
     0
102
RTVSPost2010PropOp36
 70
     1
102
RTVSPost2010Prop37
 90
       50
102
RTVSPost2010PropOp37
 70
     1
102
RTVSPost2010Prop38
140
0.0
102
RTVSPost2010PropOp38
 70
     1
102
RTVSPost2010Prop39
140
1.0
102
RTVSPost2010PropOp39
 70
     1
102
RTVSPost2010Prop40
 90
        0
102
RTVSPost2010PropOp40
 70
     1
102
RTVSPost2010Prop41ColorIndex
 90
       18
102
RTVSPost2010Prop41ColorRGB
 90
        0
102
RTVSPost2010PropOp41
 70
     1
102
RTVSPost2010Prop42
 90
       50
102
RTVSPost2010PropOp42
 70
     1
102
RTVSPost2010Prop43
 90
        3
102
RTVSPost2010PropOp43
 70
     1
102
RTVSPost2010Prop44ColorIndex
 90
        5
102
RTVSPost2010Prop44ColorRGB
 90
      255
102
RTVSPost2010PropOp44
 70
     1
102
RTVSPost2010Prop45
280
     0
102
RTVSPost2010PropOp45
 70
     1
102
RTVSPost2010Prop46
 90
       50
102
RTVSPost2010PropOp46
 70
     1
102
RTVSPost2010Prop47
 90
       50
102
RTVSPost2010PropOp47
 70
     1
102
RTVSPost2010Prop48
 90
       50
102
RTVSPost2010PropOp48
 70
     1
102
RTVSPost2010Prop49
280
     0
102
RTVSPost2010PropOp49
 70
     1
102
RTVSPost2010Prop50
 90
       50
102
RTVSPost2010PropOp50
 70
     1
102
RTVSPost2010Prop51ColorIndex
 90
      256
102
RTVSPost2010Prop51ColorRGB
 90
-16777216
102
RTVSPost2010PropOp51
 70
     0
102
RTVSPost2010Prop52
140
1.0
102
RTVSPost2010PropOp52
 70
     0
102
RTVSPost2010Prop53
 90
        2
102
RTVSPost2010PropOp53
 70
     1
102
RTVSPost2010Prop54
  1
strokes_ogs.tif
102
RTVSPost2010PropOp54
 70
     1
102
RTVSPost2010Prop55
280
     0
102
RTVSPost2010PropOp55
 70
     1
102
RTVSPost2010Prop56
140
1.0
102
RTVSPost2010PropOp56
 70
     1
102
RTVSPost2010Prop57
140
1.0
102
RTVSPost2010PropOp57
 70
     1
  0
XRECORD
  5
125
102
{ACAD_REACTORS
330
124
102
}
330
124
100
AcDbXrecord
280
     1
102
RTVSPost2010Prop28
280
     0
102
RTVSPost2010PropOp28
 70
     1
102
RTVSPost2010Prop29
280
     1
102
RTVSPost2010PropOp29
 70
     1
102
RTVSPost2010Prop30
280
     1
102
RTVSPost2010PropOp30
 70
     1
102
RTVSPost2010Prop31
280
     0
102
RTVSPost2010PropOp31
 70
     1
102
RTVSPost2010Prop32
280
     0
102
RTVSPost2010PropOp32
 70
     1
102
RTVSPost2010Prop33
280
     0
102
RTVSPost2010PropOp33
 70
     1
102
RTVSPost2010Prop34
280
     0
102
RTVSPost2010PropOp34
 70
     1
102
RTVSPost2010Prop35
280
     0
102
RTVSPost2010PropOp35
 70
     1
102
RTVSPost2010Prop36
280
     0
102
RTVSPost2010PropOp36
 70
     1
102
RTVSPost2010Prop37
 90
       50
102
RTVSPost2010PropOp37
 70
     1
102
RTVSPost2010Prop38
140
0.0
102
RTVSPost2010PropOp38
 70
     1
102
RTVSPost2010Prop39
140
1.0
102
RTVSPost2010PropOp39
 70
     1
102
RTVSPost2010Prop40
 90
        0
102
RTVSPost2010PropOp40
 70
     1
102
RTVSPost2010Prop41ColorIndex
 90
       18
102
RTVSPost2010Prop41ColorRGB
 90
        0
102
RTVSPost2010PropOp41
 70
     1
102
RTVSPost2010Prop42
 90
       50
102
RTVSPost2010PropOp42
 70
     1
102
RTVSPost2010Prop43
 90
        3
102
RTVSPost2010PropOp43
 70
     1
102
RTVSPost2010Prop44ColorIndex
 90
        5
102
RTVSPost2010Prop44ColorRGB
 90
      255
102
RTVSPost2010PropOp44
 70
     1
102
RTVSPost2010Prop45
280
     0
102
RTVSPost2010PropOp45
 70
     1
102
RTVSPost2010Prop46
 90
       50
102
RTVSPost2010PropOp46
 70
     1
102
RTVSPost2010Prop47
 90
       50
102
RTVSPost2010PropOp47
 70
     1
102
RTVSPost2010Prop48
 90
       50
102
RTVSPost2010PropOp48
 70
     1
102
RTVSPost2010Prop49
280
     0
102
RTVSPost2010PropOp49
 70
     1
102
RTVSPost2010Prop50
 90
       50
102
RTVSPost2010PropOp50
 70
     1
102
RTVSPost2010Prop51ColorIndex
 90
      256
102
RTVSPost2010Prop51ColorRGB
 90
-16777216
102
RTVSPost2010PropOp51
 70
     0
102
RTVSPost2010Prop52
140
1.0
102
RTVSPost2010PropOp52
 70
     0
102
RTVSPost2010Prop53
 90
        2
102
RTVSPost2010PropOp53
 70
     1
102
RTVSPost2010Prop54
  1
strokes_ogs.tif
102
RTVSPost2010PropOp54
 70
     1
102
RTVSPost2010Prop55
280
     0
102
RTVSPost2010PropOp55
 70
     1
102
RTVSPost2010Prop56
140
1.0
102
RTVSPost2010PropOp56
 70
     1
102
RTVSPost2010Prop57
140
1.0
102
RTVSPost2010PropOp57
 70
     1
  0
XRECORD
  5
11B
102
{ACAD_REACTORS
330
11A
102
}
330
11A
100
AcDbXrecord
280
     1
102
RTVSPost2010Prop28
280
     0
102
RTVSPost2010PropOp28
 70
     1
102
RTVSPost2010Prop29
280
     1
102
RTVSPost2010PropOp29
 70
     1
102
RTVSPost2010Prop30
280
     1
102
RTVSPost2010PropOp30
 70
     1
102
RTVSPost2010Prop31
280
     0
102
RTVSPost2010PropOp31
 70
     1
102
RTVSPost2010Prop32
280
     0
102
RTVSPost2010PropOp32
 70
     1
102
RTVSPost2010Prop33
280
     0
102
RTVSPost2010PropOp33
 70
     1
102
RTVSPost2010Prop34
280
     0
102
RTVSPost2010PropOp34
 70
     1
102
RTVSPost2010Prop35
280
     0
102
RTVSPost2010PropOp35
 70
     1
102
RTVSPost2010Prop36
280
     0
102
RTVSPost2010PropOp36
 70
     1
102
RTVSPost2010Prop37
 90
       50
102
RTVSPost2010PropOp37
 70
     1
102
RTVSPost2010Prop38
140
0.0
102
RTVSPost2010PropOp38
 70
     1
102
RTVSPost2010Prop39
140
1.0
102
RTVSPost2010PropOp39
 70
     1
102
RTVSPost2010Prop40
 90
        0
102
RTVSPost2010PropOp40
 70
     1
102
RTVSPost2010Prop41ColorIndex
 90
       18
102
RTVSPost2010Prop41ColorRGB
 90
        0
102
RTVSPost2010PropOp41
 70
     1
102
RTVSPost2010Prop42
 90
       50
102
RTVSPost2010PropOp42
 70
     1
102
RTVSPost2010Prop43
 90
        3
102
RTVSPost2010PropOp43
 70
     1
102
RTVSPost2010Prop44ColorIndex
 90
        5
102
RTVSPost2010Prop44ColorRGB
 90
      255
102
RTVSPost2010PropOp44
 70
     1
102
RTVSPost2010Prop45
280
     0
102
RTVSPost2010PropOp45
 70
     1
102
RTVSPost2010Prop46
 90
       50
102
RTVSPost2010PropOp46
 70
     1
102
RTVSPost2010Prop47
 90
       50
102
RTVSPost2010PropOp47
 70
     1
102
RTVSPost2010Prop48
 90
       50
102
RTVSPost2010PropOp48
 70
     1
102
RTVSPost2010Prop49
280
     0
102
RTVSPost2010PropOp49
 70
     1
102
RTVSPost2010Prop50
 90
       50
102
RTVSPost2010PropOp50
 70
     1
102
RTVSPost2010Prop51ColorIndex
 90
      256
102
RTVSPost2010Prop51ColorRGB
 90
-16777216
102
RTVSPost2010PropOp51
 70
     0
102
RTVSPost2010Prop52
140
1.0
102
RTVSPost2010PropOp52
 70
     0
102
RTVSPost2010Prop53
 90
        2
102
RTVSPost2010PropOp53
 70
     1
102
RTVSPost2010Prop54
  1
strokes_ogs.tif
102
RTVSPost2010PropOp54
 70
     1
102
RTVSPost2010Prop55
280
     0
102
RTVSPost2010PropOp55
 70
     1
102
RTVSPost2010Prop56
140
1.0
102
RTVSPost2010PropOp56
 70
     1
102
RTVSPost2010Prop57
140
1.0
102
RTVSPost2010PropOp57
 70
     1
  0
XRECORD
  5
10F
102
{ACAD_REACTORS
330
10E
102
}
330
10E
100
AcDbXrecord
280
     1
102
RTVSPost2010Prop28
280
     0
102
RTVSPost2010PropOp28
 70
     1
102
RTVSPost2010Prop29
280
     1
102
RTVSPost2010PropOp29
 70
     1
102
RTVSPost2010Prop30
280
     1
102
RTVSPost2010PropOp30
 70
     1
102
RTVSPost2010Prop31
280
     0
102
RTVSPost2010PropOp31
 70
     1
102
RTVSPost2010Prop32
280
     0
102
RTVSPost2010PropOp32
 70
     1
102
RTVSPost2010Prop33
280
     0
102
RTVSPost2010PropOp33
 70
     1
102
RTVSPost2010Prop34
280
     0
102
RTVSPost2010PropOp34
 70
     1
102
RTVSPost2010Prop35
280
     0
102
RTVSPost2010PropOp35
 70
     1
102
RTVSPost2010Prop36
280
     0
102
RTVSPost2010PropOp36
 70
     1
102
RTVSPost2010Prop37
 90
       50
102
RTVSPost2010PropOp37
 70
     1
102
RTVSPost2010Prop38
140
0.0
102
RTVSPost2010PropOp38
 70
     1
102
RTVSPost2010Prop39
140
1.0
102
RTVSPost2010PropOp39
 70
     1
102
RTVSPost2010Prop40
 90
        0
102
RTVSPost2010PropOp40
 70
     1
102
RTVSPost2010Prop41ColorIndex
 90
       18
102
RTVSPost2010Prop41ColorRGB
 90
        0
102
RTVSPost2010PropOp41
 70
     1
102
RTVSPost2010Prop42
 90
       50
102
RTVSPost2010PropOp42
 70
     1
102
RTVSPost2010Prop43
 90
        3
102
RTVSPost2010PropOp43
 70
     1
102
RTVSPost2010Prop44ColorIndex
 90
        5
102
RTVSPost2010Prop44ColorRGB
 90
      255
102
RTVSPost2010PropOp44
 70
     1
102
RTVSPost2010Prop45
280
     0
102
RTVSPost2010PropOp45
 70
     1
102
RTVSPost2010Prop46
 90
       50
102
RTVSPost2010PropOp46
 70
     1
102
RTVSPost2010Prop47
 90
       50
102
RTVSPost2010PropOp47
 70
     1
102
RTVSPost2010Prop48
 90
       50
102
RTVSPost2010PropOp48
 70
     1
102
RTVSPost2010Prop49
280
     0
102
RTVSPost2010PropOp49
 70
     1
102
RTVSPost2010Prop50
 90
       50
102
RTVSPost2010PropOp50
 70
     1
102
RTVSPost2010Prop51ColorIndex
 90
      256
102
RTVSPost2010Prop51ColorRGB
 90
-16777216
102
RTVSPost2010PropOp51
 70
     0
102
RTVSPost2010Prop52
140
1.0
102
RTVSPost2010PropOp52
 70
     0
102
RTVSPost2010Prop53
 90
        2
102
RTVSPost2010PropOp53
 70
     1
102
RTVSPost2010Prop54
  1
strokes_ogs.tif
102
RTVSPost2010PropOp54
 70
     1
102
RTVSPost2010Prop55
280
     0
102
RTVSPost2010PropOp55
 70
     1
102
RTVSPost2010Prop56
140
1.0
102
RTVSPost2010PropOp56
 70
     1
102
RTVSPost2010Prop57
140
1.0
102
RTVSPost2010PropOp57
 70
     1
  0
XRECORD
  5
127
102
{ACAD_REACTORS
330
126
102
}
330
126
100
AcDbXrecord
280
     1
102
RTVSPost2010Prop28
280
     0
102
RTVSPost2010PropOp28
 70
     1
102
RTVSPost2010Prop29
280
     1
102
RTVSPost2010PropOp29
 70
     1
102
RTVSPost2010Prop30
280
     1
102
RTVSPost2010PropOp30
 70
     1
102
RTVSPost2010Prop31
280
     0
102
RTVSPost2010PropOp31
 70
     1
102
RTVSPost2010Prop32
280
     0
102
RTVSPost2010PropOp32
 70
     1
102
RTVSPost2010Prop33
280
     0
102
RTVSPost2010PropOp33
 70
     1
102
RTVSPost2010Prop34
280
     0
102
RTVSPost2010PropOp34
 70
     1
102
RTVSPost2010Prop35
280
     0
102
RTVSPost2010PropOp35
 70
     1
102
RTVSPost2010Prop36
280
     0
102
RTVSPost2010PropOp36
 70
     1
102
RTVSPost2010Prop37
 90
       50
102
RTVSPost2010PropOp37
 70
     1
102
RTVSPost2010Prop38
140
0.0
102
RTVSPost2010PropOp38
 70
     1
102
RTVSPost2010Prop39
140
1.0
102
RTVSPost2010PropOp39
 70
     1
102
RTVSPost2010Prop40
 90
        0
102
RTVSPost2010PropOp40
 70
     1
102
RTVSPost2010Prop41ColorIndex
 90
       18
102
RTVSPost2010Prop41ColorRGB
 90
        0
102
RTVSPost2010PropOp41
 70
     1
102
RTVSPost2010Prop42
 90
       50
102
RTVSPost2010PropOp42
 70
     1
102
RTVSPost2010Prop43
 90
        3
102
RTVSPost2010PropOp43
 70
     1
102
RTVSPost2010Prop44ColorIndex
 90
        5
102
RTVSPost2010Prop44ColorRGB
 90
      255
102
RTVSPost2010PropOp44
 70
     1
102
RTVSPost2010Prop45
280
     0
102
RTVSPost2010PropOp45
 70
     1
102
RTVSPost2010Prop46
 90
       50
102
RTVSPost2010PropOp46
 70
     1
102
RTVSPost2010Prop47
 90
       50
102
RTVSPost2010PropOp47
 70
     1
102
RTVSPost2010Prop48
 90
       50
102
RTVSPost2010PropOp48
 70
     1
102
RTVSPost2010Prop49
280
     0
102
RTVSPost2010PropOp49
 70
     1
102
RTVSPost2010Prop50
 90
       50
102
RTVSPost2010PropOp50
 70
     1
102
RTVSPost2010Prop51ColorIndex
 90
      256
102
RTVSPost2010Prop51ColorRGB
 90
-16777216
102
RTVSPost2010PropOp51
 70
     0
102
RTVSPost2010Prop52
140
1.0
102
RTVSPost2010PropOp52
 70
     0
102
RTVSPost2010Prop53
 90
        2
102
RTVSPost2010PropOp53
 70
     1
102
RTVSPost2010Prop54
  1
strokes_ogs.tif
102
RTVSPost2010PropOp54
 70
     1
102
RTVSPost2010Prop55
280
     0
102
RTVSPost2010PropOp55
 70
     1
102
RTVSPost2010Prop56
140
1.0
102
RTVSPost2010PropOp56
 70
     1
102
RTVSPost2010Prop57
140
1.0
102
RTVSPost2010PropOp57
 70
     1
  0
ENDSEC
  0
EOF
