  0
SECTION
  2
HEADER
  9
$ACADVER
  1
AC1024
  9
$ACADMAINTVER
 70
   226
  9
$DWGCODEPAGE
  3
ANSI_932
  9
$INSBASE
 10
0.0
 20
0.0
 30
0.0
  9
$EXTMIN
 10
1.000000000000000E+20
 20
1.000000000000000E+20
 30
1.000000000000000E+20
  9
$EXTMAX
 10
-1.000000000000000E+20
 20
-1.000000000000000E+20
 30
-1.000000000000000E+20
  9
$LIMMIN
 10
0.0
 20
0.0
  9
$LIMMAX
 10
12.0
 20
9.0
  9
$ORTHOMODE
 70
     0
  9
$REGENMODE
 70
     1
  9
$FILLMODE
 70
     1
  9
$QTEXTMODE
 70
     0
  9
$MIRRTEXT
 70
     0
  9
$LTSCALE
 40
1.0
  9
$ATTMODE
 70
     1
  9
$TEXTSIZE
 40
0.2
  9
$TRACEWID
 40
0.05
  9
$TEXTSTYLE
  7
Standard
  9
$CLAYER
  8
0
  9
$CELTYPE
  6
ByLayer
  9
$CECOLOR
 62
   256
  9
$CELTSCALE
 40
1.0
  9
$DISPSILH
 70
     0
  9
$DIMSCALE
 40
1.0
  9
$DIMASZ
 40
0.18
  9
$DIMEXO
 40
0.0625
  9
$DIMDLI
 40
0.38
  9
$DIMRND
 40
0.0
  9
$DIMDLE
 40
0.0
  9
$DIMEXE
 40
0.18
  9
$DIMTP
 40
0.0
  9
$DIMTM
 40
0.0
  9
$DIMTXT
 40
0.18
  9
$DIMCEN
 40
0.09
  9
$DIMTSZ
 40
0.0
  9
$DIMTOL
 70
     0
  9
$DIMLIM
 70
     0
  9
$DIMTIH
 70
     1
  9
$DIMTOH
 70
     1
  9
$DIMSE1
 70
     0
  9
$DIMSE2
 70
     0
  9
$DIMTAD
 70
     0
  9
$DIMZIN
 70
     0
  9
$DIMBLK
  1

  9
$DIMASO
 70
     1
  9
$DIMSHO
 70
     1
  9
$DIMPOST
  1

  9
$DIMAPOST
  1

  9
$DIMALT
 70
     0
  9
$DIMALTD
 70
     2
  9
$DIMALTF
 40
25.4
  9
$DIMLFAC
 40
1.0
  9
$DIMTOFL
 70
     0
  9
$DIMTVP
 40
0.0
  9
$DIMTIX
 70
     0
  9
$DIMSOXD
 70
     0
  9
$DIMSAH
 70
     0
  9
$DIMBLK1
  1

  9
$DIMBLK2
  1

  9
$DIMSTYLE
  2
Standard
  9
$DIMCLRD
 70
     0
  9
$DIMCLRE
 70
     0
  9
$DIMCLRT
 70
     0
  9
$DIMTFAC
 40
1.0
  9
$DIMGAP
 40
0.09
  9
$DIMJUST
 70
     0
  9
$DIMSD1
 70
     0
  9
$DIMSD2
 70
     0
  9
$DIMTOLJ
 70
     1
  9
$DIMTZIN
 70
     0
  9
$DIMALTZ
 70
     0
  9
$DIMALTTZ
 70
     0
  9
$DIMUPT
 70
     0
  9
$DIMDEC
 70
     4
  9
$DIMTDEC
 70
     4
  9
$DIMALTU
 70
     2
  9
$DIMALTTD
 70
     2
  9
$DIMTXSTY
  7
Standard
  9
$DIMAUNIT
 70
     0
  9
$DIMADEC
 70
     0
  9
$DIMALTRND
 40
0.0
  9
$DIMAZIN
 70
     0
  9
$DIMDSEP
 70
    46
  9
$DIMATFIT
 70
     3
  9
$DIMFRAC
 70
     0
  9
$DIMLDRBLK
  1

  9
$DIMLUNIT
 70
     2
  9
$DIMLWD
 70
    -2
  9
$DIMLWE
 70
    -2
  9
$DIMTMOVE
 70
     0
  9
$DIMFXL
 40
1.0
  9
$DIMFXLON
 70
     0
  9
$DIMJOGANG
 40
0.7853981633974483
  9
$DIMTFILL
 70
     0
  9
$DIMTFILLCLR
 70
     0
  9
$DIMARCSYM
 70
     0
  9
$DIMLTYPE
  6

  9
$DIMLTEX1
  6

  9
$DIMLTEX2
  6

  9
$DIMTXTDIRECTION
 70
     0
  9
$LUNITS
 70
     2
  9
$LUPREC
 70
     4
  9
$SKETCHINC
 40
0.1
  9
$FILLETRAD
 40
0.0
  9
$AUNITS
 70
     0
  9
$AUPREC
 70
     0
  9
$MENU
  1
.
  9
$ELEVATION
 40
0.0
  9
$PELEVATION
 40
0.0
  9
$THICKNESS
 40
0.0
  9
$LIMCHECK
 70
     0
  9
$CHAMFERA
 40
0.0
  9
$CHAMFERB
 40
0.0
  9
$CHAMFERC
 40
0.0
  9
$CHAMFERD
 40
0.0
  9
$SKPOLY
 70
     0
  9
$TDCREATE
 40
2459569.490543981
  9
$TDUCREATE
 40
2459569.115543982
  9
$TDUPDATE
 40
2459569.490543981
  9
$TDUUPDATE
 40
2459569.115543982
  9
$TDINDWG
 40
0.0000000000
  9
$TDUSRTIMER
 40
0.0000000000
  9
$USRTIMER
 70
     1
  9
$ANGBASE
 50
0.0
  9
$ANGDIR
 70
     0
  9
$PDMODE
 70
     0
  9
$PDSIZE
 40
0.0
  9
$PLINEWID
 40
0.0
  9
$SPLFRAME
 70
     0
  9
$SPLINETYPE
 70
     6
  9
$SPLINESEGS
 70
     8
  9
$HANDSEED
  5
137
  9
$SURFTAB1
 70
     6
  9
$SURFTAB2
 70
     6
  9
$SURFTYPE
 70
     6
  9
$SURFU
 70
     6
  9
$SURFV
 70
     6
  9
$UCSBASE
  2

  9
$UCSNAME
  2

  9
$UCSORG
 10
0.0
 20
0.0
 30
0.0
  9
$UCSXDIR
 10
1.0
 20
0.0
 30
0.0
  9
$UCSYDIR
 10
0.0
 20
1.0
 30
0.0
  9
$UCSORTHOREF
  2

  9
$UCSORTHOVIEW
 70
     0
  9
$UCSORGTOP
 10
0.0
 20
0.0
 30
0.0
  9
$UCSORGBOTTOM
 10
0.0
 20
0.0
 30
0.0
  9
$UCSORGLEFT
 10
0.0
 20
0.0
 30
0.0
  9
$UCSORGRIGHT
 10
0.0
 20
0.0
 30
0.0
  9
$UCSORGFRONT
 10
0.0
 20
0.0
 30
0.0
  9
$UCSORGBACK
 10
0.0
 20
0.0
 30
0.0
  9
$PUCSBASE
  2

  9
$PUCSNAME
  2

  9
$PUCSORG
 10
0.0
 20
0.0
 30
0.0
  9
$PUCSXDIR
 10
1.0
 20
0.0
 30
0.0
  9
$PUCSYDIR
 10
0.0
 20
1.0
 30
0.0
  9
$PUCSORTHOREF
  2

  9
$PUCSORTHOVIEW
 70
     0
  9
$PUCSORGTOP
 10
0.0
 20
0.0
 30
0.0
  9
$PUCSORGBOTTOM
 10
0.0
 20
0.0
 30
0.0
  9
$PUCSORGLEFT
 10
0.0
 20
0.0
 30
0.0
  9
$PUCSORGRIGHT
 10
0.0
 20
0.0
 30
0.0
  9
$PUCSORGFRONT
 10
0.0
 20
0.0
 30
0.0
  9
$PUCSORGBACK
 10
0.0
 20
0.0
 30
0.0
  9
$USERI1
 70
     0
  9
$USERI2
 70
     0
  9
$USERI3
 70
     0
  9
$USERI4
 70
     0
  9
$USERI5
 70
     0
  9
$USERR1
 40
0.0
  9
$USERR2
 40
0.0
  9
$USERR3
 40
0.0
  9
$USERR4
 40
0.0
  9
$USERR5
 40
0.0
  9
$WORLDVIEW
 70
     1
  9
$SHADEDGE
 70
     3
  9
$SHADEDIF
 70
    70
  9
$TILEMODE
 70
     1
  9
$MAXACTVP
 70
    64
  9
$PINSBASE
 10
0.0
 20
0.0
 30
0.0
  9
$PLIMCHECK
 70
     0
  9
$PEXTMIN
 10
1.000000000000000E+20
 20
1.000000000000000E+20
 30
1.000000000000000E+20
  9
$PEXTMAX
 10
-1.000000000000000E+20
 20
-1.000000000000000E+20
 30
-1.000000000000000E+20
  9
$PLIMMIN
 10
0.0
 20
0.0
  9
$PLIMMAX
 10
12.0
 20
9.0
  9
$UNITMODE
 70
     0
  9
$VISRETAIN
 70
     1
  9
$PLINEGEN
 70
     0
  9
$PSLTSCALE
 70
     1
  9
$TREEDEPTH
 70
  3020
  9
$CMLSTYLE
  2
Standard
  9
$CMLJUST
 70
     0
  9
$CMLSCALE
 40
1.0
  9
$PROXYGRAPHICS
 70
     1
  9
$MEASUREMENT
 70
     0
  9
$CELWEIGHT
370
    -1
  9
$ENDCAPS
280
     0
  9
$JOINSTYLE
280
     0
  9
$LWDISPLAY
290
     1
  9
$INSUNITS
 70
     4
  9
$HYPERLINKBASE
  1

  9
$STYLESHEET
  1

  9
$XEDIT
290
     1
  9
$CEPSNTYPE
380
     0
  9
$PSTYLEMODE
290
     1
  9
$FINGERPRINTGUID
  2
{B8236860-99A0-684D-869D-1EBE5F8F94E3}
  9
$VERSIONGUID
  2
{D82683F2-120D-6E42-B29C-529BAE052D6B}
  9
$EXTNAMES
290
     1
  9
$PSVPSCALE
 40
0.0
  9
$OLESTARTUP
290
     0
  9
$SORTENTS
280
   127
  9
$INDEXCTL
280
     0
  9
$HIDETEXT
280
     1
  9
$XCLIPFRAME
280
     2
  9
$HALOGAP
280
     0
  9
$OBSCOLOR
 70
   257
  9
$OBSLTYPE
280
     0
  9
$INTERSECTIONDISPLAY
280
     0
  9
$INTERSECTIONCOLOR
 70
   257
  9
$DIMASSOC
280
     2
  9
$PROJECTNAME
  1

  9
$CAMERADISPLAY
290
     0
  9
$LENSLENGTH
 40
50.0
  9
$CAMERAHEIGHT
 40
0.0
  9
$STEPSPERSEC
 40
2.0
  9
$STEPSIZE
 40
6.0
  9
$3DDWFPREC
 40
2.0
  9
$PSOLWIDTH
 40
0.25
  9
$PSOLHEIGHT
 40
4.0
  9
$LOFTANG1
 40
1.570796326794896
  9
$LOFTANG2
 40
1.570796326794896
  9
$LOFTMAG1
 40
0.0
  9
$LOFTMAG2
 40
0.0
  9
$LOFTPARAM
 70
     7
  9
$LOFTNORMALS
280
     1
  9
$LATITUDE
 40
37.795
  9
$LONGITUDE
 40
-122.394
  9
$NORTHDIRECTION
 40
0.0
  9
$TIMEZONE
 70
 -8000
  9
$LIGHTGLYPHDISPLAY
280
     1
  9
$TILEMODELIGHTSYNCH
280
     1
  9
$CMATERIAL
347
11
  9
$SOLIDHIST
280
     0
  9
$SHOWHIST
280
     1
  9
$DWFFRAME
280
     2
  9
$DGNFRAME
280
     0
  9
$REALWORLDSCALE
290
     1
  9
$INTERFERECOLOR
 62
     1
  9
$INTERFEREOBJVS
345
33
  9
$INTERFEREVPVS
346
30
  9
$CSHADOW
280
     0
  9
$SHADOWPLANELOCATION
 40
0.0
  0
ENDSEC
  0
SECTION
  2
CLASSES
  0
CLASS
  1
ACDBDICTIONARYWDFLT
  2
AcDbDictionaryWithDefault
  3
ObjectDBX Classes
 90
        0
 91
        1
280
     0
281
     0
  0
CLASS
  1
MATERIAL
  2
AcDbMaterial
  3
ObjectDBX Classes
 90
     1153
 91
        3
280
     0
281
     0
  0
CLASS
  1
VISUALSTYLE
  2
AcDbVisualStyle
  3
ObjectDBX Classes
 90
     4095
 91
       24
280
     0
281
     0
  0
CLASS
  1
SCALE
  2
AcDbScale
  3
ObjectDBX Classes
 90
     1153
 91
       17
280
     0
281
     0
  0
CLASS
  1
TABLESTYLE
  2
AcDbTableStyle
  3
ObjectDBX Classes
 90
     4095
 91
        1
280
     0
281
     0
  0
CLASS
  1
MLEADERSTYLE
  2
AcDbMLeaderStyle
  3
ACDB_MLEADERSTYLE_CLASS
 90
     4095
 91
        1
280
     0
281
     0
  0
CLASS
  1
ACDBSECTIONVIEWSTYLE
  2
AcDbSectionViewStyle
  3
ObjectDBX Classes
 90
     1025
 91
        1
280
     0
281
     0
  0
CLASS
  1
ACDBDETAILVIEWSTYLE
  2
AcDbDetailViewStyle
  3
ObjectDBX Classes
 90
     1025
 91
        1
280
     0
281
     0
  0
CLASS
  1
DICTIONARYVAR
  2
AcDbDictionaryVar
  3
ObjectDBX Classes
 90
        0
 91
        5
280
     0
281
     0
  0
CLASS
  1
CELLSTYLEMAP
  2
AcDbCellStyleMap
  3
ObjectDBX Classes
 90
     1152
 91
        1
280
     0
281
     0
  0
ENDSEC
  0
SECTION
  2
TABLES
  0
TABLE
  2
VPORT
  5
8
330
0
100
AcDbSymbolTable
 70
     1
  0
VPORT
  5
57
330
8
100
AcDbSymbolTableRecord
100
AcDbViewportTableRecord
  2
*Active
 70
     0
 10
0.0
 20
0.0
 11
1.0
 21
1.0
 12
0.0
 22
0.0
 13
0.0
 23
0.0
 14
1.0
 24
1.0
 15
0.0
 25
0.0
 16
0.0
 26
0.0
 36
1.0
 17
104.9999999737534
 27
-148.4999999628701
 37
0.0
 40
302.939999924255
 41
0.7070707070707534
 42
50.0
 43
0.0
 44
0.0
 50
0.0
 51
0.0
 71
     0
 72
   100
 73
     1
 74
     0
 75
     1
 76
     0
 77
     0
 78
     0
281
     0
 65
     1
110
0.0
120
0.0
130
0.0
111
1.0
121
0.0
131
0.0
112
0.0
122
1.0
132
0.0
 79
     0
146
0.0
 60
     3
 61
     5
292
     1
282
     1
141
0.0
142
0.0
 63
   250
421
  3355443
  0
ENDTAB
  0
TABLE
  2
LTYPE
  5
5
330
0
100
AcDbSymbolTable
 70
     1
  0
LTYPE
  5
5B
330
5
100
AcDbSymbolTableRecord
100
AcDbLinetypeTableRecord
  2
ByBlock
 70
     0
  3

 72
    65
 73
     0
 40
0.0
  0
LTYPE
  5
5C
330
5
100
AcDbSymbolTableRecord
100
AcDbLinetypeTableRecord
  2
ByLayer
 70
     0
  3

 72
    65
 73
     0
 40
0.0
  0
LTYPE
  5
5D
330
5
100
AcDbSymbolTableRecord
100
AcDbLinetypeTableRecord
  2
Continuous
 70
     0
  3
Solid line
 72
    65
 73
     0
 40
0.0
  0
ENDTAB
  0
TABLE
  2
LAYER
  5
2
330
0
100
AcDbSymbolTable
 70
     2
  0
LAYER
  5
54
330
2
100
AcDbSymbolTableRecord
100
AcDbLayerTableRecord
  2
0
 70
     0
 62
     7
  6
Continuous
370
    -3
390
F
347
21
  0
LAYER
  5
78
330
2
100
AcDbSymbolTableRecord
100
AcDbLayerTableRecord
  2
レイヤー 1
 70
     0
 62
     7
  6
Continuous
370
     0
390
F
347
21
  0
ENDTAB
  0
TABLE
  2
STYLE
  5
3
330
0
100
AcDbSymbolTable
 70
     2
  0
STYLE
  5
55
330
3
100
AcDbSymbolTableRecord
100
AcDbTextStyleTableRecord
  2
Standard
 70
     0
 40
0.0
 41
1.0
 50
0.0
 71
     0
 42
0.2
  3
txt
  4

  0
STYLE
  5
5A
330
3
100
AcDbSymbolTableRecord
100
AcDbTextStyleTableRecord
  2
Annotative
 70
     0
 40
0.0
 41
1.0
 50
0.0
 71
     0
 42
0.2
  3
txt
  4

1001
AcadAnnotative
1000
AnnotativeData
1002
{
1070
     1
1070
     1
1002
}
  0
ENDTAB
  0
TABLE
  2
VIEW
  5
6
330
0
100
AcDbSymbolTable
 70
     0
  0
ENDTAB
  0
TABLE
  2
UCS
  5
7
330
0
100
AcDbSymbolTable
 70
     0
  0
ENDTAB
  0
TABLE
  2
APPID
  5
9
330
0
100
AcDbSymbolTable
 70
     2
  0
APPID
  5
56
330
9
100
AcDbSymbolTableRecord
100
AcDbRegAppTableRecord
  2
ACAD
 70
     0
  0
APPID
  5
5E
330
9
100
AcDbSymbolTableRecord
100
AcDbRegAppTableRecord
  2
AcadAnnotative
 70
     0
  0
ENDTAB
  0
TABLE
  2
DIMSTYLE
  5
A
330
0
100
AcDbSymbolTable
 70
     2
100
AcDbDimStyleTable
 71
     0
  0
DIMSTYLE
105
58
330
A
100
AcDbSymbolTableRecord
100
AcDbDimStyleTableRecord
  2
Standard
 70
     0
340
55
  0
DIMSTYLE
105
59
330
A
100
AcDbSymbolTableRecord
100
AcDbDimStyleTableRecord
  2
Annotative
 70
     0
340
55
1001
AcadAnnotative
1000
AnnotativeData
1002
{
1070
     1
1070
     1
1002
}
  0
ENDTAB
  0
TABLE
  2
BLOCK_RECORD
  5
1
330
0
100
AcDbSymbolTable
 70
    16
  0
BLOCK_RECORD
  5
70
330
1
100
AcDbSymbolTableRecord
100
AcDbBlockTableRecord
  2
*Model_Space
340
73
 70
     0
280
     1
281
     0
  0
BLOCK_RECORD
  5
6C
330
1
100
AcDbSymbolTableRecord
100
AcDbBlockTableRecord
  2
*Paper_Space
340
6F
 70
     0
280
     1
281
     0
  0
BLOCK_RECORD
  5
74
330
1
100
AcDbSymbolTableRecord
100
AcDbBlockTableRecord
  2
*Paper_Space0
340
77
 70
     0
280
     1
281
     0
  0
BLOCK_RECORD
  5
8F
330
1
100
AcDbSymbolTableRecord
100
AcDbBlockTableRecord
  2
Block_0
340
0
102
{BLKREFS
331
90
102
}
 70
     0
280
     1
281
     0
  0
BLOCK_RECORD
  5
93
330
1
100
AcDbSymbolTableRecord
100
AcDbBlockTableRecord
  2
Block_1
340
0
102
{BLKREFS
331
94
102
}
 70
     0
280
     1
281
     0
  0
BLOCK_RECORD
  5
9B
330
1
100
AcDbSymbolTableRecord
100
AcDbBlockTableRecord
  2
Block_2
340
0
102
{BLKREFS
331
9C
102
}
 70
     0
280
     1
281
     0
  0
BLOCK_RECORD
  5
9F
330
1
100
AcDbSymbolTableRecord
100
AcDbBlockTableRecord
  2
Block_3
340
0
102
{BLKREFS
331
A0
102
}
 70
     0
280
     1
281
     0
  0
BLOCK_RECORD
  5
A8
330
1
100
AcDbSymbolTableRecord
100
AcDbBlockTableRecord
  2
Block_4
340
0
102
{BLKREFS
331
A9
102
}
 70
     0
280
     1
281
     0
  0
BLOCK_RECORD
  5
AC
330
1
100
AcDbSymbolTableRecord
100
AcDbBlockTableRecord
  2
Block_5
340
0
102
{BLKREFS
331
AD
102
}
 70
     0
280
     1
281
     0
  0
BLOCK_RECORD
  5
B6
330
1
100
AcDbSymbolTableRecord
100
AcDbBlockTableRecord
  2
Block_6
340
0
102
{BLKREFS
331
B7
102
}
 70
     0
280
     1
281
     0
  0
BLOCK_RECORD
  5
BA
330
1
100
AcDbSymbolTableRecord
100
AcDbBlockTableRecord
  2
Block_7
340
0
102
{BLKREFS
331
BB
102
}
 70
     0
280
     1
281
     0
  0
BLOCK_RECORD
  5
C2
330
1
100
AcDbSymbolTableRecord
100
AcDbBlockTableRecord
  2
Block_8
340
0
102
{BLKREFS
331
C3
102
}
 70
     0
280
     1
281
     0
  0
BLOCK_RECORD
  5
C8
330
1
100
AcDbSymbolTableRecord
100
AcDbBlockTableRecord
  2
Block_9
340
0
102
{BLKREFS
331
C9
102
}
 70
     0
280
     1
281
     0
  0
BLOCK_RECORD
  5
CC
330
1
100
AcDbSymbolTableRecord
100
AcDbBlockTableRecord
  2
Block_10
340
0
102
{BLKREFS
331
CD
102
}
 70
     0
280
     1
281
     0
  0
BLOCK_RECORD
  5
D7
330
1
100
AcDbSymbolTableRecord
100
AcDbBlockTableRecord
  2
Block_11
340
0
102
{BLKREFS
331
D8
102
}
 70
     0
280
     1
281
     0
  0
BLOCK_RECORD
  5
DB
330
1
100
AcDbSymbolTableRecord
100
AcDbBlockTableRecord
  2
Block_12
340
0
102
{BLKREFS
331
DC
102
}
 70
     0
280
     1
281
     0
  0
BLOCK_RECORD
  5
E8
330
1
100
AcDbSymbolTableRecord
100
AcDbBlockTableRecord
  2
Block_13
340
0
102
{BLKREFS
331
E9
102
}
 70
     0
280
     1
281
     0
  0
BLOCK_RECORD
  5
EC
330
1
100
AcDbSymbolTableRecord
100
AcDbBlockTableRecord
  2
Block_14
340
0
102
{BLKREFS
331
ED
102
}
 70
     0
280
     1
281
     0
  0
ENDTAB
  0
ENDSEC
  0
SECTION
  2
BLOCKS
  0
BLOCK
  5
71
330
70
100
AcDbEntity
  8
0
100
AcDbBlockBegin
  2
*Model_Space
 70
     0
 10
0.0
 20
0.0
 30
0.0
  3
*Model_Space
  1

  0
ENDBLK
  5
72
330
70
100
AcDbEntity
  8
0
100
AcDbBlockEnd
  0
BLOCK
  5
6D
330
6C
100
AcDbEntity
 67
     1
  8
0
100
AcDbBlockBegin
  2
*Paper_Space
 70
     0
 10
0.0
 20
0.0
 30
0.0
  3
*Paper_Space
  1

  0
ENDBLK
  5
6E
330
6C
100
AcDbEntity
 67
     1
  8
0
100
AcDbBlockEnd
  0
BLOCK
  5
75
330
74
100
AcDbEntity
 67
     1
  8
0
100
AcDbBlockBegin
  2
*Paper_Space0
 70
     0
 10
0.0
 20
0.0
 30
0.0
  3
*Paper_Space0
  1

  0
ENDBLK
  5
76
330
74
100
AcDbEntity
 67
     1
  8
0
100
AcDbBlockEnd
  0
BLOCK
  5
91
330
8F
100
AcDbEntity
  8
0
100
AcDbBlockBegin
  2
Block_0
 70
     0
 10
0.0
 20
0.0
 30
0.0
  3
Block_0
  1

  0
INSERT
  5
94
330
8F
100
AcDbEntity
  8
レイヤー 1
100
AcDbBlockReference
  2
Block_1
 10
0.0
 20
0.0
 30
0.0
  0
ENDBLK
  5
92
330
8F
100
AcDbEntity
  8
0
100
AcDbBlockEnd
  0
BLOCK
  5
95
330
93
100
AcDbEntity
  8
0
100
AcDbBlockBegin
  2
Block_1
 70
     0
 10
0.0
 20
0.0
 30
0.0
  3
Block_1
  1

  0
SPLINE
  5
97
330
93
100
AcDbEntity
  8
レイヤー 1
100
AcDbSpline
210
0.0
220
0.0
230
1.0
 70
    11
 71
     3
 72
    26
 73
    22
 74
     0
 42
0.0000000001
 43
0.0000000001
 40
0.0
 40
0.0
 40
0.0
 40
0.0
 40
1.0
 40
1.0
 40
1.0
 40
2.0
 40
2.0
 40
2.0
 40
3.0
 40
3.0
 40
3.0
 40
4.0
 40
4.0
 40
4.0
 40
5.0
 40
5.0
 40
5.0
 40
6.0
 40
6.0
 40
6.0
 40
7.0
 40
7.0
 40
7.0
 40
7.0
 10
138.204484014928
 20
-166.093565496671
 30
0.0
 10
138.204484014928
 20
-166.093565496671
 30
0.0
 10
137.1003309119054
 20
-166.093565496671
 30
0.0
 10
137.1003309119054
 20
-166.093565496671
 30
0.0
 10
137.1003309119054
 20
-166.093565496671
 30
0.0
 10
137.1003309119054
 20
-166.423605644158
 30
0.0
 10
137.1003309119054
 20
-166.423605644158
 30
0.0
 10
137.1003309119054
 20
-166.423605644158
 30
0.0
 10
136.9521918060397
 20
-166.423605644158
 30
0.0
 10
136.9521918060397
 20
-166.423605644158
 30
0.0
 10
136.9373778954531
 20
-166.0914984393799
 30
0.0
 10
136.7744248790008
 20
-166.044989650329
 30
0.0
 10
136.6603922184391
 20
-166.0153618291559
 30
0.0
 10
136.6603922184391
 20
-166.0153618291559
 30
0.0
 10
136.6603922184391
 20
-165.8692897805813
 30
0.0
 10
136.6603922184391
 20
-165.8692897805813
 30
0.0
 10
136.6603922184391
 20
-165.8692897805813
 30
0.0
 10
138.204484014928
 20
-165.8692897805813
 30
0.0
 10
138.204484014928
 20
-165.8692897805813
 30
0.0
 10
138.204484014928
 20
-165.8692897805813
 30
0.0
 10
138.204484014928
 20
-166.093565496671
 30
0.0
 10
138.204484014928
 20
-166.093565496671
 30
0.0
  0
HATCH
  5
98
330
93
100
AcDbEntity
  8
レイヤー 1
 62
    18
420
        0
440
 33554687
100
AcDbHatch
 10
0.0
 20
0.0
 30
0.0
210
0.0
220
0.0
230
1.0
  2
SOLID
 70
     1
 71
     1
 91
        1
 92
        1
 93
        1
 72
     4
 94
        3
 73
     0
 74
     0
 95
       26
 96
       22
 40
0.0
 40
0.0
 40
0.0
 40
0.0
 40
1.0
 40
1.0
 40
1.0
 40
2.0
 40
2.0
 40
2.0
 40
3.0
 40
3.0
 40
3.0
 40
4.0
 40
4.0
 40
4.0
 40
5.0
 40
5.0
 40
5.0
 40
6.0
 40
6.0
 40
6.0
 40
7.0
 40
7.0
 40
7.0
 40
7.0
 10
138.204484014928
 20
-166.093565496671
 10
138.204484014928
 20
-166.093565496671
 10
137.1003309119054
 20
-166.093565496671
 10
137.1003309119054
 20
-166.093565496671
 10
137.1003309119054
 20
-166.093565496671
 10
137.1003309119054
 20
-166.423605644158
 10
137.1003309119054
 20
-166.423605644158
 10
137.1003309119054
 20
-166.423605644158
 10
136.9521918060397
 20
-166.423605644158
 10
136.9521918060397
 20
-166.423605644158
 10
136.9373778954531
 20
-166.0914984393799
 10
136.7744248790008
 20
-166.044989650329
 10
136.6603922184391
 20
-166.0153618291559
 10
136.6603922184391
 20
-166.0153618291559
 10
136.6603922184391
 20
-165.8692897805813
 10
136.6603922184391
 20
-165.8692897805813
 10
136.6603922184391
 20
-165.8692897805813
 10
138.204484014928
 20
-165.8692897805813
 10
138.204484014928
 20
-165.8692897805813
 10
138.204484014928
 20
-165.8692897805813
 10
138.204484014928
 20
-166.093565496671
 10
138.204484014928
 20
-166.093565496671
 97
        0
 97
        1
330
97
 75
     2
 76
     1
 98
        1
 10
0.0
 20
0.0
450
        0
451
        0
460
0.0
461
0.0
452
        0
462
0.0
453
        0
470

  0
SPLINE
  5
99
330
93
100
AcDbEntity
  8
レイヤー 1
100
AcDbSpline
210
0.0
220
0.0
230
1.0
 70
     9
 71
     3
 72
    44
 73
    40
 74
     0
 42
0.0000000001
 43
0.0000000001
 40
0.0
 40
0.0
 40
0.0
 40
0.0
 40
1.0
 40
1.0
 40
1.0
 40
2.0
 40
2.0
 40
2.0
 40
3.0
 40
3.0
 40
3.0
 40
4.0
 40
4.0
 40
4.0
 40
5.0
 40
5.0
 40
5.0
 40
6.0
 40
6.0
 40
6.0
 40
7.0
 40
7.0
 40
7.0
 40
8.0
 40
8.0
 40
8.0
 40
9.0
 40
9.0
 40
9.0
 40
10.0
 40
10.0
 40
10.0
 40
11.0
 40
11.0
 40
11.0
 40
12.0
 40
12.0
 40
12.0
 40
13.0
 40
13.0
 40
13.0
 40
13.0
 10
137.6229518970179
 20
-164.7751274544659
 30
0.0
 10
137.7814262893394
 20
-164.9928574891337
 30
0.0
 10
137.8554958422722
 20
-165.0858750672355
 30
0.0
 10
137.9995008335557
 20
-165.134795423126
 30
0.0
 10
137.9995008335557
 20
-165.134795423126
 30
0.0
 10
137.9995008335557
 20
-164.3562038434595
 30
0.0
 10
137.9995008335557
 20
-164.3562038434595
 30
0.0
 10
137.9995008335557
 20
-164.3562038434595
 30
0.0
 10
138.204484014928
 20
-164.3562038434595
 30
0.0
 10
138.204484014928
 20
-164.3562038434595
 30
0.0
 10
138.204484014928
 20
-164.3562038434595
 30
0.0
 10
138.204484014928
 20
-165.3842203362581
 30
0.0
 10
138.204484014928
 20
-165.3842203362581
 30
0.0
 10
137.8468831035591
 20
-165.3525254577938
 30
0.0
 10
137.7686794360439
 20
-165.2870686435741
 30
0.0
 10
137.4703341670213
 20
-164.9019069683231
 30
0.0
 10
137.2715521575224
 20
-164.645936373769
 30
0.0
 10
137.2040282860115
 20
-164.5804795595493
 30
0.0
 10
137.06656897615
 20
-164.5804795595493
 30
0.0
 10
136.9480576914574
 20
-164.5804795595493
 30
0.0
 10
136.8167995534694
 20
-164.652482055191
 30
0.0
 10
136.8167995534694
 20
-164.8491970073988
 30
0.0
 10
136.8167995534694
 20
-165.1093017165352
 30
0.0
 10
137.0472764414326
 20
-165.1179144552483
 30
0.0
 10
137.1637206688341
 20
-165.1220485698306
 30
0.0
 10
137.1637206688341
 20
-165.1220485698306
 30
0.0
 10
137.1637206688341
 20
-165.3463242859203
 30
0.0
 10
137.1637206688341
 20
-165.3463242859203
 30
0.0
 10
137.0369411549769
 20
-165.3377115472072
 30
0.0
 10
136.9246310421577
 20
-165.327031751203
 30
0.0
 10
136.8061197574651
 20
-165.2467610263966
 30
0.0
 10
136.6455783078525
 20
-165.1368624804172
 30
0.0
 10
136.6114718625485
 20
-164.9504828146651
 30
0.0
 10
136.6114718625485
 20
-164.8343830968122
 30
0.0
 10
136.6114718625485
 20
-164.5570529102496
 30
0.0
 10
136.7957844710094
 20
-164.3496581620376
 30
0.0
 10
137.0686360334412
 20
-164.3496581620376
 30
0.0
 10
137.2970458641132
 20
-164.3496581620376
 30
0.0
 10
137.396609123637
 20
-164.466102389439
 30
0.0
 10
137.6229518970179
 20
-164.7751274544659
 30
0.0
  0
HATCH
  5
9A
330
93
100
AcDbEntity
  8
レイヤー 1
 62
    18
420
        0
440
 33554687
100
AcDbHatch
 10
0.0
 20
0.0
 30
0.0
210
0.0
220
0.0
230
1.0
  2
SOLID
 70
     1
 71
     1
 91
        1
 92
        1
 93
        1
 72
     4
 94
        3
 73
     0
 74
     0
 95
       44
 96
       40
 40
0.0
 40
0.0
 40
0.0
 40
0.0
 40
1.0
 40
1.0
 40
1.0
 40
2.0
 40
2.0
 40
2.0
 40
3.0
 40
3.0
 40
3.0
 40
4.0
 40
4.0
 40
4.0
 40
5.0
 40
5.0
 40
5.0
 40
6.0
 40
6.0
 40
6.0
 40
7.0
 40
7.0
 40
7.0
 40
8.0
 40
8.0
 40
8.0
 40
9.0
 40
9.0
 40
9.0
 40
10.0
 40
10.0
 40
10.0
 40
11.0
 40
11.0
 40
11.0
 40
12.0
 40
12.0
 40
12.0
 40
13.0
 40
13.0
 40
13.0
 40
13.0
 10
137.6229518970179
 20
-164.7751274544659
 10
137.7814262893394
 20
-164.9928574891337
 10
137.8554958422722
 20
-165.0858750672355
 10
137.9995008335557
 20
-165.134795423126
 10
137.9995008335557
 20
-165.134795423126
 10
137.9995008335557
 20
-164.3562038434595
 10
137.9995008335557
 20
-164.3562038434595
 10
137.9995008335557
 20
-164.3562038434595
 10
138.204484014928
 20
-164.3562038434595
 10
138.204484014928
 20
-164.3562038434595
 10
138.204484014928
 20
-164.3562038434595
 10
138.204484014928
 20
-165.3842203362581
 10
138.204484014928
 20
-165.3842203362581
 10
137.8468831035591
 20
-165.3525254577938
 10
137.7686794360439
 20
-165.2870686435741
 10
137.4703341670213
 20
-164.9019069683231
 10
137.2715521575224
 20
-164.645936373769
 10
137.2040282860115
 20
-164.5804795595493
 10
137.06656897615
 20
-164.5804795595493
 10
136.9480576914574
 20
-164.5804795595493
 10
136.8167995534694
 20
-164.652482055191
 10
136.8167995534694
 20
-164.8491970073988
 10
136.8167995534694
 20
-165.1093017165352
 10
137.0472764414326
 20
-165.1179144552483
 10
137.1637206688341
 20
-165.1220485698306
 10
137.1637206688341
 20
-165.1220485698306
 10
137.1637206688341
 20
-165.3463242859203
 10
137.1637206688341
 20
-165.3463242859203
 10
137.0369411549769
 20
-165.3377115472072
 10
136.9246310421577
 20
-165.327031751203
 10
136.8061197574651
 20
-165.2467610263966
 10
136.6455783078525
 20
-165.1368624804172
 10
136.6114718625485
 20
-164.9504828146651
 10
136.6114718625485
 20
-164.8343830968122
 10
136.6114718625485
 20
-164.5570529102496
 10
136.7957844710094
 20
-164.3496581620376
 10
137.0686360334412
 20
-164.3496581620376
 10
137.2970458641132
 20
-164.3496581620376
 10
137.396609123637
 20
-164.466102389439
 10
137.6229518970179
 20
-164.7751274544659
 97
        0
 97
        1
330
99
 75
     2
 76
     1
 98
        1
 10
0.0
 20
0.0
450
        0
451
        0
460
0.0
461
0.0
452
        0
462
0.0
453
        0
470

  0
ENDBLK
  5
96
330
93
100
AcDbEntity
  8
0
100
AcDbBlockEnd
  0
BLOCK
  5
9D
330
9B
100
AcDbEntity
  8
0
100
AcDbBlockBegin
  2
Block_2
 70
     0
 10
0.0
 20
0.0
 30
0.0
  3
Block_2
  1

  0
INSERT
  5
A0
330
9B
100
AcDbEntity
  8
レイヤー 1
100
AcDbBlockReference
  2
Block_3
 10
0.0
 20
0.0
 30
0.0
  0
ENDBLK
  5
9E
330
9B
100
AcDbEntity
  8
0
100
AcDbBlockEnd
  0
BLOCK
  5
A1
330
9F
100
AcDbEntity
  8
0
100
AcDbBlockBegin
  2
Block_3
 70
     0
 10
0.0
 20
0.0
 30
0.0
  3
Block_3
  1

  0
SPLINE
  5
A3
330
9F
100
AcDbEntity
  8
レイヤー 1
100
AcDbSpline
210
0.0
220
0.0
230
1.0
 70
    11
 71
     3
 72
    26
 73
    22
 74
     0
 42
0.0000000001
 43
0.0000000001
 40
0.0
 40
0.0
 40
0.0
 40
0.0
 40
1.0
 40
1.0
 40
1.0
 40
2.0
 40
2.0
 40
2.0
 40
3.0
 40
3.0
 40
3.0
 40
4.0
 40
4.0
 40
4.0
 40
5.0
 40
5.0
 40
5.0
 40
6.0
 40
6.0
 40
6.0
 40
7.0
 40
7.0
 40
7.0
 40
7.0
 10
138.204484014928
 20
-155.0971652173021
 30
0.0
 10
138.204484014928
 20
-155.0971652173021
 30
0.0
 10
137.1003309119054
 20
-155.0971652173021
 30
0.0
 10
137.1003309119054
 20
-155.0971652173021
 30
0.0
 10
137.1003309119054
 20
-155.0971652173021
 30
0.0
 10
137.1003309119054
 20
-155.427205364789
 30
0.0
 10
137.1003309119054
 20
-155.427205364789
 30
0.0
 10
137.1003309119054
 20
-155.427205364789
 30
0.0
 10
136.9521918060397
 20
-155.427205364789
 30
0.0
 10
136.9521918060397
 20
-155.427205364789
 30
0.0
 10
136.9373778954531
 20
-155.0950981600109
 30
0.0
 10
136.7744248790008
 20
-155.0485893709601
 30
0.0
 10
136.6603922184391
 20
-155.0189615497869
 30
0.0
 10
136.6603922184391
 20
-155.0189615497869
 30
0.0
 10
136.6603922184391
 20
-154.8728895012123
 30
0.0
 10
136.6603922184391
 20
-154.8728895012123
 30
0.0
 10
136.6603922184391
 20
-154.8728895012123
 30
0.0
 10
138.204484014928
 20
-154.8728895012123
 30
0.0
 10
138.204484014928
 20
-154.8728895012123
 30
0.0
 10
138.204484014928
 20
-154.8728895012123
 30
0.0
 10
138.204484014928
 20
-155.0971652173021
 30
0.0
 10
138.204484014928
 20
-155.0971652173021
 30
0.0
  0
HATCH
  5
A4
330
9F
100
AcDbEntity
  8
レイヤー 1
 62
    18
420
        0
440
 33554687
100
AcDbHatch
 10
0.0
 20
0.0
 30
0.0
210
0.0
220
0.0
230
1.0
  2
SOLID
 70
     1
 71
     1
 91
        1
 92
        1
 93
        1
 72
     4
 94
        3
 73
     0
 74
     0
 95
       26
 96
       22
 40
0.0
 40
0.0
 40
0.0
 40
0.0
 40
1.0
 40
1.0
 40
1.0
 40
2.0
 40
2.0
 40
2.0
 40
3.0
 40
3.0
 40
3.0
 40
4.0
 40
4.0
 40
4.0
 40
5.0
 40
5.0
 40
5.0
 40
6.0
 40
6.0
 40
6.0
 40
7.0
 40
7.0
 40
7.0
 40
7.0
 10
138.204484014928
 20
-155.0971652173021
 10
138.204484014928
 20
-155.0971652173021
 10
137.1003309119054
 20
-155.0971652173021
 10
137.1003309119054
 20
-155.0971652173021
 10
137.1003309119054
 20
-155.0971652173021
 10
137.1003309119054
 20
-155.427205364789
 10
137.1003309119054
 20
-155.427205364789
 10
137.1003309119054
 20
-155.427205364789
 10
136.9521918060397
 20
-155.427205364789
 10
136.9521918060397
 20
-155.427205364789
 10
136.9373778954531
 20
-155.0950981600109
 10
136.7744248790008
 20
-155.0485893709601
 10
136.6603922184391
 20
-155.0189615497869
 10
136.6603922184391
 20
-155.0189615497869
 10
136.6603922184391
 20
-154.8728895012123
 10
136.6603922184391
 20
-154.8728895012123
 10
136.6603922184391
 20
-154.8728895012123
 10
138.204484014928
 20
-154.8728895012123
 10
138.204484014928
 20
-154.8728895012123
 10
138.204484014928
 20
-154.8728895012123
 10
138.204484014928
 20
-155.0971652173021
 10
138.204484014928
 20
-155.0971652173021
 97
        0
 97
        1
330
A3
 75
     2
 76
     1
 98
        1
 10
0.0
 20
0.0
450
        0
451
        0
460
0.0
461
0.0
452
        0
462
0.0
453
        0
470

  0
SPLINE
  5
A5
330
9F
100
AcDbEntity
  8
レイヤー 1
100
AcDbSpline
210
0.0
220
0.0
230
1.0
 70
     9
 71
     3
 72
    17
 73
    13
 74
     0
 42
0.0000000001
 43
0.0000000001
 40
0.0
 40
0.0
 40
0.0
 40
0.0
 40
1.0
 40
1.0
 40
1.0
 40
2.0
 40
2.0
 40
2.0
 40
3.0
 40
3.0
 40
3.0
 40
4.0
 40
4.0
 40
4.0
 40
4.0
 10
136.804052700174
 20
-153.8717447531987
 30
0.0
 10
136.804052700174
 20
-154.1215141758793
 30
0.0
 10
137.08758405861
 20
-154.1680229649302
 30
0.0
 10
137.4324381166835
 20
-154.1680229649302
 30
0.0
 10
137.7517984681662
 20
-154.1680229649302
 30
0.0
 10
138.0608235331931
 20
-154.1318494623351
 30
0.0
 10
138.0608235331931
 20
-153.8717447531987
 30
0.0
 10
138.0608235331931
 20
-153.6240423878093
 30
0.0
 10
137.7793592320482
 20
-153.5754665414672
 30
0.0
 10
137.4324381166835
 20
-153.5754665414672
 30
0.0
 10
137.1130777652009
 20
-153.5754665414672
 30
0.0
 10
136.804052700174
 20
-153.6137071013535
 30
0.0
 10
136.804052700174
 20
-153.8717447531987
 30
0.0
  0
SPLINE
  5
A6
330
9F
100
AcDbEntity
  8
レイヤー 1
100
AcDbSpline
210
0.0
220
0.0
230
1.0
 70
     9
 71
     3
 72
    29
 73
    25
 74
     0
 42
0.0000000001
 43
0.0000000001
 40
0.0
 40
0.0
 40
0.0
 40
0.0
 40
1.0
 40
1.0
 40
1.0
 40
2.0
 40
2.0
 40
2.0
 40
3.0
 40
3.0
 40
3.0
 40
4.0
 40
4.0
 40
4.0
 40
5.0
 40
5.0
 40
5.0
 40
6.0
 40
6.0
 40
6.0
 40
7.0
 40
7.0
 40
7.0
 40
8.0
 40
8.0
 40
8.0
 40
8.0
 10
138.0267170878891
 20
-153.4738362246524
 30
0.0
 10
138.2361788933923
 20
-153.5820122228892
 30
0.0
 10
138.2554714281097
 20
-153.7553005257973
 30
0.0
 10
138.2554714281097
 20
-153.8717447531987
 30
0.0
 10
138.2554714281097
 20
-154.0326307123599
 30
0.0
 10
138.2089626390589
 20
-154.1742241368037
 30
0.0
 10
138.0267170878891
 20
-154.2693087721966
 30
0.0
 10
137.8320691929725
 20
-154.3730061463026
 30
0.0
 10
137.5953911331359
 20
-154.39229868102
 30
0.0
 10
137.4324381166835
 20
-154.39229868102
 30
0.0
 10
137.2884331254001
 20
-154.39229868102
 30
0.0
 10
137.0369411549769
 20
-154.3750732035937
 30
0.0
 10
136.8378146359294
 20
-154.2693087721966
 30
0.0
 10
136.6348985118482
 20
-154.1614772835082
 30
0.0
 10
136.6114718625485
 20
-154.0005913243471
 30
0.0
 10
136.6114718625485
 20
-153.8717447531987
 30
0.0
 10
136.6114718625485
 20
-153.7129258513287
 30
0.0
 10
136.6559135943082
 20
-153.5692653695938
 30
0.0
 10
136.8378146359294
 20
-153.4738362246524
 30
0.0
 10
137.0303954735549
 20
-153.3746174746772
 30
0.0
 10
137.2588053042269
 20
-153.3511908253775
 30
0.0
 10
137.4324381166835
 20
-153.3511908253775
 30
0.0
 10
137.6036593623005
 20
-153.3511908253775
 30
0.0
 10
137.8344807598122
 20
-153.372550417386
 30
0.0
 10
138.0267170878891
 20
-153.4738362246524
 30
0.0
  0
HATCH
  5
A7
330
9F
100
AcDbEntity
  8
レイヤー 1
 62
    18
420
        0
440
 33554687
100
AcDbHatch
 10
0.0
 20
0.0
 30
0.0
210
0.0
220
0.0
230
1.0
  2
SOLID
 70
     1
 71
     1
 91
        2
 92
        1
 93
        1
 72
     4
 94
        3
 73
     0
 74
     0
 95
       17
 96
       13
 40
0.0
 40
0.0
 40
0.0
 40
0.0
 40
1.0
 40
1.0
 40
1.0
 40
2.0
 40
2.0
 40
2.0
 40
3.0
 40
3.0
 40
3.0
 40
4.0
 40
4.0
 40
4.0
 40
4.0
 10
136.804052700174
 20
-153.8717447531987
 10
136.804052700174
 20
-154.1215141758793
 10
137.08758405861
 20
-154.1680229649302
 10
137.4324381166835
 20
-154.1680229649302
 10
137.7517984681662
 20
-154.1680229649302
 10
138.0608235331931
 20
-154.1318494623351
 10
138.0608235331931
 20
-153.8717447531987
 10
138.0608235331931
 20
-153.6240423878093
 10
137.7793592320482
 20
-153.5754665414672
 10
137.4324381166835
 20
-153.5754665414672
 10
137.1130777652009
 20
-153.5754665414672
 10
136.804052700174
 20
-153.6137071013535
 10
136.804052700174
 20
-153.8717447531987
 97
        0
 97
        1
330
A5
 92
        1
 93
        1
 72
     4
 94
        3
 73
     0
 74
     0
 95
       29
 96
       25
 40
0.0
 40
0.0
 40
0.0
 40
0.0
 40
1.0
 40
1.0
 40
1.0
 40
2.0
 40
2.0
 40
2.0
 40
3.0
 40
3.0
 40
3.0
 40
4.0
 40
4.0
 40
4.0
 40
5.0
 40
5.0
 40
5.0
 40
6.0
 40
6.0
 40
6.0
 40
7.0
 40
7.0
 40
7.0
 40
8.0
 40
8.0
 40
8.0
 40
8.0
 10
138.0267170878891
 20
-153.4738362246524
 10
138.2361788933923
 20
-153.5820122228892
 10
138.2554714281097
 20
-153.7553005257973
 10
138.2554714281097
 20
-153.8717447531987
 10
138.2554714281097
 20
-154.0326307123599
 10
138.2089626390589
 20
-154.1742241368037
 10
138.0267170878891
 20
-154.2693087721966
 10
137.8320691929725
 20
-154.3730061463026
 10
137.5953911331359
 20
-154.39229868102
 10
137.4324381166835
 20
-154.39229868102
 10
137.2884331254001
 20
-154.39229868102
 10
137.0369411549769
 20
-154.3750732035937
 10
136.8378146359294
 20
-154.2693087721966
 10
136.6348985118482
 20
-154.1614772835082
 10
136.6114718625485
 20
-154.0005913243471
 10
136.6114718625485
 20
-153.8717447531987
 10
136.6114718625485
 20
-153.7129258513287
 10
136.6559135943082
 20
-153.5692653695938
 10
136.8378146359294
 20
-153.4738362246524
 10
137.0303954735549
 20
-153.3746174746772
 10
137.2588053042269
 20
-153.3511908253775
 10
137.4324381166835
 20
-153.3511908253775
 10
137.6036593623005
 20
-153.3511908253775
 10
137.8344807598122
 20
-153.372550417386
 10
138.0267170878891
 20
-153.4738362246524
 97
        0
 97
        1
330
A6
 75
     2
 76
     1
 98
        1
 10
0.0
 20
0.0
450
        0
451
        0
460
0.0
461
0.0
452
        0
462
0.0
453
        0
470

  0
ENDBLK
  5
A2
330
9F
100
AcDbEntity
  8
0
100
AcDbBlockEnd
  0
BLOCK
  5
AA
330
A8
100
AcDbEntity
  8
0
100
AcDbBlockBegin
  2
Block_4
 70
     0
 10
0.0
 20
0.0
 30
0.0
  3
Block_4
  1

  0
INSERT
  5
AD
330
A8
100
AcDbEntity
  8
レイヤー 1
100
AcDbBlockReference
  2
Block_5
 10
0.0
 20
0.0
 30
0.0
  0
ENDBLK
  5
AB
330
A8
100
AcDbEntity
  8
0
100
AcDbBlockEnd
  0
BLOCK
  5
AE
330
AC
100
AcDbEntity
  8
0
100
AcDbBlockBegin
  2
Block_5
 70
     0
 10
0.0
 20
0.0
 30
0.0
  3
Block_5
  1

  0
SPLINE
  5
B0
330
AC
100
AcDbEntity
  8
レイヤー 1
100
AcDbSpline
210
0.0
220
0.0
230
1.0
 70
    11
 71
     3
 72
    26
 73
    22
 74
     0
 42
0.0000000001
 43
0.0000000001
 40
0.0
 40
0.0
 40
0.0
 40
0.0
 40
1.0
 40
1.0
 40
1.0
 40
2.0
 40
2.0
 40
2.0
 40
3.0
 40
3.0
 40
3.0
 40
4.0
 40
4.0
 40
4.0
 40
5.0
 40
5.0
 40
5.0
 40
6.0
 40
6.0
 40
6.0
 40
7.0
 40
7.0
 40
7.0
 40
7.0
 10
139.7037895701087
 20
-150.3229518938429
 30
0.0
 10
139.7037895701087
 20
-150.3229518938429
 30
0.0
 10
138.5996364670862
 20
-150.3229518938429
 30
0.0
 10
138.5996364670862
 20
-150.3229518938429
 30
0.0
 10
138.5996364670862
 20
-150.3229518938429
 30
0.0
 10
138.5996364670862
 20
-150.6529920413298
 30
0.0
 10
138.5996364670862
 20
-150.6529920413298
 30
0.0
 10
138.5996364670862
 20
-150.6529920413298
 30
0.0
 10
138.4514973612205
 20
-150.6529920413298
 30
0.0
 10
138.4514973612205
 20
-150.6529920413298
 30
0.0
 10
138.4366834506339
 20
-150.3208848365517
 30
0.0
 10
138.2737304341816
 20
-150.2743760475008
 30
0.0
 10
138.1596977736198
 20
-150.2447482263277
 30
0.0
 10
138.1596977736198
 20
-150.2447482263277
 30
0.0
 10
138.1596977736198
 20
-150.0986761777531
 30
0.0
 10
138.1596977736198
 20
-150.0986761777531
 30
0.0
 10
138.1596977736198
 20
-150.0986761777531
 30
0.0
 10
139.7037895701087
 20
-150.0986761777531
 30
0.0
 10
139.7037895701087
 20
-150.0986761777531
 30
0.0
 10
139.7037895701087
 20
-150.0986761777531
 30
0.0
 10
139.7037895701087
 20
-150.3229518938429
 30
0.0
 10
139.7037895701087
 20
-150.3229518938429
 30
0.0
  0
HATCH
  5
B1
330
AC
100
AcDbEntity
  8
レイヤー 1
 62
    18
420
        0
440
 33554687
100
AcDbHatch
 10
0.0
 20
0.0
 30
0.0
210
0.0
220
0.0
230
1.0
  2
SOLID
 70
     1
 71
     1
 91
        1
 92
        1
 93
        1
 72
     4
 94
        3
 73
     0
 74
     0
 95
       26
 96
       22
 40
0.0
 40
0.0
 40
0.0
 40
0.0
 40
1.0
 40
1.0
 40
1.0
 40
2.0
 40
2.0
 40
2.0
 40
3.0
 40
3.0
 40
3.0
 40
4.0
 40
4.0
 40
4.0
 40
5.0
 40
5.0
 40
5.0
 40
6.0
 40
6.0
 40
6.0
 40
7.0
 40
7.0
 40
7.0
 40
7.0
 10
139.7037895701087
 20
-150.3229518938429
 10
139.7037895701087
 20
-150.3229518938429
 10
138.5996364670862
 20
-150.3229518938429
 10
138.5996364670862
 20
-150.3229518938429
 10
138.5996364670862
 20
-150.3229518938429
 10
138.5996364670862
 20
-150.6529920413298
 10
138.5996364670862
 20
-150.6529920413298
 10
138.5996364670862
 20
-150.6529920413298
 10
138.4514973612205
 20
-150.6529920413298
 10
138.4514973612205
 20
-150.6529920413298
 10
138.4366834506339
 20
-150.3208848365517
 10
138.2737304341816
 20
-150.2743760475008
 10
138.1596977736198
 20
-150.2447482263277
 10
138.1596977736198
 20
-150.2447482263277
 10
138.1596977736198
 20
-150.0986761777531
 10
138.1596977736198
 20
-150.0986761777531
 10
138.1596977736198
 20
-150.0986761777531
 10
139.7037895701087
 20
-150.0986761777531
 10
139.7037895701087
 20
-150.0986761777531
 10
139.7037895701087
 20
-150.0986761777531
 10
139.7037895701087
 20
-150.3229518938429
 10
139.7037895701087
 20
-150.3229518938429
 97
        0
 97
        1
330
B0
 75
     2
 76
     1
 98
        1
 10
0.0
 20
0.0
450
        0
451
        0
460
0.0
461
0.0
452
        0
462
0.0
453
        0
470

  0
SPLINE
  5
B2
330
AC
100
AcDbEntity
  8
レイヤー 1
100
AcDbSpline
210
0.0
220
0.0
230
1.0
 70
    11
 71
     3
 72
    17
 73
    13
 74
     0
 42
0.0000000001
 43
0.0000000001
 40
0.0
 40
0.0
 40
0.0
 40
0.0
 40
1.0
 40
1.0
 40
1.0
 40
2.0
 40
2.0
 40
2.0
 40
3.0
 40
3.0
 40
3.0
 40
4.0
 40
4.0
 40
4.0
 40
4.0
 10
139.7037895701087
 20
-149.5374701232059
 30
0.0
 10
139.7037895701087
 20
-149.5374701232059
 30
0.0
 10
139.4522975996855
 20
-149.5374701232059
 30
0.0
 10
139.4522975996855
 20
-149.5374701232059
 30
0.0
 10
139.4522975996855
 20
-149.5374701232059
 30
0.0
 10
139.4522975996855
 20
-149.2856336432341
 30
0.0
 10
139.4522975996855
 20
-149.2856336432341
 30
0.0
 10
139.4522975996855
 20
-149.2856336432341
 30
0.0
 10
139.7037895701087
 20
-149.2856336432341
 30
0.0
 10
139.7037895701087
 20
-149.2856336432341
 30
0.0
 10
139.7037895701087
 20
-149.2856336432341
 30
0.0
 10
139.7037895701087
 20
-149.5374701232059
 30
0.0
 10
139.7037895701087
 20
-149.5374701232059
 30
0.0
  0
HATCH
  5
B3
330
AC
100
AcDbEntity
  8
レイヤー 1
 62
    18
420
        0
440
 33554687
100
AcDbHatch
 10
0.0
 20
0.0
 30
0.0
210
0.0
220
0.0
230
1.0
  2
SOLID
 70
     1
 71
     1
 91
        1
 92
        1
 93
        1
 72
     4
 94
        3
 73
     0
 74
     0
 95
       17
 96
       13
 40
0.0
 40
0.0
 40
0.0
 40
0.0
 40
1.0
 40
1.0
 40
1.0
 40
2.0
 40
2.0
 40
2.0
 40
3.0
 40
3.0
 40
3.0
 40
4.0
 40
4.0
 40
4.0
 40
4.0
 10
139.7037895701087
 20
-149.5374701232059
 10
139.7037895701087
 20
-149.5374701232059
 10
139.4522975996855
 20
-149.5374701232059
 10
139.4522975996855
 20
-149.5374701232059
 10
139.4522975996855
 20
-149.5374701232059
 10
139.4522975996855
 20
-149.2856336432341
 10
139.4522975996855
 20
-149.2856336432341
 10
139.4522975996855
 20
-149.2856336432341
 10
139.7037895701087
 20
-149.2856336432341
 10
139.7037895701087
 20
-149.2856336432341
 10
139.7037895701087
 20
-149.2856336432341
 10
139.7037895701087
 20
-149.5374701232059
 10
139.7037895701087
 20
-149.5374701232059
 97
        0
 97
        1
330
B2
 75
     2
 76
     1
 98
        1
 10
0.0
 20
0.0
450
        0
451
        0
460
0.0
461
0.0
452
        0
462
0.0
453
        0
470

  0
SPLINE
  5
B4
330
AC
100
AcDbEntity
  8
レイヤー 1
100
AcDbSpline
210
0.0
220
0.0
230
1.0
 70
     9
 71
     3
 72
    44
 73
    40
 74
     0
 42
0.0000000001
 43
0.0000000001
 40
0.0
 40
0.0
 40
0.0
 40
0.0
 40
1.0
 40
1.0
 40
1.0
 40
2.0
 40
2.0
 40
2.0
 40
3.0
 40
3.0
 40
3.0
 40
4.0
 40
4.0
 40
4.0
 40
5.0
 40
5.0
 40
5.0
 40
6.0
 40
6.0
 40
6.0
 40
7.0
 40
7.0
 40
7.0
 40
8.0
 40
8.0
 40
8.0
 40
9.0
 40
9.0
 40
9.0
 40
10.0
 40
10.0
 40
10.0
 40
11.0
 40
11.0
 40
11.0
 40
12.0
 40
12.0
 40
12.0
 40
13.0
 40
13.0
 40
13.0
 40
13.0
 10
139.1222574521986
 20
-148.4563991599345
 30
0.0
 10
139.2807318445201
 20
-148.6741291946023
 30
0.0
 10
139.3548013974529
 20
-148.767146772704
 30
0.0
 10
139.4988063887364
 20
-148.8160671285946
 30
0.0
 10
139.4988063887364
 20
-148.8160671285946
 30
0.0
 10
139.4988063887364
 20
-148.0374755489281
 30
0.0
 10
139.4988063887364
 20
-148.0374755489281
 30
0.0
 10
139.4988063887364
 20
-148.0374755489281
 30
0.0
 10
139.7037895701087
 20
-148.0374755489281
 30
0.0
 10
139.7037895701087
 20
-148.0374755489281
 30
0.0
 10
139.7037895701087
 20
-148.0374755489281
 30
0.0
 10
139.7037895701087
 20
-149.0654920417266
 30
0.0
 10
139.7037895701087
 20
-149.0654920417266
 30
0.0
 10
139.3461886587398
 20
-149.0337971632624
 30
0.0
 10
139.2679849912246
 20
-148.9683403490426
 30
0.0
 10
138.969639722202
 20
-148.5831786737917
 30
0.0
 10
138.7708577127031
 20
-148.3272080792376
 30
0.0
 10
138.7033338411922
 20
-148.2617512650179
 30
0.0
 10
138.5658745313307
 20
-148.2617512650179
 30
0.0
 10
138.4473632466381
 20
-148.2617512650179
 30
0.0
 10
138.3161051086501
 20
-148.3337537606596
 30
0.0
 10
138.3161051086501
 20
-148.5304687128674
 30
0.0
 10
138.3161051086501
 20
-148.7905734220037
 30
0.0
 10
138.5465819966133
 20
-148.7988416511683
 30
0.0
 10
138.6630262240148
 20
-148.8033202752991
 30
0.0
 10
138.6630262240148
 20
-148.8033202752991
 30
0.0
 10
138.6630262240148
 20
-149.0275959913889
 30
0.0
 10
138.6630262240148
 20
-149.0275959913889
 30
0.0
 10
138.5362467101576
 20
-149.0189832526758
 30
0.0
 10
138.4239365973384
 20
-149.0083034566715
 30
0.0
 10
138.3054253126458
 20
-148.9280327318652
 30
0.0
 10
138.1448838630332
 20
-148.8181341858857
 30
0.0
 10
138.1107774177292
 20
-148.6317545201337
 30
0.0
 10
138.1107774177292
 20
-148.5156548022808
 30
0.0
 10
138.1107774177292
 20
-148.2383246157182
 30
0.0
 10
138.2950900261901
 20
-148.0309298675061
 30
0.0
 10
138.5679415886219
 20
-148.0309298675061
 30
0.0
 10
138.796351419294
 20
-148.0309298675061
 30
0.0
 10
138.8959146788177
 20
-148.1473740949076
 30
0.0
 10
139.1222574521986
 20
-148.4563991599345
 30
0.0
  0
HATCH
  5
B5
330
AC
100
AcDbEntity
  8
レイヤー 1
 62
    18
420
        0
440
 33554687
100
AcDbHatch
 10
0.0
 20
0.0
 30
0.0
210
0.0
220
0.0
230
1.0
  2
SOLID
 70
     1
 71
     1
 91
        1
 92
        1
 93
        1
 72
     4
 94
        3
 73
     0
 74
     0
 95
       44
 96
       40
 40
0.0
 40
0.0
 40
0.0
 40
0.0
 40
1.0
 40
1.0
 40
1.0
 40
2.0
 40
2.0
 40
2.0
 40
3.0
 40
3.0
 40
3.0
 40
4.0
 40
4.0
 40
4.0
 40
5.0
 40
5.0
 40
5.0
 40
6.0
 40
6.0
 40
6.0
 40
7.0
 40
7.0
 40
7.0
 40
8.0
 40
8.0
 40
8.0
 40
9.0
 40
9.0
 40
9.0
 40
10.0
 40
10.0
 40
10.0
 40
11.0
 40
11.0
 40
11.0
 40
12.0
 40
12.0
 40
12.0
 40
13.0
 40
13.0
 40
13.0
 40
13.0
 10
139.1222574521986
 20
-148.4563991599345
 10
139.2807318445201
 20
-148.6741291946023
 10
139.3548013974529
 20
-148.767146772704
 10
139.4988063887364
 20
-148.8160671285946
 10
139.4988063887364
 20
-148.8160671285946
 10
139.4988063887364
 20
-148.0374755489281
 10
139.4988063887364
 20
-148.0374755489281
 10
139.4988063887364
 20
-148.0374755489281
 10
139.7037895701087
 20
-148.0374755489281
 10
139.7037895701087
 20
-148.0374755489281
 10
139.7037895701087
 20
-148.0374755489281
 10
139.7037895701087
 20
-149.0654920417266
 10
139.7037895701087
 20
-149.0654920417266
 10
139.3461886587398
 20
-149.0337971632624
 10
139.2679849912246
 20
-148.9683403490426
 10
138.969639722202
 20
-148.5831786737917
 10
138.7708577127031
 20
-148.3272080792376
 10
138.7033338411922
 20
-148.2617512650179
 10
138.5658745313307
 20
-148.2617512650179
 10
138.4473632466381
 20
-148.2617512650179
 10
138.3161051086501
 20
-148.3337537606596
 10
138.3161051086501
 20
-148.5304687128674
 10
138.3161051086501
 20
-148.7905734220037
 10
138.5465819966133
 20
-148.7988416511683
 10
138.6630262240148
 20
-148.8033202752991
 10
138.6630262240148
 20
-148.8033202752991
 10
138.6630262240148
 20
-149.0275959913889
 10
138.6630262240148
 20
-149.0275959913889
 10
138.5362467101576
 20
-149.0189832526758
 10
138.4239365973384
 20
-149.0083034566715
 10
138.3054253126458
 20
-148.9280327318652
 10
138.1448838630332
 20
-148.8181341858857
 10
138.1107774177292
 20
-148.6317545201337
 10
138.1107774177292
 20
-148.5156548022808
 10
138.1107774177292
 20
-148.2383246157182
 10
138.2950900261901
 20
-148.0309298675061
 10
138.5679415886219
 20
-148.0309298675061
 10
138.796351419294
 20
-148.0309298675061
 10
138.8959146788177
 20
-148.1473740949076
 10
139.1222574521986
 20
-148.4563991599345
 97
        0
 97
        1
330
B4
 75
     2
 76
     1
 98
        1
 10
0.0
 20
0.0
450
        0
451
        0
460
0.0
461
0.0
452
        0
462
0.0
453
        0
470

  0
ENDBLK
  5
AF
330
AC
100
AcDbEntity
  8
0
100
AcDbBlockEnd
  0
BLOCK
  5
B8
330
B6
100
AcDbEntity
  8
0
100
AcDbBlockBegin
  2
Block_6
 70
     0
 10
0.0
 20
0.0
 30
0.0
  3
Block_6
  1

  0
INSERT
  5
BB
330
B6
100
AcDbEntity
  8
レイヤー 1
100
AcDbBlockReference
  2
Block_7
 10
0.0
 20
0.0
 30
0.0
  0
ENDBLK
  5
B9
330
B6
100
AcDbEntity
  8
0
100
AcDbBlockEnd
  0
BLOCK
  5
BC
330
BA
100
AcDbEntity
  8
0
100
AcDbBlockBegin
  2
Block_7
 70
     0
 10
0.0
 20
0.0
 30
0.0
  3
Block_7
  1

  0
SPLINE
  5
BE
330
BA
100
AcDbEntity
  8
レイヤー 1
100
AcDbSpline
210
0.0
220
0.0
230
1.0
 70
     9
 71
     3
 72
    62
 73
    58
 74
     0
 42
0.0000000001
 43
0.0000000001
 40
0.0
 40
0.0
 40
0.0
 40
0.0
 40
1.0
 40
1.0
 40
1.0
 40
2.0
 40
2.0
 40
2.0
 40
3.0
 40
3.0
 40
3.0
 40
4.0
 40
4.0
 40
4.0
 40
5.0
 40
5.0
 40
5.0
 40
6.0
 40
6.0
 40
6.0
 40
7.0
 40
7.0
 40
7.0
 40
8.0
 40
8.0
 40
8.0
 40
9.0
 40
9.0
 40
9.0
 40
10.0
 40
10.0
 40
10.0
 40
11.0
 40
11.0
 40
11.0
 40
12.0
 40
12.0
 40
12.0
 40
13.0
 40
13.0
 40
13.0
 40
14.0
 40
14.0
 40
14.0
 40
15.0
 40
15.0
 40
15.0
 40
16.0
 40
16.0
 40
16.0
 40
17.0
 40
17.0
 40
17.0
 40
18.0
 40
18.0
 40
18.0
 40
19.0
 40
19.0
 40
19.0
 40
19.0
 10
138.2554714281097
 20
-133.9141343523722
 30
0.0
 10
138.2554714281097
 20
-134.0095634973136
 30
0.0
 10
138.2341118361012
 20
-134.2272935319814
 30
0.0
 10
138.0480766798977
 20
-134.3523504980959
 30
0.0
 10
137.9357665670785
 20
-134.4264200510288
 30
0.0
 10
137.8365478171033
 20
-134.4305541656111
 30
0.0
 10
137.7517984681662
 20
-134.4346882801934
 30
0.0
 10
137.7517984681662
 20
-134.4346882801934
 30
0.0
 10
137.7517984681662
 20
-134.2145466786859
 30
0.0
 10
137.7517984681662
 20
-134.2145466786859
 30
0.0
 10
137.8258680210991
 20
-134.2124796213948
 30
0.0
 10
138.0608235331931
 20
-134.202144334939
 30
0.0
 10
138.0608235331931
 20
-133.918612976503
 30
0.0
 10
138.0608235331931
 20
-133.7811536666415
 30
0.0
 10
137.9908880948425
 20
-133.6285359366449
 30
0.0
 10
137.7624782641705
 20
-133.6285359366449
 30
0.0
 10
137.646034036769
 20
-133.6285359366449
 30
0.0
 10
137.597458190427
 20
-133.6667764965312
 30
0.0
 10
137.5657633119627
 20
-133.6984713749955
 30
0.0
 10
137.4916937590298
 20
-133.7725409279284
 30
0.0
 10
137.4789469057344
 20
-133.8889851553298
 30
0.0
 10
137.4789469057344
 20
-133.9437621735453
 30
0.0
 10
137.4789469057344
 20
-133.9630547082627
 30
0.0
 10
137.4810139630256
 20
-133.9988837013093
 30
0.0
 10
137.4851480776078
 20
-134.0264444651913
 30
0.0
 10
137.4851480776078
 20
-134.0264444651913
 30
0.0
 10
137.2905001826912
 20
-134.0264444651913
 30
0.0
 10
137.2905001826912
 20
-134.0264444651913
 30
0.0
 10
137.2970458641132
 20
-133.988203905305
 30
0.0
 10
137.2991129214044
 20
-133.9461737403849
 30
0.0
 10
137.2991129214044
 20
-133.939628058963
 30
0.0
 10
137.2991129214044
 20
-133.8741712447433
 30
0.0
 10
137.2780978389444
 20
-133.6753892352443
 30
0.0
 10
137.0410752695591
 20
-133.6753892352443
 30
0.0
 10
136.8633083425203
 20
-133.6753892352443
 30
0.0
 10
136.8081868147563
 20
-133.8063028636838
 30
0.0
 10
136.8081868147563
 20
-133.9165459192118
 30
0.0
 10
136.8081868147563
 20
-134.1807847429305
 30
0.0
 10
137.0410752695591
 20
-134.1893974816436
 30
0.0
 10
137.1130777652009
 20
-134.1935315962259
 30
0.0
 10
137.1130777652009
 20
-134.1935315962259
 30
0.0
 10
137.1130777652009
 20
-134.3967922298556
 30
0.0
 10
137.1130777652009
 20
-134.3967922298556
 30
0.0
 10
136.9880207990863
 20
-134.3881794911425
 30
0.0
 10
136.6114718625485
 20
-134.3606187272605
 30
0.0
 10
136.6114718625485
 20
-133.9037990659164
 30
0.0
 10
136.6114718625485
 20
-133.6795233498266
 30
0.0
 10
136.7385958859542
 20
-133.4383666658591
 30
0.0
 10
137.0345295881372
 20
-133.4383666658591
 30
0.0
 10
137.2209092538892
 20
-133.4383666658591
 30
0.0
 10
137.3032470359867
 20
-133.533451301252
 30
0.0
 10
137.3645697356241
 20
-133.6330145607758
 30
0.0
 10
137.3921304995061
 20
-133.5716918611383
 30
0.0
 10
137.472745733861
 20
-133.3897908195171
 30
0.0
 10
137.7497314108751
 20
-133.3897908195171
 30
0.0
 10
138.0883842970751
 20
-133.3897908195171
 30
0.0
 10
138.2554714281097
 20
-133.637148675358
 30
0.0
 10
138.2554714281097
 20
-133.9141343523722
 30
0.0
  0
HATCH
  5
BF
330
BA
100
AcDbEntity
  8
レイヤー 1
 62
    18
420
        0
440
 33554687
100
AcDbHatch
 10
0.0
 20
0.0
 30
0.0
210
0.0
220
0.0
230
1.0
  2
SOLID
 70
     1
 71
     1
 91
        1
 92
        1
 93
        1
 72
     4
 94
        3
 73
     0
 74
     0
 95
       62
 96
       58
 40
0.0
 40
0.0
 40
0.0
 40
0.0
 40
1.0
 40
1.0
 40
1.0
 40
2.0
 40
2.0
 40
2.0
 40
3.0
 40
3.0
 40
3.0
 40
4.0
 40
4.0
 40
4.0
 40
5.0
 40
5.0
 40
5.0
 40
6.0
 40
6.0
 40
6.0
 40
7.0
 40
7.0
 40
7.0
 40
8.0
 40
8.0
 40
8.0
 40
9.0
 40
9.0
 40
9.0
 40
10.0
 40
10.0
 40
10.0
 40
11.0
 40
11.0
 40
11.0
 40
12.0
 40
12.0
 40
12.0
 40
13.0
 40
13.0
 40
13.0
 40
14.0
 40
14.0
 40
14.0
 40
15.0
 40
15.0
 40
15.0
 40
16.0
 40
16.0
 40
16.0
 40
17.0
 40
17.0
 40
17.0
 40
18.0
 40
18.0
 40
18.0
 40
19.0
 40
19.0
 40
19.0
 40
19.0
 10
138.2554714281097
 20
-133.9141343523722
 10
138.2554714281097
 20
-134.0095634973136
 10
138.2341118361012
 20
-134.2272935319814
 10
138.0480766798977
 20
-134.3523504980959
 10
137.9357665670785
 20
-134.4264200510288
 10
137.8365478171033
 20
-134.4305541656111
 10
137.7517984681662
 20
-134.4346882801934
 10
137.7517984681662
 20
-134.4346882801934
 10
137.7517984681662
 20
-134.2145466786859
 10
137.7517984681662
 20
-134.2145466786859
 10
137.8258680210991
 20
-134.2124796213948
 10
138.0608235331931
 20
-134.202144334939
 10
138.0608235331931
 20
-133.918612976503
 10
138.0608235331931
 20
-133.7811536666415
 10
137.9908880948425
 20
-133.6285359366449
 10
137.7624782641705
 20
-133.6285359366449
 10
137.646034036769
 20
-133.6285359366449
 10
137.597458190427
 20
-133.6667764965312
 10
137.5657633119627
 20
-133.6984713749955
 10
137.4916937590298
 20
-133.7725409279284
 10
137.4789469057344
 20
-133.8889851553298
 10
137.4789469057344
 20
-133.9437621735453
 10
137.4789469057344
 20
-133.9630547082627
 10
137.4810139630256
 20
-133.9988837013093
 10
137.4851480776078
 20
-134.0264444651913
 10
137.4851480776078
 20
-134.0264444651913
 10
137.2905001826912
 20
-134.0264444651913
 10
137.2905001826912
 20
-134.0264444651913
 10
137.2970458641132
 20
-133.988203905305
 10
137.2991129214044
 20
-133.9461737403849
 10
137.2991129214044
 20
-133.939628058963
 10
137.2991129214044
 20
-133.8741712447433
 10
137.2780978389444
 20
-133.6753892352443
 10
137.0410752695591
 20
-133.6753892352443
 10
136.8633083425203
 20
-133.6753892352443
 10
136.8081868147563
 20
-133.8063028636838
 10
136.8081868147563
 20
-133.9165459192118
 10
136.8081868147563
 20
-134.1807847429305
 10
137.0410752695591
 20
-134.1893974816436
 10
137.1130777652009
 20
-134.1935315962259
 10
137.1130777652009
 20
-134.1935315962259
 10
137.1130777652009
 20
-134.3967922298556
 10
137.1130777652009
 20
-134.3967922298556
 10
136.9880207990863
 20
-134.3881794911425
 10
136.6114718625485
 20
-134.3606187272605
 10
136.6114718625485
 20
-133.9037990659164
 10
136.6114718625485
 20
-133.6795233498266
 10
136.7385958859542
 20
-133.4383666658591
 10
137.0345295881372
 20
-133.4383666658591
 10
137.2209092538892
 20
-133.4383666658591
 10
137.3032470359867
 20
-133.533451301252
 10
137.3645697356241
 20
-133.6330145607758
 10
137.3921304995061
 20
-133.5716918611383
 10
137.472745733861
 20
-133.3897908195171
 10
137.7497314108751
 20
-133.3897908195171
 10
138.0883842970751
 20
-133.3897908195171
 10
138.2554714281097
 20
-133.637148675358
 10
138.2554714281097
 20
-133.9141343523722
 97
        0
 97
        1
330
BE
 75
     2
 76
     1
 98
        1
 10
0.0
 20
0.0
450
        0
451
        0
460
0.0
461
0.0
452
        0
462
0.0
453
        0
470

  0
SPLINE
  5
C0
330
BA
100
AcDbEntity
  8
レイヤー 1
100
AcDbSpline
210
0.0
220
0.0
230
1.0
 70
    11
 71
     3
 72
    26
 73
    22
 74
     0
 42
0.0000000001
 43
0.0000000001
 40
0.0
 40
0.0
 40
0.0
 40
0.0
 40
1.0
 40
1.0
 40
1.0
 40
2.0
 40
2.0
 40
2.0
 40
3.0
 40
3.0
 40
3.0
 40
4.0
 40
4.0
 40
4.0
 40
5.0
 40
5.0
 40
5.0
 40
6.0
 40
6.0
 40
6.0
 40
7.0
 40
7.0
 40
7.0
 40
7.0
 10
138.204484014928
 20
-132.7775973517882
 30
0.0
 10
138.204484014928
 20
-132.7775973517882
 30
0.0
 10
137.1003309119054
 20
-132.7775973517882
 30
0.0
 10
137.1003309119054
 20
-132.7775973517882
 30
0.0
 10
137.1003309119054
 20
-132.7775973517882
 30
0.0
 10
137.1003309119054
 20
-133.1076374992751
 30
0.0
 10
137.1003309119054
 20
-133.1076374992751
 30
0.0
 10
137.1003309119054
 20
-133.1076374992751
 30
0.0
 10
136.9521918060397
 20
-133.1076374992751
 30
0.0
 10
136.9521918060397
 20
-133.1076374992751
 30
0.0
 10
136.9373778954531
 20
-132.7755302944971
 30
0.0
 10
136.7744248790008
 20
-132.7290215054462
 30
0.0
 10
136.6603922184391
 20
-132.6993936842731
 30
0.0
 10
136.6603922184391
 20
-132.6993936842731
 30
0.0
 10
136.6603922184391
 20
-132.5533216356985
 30
0.0
 10
136.6603922184391
 20
-132.5533216356985
 30
0.0
 10
136.6603922184391
 20
-132.5533216356985
 30
0.0
 10
138.204484014928
 20
-132.5533216356985
 30
0.0
 10
138.204484014928
 20
-132.5533216356985
 30
0.0
 10
138.204484014928
 20
-132.5533216356985
 30
0.0
 10
138.204484014928
 20
-132.7775973517882
 30
0.0
 10
138.204484014928
 20
-132.7775973517882
 30
0.0
  0
HATCH
  5
C1
330
BA
100
AcDbEntity
  8
レイヤー 1
 62
    18
420
        0
440
 33554687
100
AcDbHatch
 10
0.0
 20
0.0
 30
0.0
210
0.0
220
0.0
230
1.0
  2
SOLID
 70
     1
 71
     1
 91
        1
 92
        1
 93
        1
 72
     4
 94
        3
 73
     0
 74
     0
 95
       26
 96
       22
 40
0.0
 40
0.0
 40
0.0
 40
0.0
 40
1.0
 40
1.0
 40
1.0
 40
2.0
 40
2.0
 40
2.0
 40
3.0
 40
3.0
 40
3.0
 40
4.0
 40
4.0
 40
4.0
 40
5.0
 40
5.0
 40
5.0
 40
6.0
 40
6.0
 40
6.0
 40
7.0
 40
7.0
 40
7.0
 40
7.0
 10
138.204484014928
 20
-132.7775973517882
 10
138.204484014928
 20
-132.7775973517882
 10
137.1003309119054
 20
-132.7775973517882
 10
137.1003309119054
 20
-132.7775973517882
 10
137.1003309119054
 20
-132.7775973517882
 10
137.1003309119054
 20
-133.1076374992751
 10
137.1003309119054
 20
-133.1076374992751
 10
137.1003309119054
 20
-133.1076374992751
 10
136.9521918060397
 20
-133.1076374992751
 10
136.9521918060397
 20
-133.1076374992751
 10
136.9373778954531
 20
-132.7755302944971
 10
136.7744248790008
 20
-132.7290215054462
 10
136.6603922184391
 20
-132.6993936842731
 10
136.6603922184391
 20
-132.6993936842731
 10
136.6603922184391
 20
-132.5533216356985
 10
136.6603922184391
 20
-132.5533216356985
 10
136.6603922184391
 20
-132.5533216356985
 10
138.204484014928
 20
-132.5533216356985
 10
138.204484014928
 20
-132.5533216356985
 10
138.204484014928
 20
-132.5533216356985
 10
138.204484014928
 20
-132.7775973517882
 10
138.204484014928
 20
-132.7775973517882
 97
        0
 97
        1
330
C0
 75
     2
 76
     1
 98
        1
 10
0.0
 20
0.0
450
        0
451
        0
460
0.0
461
0.0
452
        0
462
0.0
453
        0
470

  0
ENDBLK
  5
BD
330
BA
100
AcDbEntity
  8
0
100
AcDbBlockEnd
  0
BLOCK
  5
C4
330
C2
100
AcDbEntity
  8
0
100
AcDbBlockBegin
  2
Block_8
 70
     0
 10
0.0
 20
0.0
 30
0.0
  3
Block_8
  1

  0
SPLINE
  5
C6
330
C2
100
AcDbEntity
  8
レイヤー 1
100
AcDbSpline
210
0.0
220
0.0
230
1.0
 70
     9
 71
     3
 72
    53
 73
    49
 74
     0
 42
0.0000000001
 43
0.0000000001
 40
0.0
 40
0.0
 40
0.0
 40
0.0
 40
1.0
 40
1.0
 40
1.0
 40
2.0
 40
2.0
 40
2.0
 40
3.0
 40
3.0
 40
3.0
 40
4.0
 40
4.0
 40
4.0
 40
5.0
 40
5.0
 40
5.0
 40
6.0
 40
6.0
 40
6.0
 40
7.0
 40
7.0
 40
7.0
 40
8.0
 40
8.0
 40
8.0
 40
9.0
 40
9.0
 40
9.0
 40
10.0
 40
10.0
 40
10.0
 40
11.0
 40
11.0
 40
11.0
 40
12.0
 40
12.0
 40
12.0
 40
13.0
 40
13.0
 40
13.0
 40
14.0
 40
14.0
 40
14.0
 40
15.0
 40
15.0
 40
15.0
 40
16.0
 40
16.0
 40
16.0
 40
16.0
 10
96.76704777311726
 20
-139.7940510718223
 30
0.0
 10
96.76704777311726
 20
-139.8722547393375
 30
0.0
 10
96.74999455046529
 20
-139.9738850561524
 30
0.0
 10
96.68660479353668
 20
-140.0755153729672
 30
0.0
 10
96.57653399278295
 20
-140.2488036758753
 30
0.0
 10
96.4454481095692
 20
-140.2701632678838
 30
0.0
 10
96.33761662088089
 20
-140.2891112930527
 30
0.0
 10
96.33761662088089
 20
-140.2891112930527
 30
0.0
 10
96.33761662088089
 20
-140.0669026342541
 30
0.0
 10
96.33761662088089
 20
-140.0669026342541
 30
0.0
 10
96.5363986303798
 20
-140.0121256160386
 30
0.0
 10
96.56602645155295
 20
-139.8850015926329
 30
0.0
 10
96.56602645155295
 20
-139.7919840145312
 30
0.0
 10
96.56602645155295
 20
-139.6524576473785
 30
0.0
 10
96.46663544680349
 20
-139.5001844269305
 30
0.0
 10
96.23391924677486
 20
-139.5001844269305
 30
0.0
 10
95.97794865222079
 20
-139.5001844269305
 30
0.0
 10
95.90818546864449
 20
-139.6800184112605
 30
0.0
 10
95.90818546864449
 20
-139.8005967532443
 30
0.0
 10
95.90818546864449
 20
-139.8322916317086
 30
0.0
 10
95.90818546864449
 20
-139.9738850561524
 30
0.0
 10
96.03720429456709
 20
-140.0627685196718
 30
0.0
 10
96.03720429456709
 20
-140.0627685196718
 30
0.0
 10
96.01808401462395
 20
-140.2384683894195
 30
0.0
 10
96.01808401462395
 20
-140.2384683894195
 30
0.0
 10
96.01808401462395
 20
-140.2384683894195
 30
0.0
 10
95.17196856344659
 20
-140.1178900474358
 30
0.0
 10
95.17196856344659
 20
-140.1178900474358
 30
0.0
 10
95.17196856344659
 20
-140.1178900474358
 30
0.0
 10
95.17196856344659
 20
-139.3392984677693
 30
0.0
 10
95.17196856344659
 20
-139.3392984677693
 30
0.0
 10
95.17196856344659
 20
-139.3392984677693
 30
0.0
 10
95.36661645836321
 20
-139.3392984677693
 30
0.0
 10
95.36661645836321
 20
-139.3392984677693
 30
0.0
 10
95.36661645836321
 20
-139.3392984677693
 30
0.0
 10
95.36661645836321
 20
-139.9549370309835
 30
0.0
 10
95.36661645836321
 20
-139.9549370309835
 30
0.0
 10
95.36661645836321
 20
-139.9549370309835
 30
0.0
 10
95.78967418395189
 20
-140.0203938452032
 30
0.0
 10
95.78967418395189
 20
-140.0203938452032
 30
0.0
 10
95.75573999342218
 20
-139.9590711455658
 30
0.0
 10
95.71560463101901
 20
-139.8767333634683
 30
0.0
 10
95.71560463101901
 20
-139.7582220787757
 30
0.0
 10
95.71560463101901
 20
-139.5043185415128
 30
0.0
 10
95.90181204199678
 20
-139.2672959721276
 30
0.0
 10
96.21479896683172
 20
-139.2672959721276
 30
0.0
 10
96.53226451579749
 20
-139.2672959721276
 30
0.0
 10
96.76704777311726
 20
-139.4915716882174
 30
0.0
 10
96.76704777311726
 20
-139.7940510718223
 30
0.0
  0
HATCH
  5
C7
330
C2
100
AcDbEntity
  8
レイヤー 1
 62
    18
420
        0
440
 33554687
100
AcDbHatch
 10
0.0
 20
0.0
 30
0.0
210
0.0
220
0.0
230
1.0
  2
SOLID
 70
     1
 71
     1
 91
        1
 92
        1
 93
        1
 72
     4
 94
        3
 73
     0
 74
     0
 95
       53
 96
       49
 40
0.0
 40
0.0
 40
0.0
 40
0.0
 40
1.0
 40
1.0
 40
1.0
 40
2.0
 40
2.0
 40
2.0
 40
3.0
 40
3.0
 40
3.0
 40
4.0
 40
4.0
 40
4.0
 40
5.0
 40
5.0
 40
5.0
 40
6.0
 40
6.0
 40
6.0
 40
7.0
 40
7.0
 40
7.0
 40
8.0
 40
8.0
 40
8.0
 40
9.0
 40
9.0
 40
9.0
 40
10.0
 40
10.0
 40
10.0
 40
11.0
 40
11.0
 40
11.0
 40
12.0
 40
12.0
 40
12.0
 40
13.0
 40
13.0
 40
13.0
 40
14.0
 40
14.0
 40
14.0
 40
15.0
 40
15.0
 40
15.0
 40
16.0
 40
16.0
 40
16.0
 40
16.0
 10
96.76704777311726
 20
-139.7940510718223
 10
96.76704777311726
 20
-139.8722547393375
 10
96.74999455046529
 20
-139.9738850561524
 10
96.68660479353668
 20
-140.0755153729672
 10
96.57653399278295
 20
-140.2488036758753
 10
96.4454481095692
 20
-140.2701632678838
 10
96.33761662088089
 20
-140.2891112930527
 10
96.33761662088089
 20
-140.2891112930527
 10
96.33761662088089
 20
-140.0669026342541
 10
96.33761662088089
 20
-140.0669026342541
 10
96.5363986303798
 20
-140.0121256160386
 10
96.56602645155295
 20
-139.8850015926329
 10
96.56602645155295
 20
-139.7919840145312
 10
96.56602645155295
 20
-139.6524576473785
 10
96.46663544680349
 20
-139.5001844269305
 10
96.23391924677486
 20
-139.5001844269305
 10
95.97794865222079
 20
-139.5001844269305
 10
95.90818546864449
 20
-139.6800184112605
 10
95.90818546864449
 20
-139.8005967532443
 10
95.90818546864449
 20
-139.8322916317086
 10
95.90818546864449
 20
-139.9738850561524
 10
96.03720429456709
 20
-140.0627685196718
 10
96.03720429456709
 20
-140.0627685196718
 10
96.01808401462395
 20
-140.2384683894195
 10
96.01808401462395
 20
-140.2384683894195
 10
96.01808401462395
 20
-140.2384683894195
 10
95.17196856344659
 20
-140.1178900474358
 10
95.17196856344659
 20
-140.1178900474358
 10
95.17196856344659
 20
-140.1178900474358
 10
95.17196856344659
 20
-139.3392984677693
 10
95.17196856344659
 20
-139.3392984677693
 10
95.17196856344659
 20
-139.3392984677693
 10
95.36661645836321
 20
-139.3392984677693
 10
95.36661645836321
 20
-139.3392984677693
 10
95.36661645836321
 20
-139.3392984677693
 10
95.36661645836321
 20
-139.9549370309835
 10
95.36661645836321
 20
-139.9549370309835
 10
95.36661645836321
 20
-139.9549370309835
 10
95.78967418395189
 20
-140.0203938452032
 10
95.78967418395189
 20
-140.0203938452032
 10
95.75573999342218
 20
-139.9590711455658
 10
95.71560463101901
 20
-139.8767333634683
 10
95.71560463101901
 20
-139.7582220787757
 10
95.71560463101901
 20
-139.5043185415128
 10
95.90181204199678
 20
-139.2672959721276
 10
96.21479896683172
 20
-139.2672959721276
 10
96.53226451579749
 20
-139.2672959721276
 10
96.76704777311726
 20
-139.4915716882174
 10
96.76704777311726
 20
-139.7940510718223
 97
        0
 97
        1
330
C6
 75
     2
 76
     1
 98
        1
 10
0.0
 20
0.0
450
        0
451
        0
460
0.0
461
0.0
452
        0
462
0.0
453
        0
470

  0
ENDBLK
  5
C5
330
C2
100
AcDbEntity
  8
0
100
AcDbBlockEnd
  0
BLOCK
  5
CA
330
C8
100
AcDbEntity
  8
0
100
AcDbBlockBegin
  2
Block_9
 70
     0
 10
0.0
 20
0.0
 30
0.0
  3
Block_9
  1

  0
INSERT
  5
CD
330
C8
100
AcDbEntity
  8
レイヤー 1
100
AcDbBlockReference
  2
Block_10
 10
0.0
 20
0.0
 30
0.0
  0
ENDBLK
  5
CB
330
C8
100
AcDbEntity
  8
0
100
AcDbBlockEnd
  0
BLOCK
  5
CE
330
CC
100
AcDbEntity
  8
0
100
AcDbBlockBegin
  2
Block_10
 70
     0
 10
0.0
 20
0.0
 30
0.0
  3
Block_10
  1

  0
SPLINE
  5
D0
330
CC
100
AcDbEntity
  8
レイヤー 1
100
AcDbSpline
210
0.0
220
0.0
230
1.0
 70
     9
 71
     3
 72
    62
 73
    58
 74
     0
 42
0.0000000001
 43
0.0000000001
 40
0.0
 40
0.0
 40
0.0
 40
0.0
 40
1.0
 40
1.0
 40
1.0
 40
2.0
 40
2.0
 40
2.0
 40
3.0
 40
3.0
 40
3.0
 40
4.0
 40
4.0
 40
4.0
 40
5.0
 40
5.0
 40
5.0
 40
6.0
 40
6.0
 40
6.0
 40
7.0
 40
7.0
 40
7.0
 40
8.0
 40
8.0
 40
8.0
 40
9.0
 40
9.0
 40
9.0
 40
10.0
 40
10.0
 40
10.0
 40
11.0
 40
11.0
 40
11.0
 40
12.0
 40
12.0
 40
12.0
 40
13.0
 40
13.0
 40
13.0
 40
14.0
 40
14.0
 40
14.0
 40
15.0
 40
15.0
 40
15.0
 40
16.0
 40
16.0
 40
16.0
 40
17.0
 40
17.0
 40
17.0
 40
18.0
 40
18.0
 40
18.0
 40
19.0
 40
19.0
 40
19.0
 40
19.0
 10
71.60510387749804
 20
-154.5907361809703
 30
0.0
 10
71.60510387749804
 20
-154.6861653259118
 30
0.0
 10
71.58391654026374
 20
-154.9038953605796
 30
0.0
 10
71.397709129286
 20
-155.0289523266942
 30
0.0
 10
71.28557127124111
 20
-155.103021879627
 30
0.0
 10
71.18618026649165
 20
-155.1071559942093
 30
0.0
 10
71.10160317232876
 20
-155.1112901087916
 30
0.0
 10
71.10160317232876
 20
-155.1112901087916
 30
0.0
 10
71.10160317232876
 20
-154.8911485072841
 30
0.0
 10
71.10160317232876
 20
-154.8911485072841
 30
0.0
 10
71.17567272526163
 20
-154.889081449993
 30
0.0
 10
71.41045598258141
 20
-154.8787461635372
 30
0.0
 10
71.41045598258141
 20
-154.5952148051012
 30
0.0
 10
71.41045598258141
 20
-154.4577554952397
 30
0.0
 10
71.34069279900511
 20
-154.3051377652431
 30
0.0
 10
71.11211071355878
 20
-154.3051377652431
 30
0.0
 10
70.9958387409316
 20
-154.3051377652431
 30
0.0
 10
70.94709063981532
 20
-154.3433783251294
 30
0.0
 10
70.91539576135102
 20
-154.3750732035937
 30
0.0
 10
70.84132620841813
 20
-154.4491427565266
 30
0.0
 10
70.82875160989698
 20
-154.565586983928
 30
0.0
 10
70.82875160989698
 20
-154.6203640021435
 30
0.0
 10
70.82875160989698
 20
-154.6396565368609
 30
0.0
 10
70.83081866718813
 20
-154.6754855299075
 30
0.0
 10
70.83495278177043
 20
-154.7030462937895
 30
0.0
 10
70.83495278177043
 20
-154.7030462937895
 30
0.0
 10
70.64030488685381
 20
-154.7030462937895
 30
0.0
 10
70.64030488685381
 20
-154.7030462937895
 30
0.0
 10
70.64667831350153
 20
-154.6648057339032
 30
0.0
 10
70.64891762556694
 20
-154.6227755689832
 30
0.0
 10
70.64891762556694
 20
-154.6162298875612
 30
0.0
 10
70.64891762556694
 20
-154.5507730733415
 30
0.0
 10
70.62773028833266
 20
-154.3519910638426
 30
0.0
 10
70.39070771894746
 20
-154.3519910638426
 30
0.0
 10
70.21311304668284
 20
-154.3519910638426
 30
0.0
 10
70.15799151891883
 20
-154.4829046922821
 30
0.0
 10
70.15799151891883
 20
-154.5931477478101
 30
0.0
 10
70.15799151891883
 20
-154.8573865715287
 30
0.0
 10
70.39070771894746
 20
-154.8659993102418
 30
0.0
 10
70.46271021458918
 20
-154.8701334248241
 30
0.0
 10
70.46271021458918
 20
-154.8701334248241
 30
0.0
 10
70.46271021458918
 20
-155.0733940584539
 30
0.0
 10
70.46271021458918
 20
-155.0733940584539
 30
0.0
 10
70.33782550324888
 20
-155.0647813197407
 30
0.0
 10
69.96127656671108
 20
-155.0372205558588
 30
0.0
 10
69.96127656671108
 20
-154.5804008945146
 30
0.0
 10
69.96127656671108
 20
-154.3561251784248
 30
0.0
 10
70.08822833534253
 20
-154.1149684944574
 30
0.0
 10
70.38433429229975
 20
-154.1149684944574
 30
0.0
 10
70.57054170327751
 20
-154.1149684944574
 30
0.0
 10
70.65305174014923
 20
-154.2100531298502
 30
0.0
 10
70.71437443978668
 20
-154.309616389374
 30
0.0
 10
70.74193520366868
 20
-154.2482936897365
 30
0.0
 10
70.82237818324927
 20
-154.0663926481153
 30
0.0
 10
71.09953611503762
 20
-154.0663926481153
 30
0.0
 10
71.43801674646342
 20
-154.0663926481153
 30
0.0
 10
71.60510387749804
 20
-154.3137505039563
 30
0.0
 10
71.60510387749804
 20
-154.5907361809703
 30
0.0
  0
HATCH
  5
D1
330
CC
100
AcDbEntity
  8
レイヤー 1
 62
    18
420
        0
440
 33554687
100
AcDbHatch
 10
0.0
 20
0.0
 30
0.0
210
0.0
220
0.0
230
1.0
  2
SOLID
 70
     1
 71
     1
 91
        1
 92
        1
 93
        1
 72
     4
 94
        3
 73
     0
 74
     0
 95
       62
 96
       58
 40
0.0
 40
0.0
 40
0.0
 40
0.0
 40
1.0
 40
1.0
 40
1.0
 40
2.0
 40
2.0
 40
2.0
 40
3.0
 40
3.0
 40
3.0
 40
4.0
 40
4.0
 40
4.0
 40
5.0
 40
5.0
 40
5.0
 40
6.0
 40
6.0
 40
6.0
 40
7.0
 40
7.0
 40
7.0
 40
8.0
 40
8.0
 40
8.0
 40
9.0
 40
9.0
 40
9.0
 40
10.0
 40
10.0
 40
10.0
 40
11.0
 40
11.0
 40
11.0
 40
12.0
 40
12.0
 40
12.0
 40
13.0
 40
13.0
 40
13.0
 40
14.0
 40
14.0
 40
14.0
 40
15.0
 40
15.0
 40
15.0
 40
16.0
 40
16.0
 40
16.0
 40
17.0
 40
17.0
 40
17.0
 40
18.0
 40
18.0
 40
18.0
 40
19.0
 40
19.0
 40
19.0
 40
19.0
 10
71.60510387749804
 20
-154.5907361809703
 10
71.60510387749804
 20
-154.6861653259118
 10
71.58391654026374
 20
-154.9038953605796
 10
71.397709129286
 20
-155.0289523266942
 10
71.28557127124111
 20
-155.103021879627
 10
71.18618026649165
 20
-155.1071559942093
 10
71.10160317232876
 20
-155.1112901087916
 10
71.10160317232876
 20
-155.1112901087916
 10
71.10160317232876
 20
-154.8911485072841
 10
71.10160317232876
 20
-154.8911485072841
 10
71.17567272526163
 20
-154.889081449993
 10
71.41045598258141
 20
-154.8787461635372
 10
71.41045598258141
 20
-154.5952148051012
 10
71.41045598258141
 20
-154.4577554952397
 10
71.34069279900511
 20
-154.3051377652431
 10
71.11211071355878
 20
-154.3051377652431
 10
70.9958387409316
 20
-154.3051377652431
 10
70.94709063981532
 20
-154.3433783251294
 10
70.91539576135102
 20
-154.3750732035937
 10
70.84132620841813
 20
-154.4491427565266
 10
70.82875160989698
 20
-154.565586983928
 10
70.82875160989698
 20
-154.6203640021435
 10
70.82875160989698
 20
-154.6396565368609
 10
70.83081866718813
 20
-154.6754855299075
 10
70.83495278177043
 20
-154.7030462937895
 10
70.83495278177043
 20
-154.7030462937895
 10
70.64030488685381
 20
-154.7030462937895
 10
70.64030488685381
 20
-154.7030462937895
 10
70.64667831350153
 20
-154.6648057339032
 10
70.64891762556694
 20
-154.6227755689832
 10
70.64891762556694
 20
-154.6162298875612
 10
70.64891762556694
 20
-154.5507730733415
 10
70.62773028833266
 20
-154.3519910638426
 10
70.39070771894746
 20
-154.3519910638426
 10
70.21311304668284
 20
-154.3519910638426
 10
70.15799151891883
 20
-154.4829046922821
 10
70.15799151891883
 20
-154.5931477478101
 10
70.15799151891883
 20
-154.8573865715287
 10
70.39070771894746
 20
-154.8659993102418
 10
70.46271021458918
 20
-154.8701334248241
 10
70.46271021458918
 20
-154.8701334248241
 10
70.46271021458918
 20
-155.0733940584539
 10
70.46271021458918
 20
-155.0733940584539
 10
70.33782550324888
 20
-155.0647813197407
 10
69.96127656671108
 20
-155.0372205558588
 10
69.96127656671108
 20
-154.5804008945146
 10
69.96127656671108
 20
-154.3561251784248
 10
70.08822833534253
 20
-154.1149684944574
 10
70.38433429229975
 20
-154.1149684944574
 10
70.57054170327751
 20
-154.1149684944574
 10
70.65305174014923
 20
-154.2100531298502
 10
70.71437443978668
 20
-154.309616389374
 10
70.74193520366868
 20
-154.2482936897365
 10
70.82237818324927
 20
-154.0663926481153
 10
71.09953611503762
 20
-154.0663926481153
 10
71.43801674646342
 20
-154.0663926481153
 10
71.60510387749804
 20
-154.3137505039563
 10
71.60510387749804
 20
-154.5907361809703
 97
        0
 97
        1
330
D0
 75
     2
 76
     1
 98
        1
 10
0.0
 20
0.0
450
        0
451
        0
460
0.0
461
0.0
452
        0
462
0.0
453
        0
470

  0
SPLINE
  5
D2
330
CC
100
AcDbEntity
  8
レイヤー 1
100
AcDbSpline
210
0.0
220
0.0
230
1.0
 70
     9
 71
     3
 72
    53
 73
    49
 74
     0
 42
0.0000000001
 43
0.0000000001
 40
0.0
 40
0.0
 40
0.0
 40
0.0
 40
1.0
 40
1.0
 40
1.0
 40
2.0
 40
2.0
 40
2.0
 40
3.0
 40
3.0
 40
3.0
 40
4.0
 40
4.0
 40
4.0
 40
5.0
 40
5.0
 40
5.0
 40
6.0
 40
6.0
 40
6.0
 40
7.0
 40
7.0
 40
7.0
 40
8.0
 40
8.0
 40
8.0
 40
9.0
 40
9.0
 40
9.0
 40
10.0
 40
10.0
 40
10.0
 40
11.0
 40
11.0
 40
11.0
 40
12.0
 40
12.0
 40
12.0
 40
13.0
 40
13.0
 40
13.0
 40
14.0
 40
14.0
 40
14.0
 40
15.0
 40
15.0
 40
15.0
 40
16.0
 40
16.0
 40
16.0
 40
16.0
 10
71.60510387749804
 20
-153.4245713592133
 30
0.0
 10
71.60510387749804
 20
-153.5027750267284
 30
0.0
 10
71.58805065484604
 20
-153.6044053435433
 30
0.0
 10
71.52466089791744
 20
-153.7060356603582
 30
0.0
 10
71.41459009716371
 20
-153.8793239632662
 30
0.0
 10
71.28350421394995
 20
-153.9006835552748
 30
0.0
 10
71.17567272526163
 20
-153.9196315804437
 30
0.0
 10
71.17567272526163
 20
-153.9196315804437
 30
0.0
 10
71.17567272526163
 20
-153.6974229216451
 30
0.0
 10
71.17567272526163
 20
-153.6974229216451
 30
0.0
 10
71.37445473476056
 20
-153.6426459034296
 30
0.0
 10
71.4040825559337
 20
-153.5155218800239
 30
0.0
 10
71.4040825559337
 20
-153.4225043019221
 30
0.0
 10
71.4040825559337
 20
-153.2829779347695
 30
0.0
 10
71.30469155118425
 20
-153.1307047143215
 30
0.0
 10
71.07197535115561
 20
-153.1307047143215
 30
0.0
 10
70.81600475660156
 20
-153.1307047143215
 30
0.0
 10
70.74624157302524
 20
-153.3105386986515
 30
0.0
 10
70.74624157302524
 20
-153.4311170406352
 30
0.0
 10
70.74624157302524
 20
-153.4628119190996
 30
0.0
 10
70.74624157302524
 20
-153.6044053435433
 30
0.0
 10
70.87526039894786
 20
-153.6932888070628
 30
0.0
 10
70.87526039894786
 20
-153.6932888070628
 30
0.0
 10
70.85614011900472
 20
-153.8689886768105
 30
0.0
 10
70.85614011900472
 20
-153.8689886768105
 30
0.0
 10
70.85614011900472
 20
-153.8689886768105
 30
0.0
 10
70.01002466782735
 20
-153.7484103348267
 30
0.0
 10
70.01002466782735
 20
-153.7484103348267
 30
0.0
 10
70.01002466782735
 20
-153.7484103348267
 30
0.0
 10
70.01002466782735
 20
-152.9698187551603
 30
0.0
 10
70.01002466782735
 20
-152.9698187551603
 30
0.0
 10
70.01002466782735
 20
-152.9698187551603
 30
0.0
 10
70.20467256274398
 20
-152.9698187551603
 30
0.0
 10
70.20467256274398
 20
-152.9698187551603
 30
0.0
 10
70.20467256274398
 20
-152.9698187551603
 30
0.0
 10
70.20467256274398
 20
-153.5854573183744
 30
0.0
 10
70.20467256274398
 20
-153.5854573183744
 30
0.0
 10
70.20467256274398
 20
-153.5854573183744
 30
0.0
 10
70.62773028833266
 20
-153.6509141325942
 30
0.0
 10
70.62773028833266
 20
-153.6509141325942
 30
0.0
 10
70.59379609780293
 20
-153.5895914329568
 30
0.0
 10
70.55366073539978
 20
-153.5072536508593
 30
0.0
 10
70.55366073539978
 20
-153.3887423661667
 30
0.0
 10
70.55366073539978
 20
-153.1348388289038
 30
0.0
 10
70.73986814637753
 20
-152.8978162595186
 30
0.0
 10
71.05285507121248
 20
-152.8978162595186
 30
0.0
 10
71.37032062017826
 20
-152.8978162595186
 30
0.0
 10
71.60510387749804
 20
-153.1220919756084
 30
0.0
 10
71.60510387749804
 20
-153.4245713592133
 30
0.0
  0
HATCH
  5
D3
330
CC
100
AcDbEntity
  8
レイヤー 1
 62
    18
420
        0
440
 33554687
100
AcDbHatch
 10
0.0
 20
0.0
 30
0.0
210
0.0
220
0.0
230
1.0
  2
SOLID
 70
     1
 71
     1
 91
        1
 92
        1
 93
        1
 72
     4
 94
        3
 73
     0
 74
     0
 95
       53
 96
       49
 40
0.0
 40
0.0
 40
0.0
 40
0.0
 40
1.0
 40
1.0
 40
1.0
 40
2.0
 40
2.0
 40
2.0
 40
3.0
 40
3.0
 40
3.0
 40
4.0
 40
4.0
 40
4.0
 40
5.0
 40
5.0
 40
5.0
 40
6.0
 40
6.0
 40
6.0
 40
7.0
 40
7.0
 40
7.0
 40
8.0
 40
8.0
 40
8.0
 40
9.0
 40
9.0
 40
9.0
 40
10.0
 40
10.0
 40
10.0
 40
11.0
 40
11.0
 40
11.0
 40
12.0
 40
12.0
 40
12.0
 40
13.0
 40
13.0
 40
13.0
 40
14.0
 40
14.0
 40
14.0
 40
15.0
 40
15.0
 40
15.0
 40
16.0
 40
16.0
 40
16.0
 40
16.0
 10
71.60510387749804
 20
-153.4245713592133
 10
71.60510387749804
 20
-153.5027750267284
 10
71.58805065484604
 20
-153.6044053435433
 10
71.52466089791744
 20
-153.7060356603582
 10
71.41459009716371
 20
-153.8793239632662
 10
71.28350421394995
 20
-153.9006835552748
 10
71.17567272526163
 20
-153.9196315804437
 10
71.17567272526163
 20
-153.9196315804437
 10
71.17567272526163
 20
-153.6974229216451
 10
71.17567272526163
 20
-153.6974229216451
 10
71.37445473476056
 20
-153.6426459034296
 10
71.4040825559337
 20
-153.5155218800239
 10
71.4040825559337
 20
-153.4225043019221
 10
71.4040825559337
 20
-153.2829779347695
 10
71.30469155118425
 20
-153.1307047143215
 10
71.07197535115561
 20
-153.1307047143215
 10
70.81600475660156
 20
-153.1307047143215
 10
70.74624157302524
 20
-153.3105386986515
 10
70.74624157302524
 20
-153.4311170406352
 10
70.74624157302524
 20
-153.4628119190996
 10
70.74624157302524
 20
-153.6044053435433
 10
70.87526039894786
 20
-153.6932888070628
 10
70.87526039894786
 20
-153.6932888070628
 10
70.85614011900472
 20
-153.8689886768105
 10
70.85614011900472
 20
-153.8689886768105
 10
70.85614011900472
 20
-153.8689886768105
 10
70.01002466782735
 20
-153.7484103348267
 10
70.01002466782735
 20
-153.7484103348267
 10
70.01002466782735
 20
-153.7484103348267
 10
70.01002466782735
 20
-152.9698187551603
 10
70.01002466782735
 20
-152.9698187551603
 10
70.01002466782735
 20
-152.9698187551603
 10
70.20467256274398
 20
-152.9698187551603
 10
70.20467256274398
 20
-152.9698187551603
 10
70.20467256274398
 20
-152.9698187551603
 10
70.20467256274398
 20
-153.5854573183744
 10
70.20467256274398
 20
-153.5854573183744
 10
70.20467256274398
 20
-153.5854573183744
 10
70.62773028833266
 20
-153.6509141325942
 10
70.62773028833266
 20
-153.6509141325942
 10
70.59379609780293
 20
-153.5895914329568
 10
70.55366073539978
 20
-153.5072536508593
 10
70.55366073539978
 20
-153.3887423661667
 10
70.55366073539978
 20
-153.1348388289038
 10
70.73986814637753
 20
-152.8978162595186
 10
71.05285507121248
 20
-152.8978162595186
 10
71.37032062017826
 20
-152.8978162595186
 10
71.60510387749804
 20
-153.1220919756084
 10
71.60510387749804
 20
-153.4245713592133
 97
        0
 97
        1
330
D2
 75
     2
 76
     1
 98
        1
 10
0.0
 20
0.0
450
        0
451
        0
460
0.0
461
0.0
452
        0
462
0.0
453
        0
470

  0
ENDBLK
  5
CF
330
CC
100
AcDbEntity
  8
0
100
AcDbBlockEnd
  0
BLOCK
  5
D9
330
D7
100
AcDbEntity
  8
0
100
AcDbBlockBegin
  2
Block_11
 70
     0
 10
0.0
 20
0.0
 30
0.0
  3
Block_11
  1

  0
INSERT
  5
DC
330
D7
100
AcDbEntity
  8
レイヤー 1
100
AcDbBlockReference
  2
Block_12
 10
0.0
 20
0.0
 30
0.0
  0
ENDBLK
  5
DA
330
D7
100
AcDbEntity
  8
0
100
AcDbBlockEnd
  0
BLOCK
  5
DD
330
DB
100
AcDbEntity
  8
0
100
AcDbBlockBegin
  2
Block_12
 70
     0
 10
0.0
 20
0.0
 30
0.0
  3
Block_12
  1

  0
SPLINE
  5
DF
330
DB
100
AcDbEntity
  8
レイヤー 1
100
AcDbSpline
210
0.0
220
0.0
230
1.0
 70
     9
 71
     3
 72
    20
 73
    16
 74
     0
 42
0.0000000001
 43
0.0000000001
 40
0.0
 40
0.0
 40
0.0
 40
0.0
 40
1.0
 40
1.0
 40
1.0
 40
2.0
 40
2.0
 40
2.0
 40
3.0
 40
3.0
 40
3.0
 40
4.0
 40
4.0
 40
4.0
 40
5.0
 40
5.0
 40
5.0
 40
5.0
 10
75.51253117686839
 20
-177.1078802725633
 30
0.0
 10
75.51253117686839
 20
-177.1078802725633
 30
0.0
 10
75.06828611404543
 20
-177.1078802725633
 30
0.0
 10
75.06828611404543
 20
-177.1078802725633
 30
0.0
 10
75.06828611404543
 20
-177.1078802725633
 30
0.0
 10
75.06828611404543
 20
-177.5881265832071
 30
0.0
 10
75.06828611404543
 20
-177.5881265832071
 30
0.0
 10
75.06828611404543
 20
-177.5881265832071
 30
0.0
 10
75.51046411957725
 20
-177.5881265832071
 30
0.0
 10
75.51046411957725
 20
-177.5881265832071
 30
0.0
 10
75.6098551243267
 20
-177.5881265832071
 30
0.0
 10
75.74524737689703
 20
-177.5119899729831
 30
0.0
 10
75.74524737689703
 20
-177.3407687273662
 30
0.0
 10
75.74524737689703
 20
-177.262565059851
 30
0.0
 10
75.71148544114158
 20
-177.1078802725633
 30
0.0
 10
75.51253117686839
 20
-177.1078802725633
 30
0.0
  0
SPLINE
  5
E0
330
DB
100
AcDbEntity
  8
レイヤー 1
100
AcDbSpline
210
0.0
220
0.0
230
1.0
 70
     9
 71
     3
 72
    44
 73
    40
 74
     0
 42
0.0000000001
 43
0.0000000001
 40
0.0
 40
0.0
 40
0.0
 40
0.0
 40
1.0
 40
1.0
 40
1.0
 40
2.0
 40
2.0
 40
2.0
 40
3.0
 40
3.0
 40
3.0
 40
4.0
 40
4.0
 40
4.0
 40
5.0
 40
5.0
 40
5.0
 40
6.0
 40
6.0
 40
6.0
 40
7.0
 40
7.0
 40
7.0
 40
8.0
 40
8.0
 40
8.0
 40
9.0
 40
9.0
 40
9.0
 40
10.0
 40
10.0
 40
10.0
 40
11.0
 40
11.0
 40
11.0
 40
12.0
 40
12.0
 40
12.0
 40
13.0
 40
13.0
 40
13.0
 40
13.0
 10
75.76436765684016
 20
-178.4407877158064
 30
0.0
 10
75.74094100754045
 20
-178.3963459840467
 30
0.0
 10
75.71992592508043
 20
-178.3436360231224
 30
0.0
 10
75.71768661301503
 20
-178.1128146256107
 30
0.0
 10
75.71355249843273
 20
-177.869590884352
 30
0.0
 10
75.65429685608643
 20
-177.7996554460015
 30
0.0
 10
75.47652992904755
 20
-177.7996554460015
 30
0.0
 10
75.47652992904755
 20
-177.7996554460015
 30
0.0
 10
75.06828611404543
 20
-177.7996554460015
 30
0.0
 10
75.06828611404543
 20
-177.7996554460015
 30
0.0
 10
75.06828611404543
 20
-177.7996554460015
 30
0.0
 10
75.06828611404543
 20
-178.4407877158064
 30
0.0
 10
75.06828611404543
 20
-178.4407877158064
 30
0.0
 10
75.06828611404543
 20
-178.4407877158064
 30
0.0
 10
74.83350285672566
 20
-178.4407877158064
 30
0.0
 10
74.83350285672566
 20
-178.4407877158064
 30
0.0
 10
74.83350285672566
 20
-178.4407877158064
 30
0.0
 10
74.83350285672566
 20
-176.896351409769
 30
0.0
 10
74.83350285672566
 20
-176.896351409769
 30
0.0
 10
74.83350285672566
 20
-176.896351409769
 30
0.0
 10
75.50822480751183
 20
-176.896351409769
 30
0.0
 10
75.50822480751183
 20
-176.896351409769
 30
0.0
 10
75.81501056047334
 20
-176.896351409769
 30
0.0
 10
75.98226994628221
 20
-177.0679171649344
 30
0.0
 10
75.98226994628221
 20
-177.3238877594885
 30
0.0
 10
75.98226994628221
 20
-177.3745306631216
 30
0.0
 10
75.97365720756909
 20
-177.4572129547676
 30
0.0
 10
75.92921547580937
 20
-177.5374836795739
 30
0.0
 10
75.87013208823733
 20
-177.64118105368
 30
0.0
 10
75.80450301924333
 20
-177.6601290788488
 30
0.0
 10
75.74318031960586
 20
-177.6770100467266
 30
0.0
 10
75.88063962946733
 20
-177.7193847211951
 30
0.0
 10
75.9483357557525
 20
-177.7679605675372
 30
0.0
 10
75.95264212510906
 20
-178.0831868044375
 30
0.0
 10
75.95677623969137
 20
-178.3539713095782
 30
0.0
 10
75.99277748751223
 20
-178.3856661880425
 30
0.0
 10
76.06047361379738
 20
-178.4407877158064
 30
0.0
 10
76.06047361379738
 20
-178.4407877158064
 30
0.0
 10
75.76436765684016
 20
-178.4407877158064
 30
0.0
 10
75.76436765684016
 20
-178.4407877158064
 30
0.0
  0
HATCH
  5
E1
330
DB
100
AcDbEntity
  8
レイヤー 1
 62
    18
420
        0
440
 33554687
100
AcDbHatch
 10
0.0
 20
0.0
 30
0.0
210
0.0
220
0.0
230
1.0
  2
SOLID
 70
     1
 71
     1
 91
        2
 92
        1
 93
        1
 72
     4
 94
        3
 73
     0
 74
     0
 95
       20
 96
       16
 40
0.0
 40
0.0
 40
0.0
 40
0.0
 40
1.0
 40
1.0
 40
1.0
 40
2.0
 40
2.0
 40
2.0
 40
3.0
 40
3.0
 40
3.0
 40
4.0
 40
4.0
 40
4.0
 40
5.0
 40
5.0
 40
5.0
 40
5.0
 10
75.51253117686839
 20
-177.1078802725633
 10
75.51253117686839
 20
-177.1078802725633
 10
75.06828611404543
 20
-177.1078802725633
 10
75.06828611404543
 20
-177.1078802725633
 10
75.06828611404543
 20
-177.1078802725633
 10
75.06828611404543
 20
-177.5881265832071
 10
75.06828611404543
 20
-177.5881265832071
 10
75.06828611404543
 20
-177.5881265832071
 10
75.51046411957725
 20
-177.5881265832071
 10
75.51046411957725
 20
-177.5881265832071
 10
75.6098551243267
 20
-177.5881265832071
 10
75.74524737689703
 20
-177.5119899729831
 10
75.74524737689703
 20
-177.3407687273662
 10
75.74524737689703
 20
-177.262565059851
 10
75.71148544114158
 20
-177.1078802725633
 10
75.51253117686839
 20
-177.1078802725633
 97
        0
 97
        1
330
DF
 92
        1
 93
        1
 72
     4
 94
        3
 73
     0
 74
     0
 95
       44
 96
       40
 40
0.0
 40
0.0
 40
0.0
 40
0.0
 40
1.0
 40
1.0
 40
1.0
 40
2.0
 40
2.0
 40
2.0
 40
3.0
 40
3.0
 40
3.0
 40
4.0
 40
4.0
 40
4.0
 40
5.0
 40
5.0
 40
5.0
 40
6.0
 40
6.0
 40
6.0
 40
7.0
 40
7.0
 40
7.0
 40
8.0
 40
8.0
 40
8.0
 40
9.0
 40
9.0
 40
9.0
 40
10.0
 40
10.0
 40
10.0
 40
11.0
 40
11.0
 40
11.0
 40
12.0
 40
12.0
 40
12.0
 40
13.0
 40
13.0
 40
13.0
 40
13.0
 10
75.76436765684016
 20
-178.4407877158064
 10
75.74094100754045
 20
-178.3963459840467
 10
75.71992592508043
 20
-178.3436360231224
 10
75.71768661301503
 20
-178.1128146256107
 10
75.71355249843273
 20
-177.869590884352
 10
75.65429685608643
 20
-177.7996554460015
 10
75.47652992904755
 20
-177.7996554460015
 10
75.47652992904755
 20
-177.7996554460015
 10
75.06828611404543
 20
-177.7996554460015
 10
75.06828611404543
 20
-177.7996554460015
 10
75.06828611404543
 20
-177.7996554460015
 10
75.06828611404543
 20
-178.4407877158064
 10
75.06828611404543
 20
-178.4407877158064
 10
75.06828611404543
 20
-178.4407877158064
 10
74.83350285672566
 20
-178.4407877158064
 10
74.83350285672566
 20
-178.4407877158064
 10
74.83350285672566
 20
-178.4407877158064
 10
74.83350285672566
 20
-176.896351409769
 10
74.83350285672566
 20
-176.896351409769
 10
74.83350285672566
 20
-176.896351409769
 10
75.50822480751183
 20
-176.896351409769
 10
75.50822480751183
 20
-176.896351409769
 10
75.81501056047334
 20
-176.896351409769
 10
75.98226994628221
 20
-177.0679171649344
 10
75.98226994628221
 20
-177.3238877594885
 10
75.98226994628221
 20
-177.3745306631216
 10
75.97365720756909
 20
-177.4572129547676
 10
75.92921547580937
 20
-177.5374836795739
 10
75.87013208823733
 20
-177.64118105368
 10
75.80450301924333
 20
-177.6601290788488
 10
75.74318031960586
 20
-177.6770100467266
 10
75.88063962946733
 20
-177.7193847211951
 10
75.9483357557525
 20
-177.7679605675372
 10
75.95264212510906
 20
-178.0831868044375
 10
75.95677623969137
 20
-178.3539713095782
 10
75.99277748751223
 20
-178.3856661880425
 10
76.06047361379738
 20
-178.4407877158064
 10
76.06047361379738
 20
-178.4407877158064
 10
75.76436765684016
 20
-178.4407877158064
 10
75.76436765684016
 20
-178.4407877158064
 97
        0
 97
        1
330
E0
 75
     2
 76
     1
 98
        1
 10
0.0
 20
0.0
450
        0
451
        0
460
0.0
461
0.0
452
        0
462
0.0
453
        0
470

  0
SPLINE
  5
E2
330
DB
100
AcDbEntity
  8
レイヤー 1
100
AcDbSpline
210
0.0
220
0.0
230
1.0
 70
     9
 71
     3
 72
    17
 73
    13
 74
     0
 42
0.0000000001
 43
0.0000000001
 40
0.0
 40
0.0
 40
0.0
 40
0.0
 40
1.0
 40
1.0
 40
1.0
 40
2.0
 40
2.0
 40
2.0
 40
3.0
 40
3.0
 40
3.0
 40
4.0
 40
4.0
 40
4.0
 40
4.0
 10
76.69798853334286
 20
-177.0403564010524
 30
0.0
 10
76.57947724865028
 20
-177.0403564010524
 30
0.0
 10
76.40394963367679
 20
-177.0975449861076
 30
0.0
 10
76.40394963367679
 20
-177.3831434018348
 30
0.0
 10
76.40394963367679
 20
-177.6094861752157
 30
0.0
 10
76.54347600082942
 20
-177.7045708106086
 30
0.0
 10
76.67886825339973
 20
-177.7045708106086
 30
0.0
 10
76.94121227460151
 20
-177.7045708106086
 30
0.0
 10
76.97928057971352
 20
-177.4951090051054
 30
0.0
 10
76.97928057971352
 20
-177.3786647777039
 30
0.0
 10
76.97928057971352
 20
-177.2033094175047
 30
0.0
 10
76.88419594432062
 20
-177.0403564010524
 30
0.0
 10
76.69798853334286
 20
-177.0403564010524
 30
0.0
  0
SPLINE
  5
E3
330
DB
100
AcDbEntity
  8
レイヤー 1
100
AcDbSpline
210
0.0
220
0.0
230
1.0
 70
     9
 71
     3
 72
    32
 73
    28
 74
     0
 42
0.0000000001
 43
0.0000000001
 40
0.0
 40
0.0
 40
0.0
 40
0.0
 40
1.0
 40
1.0
 40
1.0
 40
2.0
 40
2.0
 40
2.0
 40
3.0
 40
3.0
 40
3.0
 40
4.0
 40
4.0
 40
4.0
 40
5.0
 40
5.0
 40
5.0
 40
6.0
 40
6.0
 40
6.0
 40
7.0
 40
7.0
 40
7.0
 40
8.0
 40
8.0
 40
8.0
 40
9.0
 40
9.0
 40
9.0
 40
9.0
 10
76.6578531709397
 20
-178.4914306194396
 30
0.0
 10
76.48422035848311
 20
-178.4914306194396
 30
0.0
 10
76.23892955993333
 20
-178.4218396906376
 30
0.0
 10
76.20086125482131
 20
-178.0897324858595
 30
0.0
 10
76.20086125482131
 20
-178.0897324858595
 30
0.0
 10
76.4144571749068
 20
-178.0897324858595
 30
0.0
 10
76.4144571749068
 20
-178.0897324858595
 30
0.0
 10
76.42513697091108
 20
-178.1489881282058
 30
0.0
 10
76.45683184937538
 20
-178.296782724523
 30
0.0
 10
76.65992022823086
 20
-178.296782724523
 30
0.0
 10
76.95189207060578
 20
-178.296782724523
 30
0.0
 10
76.98996037571778
 20
-177.9667425770361
 30
0.0
 10
77.00253497423895
 20
-177.7617593956637
 30
0.0
 10
76.91158445342836
 20
-177.84203012047
 30
0.0
 10
76.8438883271432
 20
-177.8992187055252
 30
0.0
 10
76.661987285522
 20
-177.8992187055252
 30
0.0
 10
76.48215330119197
 20
-177.8992187055252
 30
0.0
 10
76.17967391758702
 20
-177.793454274128
 30
0.0
 10
76.17967391758702
 20
-177.387277516417
 30
0.0
 10
76.17967391758702
 20
-177.0679171649344
 30
0.0
 10
76.37845592708595
 20
-176.8477755634269
 30
0.0
 10
76.69592147605172
 20
-176.8477755634269
 30
0.0
 10
77.20992972245099
 20
-176.8477755634269
 30
0.0
 10
77.220437263681
 20
-177.4020914270036
 30
0.0
 10
77.220437263681
 20
-177.6156873470891
 30
0.0
 10
77.220437263681
 20
-177.8461642350523
 30
0.0
 10
77.20148923851212
 20
-178.4914306194396
 30
0.0
 10
76.6578531709397
 20
-178.4914306194396
 30
0.0
  0
HATCH
  5
E4
330
DB
100
AcDbEntity
  8
レイヤー 1
 62
    18
420
        0
440
 33554687
100
AcDbHatch
 10
0.0
 20
0.0
 30
0.0
210
0.0
220
0.0
230
1.0
  2
SOLID
 70
     1
 71
     1
 91
        2
 92
        1
 93
        1
 72
     4
 94
        3
 73
     0
 74
     0
 95
       17
 96
       13
 40
0.0
 40
0.0
 40
0.0
 40
0.0
 40
1.0
 40
1.0
 40
1.0
 40
2.0
 40
2.0
 40
2.0
 40
3.0
 40
3.0
 40
3.0
 40
4.0
 40
4.0
 40
4.0
 40
4.0
 10
76.69798853334286
 20
-177.0403564010524
 10
76.57947724865028
 20
-177.0403564010524
 10
76.40394963367679
 20
-177.0975449861076
 10
76.40394963367679
 20
-177.3831434018348
 10
76.40394963367679
 20
-177.6094861752157
 10
76.54347600082942
 20
-177.7045708106086
 10
76.67886825339973
 20
-177.7045708106086
 10
76.94121227460151
 20
-177.7045708106086
 10
76.97928057971352
 20
-177.4951090051054
 10
76.97928057971352
 20
-177.3786647777039
 10
76.97928057971352
 20
-177.2033094175047
 10
76.88419594432062
 20
-177.0403564010524
 10
76.69798853334286
 20
-177.0403564010524
 97
        0
 97
        1
330
E2
 92
        1
 93
        1
 72
     4
 94
        3
 73
     0
 74
     0
 95
       32
 96
       28
 40
0.0
 40
0.0
 40
0.0
 40
0.0
 40
1.0
 40
1.0
 40
1.0
 40
2.0
 40
2.0
 40
2.0
 40
3.0
 40
3.0
 40
3.0
 40
4.0
 40
4.0
 40
4.0
 40
5.0
 40
5.0
 40
5.0
 40
6.0
 40
6.0
 40
6.0
 40
7.0
 40
7.0
 40
7.0
 40
8.0
 40
8.0
 40
8.0
 40
9.0
 40
9.0
 40
9.0
 40
9.0
 10
76.6578531709397
 20
-178.4914306194396
 10
76.48422035848311
 20
-178.4914306194396
 10
76.23892955993333
 20
-178.4218396906376
 10
76.20086125482131
 20
-178.0897324858595
 10
76.20086125482131
 20
-178.0897324858595
 10
76.4144571749068
 20
-178.0897324858595
 10
76.4144571749068
 20
-178.0897324858595
 10
76.42513697091108
 20
-178.1489881282058
 10
76.45683184937538
 20
-178.296782724523
 10
76.65992022823086
 20
-178.296782724523
 10
76.95189207060578
 20
-178.296782724523
 10
76.98996037571778
 20
-177.9667425770361
 10
77.00253497423895
 20
-177.7617593956637
 10
76.91158445342836
 20
-177.84203012047
 10
76.8438883271432
 20
-177.8992187055252
 10
76.661987285522
 20
-177.8992187055252
 10
76.48215330119197
 20
-177.8992187055252
 10
76.17967391758702
 20
-177.793454274128
 10
76.17967391758702
 20
-177.387277516417
 10
76.17967391758702
 20
-177.0679171649344
 10
76.37845592708595
 20
-176.8477755634269
 10
76.69592147605172
 20
-176.8477755634269
 10
77.20992972245099
 20
-176.8477755634269
 10
77.220437263681
 20
-177.4020914270036
 10
77.220437263681
 20
-177.6156873470891
 10
77.220437263681
 20
-177.8461642350523
 10
77.20148923851212
 20
-178.4914306194396
 10
76.6578531709397
 20
-178.4914306194396
 97
        0
 97
        1
330
E3
 75
     2
 76
     1
 98
        1
 10
0.0
 20
0.0
450
        0
451
        0
460
0.0
461
0.0
452
        0
462
0.0
453
        0
470

  0
ENDBLK
  5
DE
330
DB
100
AcDbEntity
  8
0
100
AcDbBlockEnd
  0
BLOCK
  5
EA
330
E8
100
AcDbEntity
  8
0
100
AcDbBlockBegin
  2
Block_13
 70
     0
 10
0.0
 20
0.0
 30
0.0
  3
Block_13
  1

  0
INSERT
  5
ED
330
E8
100
AcDbEntity
  8
レイヤー 1
100
AcDbBlockReference
  2
Block_14
 10
0.0
 20
0.0
 30
0.0
  0
ENDBLK
  5
EB
330
E8
100
AcDbEntity
  8
0
100
AcDbBlockEnd
  0
BLOCK
  5
EE
330
EC
100
AcDbEntity
  8
0
100
AcDbBlockBegin
  2
Block_14
 70
     0
 10
0.0
 20
0.0
 30
0.0
  3
Block_14
  1

  0
SPLINE
  5
F0
330
EC
100
AcDbEntity
  8
レイヤー 1
100
AcDbSpline
210
0.0
220
0.0
230
1.0
 70
     9
 71
     3
 72
    20
 73
    16
 74
     0
 42
0.0000000001
 43
0.0000000001
 40
0.0
 40
0.0
 40
0.0
 40
0.0
 40
1.0
 40
1.0
 40
1.0
 40
2.0
 40
2.0
 40
2.0
 40
3.0
 40
3.0
 40
3.0
 40
4.0
 40
4.0
 40
4.0
 40
5.0
 40
5.0
 40
5.0
 40
5.0
 10
118.6060248184388
 20
-177.5936387359835
 30
0.0
 10
118.6060248184388
 20
-177.5936387359835
 30
0.0
 10
118.1616075008415
 20
-177.5936387359835
 30
0.0
 10
118.1616075008415
 20
-177.5936387359835
 30
0.0
 10
118.1616075008415
 20
-177.5936387359835
 30
0.0
 10
118.1616075008415
 20
-178.0738850466273
 30
0.0
 10
118.1616075008415
 20
-178.0738850466273
 30
0.0
 10
118.1616075008415
 20
-178.0738850466273
 30
0.0
 10
118.6039577611476
 20
-178.0738850466273
 30
0.0
 10
118.6039577611476
 20
-178.0738850466273
 30
0.0
 10
118.7031765111228
 20
-178.0738850466273
 30
0.0
 10
118.8385687636931
 20
-177.9977484364033
 30
0.0
 10
118.8385687636931
 20
-177.8265271907864
 30
0.0
 10
118.8385687636931
 20
-177.7483235232713
 30
0.0
 10
118.8048068279377
 20
-177.5936387359835
 30
0.0
 10
118.6060248184388
 20
-177.5936387359835
 30
0.0
  0
SPLINE
  5
F1
330
EC
100
AcDbEntity
  8
レイヤー 1
100
AcDbSpline
210
0.0
220
0.0
230
1.0
 70
     9
 71
     3
 72
    44
 73
    40
 74
     0
 42
0.0000000001
 43
0.0000000001
 40
0.0
 40
0.0
 40
0.0
 40
0.0
 40
1.0
 40
1.0
 40
1.0
 40
2.0
 40
2.0
 40
2.0
 40
3.0
 40
3.0
 40
3.0
 40
4.0
 40
4.0
 40
4.0
 40
5.0
 40
5.0
 40
5.0
 40
6.0
 40
6.0
 40
6.0
 40
7.0
 40
7.0
 40
7.0
 40
8.0
 40
8.0
 40
8.0
 40
9.0
 40
9.0
 40
9.0
 40
10.0
 40
10.0
 40
10.0
 40
11.0
 40
11.0
 40
11.0
 40
12.0
 40
12.0
 40
12.0
 40
13.0
 40
13.0
 40
13.0
 40
13.0
 10
118.8578612984105
 20
-178.9265461792267
 30
0.0
 10
118.8344346491108
 20
-178.882104447467
 30
0.0
 10
118.8134195666508
 20
-178.8293944865426
 30
0.0
 10
118.8110079998111
 20
-178.5985730890309
 30
0.0
 10
118.8068738852288
 20
-178.3553493477723
 30
0.0
 10
118.7476182428825
 20
-178.2854139094217
 30
0.0
 10
118.5698513158436
 20
-178.2854139094217
 30
0.0
 10
118.5698513158436
 20
-178.2854139094217
 30
0.0
 10
118.1616075008415
 20
-178.2854139094217
 30
0.0
 10
118.1616075008415
 20
-178.2854139094217
 30
0.0
 10
118.1616075008415
 20
-178.2854139094217
 30
0.0
 10
118.1616075008415
 20
-178.9265461792267
 30
0.0
 10
118.1616075008415
 20
-178.9265461792267
 30
0.0
 10
118.1616075008415
 20
-178.9265461792267
 30
0.0
 10
117.926996498296
 20
-178.9265461792267
 30
0.0
 10
117.926996498296
 20
-178.9265461792267
 30
0.0
 10
117.926996498296
 20
-178.9265461792267
 30
0.0
 10
117.926996498296
 20
-177.3821098731892
 30
0.0
 10
117.926996498296
 20
-177.3821098731892
 30
0.0
 10
117.926996498296
 20
-177.3821098731892
 30
0.0
 10
118.6015461943079
 20
-177.3821098731892
 30
0.0
 10
118.6015461943079
 20
-177.3821098731892
 30
0.0
 10
118.9085042020437
 20
-177.3821098731892
 30
0.0
 10
119.0755913330783
 20
-177.5536756283546
 30
0.0
 10
119.0755913330783
 20
-177.8096462229087
 30
0.0
 10
119.0755913330783
 20
-177.8602891265419
 30
0.0
 10
119.0669785943652
 20
-177.9429714181879
 30
0.0
 10
119.0225368626055
 20
-178.0232421429942
 30
0.0
 10
118.9636257298077
 20
-178.1269395171002
 30
0.0
 10
118.8978244060394
 20
-178.1458875422691
 30
0.0
 10
118.836501706402
 20
-178.1627685101468
 30
0.0
 10
118.9739610162634
 20
-178.2051431846154
 30
0.0
 10
119.0418293973229
 20
-178.2537190309574
 30
0.0
 10
119.0459635119052
 20
-178.5689452678577
 30
0.0
 10
119.0500976264875
 20
-178.8397297729984
 30
0.0
 10
119.0862711290826
 20
-178.8714246514627
 30
0.0
 10
119.1537950005935
 20
-178.9265461792267
 30
0.0
 10
119.1537950005935
 20
-178.9265461792267
 30
0.0
 10
118.8578612984105
 20
-178.9265461792267
 30
0.0
 10
118.8578612984105
 20
-178.9265461792267
 30
0.0
  0
HATCH
  5
F2
330
EC
100
AcDbEntity
  8
レイヤー 1
 62
    18
420
        0
440
 33554687
100
AcDbHatch
 10
0.0
 20
0.0
 30
0.0
210
0.0
220
0.0
230
1.0
  2
SOLID
 70
     1
 71
     1
 91
        2
 92
        1
 93
        1
 72
     4
 94
        3
 73
     0
 74
     0
 95
       20
 96
       16
 40
0.0
 40
0.0
 40
0.0
 40
0.0
 40
1.0
 40
1.0
 40
1.0
 40
2.0
 40
2.0
 40
2.0
 40
3.0
 40
3.0
 40
3.0
 40
4.0
 40
4.0
 40
4.0
 40
5.0
 40
5.0
 40
5.0
 40
5.0
 10
118.6060248184388
 20
-177.5936387359835
 10
118.6060248184388
 20
-177.5936387359835
 10
118.1616075008415
 20
-177.5936387359835
 10
118.1616075008415
 20
-177.5936387359835
 10
118.1616075008415
 20
-177.5936387359835
 10
118.1616075008415
 20
-178.0738850466273
 10
118.1616075008415
 20
-178.0738850466273
 10
118.1616075008415
 20
-178.0738850466273
 10
118.6039577611476
 20
-178.0738850466273
 10
118.6039577611476
 20
-178.0738850466273
 10
118.7031765111228
 20
-178.0738850466273
 10
118.8385687636931
 20
-177.9977484364033
 10
118.8385687636931
 20
-177.8265271907864
 10
118.8385687636931
 20
-177.7483235232713
 10
118.8048068279377
 20
-177.5936387359835
 10
118.6060248184388
 20
-177.5936387359835
 97
        0
 97
        1
330
F0
 92
        1
 93
        1
 72
     4
 94
        3
 73
     0
 74
     0
 95
       44
 96
       40
 40
0.0
 40
0.0
 40
0.0
 40
0.0
 40
1.0
 40
1.0
 40
1.0
 40
2.0
 40
2.0
 40
2.0
 40
3.0
 40
3.0
 40
3.0
 40
4.0
 40
4.0
 40
4.0
 40
5.0
 40
5.0
 40
5.0
 40
6.0
 40
6.0
 40
6.0
 40
7.0
 40
7.0
 40
7.0
 40
8.0
 40
8.0
 40
8.0
 40
9.0
 40
9.0
 40
9.0
 40
10.0
 40
10.0
 40
10.0
 40
11.0
 40
11.0
 40
11.0
 40
12.0
 40
12.0
 40
12.0
 40
13.0
 40
13.0
 40
13.0
 40
13.0
 10
118.8578612984105
 20
-178.9265461792267
 10
118.8344346491108
 20
-178.882104447467
 10
118.8134195666508
 20
-178.8293944865426
 10
118.8110079998111
 20
-178.5985730890309
 10
118.8068738852288
 20
-178.3553493477723
 10
118.7476182428825
 20
-178.2854139094217
 10
118.5698513158436
 20
-178.2854139094217
 10
118.5698513158436
 20
-178.2854139094217
 10
118.1616075008415
 20
-178.2854139094217
 10
118.1616075008415
 20
-178.2854139094217
 10
118.1616075008415
 20
-178.2854139094217
 10
118.1616075008415
 20
-178.9265461792267
 10
118.1616075008415
 20
-178.9265461792267
 10
118.1616075008415
 20
-178.9265461792267
 10
117.926996498296
 20
-178.9265461792267
 10
117.926996498296
 20
-178.9265461792267
 10
117.926996498296
 20
-178.9265461792267
 10
117.926996498296
 20
-177.3821098731892
 10
117.926996498296
 20
-177.3821098731892
 10
117.926996498296
 20
-177.3821098731892
 10
118.6015461943079
 20
-177.3821098731892
 10
118.6015461943079
 20
-177.3821098731892
 10
118.9085042020437
 20
-177.3821098731892
 10
119.0755913330783
 20
-177.5536756283546
 10
119.0755913330783
 20
-177.8096462229087
 10
119.0755913330783
 20
-177.8602891265419
 10
119.0669785943652
 20
-177.9429714181879
 10
119.0225368626055
 20
-178.0232421429942
 10
118.9636257298077
 20
-178.1269395171002
 10
118.8978244060394
 20
-178.1458875422691
 10
118.836501706402
 20
-178.1627685101468
 10
118.9739610162634
 20
-178.2051431846154
 10
119.0418293973229
 20
-178.2537190309574
 10
119.0459635119052
 20
-178.5689452678577
 10
119.0500976264875
 20
-178.8397297729984
 10
119.0862711290826
 20
-178.8714246514627
 10
119.1537950005935
 20
-178.9265461792267
 10
119.1537950005935
 20
-178.9265461792267
 10
118.8578612984105
 20
-178.9265461792267
 10
118.8578612984105
 20
-178.9265461792267
 97
        0
 97
        1
330
F1
 75
     2
 76
     1
 98
        1
 10
0.0
 20
0.0
450
        0
451
        0
460
0.0
461
0.0
452
        0
462
0.0
453
        0
470

  0
SPLINE
  5
F3
330
EC
100
AcDbEntity
  8
レイヤー 1
100
AcDbSpline
210
0.0
220
0.0
230
1.0
 70
     9
 71
     3
 72
    44
 73
    40
 74
     0
 42
0.0000000001
 43
0.0000000001
 40
0.0
 40
0.0
 40
0.0
 40
0.0
 40
1.0
 40
1.0
 40
1.0
 40
2.0
 40
2.0
 40
2.0
 40
3.0
 40
3.0
 40
3.0
 40
4.0
 40
4.0
 40
4.0
 40
5.0
 40
5.0
 40
5.0
 40
6.0
 40
6.0
 40
6.0
 40
7.0
 40
7.0
 40
7.0
 40
8.0
 40
8.0
 40
8.0
 40
9.0
 40
9.0
 40
9.0
 40
10.0
 40
10.0
 40
10.0
 40
11.0
 40
11.0
 40
11.0
 40
12.0
 40
12.0
 40
12.0
 40
13.0
 40
13.0
 40
13.0
 40
13.0
 10
119.8865668103061
 20
-178.344669551768
 30
0.0
 10
119.6688367756383
 20
-178.503488453638
 30
0.0
 10
119.5754746879881
 20
-178.5775580065709
 30
0.0
 10
119.526898841646
 20
-178.7212184883058
 30
0.0
 10
119.526898841646
 20
-178.7212184883058
 30
0.0
 10
120.3054904213125
 20
-178.7212184883058
 30
0.0
 10
120.3054904213125
 20
-178.7212184883058
 30
0.0
 10
120.3054904213125
 20
-178.7212184883058
 30
0.0
 10
120.3054904213125
 20
-178.9265461792267
 30
0.0
 10
120.3054904213125
 20
-178.9265461792267
 30
0.0
 10
120.3054904213125
 20
-178.9265461792267
 30
0.0
 10
119.2774739285139
 20
-178.9265461792267
 30
0.0
 10
119.2774739285139
 20
-178.9265461792267
 30
0.0
 10
119.3091688069782
 20
-178.5689452678577
 30
0.0
 10
119.374625621198
 20
-178.4907416003426
 30
0.0
 10
119.7597872964489
 20
-178.1923963313199
 30
0.0
 10
120.015757891003
 20
-177.993614321821
 30
0.0
 10
120.0812147052227
 20
-177.9257459407616
 30
0.0
 10
120.0812147052227
 20
-177.7882866309001
 30
0.0
 10
120.0812147052227
 20
-177.6697753462075
 30
0.0
 10
120.009212209581
 20
-177.538861717768
 30
0.0
 10
119.8124972573732
 20
-177.538861717768
 30
0.0
 10
119.5523925482369
 20
-177.538861717768
 30
0.0
 10
119.5437798095237
 20
-177.7693386057313
 30
0.0
 10
119.5396456949415
 20
-177.8857828331327
 30
0.0
 10
119.5396456949415
 20
-177.8857828331327
 30
0.0
 10
119.3153699788517
 20
-177.8857828331327
 30
0.0
 10
119.3153699788517
 20
-177.8857828331327
 30
0.0
 10
119.3239827175648
 20
-177.758658809727
 30
0.0
 10
119.3343180040206
 20
-177.6466932064564
 30
0.0
 10
119.4149332383754
 20
-177.5281819217638
 30
0.0
 10
119.5248317843549
 20
-177.3672959626026
 30
0.0
 10
119.7108669405584
 20
-177.3335340268472
 30
0.0
 10
119.8273111679598
 20
-177.3335340268472
 30
0.0
 10
120.1046413545224
 20
-177.3335340268472
 30
0.0
 10
120.3116915931859
 20
-177.5175021257595
 30
0.0
 10
120.3116915931859
 20
-177.7903536881913
 30
0.0
 10
120.3116915931859
 20
-178.0191080284119
 30
0.0
 10
120.195591875333
 20
-178.1183267783871
 30
0.0
 10
119.8865668103061
 20
-178.344669551768
 30
0.0
  0
HATCH
  5
F4
330
EC
100
AcDbEntity
  8
レイヤー 1
 62
    18
420
        0
440
 33554687
100
AcDbHatch
 10
0.0
 20
0.0
 30
0.0
210
0.0
220
0.0
230
1.0
  2
SOLID
 70
     1
 71
     1
 91
        1
 92
        1
 93
        1
 72
     4
 94
        3
 73
     0
 74
     0
 95
       44
 96
       40
 40
0.0
 40
0.0
 40
0.0
 40
0.0
 40
1.0
 40
1.0
 40
1.0
 40
2.0
 40
2.0
 40
2.0
 40
3.0
 40
3.0
 40
3.0
 40
4.0
 40
4.0
 40
4.0
 40
5.0
 40
5.0
 40
5.0
 40
6.0
 40
6.0
 40
6.0
 40
7.0
 40
7.0
 40
7.0
 40
8.0
 40
8.0
 40
8.0
 40
9.0
 40
9.0
 40
9.0
 40
10.0
 40
10.0
 40
10.0
 40
11.0
 40
11.0
 40
11.0
 40
12.0
 40
12.0
 40
12.0
 40
13.0
 40
13.0
 40
13.0
 40
13.0
 10
119.8865668103061
 20
-178.344669551768
 10
119.6688367756383
 20
-178.503488453638
 10
119.5754746879881
 20
-178.5775580065709
 10
119.526898841646
 20
-178.7212184883058
 10
119.526898841646
 20
-178.7212184883058
 10
120.3054904213125
 20
-178.7212184883058
 10
120.3054904213125
 20
-178.7212184883058
 10
120.3054904213125
 20
-178.7212184883058
 10
120.3054904213125
 20
-178.9265461792267
 10
120.3054904213125
 20
-178.9265461792267
 10
120.3054904213125
 20
-178.9265461792267
 10
119.2774739285139
 20
-178.9265461792267
 10
119.2774739285139
 20
-178.9265461792267
 10
119.3091688069782
 20
-178.5689452678577
 10
119.374625621198
 20
-178.4907416003426
 10
119.7597872964489
 20
-178.1923963313199
 10
120.015757891003
 20
-177.993614321821
 10
120.0812147052227
 20
-177.9257459407616
 10
120.0812147052227
 20
-177.7882866309001
 10
120.0812147052227
 20
-177.6697753462075
 10
120.009212209581
 20
-177.538861717768
 10
119.8124972573732
 20
-177.538861717768
 10
119.5523925482369
 20
-177.538861717768
 10
119.5437798095237
 20
-177.7693386057313
 10
119.5396456949415
 20
-177.8857828331327
 10
119.5396456949415
 20
-177.8857828331327
 10
119.3153699788517
 20
-177.8857828331327
 10
119.3153699788517
 20
-177.8857828331327
 10
119.3239827175648
 20
-177.758658809727
 10
119.3343180040206
 20
-177.6466932064564
 10
119.4149332383754
 20
-177.5281819217638
 10
119.5248317843549
 20
-177.3672959626026
 10
119.7108669405584
 20
-177.3335340268472
 10
119.8273111679598
 20
-177.3335340268472
 10
120.1046413545224
 20
-177.3335340268472
 10
120.3116915931859
 20
-177.5175021257595
 10
120.3116915931859
 20
-177.7903536881913
 10
120.3116915931859
 20
-178.0191080284119
 10
120.195591875333
 20
-178.1183267783871
 10
119.8865668103061
 20
-178.344669551768
 97
        0
 97
        1
330
F3
 75
     2
 76
     1
 98
        1
 10
0.0
 20
0.0
450
        0
451
        0
460
0.0
461
0.0
452
        0
462
0.0
453
        0
470

  0
ENDBLK
  5
EF
330
EC
100
AcDbEntity
  8
0
100
AcDbBlockEnd
  0
ENDSEC
  0
SECTION
  2
ENTITIES
  0
LINE
  5
79
330
70
100
AcDbEntity
  8
レイヤー 1
 62
    18
420
        0
370
     9
100
AcDbLine
 10
105.3221026225661
 20
-117.8237159635025
 30
0.0
 11
136.9371176936874
 21
-117.8237159636264
 31
0.0
  0
SPLINE
  5
7A
330
70
100
AcDbEntity
  8
レイヤー 1
 62
    18
420
        0
370
     9
100
AcDbSpline
210
0.0
220
0.0
230
1.0
 70
     9
 71
     3
 72
    17
 73
    13
 74
     0
 42
0.0000000001
 43
0.0000000001
 40
0.0
 40
0.0
 40
0.0
 40
0.0
 40
1.0
 40
1.0
 40
1.0
 40
2.0
 40
2.0
 40
2.0
 40
3.0
 40
3.0
 40
3.0
 40
4.0
 40
4.0
 40
4.0
 40
4.0
 10
135.757701353912
 20
-117.8167094227623
 30
0.0
 10
135.7577013539145
 20
-117.7615702575023
 30
0.0
 10
135.8024688527744
 20
-117.7168027586463
 30
0.0
 10
135.8576080180337
 20
-117.7168027586489
 30
0.0
 10
135.9123591277492
 20
-117.7168027586508
 30
0.0
 10
135.9571619043814
 20
-117.7615702575113
 30
0.0
 10
135.9571619043789
 20
-117.8167094227712
 30
0.0
 10
135.9571619043763
 20
-117.8725188657919
 30
0.0
 10
135.9123591277396
 20
-117.9172863646472
 30
0.0
 10
135.8576080180247
 20
-117.9172863646453
 30
0.0
 10
135.8024688527654
 20
-117.9172863646424
 30
0.0
 10
135.7577013539094
 20
-117.8725188657829
 30
0.0
 10
135.757701353912
 20
-117.8167094227623
 30
0.0
  0
LINE
  5
7B
330
70
100
AcDbEntity
  8
レイヤー 1
 62
    18
420
        0
370
     9
100
AcDbLine
 10
135.8650609657715
 20
-171.9390034579868
 30
0.0
 11
135.8650609663574
 21
-160.1394918397701
 31
0.0
  0
LINE
  5
7C
330
70
100
AcDbEntity
  8
レイヤー 1
 62
    18
420
        0
370
     9
100
AcDbLine
 10
114.9782286927117
 20
-172.0458979785768
 30
0.0
 11
136.9504715421977
 21
-172.0458979787013
 31
0.0
  0
SPLINE
  5
7D
330
70
100
AcDbEntity
  8
レイヤー 1
 62
    18
420
        0
370
     9
100
AcDbSpline
210
0.0
220
0.0
230
1.0
 70
     9
 71
     3
 72
    17
 73
    13
 74
     0
 42
0.0000000001
 43
0.0000000001
 40
0.0
 40
0.0
 40
0.0
 40
0.0
 40
1.0
 40
1.0
 40
1.0
 40
2.0
 40
2.0
 40
2.0
 40
3.0
 40
3.0
 40
3.0
 40
4.0
 40
4.0
 40
4.0
 40
4.0
 10
135.7710104126109
 20
-172.0389098966617
 30
0.0
 10
135.7710104126134
 20
-171.9837707314017
 30
0.0
 10
135.8157779114733
 20
-171.9390032325464
 30
0.0
 10
135.8709170767326
 20
-171.939003232549
 30
0.0
 10
135.9256681864475
 20
-171.9390032325503
 30
0.0
 10
135.9704709630803
 20
-171.9837707314107
 30
0.0
 10
135.9704709630778
 20
-172.0389098966706
 30
0.0
 10
135.9704709630752
 20
-172.0947193396913
 30
0.0
 10
135.9256681864385
 20
-172.1394868385466
 30
0.0
 10
135.8709170767242
 20
-172.1394868385453
 30
0.0
 10
135.8157779114636
 20
-172.1394868385428
 30
0.0
 10
135.7710104126083
 20
-172.0947193396823
 30
0.0
 10
135.7710104126109
 20
-172.0389098966617
 30
0.0
  0
LINE
  5
7E
330
70
100
AcDbEntity
  8
レイヤー 1
 62
    18
420
        0
370
     9
100
AcDbLine
 10
115.5274047050806
 20
-160.0458984632645
 30
0.0
 11
136.9504715448697
 21
-160.045898463389
 31
0.0
  0
SPLINE
  5
7F
330
70
100
AcDbEntity
  8
レイヤー 1
 62
    18
420
        0
370
     9
100
AcDbSpline
210
0.0
220
0.0
230
1.0
 70
     9
 71
     3
 72
    17
 73
    13
 74
     0
 42
0.0000000001
 43
0.0000000001
 40
0.0
 40
0.0
 40
0.0
 40
0.0
 40
1.0
 40
1.0
 40
1.0
 40
2.0
 40
2.0
 40
2.0
 40
3.0
 40
3.0
 40
3.0
 40
4.0
 40
4.0
 40
4.0
 40
4.0
 10
135.7710105814239
 20
-160.038914906783
 30
0.0
 10
135.7710105814259
 20
-159.983775741523
 30
0.0
 10
135.8157780802857
 20
-159.9390082426677
 30
0.0
 10
135.8709172455456
 20
-159.9390082426703
 30
0.0
 10
135.9256683552599
 20
-159.9390082426728
 30
0.0
 10
135.9704711318934
 20
-159.983775741532
 30
0.0
 10
135.9704711318908
 20
-160.038914906792
 30
0.0
 10
135.9704711318882
 20
-160.0947243498126
 30
0.0
 10
135.9256683552509
 20
-160.1394918486692
 30
0.0
 10
135.8709172455367
 20
-160.1394918486666
 30
0.0
 10
135.8157780802767
 20
-160.139491848664
 30
0.0
 10
135.7710105814214
 20
-160.0947243498036
 30
0.0
 10
135.7710105814239
 20
-160.038914906783
 30
0.0
  0
LINE
  5
80
330
70
100
AcDbEntity
  8
レイヤー 1
 62
    18
420
        0
370
     9
100
AcDbLine
 10
135.8707347608643
 20
-160.03925303734
 30
0.0
 11
135.8707347614502
 21
-150.0392529313913
 31
0.0
  0
LINE
  5
81
330
70
100
AcDbEntity
  8
レイヤー 1
 62
    18
420
        0
370
     9
100
AcDbLine
 10
134.6022568167928
 20
-150.0458988604797
 30
0.0
 11
136.9504715128399
 21
-150.0458988606035
 31
0.0
  0
SPLINE
  5
82
330
70
100
AcDbEntity
  8
レイヤー 1
 62
    18
420
        0
370
     9
100
AcDbSpline
210
0.0
220
0.0
230
1.0
 70
     9
 71
     3
 72
    17
 73
    13
 74
     0
 42
0.0000000001
 43
0.0000000001
 40
0.0
 40
0.0
 40
0.0
 40
0.0
 40
1.0
 40
1.0
 40
1.0
 40
2.0
 40
2.0
 40
2.0
 40
3.0
 40
3.0
 40
3.0
 40
4.0
 40
4.0
 40
4.0
 40
4.0
 10
135.7710105814239
 20
-150.0389153039982
 30
0.0
 10
135.7710105814259
 20
-149.9837761387382
 30
0.0
 10
135.8157780802857
 20
-149.9390086398829
 30
0.0
 10
135.8709172455456
 20
-149.9390086398855
 30
0.0
 10
135.9256683552599
 20
-149.939008639888
 30
0.0
 10
135.9704711318934
 20
-149.9837761387472
 30
0.0
 10
135.9704711318908
 20
-150.0389153040072
 30
0.0
 10
135.9704711318882
 20
-150.0947247470278
 30
0.0
 10
135.9256683552509
 20
-150.1394922458844
 30
0.0
 10
135.8709172455367
 20
-150.1394922458818
 30
0.0
 10
135.8157780802767
 20
-150.1394922458793
 30
0.0
 10
135.7710105814214
 20
-150.0947247470188
 30
0.0
 10
135.7710105814239
 20
-150.0389153039982
 30
0.0
  0
LINE
  5
83
330
70
100
AcDbEntity
  8
レイヤー 1
 62
    18
420
        0
370
     9
100
AcDbLine
 10
135.8707409552095
 20
-149.9692988197154
 30
0.0
 11
135.8707409552634
 21
-148.769298820015
 31
0.0
  0
LINE
  5
84
330
70
100
AcDbEntity
  8
レイヤー 1
 62
    18
420
        0
370
     9
100
AcDbLine
 10
134.6022568167928
 20
-148.8237163529726
 30
0.0
 11
136.9504715128399
 21
-148.8237163530961
 31
0.0
  0
SPLINE
  5
85
330
70
100
AcDbEntity
  8
レイヤー 1
 62
    18
420
        0
370
     9
100
AcDbSpline
210
0.0
220
0.0
230
1.0
 70
     9
 71
     3
 72
    17
 73
    13
 74
     0
 42
0.0000000001
 43
0.0000000001
 40
0.0
 40
0.0
 40
0.0
 40
0.0
 40
1.0
 40
1.0
 40
1.0
 40
2.0
 40
2.0
 40
2.0
 40
3.0
 40
3.0
 40
3.0
 40
4.0
 40
4.0
 40
4.0
 40
4.0
 10
135.7710105814239
 20
-148.8167327964907
 30
0.0
 10
135.7710105814259
 20
-148.7615936312311
 30
0.0
 10
135.8157780802857
 20
-148.7168261323752
 30
0.0
 10
135.8709172455456
 20
-148.7168261323777
 30
0.0
 10
135.9256683552599
 20
-148.7168261323803
 30
0.0
 10
135.9704711318934
 20
-148.7615936312401
 30
0.0
 10
135.9704711318908
 20
-148.8167327965
 30
0.0
 10
135.9704711318882
 20
-148.8725422395203
 30
0.0
 10
135.9256683552509
 20
-148.917309738377
 30
0.0
 10
135.8709172455367
 20
-148.9173097383744
 30
0.0
 10
135.8157780802767
 20
-148.9173097383718
 30
0.0
 10
135.7710105814214
 20
-148.8725422395114
 30
0.0
 10
135.7710105814239
 20
-148.8167327964907
 30
0.0
  0
LINE
  5
86
330
70
100
AcDbEntity
  8
レイヤー 1
 62
    18
420
        0
370
     9
100
AcDbLine
 10
135.8707408605871
 20
-148.7747828511845
 30
0.0
 11
135.870740860641
 21
-117.8170448884272
 31
0.0
  0
LINE
  5
87
330
70
100
AcDbEntity
  8
レイヤー 1
 62
    18
420
        0
370
     9
100
AcDbLine
 10
94.55366122088639
 20
-142.2747210560599
 30
0.0
 11
94.55366122147257
 21
-137.2747210573101
 31
0.0
  0
LINE
  5
88
330
70
100
AcDbEntity
  8
レイヤー 1
 62
    18
420
        0
370
     9
100
AcDbLine
 10
92.1909573593742
 20
-137.2747212097085
 30
0.0
 11
95.45330348377708
 21
-137.2747212095843
 31
0.0
  0
SPLINE
  5
89
330
70
100
AcDbEntity
  8
レイヤー 1
 62
    18
420
        0
370
     9
100
AcDbSpline
210
0.0
220
0.0
230
1.0
 70
     9
 71
     3
 72
    17
 73
    13
 74
     0
 42
0.0000000001
 43
0.0000000001
 40
0.0
 40
0.0
 40
0.0
 40
0.0
 40
1.0
 40
1.0
 40
1.0
 40
2.0
 40
2.0
 40
2.0
 40
3.0
 40
3.0
 40
3.0
 40
4.0
 40
4.0
 40
4.0
 40
4.0
 10
94.45961066772575
 20
-137.2816888460449
 30
0.0
 10
94.45961066772833
 20
-137.3368280113049
 30
0.0
 10
94.50437816658814
 20
-137.3815955101602
 30
0.0
 10
94.55951733184777
 20
-137.3815955101576
 30
0.0
 10
94.61426844156239
 20
-137.3815955101564
 30
0.0
 10
94.65907121819554
 20
-137.3368280112959
 30
0.0
 10
94.65907121819297
 20
-137.281688846036
 30
0.0
 10
94.65907121819041
 20
-137.2258794030154
 30
0.0
 10
94.6142684415534
 20
-137.18111190416
 30
0.0
 10
94.55951733183878
 20
-137.1811119041613
 30
0.0
 10
94.50437816657915
 20
-137.1811119041639
 30
0.0
 10
94.45961066772319
 20
-137.2258794030243
 30
0.0
 10
94.45961066772575
 20
-137.2816888460449
 30
0.0
  0
LINE
  5
8A
330
70
100
AcDbEntity
  8
レイヤー 1
 62
    18
420
        0
370
     9
100
AcDbLine
 10
72.23552708202269
 20
-171.9389852583882
 30
0.0
 11
72.23552708336097
 21
-137.2415042867059
 31
0.0
  0
LINE
  5
8B
330
70
100
AcDbEntity
  8
レイヤー 1
 62
    18
420
        0
370
     9
100
AcDbLine
 10
77.48682984424954
 20
-137.2415032758689
 30
0.0
 11
71.15577346137941
 21
-137.2415032746923
 31
0.0
  0
SPLINE
  5
8C
330
70
100
AcDbEntity
  8
レイヤー 1
 62
    18
420
        0
370
     9
100
AcDbSpline
210
0.0
220
0.0
230
1.0
 70
     9
 71
     3
 72
    17
 73
    13
 74
     0
 42
0.0000000001
 43
0.0000000001
 40
0.0
 40
0.0
 40
0.0
 40
0.0
 40
1.0
 40
1.0
 40
1.0
 40
2.0
 40
2.0
 40
2.0
 40
3.0
 40
3.0
 40
3.0
 40
4.0
 40
4.0
 40
4.0
 40
4.0
 10
72.33518935938578
 20
-137.2344967338814
 30
0.0
 10
72.33518935938578
 20
-137.1793575686215
 30
0.0
 10
72.2904218605279
 20
-137.1345900697633
 30
0.0
 10
72.23528269526827
 20
-137.1345900697633
 30
0.0
 10
72.18053158555365
 20
-137.134590069763
 30
0.0
 10
72.13572880891857
 20
-137.1793575686215
 30
0.0
 10
72.13572880891857
 20
-137.2344967338814
 30
0.0
 10
72.13572880891857
 20
-137.290306176902
 30
0.0
 10
72.18053158555365
 20
-137.3350736757593
 30
0.0
 10
72.23528269526827
 20
-137.33507367576
 30
0.0
 10
72.2904218605279
 20
-137.33507367576
 30
0.0
 10
72.33518935938578
 20
-137.290306176902
 30
0.0
 10
72.33518935938578
 20
-137.2344967338814
 30
0.0
  0
LINE
  5
8D
330
70
100
AcDbEntity
  8
レイヤー 1
 62
    18
420
        0
370
     9
100
AcDbLine
 10
77.48682984424954
 20
-172.0458980103447
 30
0.0
 11
71.15577346137941
 21
-172.0458980091692
 31
0.0
  0
SPLINE
  5
8E
330
70
100
AcDbEntity
  8
レイヤー 1
 62
    18
420
        0
370
     9
100
AcDbSpline
210
0.0
220
0.0
230
1.0
 70
     9
 71
     3
 72
    17
 73
    13
 74
     0
 42
0.0000000001
 43
0.0000000001
 40
0.0
 40
0.0
 40
0.0
 40
0.0
 40
1.0
 40
1.0
 40
1.0
 40
2.0
 40
2.0
 40
2.0
 40
3.0
 40
3.0
 40
3.0
 40
4.0
 40
4.0
 40
4.0
 40
4.0
 10
72.33518935938578
 20
-172.0388914683576
 30
0.0
 10
72.33518935938578
 20
-171.9837523030977
 30
0.0
 10
72.2904218605279
 20
-171.9389848042398
 30
0.0
 10
72.23528269526827
 20
-171.9389848042398
 30
0.0
 10
72.18053158555365
 20
-171.9389848042398
 30
0.0
 10
72.13572880891857
 20
-171.9837523030977
 30
0.0
 10
72.13572880891857
 20
-172.0388914683576
 30
0.0
 10
72.13572880891857
 20
-172.0947009113783
 30
0.0
 10
72.18053158555365
 20
-172.1394684102362
 30
0.0
 10
72.23528269526827
 20
-172.1394684102362
 30
0.0
 10
72.2904218605279
 20
-172.1394684102362
 30
0.0
 10
72.33518935938578
 20
-172.0947009113783
 30
0.0
 10
72.33518935938578
 20
-172.0388914683576
 30
0.0
  0
INSERT
  5
90
330
70
100
AcDbEntity
  8
レイヤー 1
100
AcDbBlockReference
  2
Block_0
 10
0.0
 20
0.0
 30
0.0
  0
INSERT
  5
9C
330
70
100
AcDbEntity
  8
レイヤー 1
100
AcDbBlockReference
  2
Block_2
 10
0.0
 20
0.0
 30
0.0
  0
INSERT
  5
A9
330
70
100
AcDbEntity
  8
レイヤー 1
100
AcDbBlockReference
  2
Block_4
 10
0.0
 20
0.0
 30
0.0
  0
INSERT
  5
B7
330
70
100
AcDbEntity
  8
レイヤー 1
100
AcDbBlockReference
  2
Block_6
 10
0.0
 20
0.0
 30
0.0
  0
INSERT
  5
C3
330
70
100
AcDbEntity
  8
レイヤー 1
100
AcDbBlockReference
  2
Block_8
 10
0.0
 20
0.0
 30
0.0
  0
INSERT
  5
C9
330
70
100
AcDbEntity
  8
レイヤー 1
100
AcDbBlockReference
  2
Block_9
 10
0.0
 20
0.0
 30
0.0
  0
LINE
  5
D4
330
70
100
AcDbEntity
  8
レイヤー 1
 62
    18
420
        0
370
     9
100
AcDbLine
 10
81.372646723335
 20
-171.0240198109248
 30
0.0
 11
82.15225033425117
 21
-170.5740870446257
 31
0.0
  0
LINE
  5
D5
330
70
100
AcDbEntity
  8
レイヤー 1
 62
    18
420
        0
370
     9
100
AcDbLine
 10
81.70200005658578
 20
-171.3533731358556
 30
0.0
 11
82.15225033425117
 21
-170.5740870446257
 31
0.0
  0
LINE
  5
D6
330
70
100
AcDbEntity
  8
レイヤー 1
 62
    18
420
        0
370
     9
100
AcDbLine
 10
76.42115607061845
 20
-176.3051763278191
 30
0.0
 11
82.15225033425117
 21
-170.5740870446257
 31
0.0
  0
INSERT
  5
D8
330
70
100
AcDbEntity
  8
レイヤー 1
100
AcDbBlockReference
  2
Block_11
 10
0.0
 20
0.0
 30
0.0
  0
LINE
  5
E5
330
70
100
AcDbEntity
  8
レイヤー 1
 62
    18
420
        0
370
     9
100
AcDbLine
 10
114.7477664529177
 20
-172.7670498489303
 30
0.0
 11
113.9681628420214
 21
-172.3171170825954
 31
0.0
  0
LINE
  5
E6
330
70
100
AcDbEntity
  8
レイヤー 1
 62
    18
420
        0
370
     9
100
AcDbLine
 10
114.4184131196525
 20
-173.0964031738458
 30
0.0
 11
113.9681628420214
 21
-172.3171170825954
 31
0.0
  0
LINE
  5
E7
330
70
100
AcDbEntity
  8
レイヤー 1
 62
    18
420
        0
370
     9
100
AcDbLine
 10
118.4396647296077
 20
-176.7886134642537
 30
0.0
 11
113.9681628420221
 21
-172.3171170825954
 31
0.0
  0
INSERT
  5
E9
330
70
100
AcDbEntity
  8
レイヤー 1
100
AcDbBlockReference
  2
Block_13
 10
0.0
 20
0.0
 30
0.0
  0
SPLINE
  5
F5
330
70
100
AcDbEntity
  8
レイヤー 1
 62
    18
420
        0
370
    25
100
AcDbSpline
210
0.0
220
0.0
230
1.0
 70
    11
 71
     3
 72
    47
 73
    43
 74
     0
 42
0.0000000001
 43
0.0000000001
 40
0.0
 40
0.0
 40
0.0
 40
0.0
 40
1.0
 40
1.0
 40
1.0
 40
2.0
 40
2.0
 40
2.0
 40
3.0
 40
3.0
 40
3.0
 40
4.0
 40
4.0
 40
4.0
 40
5.0
 40
5.0
 40
5.0
 40
6.0
 40
6.0
 40
6.0
 40
7.0
 40
7.0
 40
7.0
 40
8.0
 40
8.0
 40
8.0
 40
9.0
 40
9.0
 40
9.0
 40
10.0
 40
10.0
 40
10.0
 40
11.0
 40
11.0
 40
11.0
 40
12.0
 40
12.0
 40
12.0
 40
13.0
 40
13.0
 40
13.0
 40
14.0
 40
14.0
 40
14.0
 40
14.0
 10
108.3321765513233
 20
-161.3405689963784
 30
0.0
 10
108.3321765513233
 20
-161.3405689963784
 30
0.0
 10
108.3169535356478
 20
-150.0115749429593
 30
0.0
 10
108.3169535356478
 20
-150.0115749429593
 30
0.0
 10
108.3169535356478
 20
-150.0115749429593
 30
0.0
 10
101.684606430372
 20
-150.0115749429593
 30
0.0
 10
101.684606430372
 20
-150.0115749429593
 30
0.0
 10
101.684606430372
 20
-150.0115749429593
 30
0.0
 10
101.6822594633711
 20
-143.4326827500409
 30
0.0
 10
101.6822594633711
 20
-143.4326827500409
 30
0.0
 10
101.6822594633711
 20
-143.4326827500409
 30
0.0
 10
101.5964119859496
 20
-143.4326827500409
 30
0.0
 10
101.5964119859496
 20
-143.4326827500409
 30
0.0
 10
101.5964119859496
 20
-143.4326827500409
 30
0.0
 10
90.46459792216358
 20
-143.4326827500409
 30
0.0
 10
90.46459792216358
 20
-143.4326827500409
 30
0.0
 10
90.46459792216358
 20
-143.4326827500409
 30
0.0
 10
90.46459792216358
 20
-138.4752118786135
 30
0.0
 10
90.46459792216358
 20
-138.4752118786135
 30
0.0
 10
90.46459792216358
 20
-138.4752118786135
 30
0.0
 10
81.67607321190413
 20
-138.4752118786135
 30
0.0
 10
81.67607321190413
 20
-138.4752118786135
 30
0.0
 10
81.23830923496278
 20
-138.4799058212121
 30
0.0
 10
80.88462711970832
 20
-138.8354612071363
 30
0.0
 10
80.88462711970832
 20
-139.2743448401107
 30
0.0
 10
80.88462711970832
 20
-139.2743448401107
 30
0.0
 10
80.88462711970832
 20
-163.3494472375211
 30
0.0
 10
80.88462711970832
 20
-163.3494472375211
 30
0.0
 10
80.88462711970832
 20
-163.3494472375211
 30
0.0
 10
81.56608853853752
 20
-170.5813916801576
 30
0.0
 10
89.20961423242742
 20
-170.9929513995642
 30
0.0
 10
89.20961423242742
 20
-170.9929513995642
 30
0.0
 10
111.3651740209969
 20
-170.9819270940114
 30
0.0
 10
111.3651740209969
 20
-170.9819270940114
 30
0.0
 10
111.3651740209969
 20
-170.9819270940114
 30
0.0
 10
113.3054517982896
 20
-171.1252430661978
 30
0.0
 10
113.338524714948
 20
-169.6369618165699
 30
0.0
 10
113.338524714948
 20
-169.6369618165699
 30
0.0
 10
113.338524714948
 20
-161.355275247731
 30
0.0
 10
113.338524714948
 20
-161.355275247731
 30
0.0
 10
113.338524714948
 20
-161.355275247731
 30
0.0
 10
108.3321765513233
 20
-161.3405689963784
 30
0.0
 10
108.3321765513233
 20
-161.3405689963784
 30
0.0
  0
SPLINE
  5
F6
330
70
100
AcDbEntity
  8
レイヤー 1
 62
    18
420
        0
370
    25
100
AcDbSpline
210
0.0
220
0.0
230
1.0
 70
    11
 71
     3
 72
    80
 73
    76
 74
     0
 42
0.0000000001
 43
0.0000000001
 40
0.0
 40
0.0
 40
0.0
 40
0.0
 40
1.0
 40
1.0
 40
1.0
 40
2.0
 40
2.0
 40
2.0
 40
3.0
 40
3.0
 40
3.0
 40
4.0
 40
4.0
 40
4.0
 40
5.0
 40
5.0
 40
5.0
 40
6.0
 40
6.0
 40
6.0
 40
7.0
 40
7.0
 40
7.0
 40
8.0
 40
8.0
 40
8.0
 40
9.0
 40
9.0
 40
9.0
 40
10.0
 40
10.0
 40
10.0
 40
11.0
 40
11.0
 40
11.0
 40
12.0
 40
12.0
 40
12.0
 40
13.0
 40
13.0
 40
13.0
 40
14.0
 40
14.0
 40
14.0
 40
15.0
 40
15.0
 40
15.0
 40
16.0
 40
16.0
 40
16.0
 40
17.0
 40
17.0
 40
17.0
 40
18.0
 40
18.0
 40
18.0
 40
19.0
 40
19.0
 40
19.0
 40
20.0
 40
20.0
 40
20.0
 40
21.0
 40
21.0
 40
21.0
 40
22.0
 40
22.0
 40
22.0
 40
23.0
 40
23.0
 40
23.0
 40
24.0
 40
24.0
 40
24.0
 40
25.0
 40
25.0
 40
25.0
 40
25.0
 10
133.8716278300207
 20
-148.8115749267021
 30
0.0
 10
133.8716278300207
 20
-148.8115749267021
 30
0.0
 10
133.8716278300207
 20
-150.0115749429593
 30
0.0
 10
133.8716278300207
 20
-150.0115749429593
 30
0.0
 10
133.8716278300207
 20
-150.0115749429593
 30
0.0
 10
124.7080971608356
 20
-150.0097145409313
 30
0.0
 10
124.7080971608356
 20
-150.0097145409313
 30
0.0
 10
124.7080971608356
 20
-150.0097145409313
 30
0.0
 10
124.4205178152044
 20
-149.6946820906527
 30
0.0
 10
124.4205178152044
 20
-149.6946820906527
 30
0.0
 10
124.4205178152044
 20
-149.6946820906527
 30
0.0
 10
124.1458360457973
 20
-150.0113509612868
 30
0.0
 10
124.1458360457973
 20
-150.0113509612868
 30
0.0
 10
124.1458360457973
 20
-150.0113509612868
 30
0.0
 10
109.5608483242909
 20
-150.0115749429593
 30
0.0
 10
109.5608483242909
 20
-150.0115749429593
 30
0.0
 10
109.5608483242909
 20
-150.0115749429593
 30
0.0
 10
109.5351392992322
 20
-160.1315773313703
 30
0.0
 10
109.5351392992322
 20
-160.1315773313703
 30
0.0
 10
109.5351392992322
 20
-160.1315773313703
 30
0.0
 10
114.5610168478889
 20
-160.1315773313703
 30
0.0
 10
114.5610168478889
 20
-160.1315773313703
 30
0.0
 10
114.5610168478889
 20
-160.1315773313703
 30
0.0
 10
114.4850524924392
 20
-169.6259375110171
 30
0.0
 10
114.4850524924392
 20
-169.6259375110171
 30
0.0
 10
114.661441381284
 20
-171.9630902882106
 30
0.0
 10
112.0156080486121
 20
-172.1394791770554
 30
0.0
 10
112.0156080486121
 20
-172.1394791770554
 30
0.0
 10
112.0156080486121
 20
-172.1394791770554
 30
0.0
 10
88.32766978820346
 20
-172.1394791770554
 30
0.0
 10
88.32766978820346
 20
-172.1394791770554
 30
0.0
 10
80.16968367913184
 20
-171.0811458439866
 30
0.0
 10
79.68461423480867
 20
-163.4523264014494
 30
0.0
 10
79.68461423480867
 20
-163.4523264014494
 30
0.0
 10
79.68461423480867
 20
-163.4523264014494
 30
0.0
 10
79.68461423480867
 20
-139.2743448401107
 30
0.0
 10
79.68461423480867
 20
-139.2743448401107
 30
0.0
 10
79.68461423480867
 20
-138.169782631999
 30
0.0
 10
80.58003761511868
 20
-137.2743592516896
 30
0.0
 10
81.6846213550769
 20
-137.2743592516896
 30
0.0
 10
81.6846213550769
 20
-137.2743592516896
 30
0.0
 10
81.6844921639962
 20
-137.2737563599797
 30
0.0
 10
81.6844921639962
 20
-137.2737563599797
 30
0.0
 10
81.6844921639962
 20
-137.2737563599797
 30
0.0
 10
91.68461389272449
 20
-137.2737563599797
 30
0.0
 10
91.68461389272449
 20
-137.2737563599797
 30
0.0
 10
91.68461389272449
 20
-137.2737563599797
 30
0.0
 10
91.68461389272449
 20
-142.3008396920563
 30
0.0
 10
91.68461389272449
 20
-142.3008396920563
 30
0.0
 10
91.68461389272449
 20
-142.3008396920563
 30
0.0
 10
101.684606430372
 20
-142.3008396920563
 30
0.0
 10
101.684606430372
 20
-142.3008396920563
 30
0.0
 10
101.684606430372
 20
-142.3008396920563
 30
0.0
 10
101.684606430372
 20
-127.4685409083288
 30
0.0
 10
101.684606430372
 20
-127.4685409083288
 30
0.0
 10
101.684606430372
 20
-127.4685409083288
 30
0.0
 10
101.9952894476015
 20
-127.1706047443954
 30
0.0
 10
101.9952894476015
 20
-127.1706047443954
 30
0.0
 10
101.9952894476015
 20
-127.1706047443954
 30
0.0
 10
101.684606430372
 20
-126.9068826849995
 30
0.0
 10
101.684606430372
 20
-126.9068826849995
 30
0.0
 10
101.684606430372
 20
-126.9068826849995
 30
0.0
 10
101.684606430372
 20
-117.8170413108613
 30
0.0
 10
101.684606430372
 20
-117.8170413108613
 30
0.0
 10
101.684606430372
 20
-117.8170413108613
 30
0.0
 10
102.8791286943424
 20
-117.8170413108613
 30
0.0
 10
102.8791286943424
 20
-117.8170413108613
 30
0.0
 10
102.8791286943424
 20
-117.8170413108613
 30
0.0
 10
102.8791286943424
 20
-148.8115749267021
 30
0.0
 10
102.8791286943424
 20
-148.8115749267021
 30
0.0
 10
102.8791286943424
 20
-148.8115749267021
 30
0.0
 10
119.1240027544088
 20
-148.8115749267021
 30
0.0
 10
119.1240027544088
 20
-148.8115749267021
 30
0.0
 10
119.1240027544088
 20
-148.8115749267021
 30
0.0
 10
133.8716278300207
 20
-148.8115749267021
 30
0.0
 10
133.8716278300207
 20
-148.8115749267021
 30
0.0
  0
HATCH
  5
F7
330
70
100
AcDbEntity
  8
レイヤー 1
 62
   253
420
 11776947
440
 33554687
100
AcDbHatch
 10
0.0
 20
0.0
 30
0.0
210
0.0
220
0.0
230
1.0
  2
SOLID
 70
     1
 71
     1
 91
        2
 92
        1
 93
        1
 72
     4
 94
        3
 73
     0
 74
     0
 95
       47
 96
       43
 40
0.0
 40
0.0
 40
0.0
 40
0.0
 40
1.0
 40
1.0
 40
1.0
 40
2.0
 40
2.0
 40
2.0
 40
3.0
 40
3.0
 40
3.0
 40
4.0
 40
4.0
 40
4.0
 40
5.0
 40
5.0
 40
5.0
 40
6.0
 40
6.0
 40
6.0
 40
7.0
 40
7.0
 40
7.0
 40
8.0
 40
8.0
 40
8.0
 40
9.0
 40
9.0
 40
9.0
 40
10.0
 40
10.0
 40
10.0
 40
11.0
 40
11.0
 40
11.0
 40
12.0
 40
12.0
 40
12.0
 40
13.0
 40
13.0
 40
13.0
 40
14.0
 40
14.0
 40
14.0
 40
14.0
 10
108.3321765513233
 20
-161.3405689963784
 10
108.3321765513233
 20
-161.3405689963784
 10
108.3169535356478
 20
-150.0115749429593
 10
108.3169535356478
 20
-150.0115749429593
 10
108.3169535356478
 20
-150.0115749429593
 10
101.684606430372
 20
-150.0115749429593
 10
101.684606430372
 20
-150.0115749429593
 10
101.684606430372
 20
-150.0115749429593
 10
101.6822594633711
 20
-143.4326827500409
 10
101.6822594633711
 20
-143.4326827500409
 10
101.6822594633711
 20
-143.4326827500409
 10
101.5964119859496
 20
-143.4326827500409
 10
101.5964119859496
 20
-143.4326827500409
 10
101.5964119859496
 20
-143.4326827500409
 10
90.46459792216358
 20
-143.4326827500409
 10
90.46459792216358
 20
-143.4326827500409
 10
90.46459792216358
 20
-143.4326827500409
 10
90.46459792216358
 20
-138.4752118786135
 10
90.46459792216358
 20
-138.4752118786135
 10
90.46459792216358
 20
-138.4752118786135
 10
81.67607321190413
 20
-138.4752118786135
 10
81.67607321190413
 20
-138.4752118786135
 10
81.23830923496278
 20
-138.4799058212121
 10
80.88462711970832
 20
-138.8354612071363
 10
80.88462711970832
 20
-139.2743448401107
 10
80.88462711970832
 20
-139.2743448401107
 10
80.88462711970832
 20
-163.3494472375211
 10
80.88462711970832
 20
-163.3494472375211
 10
80.88462711970832
 20
-163.3494472375211
 10
81.56608853853752
 20
-170.5813916801576
 10
89.20961423242742
 20
-170.9929513995642
 10
89.20961423242742
 20
-170.9929513995642
 10
111.3651740209969
 20
-170.9819270940114
 10
111.3651740209969
 20
-170.9819270940114
 10
111.3651740209969
 20
-170.9819270940114
 10
113.3054517982896
 20
-171.1252430661978
 10
113.338524714948
 20
-169.6369618165699
 10
113.338524714948
 20
-169.6369618165699
 10
113.338524714948
 20
-161.355275247731
 10
113.338524714948
 20
-161.355275247731
 10
113.338524714948
 20
-161.355275247731
 10
108.3321765513233
 20
-161.3405689963784
 10
108.3321765513233
 20
-161.3405689963784
 97
        0
 97
        1
330
F5
 92
        1
 93
        1
 72
     4
 94
        3
 73
     0
 74
     0
 95
       80
 96
       76
 40
0.0
 40
0.0
 40
0.0
 40
0.0
 40
1.0
 40
1.0
 40
1.0
 40
2.0
 40
2.0
 40
2.0
 40
3.0
 40
3.0
 40
3.0
 40
4.0
 40
4.0
 40
4.0
 40
5.0
 40
5.0
 40
5.0
 40
6.0
 40
6.0
 40
6.0
 40
7.0
 40
7.0
 40
7.0
 40
8.0
 40
8.0
 40
8.0
 40
9.0
 40
9.0
 40
9.0
 40
10.0
 40
10.0
 40
10.0
 40
11.0
 40
11.0
 40
11.0
 40
12.0
 40
12.0
 40
12.0
 40
13.0
 40
13.0
 40
13.0
 40
14.0
 40
14.0
 40
14.0
 40
15.0
 40
15.0
 40
15.0
 40
16.0
 40
16.0
 40
16.0
 40
17.0
 40
17.0
 40
17.0
 40
18.0
 40
18.0
 40
18.0
 40
19.0
 40
19.0
 40
19.0
 40
20.0
 40
20.0
 40
20.0
 40
21.0
 40
21.0
 40
21.0
 40
22.0
 40
22.0
 40
22.0
 40
23.0
 40
23.0
 40
23.0
 40
24.0
 40
24.0
 40
24.0
 40
25.0
 40
25.0
 40
25.0
 40
25.0
 10
133.8716278300207
 20
-148.8115749267021
 10
133.8716278300207
 20
-148.8115749267021
 10
133.8716278300207
 20
-150.0115749429593
 10
133.8716278300207
 20
-150.0115749429593
 10
133.8716278300207
 20
-150.0115749429593
 10
124.7080971608356
 20
-150.0097145409313
 10
124.7080971608356
 20
-150.0097145409313
 10
124.7080971608356
 20
-150.0097145409313
 10
124.4205178152044
 20
-149.6946820906527
 10
124.4205178152044
 20
-149.6946820906527
 10
124.4205178152044
 20
-149.6946820906527
 10
124.1458360457973
 20
-150.0113509612868
 10
124.1458360457973
 20
-150.0113509612868
 10
124.1458360457973
 20
-150.0113509612868
 10
109.5608483242909
 20
-150.0115749429593
 10
109.5608483242909
 20
-150.0115749429593
 10
109.5608483242909
 20
-150.0115749429593
 10
109.5351392992322
 20
-160.1315773313703
 10
109.5351392992322
 20
-160.1315773313703
 10
109.5351392992322
 20
-160.1315773313703
 10
114.5610168478889
 20
-160.1315773313703
 10
114.5610168478889
 20
-160.1315773313703
 10
114.5610168478889
 20
-160.1315773313703
 10
114.4850524924392
 20
-169.6259375110171
 10
114.4850524924392
 20
-169.6259375110171
 10
114.661441381284
 20
-171.9630902882106
 10
112.0156080486121
 20
-172.1394791770554
 10
112.0156080486121
 20
-172.1394791770554
 10
112.0156080486121
 20
-172.1394791770554
 10
88.32766978820346
 20
-172.1394791770554
 10
88.32766978820346
 20
-172.1394791770554
 10
80.16968367913184
 20
-171.0811458439866
 10
79.68461423480867
 20
-163.4523264014494
 10
79.68461423480867
 20
-163.4523264014494
 10
79.68461423480867
 20
-163.4523264014494
 10
79.68461423480867
 20
-139.2743448401107
 10
79.68461423480867
 20
-139.2743448401107
 10
79.68461423480867
 20
-138.169782631999
 10
80.58003761511868
 20
-137.2743592516896
 10
81.6846213550769
 20
-137.2743592516896
 10
81.6846213550769
 20
-137.2743592516896
 10
81.6844921639962
 20
-137.2737563599797
 10
81.6844921639962
 20
-137.2737563599797
 10
81.6844921639962
 20
-137.2737563599797
 10
91.68461389272449
 20
-137.2737563599797
 10
91.68461389272449
 20
-137.2737563599797
 10
91.68461389272449
 20
-137.2737563599797
 10
91.68461389272449
 20
-142.3008396920563
 10
91.68461389272449
 20
-142.3008396920563
 10
91.68461389272449
 20
-142.3008396920563
 10
101.684606430372
 20
-142.3008396920563
 10
101.684606430372
 20
-142.3008396920563
 10
101.684606430372
 20
-142.3008396920563
 10
101.684606430372
 20
-127.4685409083288
 10
101.684606430372
 20
-127.4685409083288
 10
101.684606430372
 20
-127.4685409083288
 10
101.9952894476015
 20
-127.1706047443954
 10
101.9952894476015
 20
-127.1706047443954
 10
101.9952894476015
 20
-127.1706047443954
 10
101.684606430372
 20
-126.9068826849995
 10
101.684606430372
 20
-126.9068826849995
 10
101.684606430372
 20
-126.9068826849995
 10
101.684606430372
 20
-117.8170413108613
 10
101.684606430372
 20
-117.8170413108613
 10
101.684606430372
 20
-117.8170413108613
 10
102.8791286943424
 20
-117.8170413108613
 10
102.8791286943424
 20
-117.8170413108613
 10
102.8791286943424
 20
-117.8170413108613
 10
102.8791286943424
 20
-148.8115749267021
 10
102.8791286943424
 20
-148.8115749267021
 10
102.8791286943424
 20
-148.8115749267021
 10
119.1240027544088
 20
-148.8115749267021
 10
119.1240027544088
 20
-148.8115749267021
 10
119.1240027544088
 20
-148.8115749267021
 10
133.8716278300207
 20
-148.8115749267021
 10
133.8716278300207
 20
-148.8115749267021
 97
        0
 97
        1
330
F6
 75
     2
 76
     1
 98
        1
 10
0.0
 20
0.0
450
        0
451
        0
460
0.0
461
0.0
452
        0
462
0.0
453
        0
470

  0
ENDSEC
  0
SECTION
  2
OBJECTS
  0
DICTIONARY
  5
C
330
0
100
AcDbDictionary
281
     1
  3
ACAD_COLOR
350
63
  3
ACAD_DETAILVIEWSTYLE
350
6A
  3
ACAD_GROUP
350
D
  3
ACAD_LAYOUT
350
62
  3
ACAD_MATERIAL
350
10
  3
ACAD_MLEADERSTYLE
350
66
  3
ACAD_MLINESTYLE
350
5F
  3
ACAD_PLOTSETTINGS
350
61
  3
ACAD_PLOTSTYLENAME
350
E
  3
ACAD_SCALELIST
350
42
  3
ACAD_SECTIONVIEWSTYLE
350
68
  3
ACAD_TABLESTYLE
350
64
  3
ACAD_VISUALSTYLE
350
29
  3
ACDB_RECOMPOSE_DATA
350
100
  3
AcDbVariableDictionary
350
F8
  0
DICTIONARY
  5
63
102
{ACAD_REACTORS
330
C
102
}
330
C
100
AcDbDictionary
281
     1
  0
DICTIONARY
  5
6A
102
{ACAD_REACTORS
330
C
102
}
330
C
100
AcDbDictionary
281
     1
  3
Imperial24
350
6B
  0
DICTIONARY
  5
D
102
{ACAD_REACTORS
330
C
102
}
330
C
100
AcDbDictionary
281
     1
  0
DICTIONARY
  5
62
102
{ACAD_REACTORS
330
C
102
}
330
C
100
AcDbDictionary
281
     1
  3
Layout1
350
6F
  3
Layout2
350
77
  3
Model
350
73
  0
DICTIONARY
  5
10
102
{ACAD_REACTORS
330
C
102
}
330
C
100
AcDbDictionary
281
     1
  3
ByBlock
350
19
  3
ByLayer
350
11
  3
Global
350
21
  0
DICTIONARY
  5
66
102
{ACAD_REACTORS
330
C
102
}
330
C
100
AcDbDictionary
281
     1
  3
Standard
350
67
  0
DICTIONARY
  5
5F
102
{ACAD_REACTORS
330
C
102
}
330
C
100
AcDbDictionary
281
     1
  3
Standard
350
60
  0
DICTIONARY
  5
61
102
{ACAD_REACTORS
330
C
102
}
330
C
100
AcDbDictionary
281
     1
  0
ACDBDICTIONARYWDFLT
  5
E
102
{ACAD_REACTORS
330
C
102
}
330
C
100
AcDbDictionary
281
     1
  3
Normal
350
F
100
AcDbDictionaryWithDefault
340
F
  0
DICTIONARY
  5
42
102
{ACAD_REACTORS
330
C
102
}
330
C
100
AcDbDictionary
281
     1
  3
A0
350
43
  3
A1
350
44
  3
A2
350
45
  3
A3
350
46
  3
A4
350
47
  3
A5
350
48
  3
A6
350
49
  3
A7
350
4A
  3
A8
350
4B
  3
A9
350
4C
  3
B0
350
4D
  3
B1
350
4E
  3
B2
350
4F
  3
B3
350
50
  3
B4
350
51
  3
B5
350
52
  3
B6
350
53
  0
DICTIONARY
  5
68
102
{ACAD_REACTORS
330
C
102
}
330
C
100
AcDbDictionary
281
     1
  3
Imperial24
350
69
  0
DICTIONARY
  5
64
102
{ACAD_REACTORS
330
C
102
}
330
C
100
AcDbDictionary
281
     1
  3
Standard
350
65
  0
DICTIONARY
  5
29
102
{ACAD_REACTORS
330
C
102
}
330
C
100
AcDbDictionary
281
     1
  3
2dWireframe
350
2F
  3
Basic
350
2E
  3
Brighten
350
35
  3
ColorChange
350
39
  3
Conceptual
350
32
  3
Dim
350
34
  3
EdgeColorOff
350
41
  3
Facepattern
350
38
  3
Flat
350
2A
  3
FlatWithEdges
350
2B
  3
Gouraud
350
2C
  3
GouraudWithEdges
350
2D
  3
Hidden
350
31
  3
JitterOff
350
3F
  3
Linepattern
350
37
  3
OverhangOff
350
40
  3
Realistic
350
33
  3
Shaded
350
3E
  3
Shaded with edges
350
3D
  3
Shades of Gray
350
3A
  3
Sketchy
350
3B
  3
Thicken
350
36
  3
Wireframe
350
30
  3
X-Ray
350
3C
  0
XRECORD
  5
100
102
{ACAD_REACTORS
330
C
102
}
330
C
100
AcDbXrecord
280
     1
 90
        1
330
65
  0
DICTIONARY
  5
F8
102
{ACAD_REACTORS
330
C
102
}
330
C
100
AcDbDictionary
281
     1
  3
CANNOSCALE
350
FD
  3
CMLEADERSTYLE
350
FA
  3
CTABLESTYLE
350
F9
  3
CVIEWDETAILSTYLE
350
FB
  3
CVIEWSECTIONSTYLE
350
FC
  0
ACDBDETAILVIEWSTYLE
  5
6B
102
{ACAD_XDICTIONARY
360
135
102
}
102
{ACAD_REACTORS
330
6A
102
}
330
6A
100
AcDbModelDocViewStyle
 70
     0
  3
Imperial24
290
     0
100
AcDbDetailViewStyle
 70
     0
 71
     0
 90
        3
 71
     1
340
55
 62
   256
 40
0.24
340
0
 62
   256
 40
0.24
300

 40
0.36
280
     3
 71
     2
340
5D
 90
       25
 62
   256
 71
     3
340
55
 62
   256
 40
0.24
 90
        1
 40
0.75
 90
        1
300
%<\AcVar ViewType \f "%tc1">% %<\AcVar ViewDetailId>%\PSCALE %<\AcVar ViewScale \f "%sn">%
 71
     4
340
5D
 90
       25
 62
   256
340
5D
 90
       25
 62
   256
280
     0
  0
LAYOUT
  5
6F
102
{ACAD_REACTORS
330
62
102
}
330
62
100
AcDbPlotSettings
  1

  2

  4

  6

 40
0.0
 41
0.0
 42
0.0
 43
0.0
 44
0.0
 45
0.0
 46
0.0
 47
0.0
 48
0.0
 49
0.0
140
0.0
141
0.0
142
1.0
143
1.0
 70
   688
 72
     0
 73
     0
 74
     5
  7

 75
    16
147
1.0
 76
     0
 77
     2
 78
   300
148
0.0
149
0.0
100
AcDbLayout
  1
Layout1
 70
     1
 71
     1
 10
0.0
 20
0.0
 11
12.0
 21
9.0
 12
0.0
 22
0.0
 32
0.0
 14
0.0
 24
0.0
 34
0.0
 15
0.0
 25
0.0
 35
0.0
146
0.0
 13
0.0
 23
0.0
 33
0.0
 16
1.0
 26
0.0
 36
0.0
 17
0.0
 27
1.0
 37
0.0
 76
     0
330
6C
  0
LAYOUT
  5
77
102
{ACAD_REACTORS
330
62
102
}
330
62
100
AcDbPlotSettings
  1

  2

  4

  6

 40
0.0
 41
0.0
 42
0.0
 43
0.0
 44
0.0
 45
0.0
 46
0.0
 47
0.0
 48
0.0
 49
0.0
140
0.0
141
0.0
142
1.0
143
1.0
 70
   688
 72
     0
 73
     0
 74
     5
  7

 75
    16
147
1.0
 76
     0
 77
     2
 78
   300
148
0.0
149
0.0
100
AcDbLayout
  1
Layout2
 70
     1
 71
     2
 10
0.0
 20
0.0
 11
12.0
 21
9.0
 12
0.0
 22
0.0
 32
0.0
 14
0.0
 24
0.0
 34
0.0
 15
0.0
 25
0.0
 35
0.0
146
0.0
 13
0.0
 23
0.0
 33
0.0
 16
1.0
 26
0.0
 36
0.0
 17
0.0
 27
1.0
 37
0.0
 76
     0
330
74
  0
LAYOUT
  5
73
102
{ACAD_REACTORS
330
62
102
}
330
62
100
AcDbPlotSettings
  1

  2

  4

  6

 40
0.0
 41
0.0
 42
0.0
 43
0.0
 44
0.0
 45
0.0
 46
0.0
 47
0.0
 48
0.0
 49
0.0
140
0.0
141
0.0
142
1.0
143
1.0
 70
  1712
 72
     0
 73
     0
 74
     0
  7

 75
     0
147
1.0
 76
     0
 77
     2
 78
   300
148
0.0
149
0.0
100
AcDbLayout
  1
Model
 70
     1
 71
     0
 10
0.0
 20
0.0
 11
12.0
 21
9.0
 12
0.0
 22
0.0
 32
0.0
 14
0.0
 24
0.0
 34
0.0
 15
0.0
 25
0.0
 35
0.0
146
0.0
 13
0.0
 23
0.0
 33
0.0
 16
1.0
 26
0.0
 36
0.0
 17
0.0
 27
1.0
 37
0.0
 76
     0
330
70
  0
MATERIAL
  5
19
102
{ACAD_XDICTIONARY
360
1A
102
}
102
{ACAD_REACTORS
330
10
102
}
330
10
100
AcDbMaterial
  1
ByBlock
 72
     0
 43
0.0208333333333333
 43
0.0
 43
0.0
 43
0.0
 43
0.0
 43
0.0208333333333333
 43
0.0
 43
0.0
 43
0.0
 43
0.0
 43
1.0
 43
0.0
 43
0.0
 43
0.0
 43
0.0
 43
1.0
 77
     0
 47
0.0208333333333333
 47
0.0
 47
0.0
 47
0.0
 47
0.0
 47
0.0208333333333333
 47
0.0
 47
0.0
 47
0.0
 47
0.0
 47
1.0
 47
0.0
 47
0.0
 47
0.0
 47
0.0
 47
1.0
171
     0
 49
0.0208333333333333
 49
0.0
 49
0.0
 49
0.0
 49
0.0
 49
0.0208333333333333
 49
0.0
 49
0.0
 49
0.0
 49
0.0
 49
1.0
 49
0.0
 49
0.0
 49
0.0
 49
0.0
 49
1.0
175
     0
142
0.0208333333333333
142
0.0
142
0.0
142
0.0
142
0.0
142
0.0208333333333333
142
0.0
142
0.0
142
0.0
142
0.0
142
1.0
142
0.0
142
0.0
142
0.0
142
0.0
142
1.0
179
     0
144
0.0208333333333333
144
0.0
144
0.0
144
0.0
144
0.0
144
0.0208333333333333
144
0.0
144
0.0
144
0.0
144
0.0
144
1.0
144
0.0
144
0.0
144
0.0
144
0.0
144
1.0
147
0.0208333333333333
147
0.0
147
0.0
147
0.0
147
0.0
147
0.0208333333333333
147
0.0
147
0.0
147
0.0
147
0.0
147
1.0
147
0.0
147
0.0
147
0.0
147
0.0
147
1.0
  0
MATERIAL
  5
11
102
{ACAD_XDICTIONARY
360
12
102
}
102
{ACAD_REACTORS
330
10
102
}
330
10
100
AcDbMaterial
  1
ByLayer
 72
     0
 43
0.0208333333333333
 43
0.0
 43
0.0
 43
0.0
 43
0.0
 43
0.0208333333333333
 43
0.0
 43
0.0
 43
0.0
 43
0.0
 43
1.0
 43
0.0
 43
0.0
 43
0.0
 43
0.0
 43
1.0
 77
     0
 47
0.0208333333333333
 47
0.0
 47
0.0
 47
0.0
 47
0.0
 47
0.0208333333333333
 47
0.0
 47
0.0
 47
0.0
 47
0.0
 47
1.0
 47
0.0
 47
0.0
 47
0.0
 47
0.0
 47
1.0
171
     0
 49
0.0208333333333333
 49
0.0
 49
0.0
 49
0.0
 49
0.0
 49
0.0208333333333333
 49
0.0
 49
0.0
 49
0.0
 49
0.0
 49
1.0
 49
0.0
 49
0.0
 49
0.0
 49
0.0
 49
1.0
175
     0
142
0.0208333333333333
142
0.0
142
0.0
142
0.0
142
0.0
142
0.0208333333333333
142
0.0
142
0.0
142
0.0
142
0.0
142
1.0
142
0.0
142
0.0
142
0.0
142
0.0
142
1.0
179
     0
144
0.0208333333333333
144
0.0
144
0.0
144
0.0
144
0.0
144
0.0208333333333333
144
0.0
144
0.0
144
0.0
144
0.0
144
1.0
144
0.0
144
0.0
144
0.0
144
0.0
144
1.0
147
0.0208333333333333
147
0.0
147
0.0
147
0.0
147
0.0
147
0.0208333333333333
147
0.0
147
0.0
147
0.0
147
0.0
147
1.0
147
0.0
147
0.0
147
0.0
147
0.0
147
1.0
  0
MATERIAL
  5
21
102
{ACAD_XDICTIONARY
360
22
102
}
102
{ACAD_REACTORS
330
10
102
}
330
10
100
AcDbMaterial
  1
Global
 72
     0
 43
0.0208333333333333
 43
0.0
 43
0.0
 43
0.0
 43
0.0
 43
0.0208333333333333
 43
0.0
 43
0.0
 43
0.0
 43
0.0
 43
1.0
 43
0.0
 43
0.0
 43
0.0
 43
0.0
 43
1.0
 77
     0
 47
0.0208333333333333
 47
0.0
 47
0.0
 47
0.0
 47
0.0
 47
0.0208333333333333
 47
0.0
 47
0.0
 47
0.0
 47
0.0
 47
1.0
 47
0.0
 47
0.0
 47
0.0
 47
0.0
 47
1.0
171
     0
 49
0.0208333333333333
 49
0.0
 49
0.0
 49
0.0
 49
0.0
 49
0.0208333333333333
 49
0.0
 49
0.0
 49
0.0
 49
0.0
 49
1.0
 49
0.0
 49
0.0
 49
0.0
 49
0.0
 49
1.0
175
     0
142
0.0208333333333333
142
0.0
142
0.0
142
0.0
142
0.0
142
0.0208333333333333
142
0.0
142
0.0
142
0.0
142
0.0
142
1.0
142
0.0
142
0.0
142
0.0
142
0.0
142
1.0
179
     0
144
0.0208333333333333
144
0.0
144
0.0
144
0.0
144
0.0
144
0.0208333333333333
144
0.0
144
0.0
144
0.0
144
0.0
144
1.0
144
0.0
144
0.0
144
0.0
144
0.0
144
1.0
147
0.0208333333333333
147
0.0
147
0.0
147
0.0
147
0.0
147
0.0208333333333333
147
0.0
147
0.0
147
0.0
147
0.0
147
1.0
147
0.0
147
0.0
147
0.0
147
0.0
147
1.0
  0
MLEADERSTYLE
  5
67
102
{ACAD_XDICTIONARY
360
131
102
}
102
{ACAD_REACTORS
330
66
102
}
330
66
100
AcDbMLeaderStyle
179
     2
170
     2
171
     1
172
     0
 90
        2
 40
0.0
 41
0.0
173
     1
 91
-1056964608
340
5B
 92
       -2
290
     1
 42
0.09
291
     1
 43
0.36
  3
Standard
 44
0.18
300

342
55
174
     1
178
     6
175
     1
176
     0
 93
-1056964608
 45
0.18
292
     0
297
     0
 46
0.18
 94
-1056964608
 47
1.0
 49
1.0
140
1.0
293
     1
141
0.0
294
     1
177
     0
142
1.0
295
     0
296
     0
143
0.125
271
     0
272
     9
273
     9
  0
MLINESTYLE
  5
60
102
{ACAD_REACTORS
330
5F
102
}
330
5F
100
AcDbMlineStyle
  2
STANDARD
 70
     0
  3

 62
   256
 51
90.0
 52
90.0
 71
     2
 49
0.5
 62
   256
  6
BYLAYER
 49
-0.5
 62
   256
  6
BYLAYER
  0
ACDBPLACEHOLDER
  5
F
102
{ACAD_REACTORS
330
E
102
}
330
E
  0
SCALE
  5
43
102
{ACAD_REACTORS
330
42
102
}
330
42
100
AcDbScale
 70
     0
300
1:1
140
1.0
141
1.0
290
     1
  0
SCALE
  5
44
102
{ACAD_REACTORS
330
42
102
}
330
42
100
AcDbScale
 70
     0
300
1/128" = 1'-0"
140
0.0078125
141
12.0
290
     0
  0
SCALE
  5
45
102
{ACAD_REACTORS
330
42
102
}
330
42
100
AcDbScale
 70
     0
300
1/64" = 1'-0"
140
0.015625
141
12.0
290
     0
  0
SCALE
  5
46
102
{ACAD_REACTORS
330
42
102
}
330
42
100
AcDbScale
 70
     0
300
1/32" = 1'-0"
140
0.03125
141
12.0
290
     0
  0
SCALE
  5
47
102
{ACAD_REACTORS
330
42
102
}
330
42
100
AcDbScale
 70
     0
300
1/16" = 1'-0"
140
0.0625
141
12.0
290
     0
  0
SCALE
  5
48
102
{ACAD_REACTORS
330
42
102
}
330
42
100
AcDbScale
 70
     0
300
3/32" = 1'-0"
140
0.09375
141
12.0
290
     0
  0
SCALE
  5
49
102
{ACAD_REACTORS
330
42
102
}
330
42
100
AcDbScale
 70
     0
300
1/8" = 1'-0"
140
0.125
141
12.0
290
     0
  0
SCALE
  5
4A
102
{ACAD_REACTORS
330
42
102
}
330
42
100
AcDbScale
 70
     0
300
3/16" = 1'-0"
140
0.1875
141
12.0
290
     0
  0
SCALE
  5
4B
102
{ACAD_REACTORS
330
42
102
}
330
42
100
AcDbScale
 70
     0
300
1/4" = 1'-0"
140
0.25
141
12.0
290
     0
  0
SCALE
  5
4C
102
{ACAD_REACTORS
330
42
102
}
330
42
100
AcDbScale
 70
     0
300
3/8" = 1'-0"
140
0.375
141
12.0
290
     0
  0
SCALE
  5
4D
102
{ACAD_REACTORS
330
42
102
}
330
42
100
AcDbScale
 70
     0
300
1/2" = 1'-0"
140
0.5
141
12.0
290
     0
  0
SCALE
  5
4E
102
{ACAD_REACTORS
330
42
102
}
330
42
100
AcDbScale
 70
     0
300
3/4" = 1'-0"
140
0.75
141
12.0
290
     0
  0
SCALE
  5
4F
102
{ACAD_REACTORS
330
42
102
}
330
42
100
AcDbScale
 70
     0
300
1" = 1'-0"
140
1.0
141
12.0
290
     0
  0
SCALE
  5
50
102
{ACAD_REACTORS
330
42
102
}
330
42
100
AcDbScale
 70
     0
300
1-1/2" = 1'-0"
140
1.5
141
12.0
290
     0
  0
SCALE
  5
51
102
{ACAD_REACTORS
330
42
102
}
330
42
100
AcDbScale
 70
     0
300
3" = 1'-0"
140
3.0
141
12.0
290
     0
  0
SCALE
  5
52
102
{ACAD_REACTORS
330
42
102
}
330
42
100
AcDbScale
 70
     0
300
6" = 1'-0"
140
6.0
141
12.0
290
     0
  0
SCALE
  5
53
102
{ACAD_REACTORS
330
42
102
}
330
42
100
AcDbScale
 70
     0
300
1'-0" = 1'-0"
140
12.0
141
12.0
290
     0
  0
ACDBSECTIONVIEWSTYLE
  5
69
102
{ACAD_XDICTIONARY
360
133
102
}
102
{ACAD_REACTORS
330
68
102
}
330
68
100
AcDbModelDocViewStyle
 70
     0
  3
Imperial24
290
     0
100
AcDbSectionViewStyle
 70
     0
 71
     0
 90
       78
 71
     1
340
55
 62
   256
 40
0.24
340
0
340
0
 62
   256
 40
0.24
300
I, O, Q, S, X, Z
 40
0.48
 90
        3
 40
0.18
 90
        1
 71
     2
340
5D
 90
       25
 62
   256
340
5D
 90
       50
 62
   256
 40
0.24
 40
0.0
 40
0.24
 71
     3
340
55
 62
   256
 40
0.24
 90
        1
 40
0.75
 90
        1
300
%<\AcVar ViewType \f "%tc1">% %<\AcVar ViewSectionStartId>%-%<\AcVar ViewSectionEndId>%\PSCALE %<\AcVar ViewScale \f "%sn">%
 71
     4
 62
   256
 62
   257
300
ANSI31
 40
1.0
 90
        0
290
     0
290
     0
 90
        6
 40
0.0
 40
1.570796326794896
 40
0.2617993877991494
 40
1.308996938995747
 40
-0.2617993877991494
 40
1.832595714594046
  0
TABLESTYLE
  5
65
102
{ACAD_XDICTIONARY
360
FE
102
}
102
{ACAD_REACTORS
330
64
102
}
330
64
100
AcDbTableStyle
280
     0
  3
Standard
 70
     0
 71
     0
 40
0.06
 41
0.06
280
     0
281
     0
  7
Standard
140
0.18
170
     2
 62
     0
 63
     7
283
     0
 90
      512
 91
        0
  1

274
    -2
284
     1
 64
     0
275
    -2
285
     1
 65
     0
276
    -2
286
     1
 66
     0
277
    -2
287
     1
 67
     0
278
    -2
288
     1
 68
     0
279
    -2
289
     1
 69
     0
  7
Standard
140
0.25
170
     5
 62
     0
 63
     7
283
     0
 90
      512
 91
        0
  1

274
    -2
284
     1
 64
     0
275
    -2
285
     1
 65
     0
276
    -2
286
     1
 66
     0
277
    -2
287
     1
 67
     0
278
    -2
288
     1
 68
     0
279
    -2
289
     1
 69
     0
  7
Standard
140
0.18
170
     5
 62
     0
 63
     7
283
     0
 90
      512
 91
        0
  1

274
    -2
284
     1
 64
     0
275
    -2
285
     1
 65
     0
276
    -2
286
     1
 66
     0
277
    -2
287
     1
 67
     0
278
    -2
288
     1
 68
     0
279
    -2
289
     1
 69
     0
  0
VISUALSTYLE
  5
2F
102
{ACAD_XDICTIONARY
360
10B
102
}
102
{ACAD_REACTORS
330
29
102
}
330
29
100
AcDbVisualStyle
  2
2dWireframe
 70
     4
177
     2
291
     0
 71
     0
176
     1
 72
     2
176
     1
 73
     0
176
     1
 90
        0
176
     1
 40
0.6
176
     1
 41
30.0
176
     1
 63
     7
421
 16777215
176
     1
 74
     1
176
     1
 91
        4
176
     1
 64
     7
176
     1
 65
   257
176
     1
 75
     1
176
     1
175
     1
176
     1
 42
1.0
176
     1
 92
        0
176
     1
 66
   257
176
     1
 43
1.0
176
     1
 76
     1
176
     1
 77
     6
176
     1
 78
     2
176
     1
 67
     7
176
     1
 79
     5
176
     1
170
     0
176
     1
171
     0
176
     1
290
     0
176
     1
 93
        1
176
     1
 44
0.0
176
     1
173
     0
176
     1
1001
ACAD
1000
AcDbSavedByObjectVersion
1070
     0
  0
VISUALSTYLE
  5
2E
102
{ACAD_XDICTIONARY
360
109
102
}
102
{ACAD_REACTORS
330
29
102
}
330
29
100
AcDbVisualStyle
  2
Basic
 70
     7
177
     2
291
     1
 71
     1
176
     1
 72
     0
176
     1
 73
     1
176
     1
 90
        0
176
     1
 40
0.6
176
     1
 41
30.0
176
     1
 63
     7
421
 16777215
176
     1
 74
     0
176
     1
 91
        4
176
     1
 64
     7
176
     1
 65
   257
176
     1
 75
     1
176
     1
175
     1
176
     1
 42
1.0
176
     1
 92
        8
176
     1
 66
     7
176
     1
 43
1.0
176
     1
 76
     1
176
     1
 77
     6
176
     1
 78
     2
176
     1
 67
     7
176
     1
 79
     5
176
     1
170
     0
176
     1
171
     0
176
     1
290
     0
176
     1
 93
        1
176
     1
 44
0.0
176
     1
173
     0
176
     1
1001
ACAD
1000
AcDbSavedByObjectVersion
1070
     0
  0
VISUALSTYLE
  5
35
102
{ACAD_XDICTIONARY
360
117
102
}
102
{ACAD_REACTORS
330
29
102
}
330
29
100
AcDbVisualStyle
  2
Brighten
 70
    12
177
     2
291
     1
 71
     2
176
     1
 72
     2
176
     1
 73
     0
176
     1
 90
        0
176
     1
 40
0.6
176
     1
 41
30.0
176
     1
 63
     7
421
 16777215
176
     1
 74
     1
176
     1
 91
        4
176
     1
 64
     7
176
     1
 65
   257
176
     1
 75
     1
176
     1
175
     1
176
     1
 42
1.0
176
     1
 92
        8
176
     1
 66
     7
176
     1
 43
1.0
176
     1
 76
     1
176
     1
 77
     6
176
     1
 78
     2
176
     1
 67
     7
176
     1
 79
     5
176
     1
170
     0
176
     1
171
     0
176
     1
290
     0
176
     1
 93
        1
176
     1
 44
50.0
176
     1
173
     0
176
     1
1001
ACAD
1000
AcDbSavedByObjectVersion
1070
     0
  0
VISUALSTYLE
  5
39
102
{ACAD_XDICTIONARY
360
11F
102
}
102
{ACAD_REACTORS
330
29
102
}
330
29
100
AcDbVisualStyle
  2
ColorChange
 70
    16
177
     2
291
     1
 71
     2
176
     1
 72
     2
176
     1
 73
     3
176
     1
 90
        0
176
     1
 40
0.6
176
     1
 41
30.0
176
     1
 63
     8
421
  8421504
176
     1
 74
     1
176
     1
 91
        4
176
     1
 64
     7
176
     1
 65
   257
176
     1
 75
     1
176
     1
175
     1
176
     1
 42
1.0
176
     1
 92
        8
176
     1
 66
     8
424
  8421504
176
     1
 43
1.0
176
     1
 76
     1
176
     1
 77
     6
176
     1
 78
     2
176
     1
 67
     7
176
     1
 79
     5
176
     1
170
     0
176
     1
171
     0
176
     1
290
     0
176
     1
 93
        1
176
     1
 44
0.0
176
     1
173
     0
176
     1
1001
ACAD
1000
AcDbSavedByObjectVersion
1070
     0
  0
VISUALSTYLE
  5
32
102
{ACAD_XDICTIONARY
360
111
102
}
102
{ACAD_REACTORS
330
29
102
}
330
29
100
AcDbVisualStyle
  2
Conceptual
 70
     9
177
     2
291
     0
 71
     3
176
     1
 72
     2
176
     1
 73
     0
176
     1
 90
        0
176
     1
 40
0.6
176
     1
 41
30.0
176
     1
 63
     7
421
 16777215
176
     1
 74
     2
176
     1
 91
        2
176
     1
 64
     7
176
     1
 65
   257
176
     1
 75
     1
176
     1
175
     1
176
     1
 42
179.0
176
     1
 92
        8
176
     1
 66
     7
176
     1
 43
1.0
176
     1
 76
     1
176
     1
 77
     6
176
     1
 78
     2
176
     1
 67
     7
176
     1
 79
     3
176
     1
170
     0
176
     1
171
     0
176
     1
290
     0
176
     1
 93
        1
176
     1
 44
0.0
176
     1
173
     0
176
     1
1001
ACAD
1000
AcDbSavedByObjectVersion
1070
     0
  0
VISUALSTYLE
  5
34
102
{ACAD_XDICTIONARY
360
115
102
}
102
{ACAD_REACTORS
330
29
102
}
330
29
100
AcDbVisualStyle
  2
Dim
 70
    11
177
     2
291
     1
 71
     2
176
     1
 72
     2
176
     1
 73
     0
176
     1
 90
        0
176
     1
 40
0.6
176
     1
 41
30.0
176
     1
 63
     7
421
 16777215
176
     1
 74
     1
176
     1
 91
        4
176
     1
 64
     7
176
     1
 65
   257
176
     1
 75
     1
176
     1
175
     1
176
     1
 42
1.0
176
     1
 92
        8
176
     1
 66
     7
176
     1
 43
1.0
176
     1
 76
     1
176
     1
 77
     6
176
     1
 78
     2
176
     1
 67
     7
176
     1
 79
     5
176
     1
170
     0
176
     1
171
     0
176
     1
290
     0
176
     1
 93
        1
176
     1
 44
-50.0
176
     1
173
     0
176
     1
1001
ACAD
1000
AcDbSavedByObjectVersion
1070
     0
  0
VISUALSTYLE
  5
41
102
{ACAD_XDICTIONARY
360
12F
102
}
102
{ACAD_REACTORS
330
29
102
}
330
29
100
AcDbVisualStyle
  2
EdgeColorOff
 70
    22
177
     2
291
     1
 71
     2
176
     0
 72
     2
176
     0
 73
     0
176
     0
 90
        0
176
     0
 40
0.6
176
     0
 41
30.0
176
     0
 63
     7
421
 16777215
176
     0
 74
     1
176
     0
 91
        4
176
     0
 64
     7
176
     0
 65
   257
176
     0
 75
     1
176
     0
175
     1
176
     0
 42
1.0
176
     0
 92
        8
176
     2
 66
     7
176
     0
 43
1.0
176
     0
 76
     1
176
     0
 77
     6
176
     0
 78
     2
176
     0
 67
     7
176
     0
 79
     5
176
     0
170
     0
176
     0
171
     0
176
     0
290
     0
176
     0
 93
        1
176
     0
 44
0.0
176
     0
173
     0
176
     0
1001
ACAD
1000
AcDbSavedByObjectVersion
1070
     0
  0
VISUALSTYLE
  5
38
102
{ACAD_XDICTIONARY
360
11D
102
}
102
{ACAD_REACTORS
330
29
102
}
330
29
100
AcDbVisualStyle
  2
Facepattern
 70
    15
177
     2
291
     1
 71
     2
176
     1
 72
     2
176
     1
 73
     0
176
     1
 90
        0
176
     1
 40
0.6
176
     1
 41
30.0
176
     1
 63
     7
421
 16777215
176
     1
 74
     1
176
     1
 91
        4
176
     1
 64
     7
176
     1
 65
   257
176
     1
 75
     1
176
     1
175
     1
176
     1
 42
1.0
176
     1
 92
        8
176
     1
 66
     7
176
     1
 43
1.0
176
     1
 76
     1
176
     1
 77
     6
176
     1
 78
     2
176
     1
 67
     7
176
     1
 79
     5
176
     1
170
     0
176
     1
171
     0
176
     1
290
     0
176
     1
 93
        1
176
     1
 44
0.0
176
     1
173
     0
176
     1
1001
ACAD
1000
AcDbSavedByObjectVersion
1070
     0
  0
VISUALSTYLE
  5
2A
102
{ACAD_XDICTIONARY
360
101
102
}
102
{ACAD_REACTORS
330
29
102
}
330
29
100
AcDbVisualStyle
  2
Flat
 70
     0
177
     2
291
     1
 71
     2
176
     1
 72
     1
176
     1
 73
     1
176
     1
 90
        2
176
     1
 40
0.6
176
     1
 41
30.0
176
     1
 63
     7
421
 16777215
176
     1
 74
     0
176
     1
 91
        0
176
     1
 64
     7
176
     1
 65
   257
176
     1
 75
     1
176
     1
175
     1
176
     1
 42
1.0
176
     1
 92
        8
176
     1
 66
     7
176
     1
 43
1.0
176
     1
 76
     1
176
     1
 77
     6
176
     1
 78
     2
176
     1
 67
     7
176
     1
 79
     5
176
     1
170
     0
176
     1
171
     0
176
     1
290
     0
176
     1
 93
       13
176
     1
 44
0.0
176
     1
173
     0
176
     1
1001
ACAD
1000
AcDbSavedByObjectVersion
1070
     0
  0
VISUALSTYLE
  5
2B
102
{ACAD_XDICTIONARY
360
103
102
}
102
{ACAD_REACTORS
330
29
102
}
330
29
100
AcDbVisualStyle
  2
FlatWithEdges
 70
     1
177
     2
291
     1
 71
     2
176
     1
 72
     1
176
     1
 73
     1
176
     1
 90
        2
176
     1
 40
0.6
176
     1
 41
30.0
176
     1
 63
     7
421
 16777215
176
     1
 74
     1
176
     1
 91
        0
176
     1
 64
     7
176
     1
 65
   257
176
     1
 75
     1
176
     1
175
     1
176
     1
 42
1.0
176
     1
 92
        0
176
     1
 66
   257
176
     1
 43
1.0
176
     1
 76
     1
176
     1
 77
     6
176
     1
 78
     2
176
     1
 67
     7
176
     1
 79
     5
176
     1
170
     0
176
     1
171
     0
176
     1
290
     0
176
     1
 93
       13
176
     1
 44
0.0
176
     1
173
     0
176
     1
1001
ACAD
1000
AcDbSavedByObjectVersion
1070
     0
  0
VISUALSTYLE
  5
2C
102
{ACAD_XDICTIONARY
360
105
102
}
102
{ACAD_REACTORS
330
29
102
}
330
29
100
AcDbVisualStyle
  2
Gouraud
 70
     2
177
     2
291
     1
 71
     2
176
     1
 72
     2
176
     1
 73
     1
176
     1
 90
        2
176
     1
 40
0.6
176
     1
 41
30.0
176
     1
 63
     7
421
 16777215
176
     1
 74
     0
176
     1
 91
        0
176
     1
 64
     7
176
     1
 65
   257
176
     1
 75
     1
176
     1
175
     1
176
     1
 42
1.0
176
     1
 92
        0
176
     1
 66
     7
176
     1
 43
1.0
176
     1
 76
     1
176
     1
 77
     6
176
     1
 78
     2
176
     1
 67
     7
176
     1
 79
     5
176
     1
170
     0
176
     1
171
     0
176
     1
290
     0
176
     1
 93
       13
176
     1
 44
0.0
176
     1
173
     0
176
     1
1001
ACAD
1000
AcDbSavedByObjectVersion
1070
     0
  0
VISUALSTYLE
  5
2D
102
{ACAD_XDICTIONARY
360
107
102
}
102
{ACAD_REACTORS
330
29
102
}
330
29
100
AcDbVisualStyle
  2
GouraudWithEdges
 70
     3
177
     2
291
     1
 71
     2
176
     1
 72
     2
176
     1
 73
     1
176
     1
 90
        2
176
     1
 40
0.6
176
     1
 41
30.0
176
     1
 63
     7
421
 16777215
176
     1
 74
     1
176
     1
 91
        0
176
     1
 64
     7
176
     1
 65
   257
176
     1
 75
     1
176
     1
175
     1
176
     1
 42
1.0
176
     1
 92
        0
176
     1
 66
   257
176
     1
 43
1.0
176
     1
 76
     1
176
     1
 77
     6
176
     1
 78
     2
176
     1
 67
     7
176
     1
 79
     5
176
     1
170
     0
176
     1
171
     0
176
     1
290
     0
176
     1
 93
       13
176
     1
 44
0.0
176
     1
173
     0
176
     1
1001
ACAD
1000
AcDbSavedByObjectVersion
1070
     0
  0
VISUALSTYLE
  5
31
102
{ACAD_XDICTIONARY
360
10F
102
}
102
{ACAD_REACTORS
330
29
102
}
330
29
100
AcDbVisualStyle
  2
Hidden
 70
     6
177
     2
291
     0
 71
     1
176
     1
 72
     2
176
     1
 73
     2
176
     1
 90
        0
176
     1
 40
0.6
176
     1
 41
30.0
176
     1
 63
     7
421
 16777215
176
     1
 74
     2
176
     1
 91
        2
176
     1
 64
     7
176
     1
 65
   257
176
     1
 75
     2
176
     1
175
     1
176
     1
 42
40.0
176
     1
 92
        0
176
     1
 66
   257
176
     1
 43
1.0
176
     1
 76
     1
176
     1
 77
     6
176
     1
 78
     2
176
     1
 67
     7
176
     1
 79
     3
176
     1
170
     0
176
     1
171
     0
176
     1
290
     0
176
     1
 93
        1
176
     1
 44
0.0
176
     1
173
     0
176
     1
1001
ACAD
1000
AcDbSavedByObjectVersion
1070
     0
  0
VISUALSTYLE
  5
3F
102
{ACAD_XDICTIONARY
360
12B
102
}
102
{ACAD_REACTORS
330
29
102
}
330
29
100
AcDbVisualStyle
  2
JitterOff
 70
    20
177
     2
291
     1
 71
     2
176
     0
 72
     2
176
     0
 73
     0
176
     0
 90
        0
176
     0
 40
0.6
176
     0
 41
30.0
176
     0
 63
     7
421
 16777215
176
     0
 74
     1
176
     0
 91
        4
176
     0
 64
     7
176
     0
 65
   257
176
     0
 75
     1
176
     0
175
     1
176
     0
 42
1.0
176
     0
 92
       10
176
     2
 66
     7
176
     0
 43
1.0
176
     0
 76
     1
176
     0
 77
     6
176
     0
 78
     2
176
     0
 67
     7
176
     0
 79
     5
176
     0
170
     0
176
     0
171
     0
176
     0
290
     0
176
     0
 93
        1
176
     0
 44
0.0
176
     0
173
     0
176
     0
1001
ACAD
1000
AcDbSavedByObjectVersion
1070
     0
  0
VISUALSTYLE
  5
37
102
{ACAD_XDICTIONARY
360
11B
102
}
102
{ACAD_REACTORS
330
29
102
}
330
29
100
AcDbVisualStyle
  2
Linepattern
 70
    14
177
     2
291
     1
 71
     2
176
     1
 72
     2
176
     1
 73
     0
176
     1
 90
        0
176
     1
 40
0.6
176
     1
 41
30.0
176
     1
 63
     7
421
 16777215
176
     1
 74
     1
176
     1
 91
        4
176
     1
 64
     7
176
     1
 65
   257
176
     1
 75
     7
176
     1
175
     7
176
     1
 42
1.0
176
     1
 92
        8
176
     1
 66
     7
176
     1
 43
1.0
176
     1
 76
     1
176
     1
 77
     6
176
     1
 78
     2
176
     1
 67
     7
176
     1
 79
     5
176
     1
170
     0
176
     1
171
     0
176
     1
290
     0
176
     1
 93
        1
176
     1
 44
0.0
176
     1
173
     0
176
     1
1001
ACAD
1000
AcDbSavedByObjectVersion
1070
     0
  0
VISUALSTYLE
  5
40
102
{ACAD_XDICTIONARY
360
12D
102
}
102
{ACAD_REACTORS
330
29
102
}
330
29
100
AcDbVisualStyle
  2
OverhangOff
 70
    21
177
     2
291
     1
 71
     2
176
     0
 72
     2
176
     0
 73
     0
176
     0
 90
        0
176
     0
 40
0.6
176
     0
 41
30.0
176
     0
 63
     7
421
 16777215
176
     0
 74
     1
176
     0
 91
        4
176
     0
 64
     7
176
     0
 65
   257
176
     0
 75
     1
176
     0
175
     1
176
     0
 42
1.0
176
     0
 92
        9
176
     2
 66
     7
176
     0
 43
1.0
176
     0
 76
     1
176
     0
 77
     6
176
     0
 78
     2
176
     0
 67
     7
176
     0
 79
     5
176
     0
170
     0
176
     0
171
     0
176
     0
290
     0
176
     0
 93
        1
176
     0
 44
0.0
176
     0
173
     0
176
     0
1001
ACAD
1000
AcDbSavedByObjectVersion
1070
     0
  0
VISUALSTYLE
  5
33
102
{ACAD_XDICTIONARY
360
113
102
}
102
{ACAD_REACTORS
330
29
102
}
330
29
100
AcDbVisualStyle
  2
Realistic
 70
     8
177
     2
291
     0
 71
     2
176
     1
 72
     3
176
     1
 73
     0
176
     1
 90
        2
176
     1
 40
0.6
176
     1
 41
30.0
176
     1
 63
     7
421
 16777215
176
     1
 74
     0
176
     1
 91
        0
176
     1
 64
     7
176
     1
 65
   257
176
     1
 75
     1
176
     1
175
     1
176
     1
 42
1.0
176
     1
 92
        8
176
     1
 66
   257
176
     1
 43
1.0
176
     1
 76
     1
176
     1
 77
     6
176
     1
 78
     2
176
     1
 67
     7
176
     1
 79
     3
176
     1
170
     0
176
     1
171
     0
176
     1
290
     0
176
     1
 93
       13
176
     1
 44
0.0
176
     1
173
     0
176
     1
1001
ACAD
1000
AcDbSavedByObjectVersion
1070
     0
  0
VISUALSTYLE
  5
3E
102
{ACAD_XDICTIONARY
360
129
102
}
102
{ACAD_REACTORS
330
29
102
}
330
29
100
AcDbVisualStyle
  2
Shaded
 70
    27
177
     2
291
     0
 71
     2
176
     1
 72
     2
176
     1
 73
     1
176
     1
 90
        2
176
     1
 40
0.6
176
     1
 41
30.0
176
     1
 63
     7
421
 16777215
176
     1
 74
     0
176
     1
 91
        4
176
     1
 64
     7
176
     1
 65
   257
176
     1
 75
     1
176
     1
175
     1
176
     1
 42
1.0
176
     1
 92
        8
176
     1
 66
   257
176
     1
 43
1.0
176
     1
 76
     1
176
     1
 77
     6
176
     1
 78
     2
176
     1
 67
     8
425
  7895160
176
     1
 79
     3
176
     1
170
     0
176
     1
171
     0
176
     1
290
     0
176
     1
 93
        5
176
     1
 44
0.0
176
     1
173
     0
176
     1
1001
ACAD
1000
AcDbSavedByObjectVersion
1070
     0
  0
VISUALSTYLE
  5
3D
102
{ACAD_XDICTIONARY
360
127
102
}
102
{ACAD_REACTORS
330
29
102
}
330
29
100
AcDbVisualStyle
  2
Shaded with edges
 70
    26
177
     2
291
     0
 71
     2
176
     1
 72
     2
176
     1
 73
     1
176
     1
 90
        2
176
     1
 40
0.6
176
     1
 41
30.0
176
     1
 63
     7
421
 16777215
176
     1
 74
     1
176
     1
 91
        2
176
     1
 64
     7
176
     1
 65
   257
176
     1
 75
     2
176
     1
175
     1
176
     1
 42
1.0
176
     1
 92
        8
176
     1
 66
   257
176
     1
 43
1.0
176
     1
 76
     1
176
     1
 77
     6
176
     1
 78
     2
176
     1
 67
     7
176
     1
 79
     3
176
     1
170
     0
176
     1
171
     0
176
     1
290
     0
176
     1
 93
        5
176
     1
 44
0.0
176
     1
173
     0
176
     1
1001
ACAD
1000
AcDbSavedByObjectVersion
1070
     0
  0
VISUALSTYLE
  5
3A
102
{ACAD_XDICTIONARY
360
121
102
}
102
{ACAD_REACTORS
330
29
102
}
330
29
100
AcDbVisualStyle
  2
Shades of Gray
 70
    23
177
     2
291
     0
 71
     2
176
     1
 72
     2
176
     1
 73
     3
176
     1
 90
        0
176
     1
 40
0.6
176
     1
 41
30.0
176
     1
 63
     7
421
 16777215
176
     1
 74
     2
176
     1
 91
        2
176
     1
 64
     7
176
     1
 65
     7
176
     1
 75
     1
176
     1
175
     1
176
     1
 42
40.0
176
     1
 92
        8
176
     1
 66
     7
176
     1
 43
1.0
176
     1
 76
     1
176
     1
 77
     6
176
     1
 78
     2
176
     1
 67
     7
176
     1
 79
     3
176
     1
170
     0
176
     1
171
     0
176
     1
290
     0
176
     1
 93
        1
176
     1
 44
0.0
176
     1
173
     0
176
     1
1001
ACAD
1000
AcDbSavedByObjectVersion
1070
     0
  0
VISUALSTYLE
  5
3B
102
{ACAD_XDICTIONARY
360
123
102
}
102
{ACAD_REACTORS
330
29
102
}
330
29
100
AcDbVisualStyle
  2
Sketchy
 70
    24
177
     2
291
     0
 71
     1
176
     1
 72
     2
176
     1
 73
     2
176
     1
 90
        0
176
     1
 40
0.6
176
     1
 41
30.0
176
     1
 63
     7
421
 16777215
176
     1
 74
     2
176
     1
 91
        2
176
     1
 64
     7
176
     1
 65
     7
176
     1
 75
     1
176
     1
175
     1
176
     1
 42
40.0
176
     1
 92
       11
176
     1
 66
     7
176
     1
 43
1.0
176
     1
 76
     1
176
     1
 77
     6
176
     1
 78
     2
176
     1
 67
     7
176
     1
 79
     6
176
     1
170
     0
176
     1
171
     0
176
     1
290
     0
176
     1
 93
        1
176
     1
 44
0.0
176
     1
173
     0
176
     1
1001
ACAD
1000
AcDbSavedByObjectVersion
1070
     0
  0
VISUALSTYLE
  5
36
102
{ACAD_XDICTIONARY
360
119
102
}
102
{ACAD_REACTORS
330
29
102
}
330
29
100
AcDbVisualStyle
  2
Thicken
 70
    13
177
     2
291
     1
 71
     2
176
     1
 72
     2
176
     1
 73
     0
176
     1
 90
        0
176
     1
 40
0.6
176
     1
 41
30.0
176
     1
 63
     7
421
 16777215
176
     1
 74
     1
176
     1
 91
        4
176
     1
 64
     7
176
     1
 65
   257
176
     1
 75
     1
176
     1
175
     1
176
     1
 42
1.0
176
     1
 92
       12
176
     1
 66
     7
176
     1
 43
1.0
176
     1
 76
     1
176
     1
 77
     6
176
     1
 78
     2
176
     1
 67
     7
176
     1
 79
     5
176
     1
170
     0
176
     1
171
     0
176
     1
290
     0
176
     1
 93
        1
176
     1
 44
0.0
176
     1
173
     0
176
     1
1001
ACAD
1000
AcDbSavedByObjectVersion
1070
     0
  0
VISUALSTYLE
  5
30
102
{ACAD_XDICTIONARY
360
10D
102
}
102
{ACAD_REACTORS
330
29
102
}
330
29
100
AcDbVisualStyle
  2
Wireframe
 70
     5
177
     2
291
     0
 71
     0
176
     1
 72
     2
176
     1
 73
     0
176
     1
 90
        0
176
     1
 40
0.6
176
     1
 41
30.0
176
     1
 63
     7
421
 16777215
176
     1
 74
     1
176
     1
 91
        4
176
     1
 64
     7
176
     1
 65
   257
176
     1
 75
     1
176
     1
175
     1
176
     1
 42
1.0
176
     1
 92
        0
176
     1
 66
   257
176
     1
 43
1.0
176
     1
 76
     1
176
     1
 77
     6
176
     1
 78
     2
176
     1
 67
     7
176
     1
 79
     3
176
     1
170
     0
176
     1
171
     0
176
     1
290
     0
176
     1
 93
        1
176
     1
 44
0.0
176
     1
173
     0
176
     1
1001
ACAD
1000
AcDbSavedByObjectVersion
1070
     0
  0
VISUALSTYLE
  5
3C
102
{ACAD_XDICTIONARY
360
125
102
}
102
{ACAD_REACTORS
330
29
102
}
330
29
100
AcDbVisualStyle
  2
X-Ray
 70
    25
177
     2
291
     0
 71
     2
176
     1
 72
     2
176
     1
 73
     1
176
     1
 90
        1
176
     1
 40
0.5
176
     1
 41
30.0
176
     1
 63
     7
421
 16777215
176
     1
 74
     1
176
     1
 91
        0
176
     1
 64
     7
176
     1
 65
   257
176
     1
 75
     1
176
     1
175
     1
176
     1
 42
1.0
176
     1
 92
        8
176
     1
 66
     7
176
     1
 43
1.0
176
     1
 76
     1
176
     1
 77
     6
176
     1
 78
     2
176
     1
 67
     7
176
     1
 79
     3
176
     1
170
     0
176
     1
171
     0
176
     1
290
     0
176
     1
 93
       13
176
     1
 44
0.0
176
     1
173
     0
176
     1
1001
ACAD
1000
AcDbSavedByObjectVersion
1070
     0
  0
DICTIONARYVAR
  5
FD
102
{ACAD_REACTORS
330
F8
102
}
330
F8
100
DictionaryVariables
280
     0
  1
1:1
  0
DICTIONARYVAR
  5
FA
102
{ACAD_REACTORS
330
F8
102
}
330
F8
100
DictionaryVariables
280
     0
  1
STANDARD
  0
DICTIONARYVAR
  5
F9
102
{ACAD_REACTORS
330
F8
102
}
330
F8
100
DictionaryVariables
280
     0
  1
STANDARD
  0
DICTIONARYVAR
  5
FB
102
{ACAD_REACTORS
330
F8
102
}
330
F8
100
DictionaryVariables
280
     0
  1
Imperial24
  0
DICTIONARYVAR
  5
FC
102
{ACAD_REACTORS
330
F8
102
}
330
F8
100
DictionaryVariables
280
     0
  1
Imperial24
  0
DICTIONARY
  5
135
330
6B
100
AcDbDictionary
280
     1
281
     1
  3
ACAD_XREC_ROUNDTRIP
360
136
  0
DICTIONARY
  5
1A
330
19
100
AcDbDictionary
280
     1
281
     1
  3
BUMPTILE
360
1C
  3
DIFFUSETILE
360
1B
  3
OPACITYTILE
360
1F
  3
REFLECTIONTILE
360
1E
  3
REFRACTIONTILE
360
20
  3
SPECULARTILE
360
1D
  0
DICTIONARY
  5
12
330
11
100
AcDbDictionary
280
     1
281
     1
  3
BUMPTILE
360
14
  3
DIFFUSETILE
360
13
  3
OPACITYTILE
360
17
  3
REFLECTIONTILE
360
16
  3
REFRACTIONTILE
360
18
  3
SPECULARTILE
360
15
  0
DICTIONARY
  5
22
330
21
100
AcDbDictionary
280
     1
281
     1
  3
BUMPTILE
360
24
  3
DIFFUSETILE
360
23
  3
OPACITYTILE
360
27
  3
REFLECTIONTILE
360
26
  3
REFRACTIONTILE
360
28
  3
SPECULARTILE
360
25
  0
DICTIONARY
  5
131
330
67
100
AcDbDictionary
280
     1
281
     1
  3
ACAD_XREC_ROUNDTRIP
360
132
  0
DICTIONARY
  5
133
330
69
100
AcDbDictionary
280
     1
281
     1
  3
ACAD_XREC_ROUNDTRIP
360
134
  0
DICTIONARY
  5
FE
330
65
100
AcDbDictionary
280
     1
281
     1
  3
ACAD_ROUNDTRIP_2008_TABLESTYLE_CELLSTYLEMAP
360
FF
  0
DICTIONARY
  5
10B
330
2F
100
AcDbDictionary
280
     1
281
     1
  3
ACAD_XREC_ROUNDTRIP
360
10C
  0
DICTIONARY
  5
109
330
2E
100
AcDbDictionary
280
     1
281
     1
  3
ACAD_XREC_ROUNDTRIP
360
10A
  0
DICTIONARY
  5
117
330
35
100
AcDbDictionary
280
     1
281
     1
  3
ACAD_XREC_ROUNDTRIP
360
118
  0
DICTIONARY
  5
11F
330
39
100
AcDbDictionary
280
     1
281
     1
  3
ACAD_XREC_ROUNDTRIP
360
120
  0
DICTIONARY
  5
111
330
32
100
AcDbDictionary
280
     1
281
     1
  3
ACAD_XREC_ROUNDTRIP
360
112
  0
DICTIONARY
  5
115
330
34
100
AcDbDictionary
280
     1
281
     1
  3
ACAD_XREC_ROUNDTRIP
360
116
  0
DICTIONARY
  5
12F
330
41
100
AcDbDictionary
280
     1
281
     1
  3
ACAD_XREC_ROUNDTRIP
360
130
  0
DICTIONARY
  5
11D
330
38
100
AcDbDictionary
280
     1
281
     1
  3
ACAD_XREC_ROUNDTRIP
360
11E
  0
DICTIONARY
  5
101
330
2A
100
AcDbDictionary
280
     1
281
     1
  3
ACAD_XREC_ROUNDTRIP
360
102
  0
DICTIONARY
  5
103
330
2B
100
AcDbDictionary
280
     1
281
     1
  3
ACAD_XREC_ROUNDTRIP
360
104
  0
DICTIONARY
  5
105
330
2C
100
AcDbDictionary
280
     1
281
     1
  3
ACAD_XREC_ROUNDTRIP
360
106
  0
DICTIONARY
  5
107
330
2D
100
AcDbDictionary
280
     1
281
     1
  3
ACAD_XREC_ROUNDTRIP
360
108
  0
DICTIONARY
  5
10F
330
31
100
AcDbDictionary
280
     1
281
     1
  3
ACAD_XREC_ROUNDTRIP
360
110
  0
DICTIONARY
  5
12B
330
3F
100
AcDbDictionary
280
     1
281
     1
  3
ACAD_XREC_ROUNDTRIP
360
12C
  0
DICTIONARY
  5
11B
330
37
100
AcDbDictionary
280
     1
281
     1
  3
ACAD_XREC_ROUNDTRIP
360
11C
  0
DICTIONARY
  5
12D
330
40
100
AcDbDictionary
280
     1
281
     1
  3
ACAD_XREC_ROUNDTRIP
360
12E
  0
DICTIONARY
  5
113
330
33
100
AcDbDictionary
280
     1
281
     1
  3
ACAD_XREC_ROUNDTRIP
360
114
  0
DICTIONARY
  5
129
330
3E
100
AcDbDictionary
280
     1
281
     1
  3
ACAD_XREC_ROUNDTRIP
360
12A
  0
DICTIONARY
  5
127
330
3D
100
AcDbDictionary
280
     1
281
     1
  3
ACAD_XREC_ROUNDTRIP
360
128
  0
DICTIONARY
  5
121
330
3A
100
AcDbDictionary
280
     1
281
     1
  3
ACAD_XREC_ROUNDTRIP
360
122
  0
DICTIONARY
  5
123
330
3B
100
AcDbDictionary
280
     1
281
     1
  3
ACAD_XREC_ROUNDTRIP
360
124
  0
DICTIONARY
  5
119
330
36
100
AcDbDictionary
280
     1
281
     1
  3
ACAD_XREC_ROUNDTRIP
360
11A
  0
DICTIONARY
  5
10D
330
30
100
AcDbDictionary
280
     1
281
     1
  3
ACAD_XREC_ROUNDTRIP
360
10E
  0
DICTIONARY
  5
125
330
3C
100
AcDbDictionary
280
     1
281
     1
  3
ACAD_XREC_ROUNDTRIP
360
126
  0
XRECORD
  5
136
102
{ACAD_REACTORS
330
135
102
}
330
135
100
AcDbXrecord
280
     1
102
DISPLAYNAME
  1
Imperial24
102
FLAGS
 90
        0
  0
XRECORD
  5
1C
102
{ACAD_REACTORS
330
1A
102
}
330
1A
100
AcDbXrecord
280
     1
270
     1
271
     1
  0
XRECORD
  5
1B
102
{ACAD_REACTORS
330
1A
102
}
330
1A
100
AcDbXrecord
280
     1
270
     1
271
     1
  0
XRECORD
  5
1F
102
{ACAD_REACTORS
330
1A
102
}
330
1A
100
AcDbXrecord
280
     1
270
     1
271
     1
  0
XRECORD
  5
1E
102
{ACAD_REACTORS
330
1A
102
}
330
1A
100
AcDbXrecord
280
     1
270
     1
271
     1
  0
XRECORD
  5
20
102
{ACAD_REACTORS
330
1A
102
}
330
1A
100
AcDbXrecord
280
     1
270
     1
271
     1
  0
XRECORD
  5
1D
102
{ACAD_REACTORS
330
1A
102
}
330
1A
100
AcDbXrecord
280
     1
270
     1
271
     1
  0
XRECORD
  5
14
102
{ACAD_REACTORS
330
12
102
}
330
12
100
AcDbXrecord
280
     1
270
     1
271
     1
  0
XRECORD
  5
13
102
{ACAD_REACTORS
330
12
102
}
330
12
100
AcDbXrecord
280
     1
270
     1
271
     1
  0
XRECORD
  5
17
102
{ACAD_REACTORS
330
12
102
}
330
12
100
AcDbXrecord
280
     1
270
     1
271
     1
  0
XRECORD
  5
16
102
{ACAD_REACTORS
330
12
102
}
330
12
100
AcDbXrecord
280
     1
270
     1
271
     1
  0
XRECORD
  5
18
102
{ACAD_REACTORS
330
12
102
}
330
12
100
AcDbXrecord
280
     1
270
     1
271
     1
  0
XRECORD
  5
15
102
{ACAD_REACTORS
330
12
102
}
330
12
100
AcDbXrecord
280
     1
270
     1
271
     1
  0
XRECORD
  5
24
102
{ACAD_REACTORS
330
22
102
}
330
22
100
AcDbXrecord
280
     1
270
     1
271
     1
  0
XRECORD
  5
23
102
{ACAD_REACTORS
330
22
102
}
330
22
100
AcDbXrecord
280
     1
270
     1
271
     1
  0
XRECORD
  5
27
102
{ACAD_REACTORS
330
22
102
}
330
22
100
AcDbXrecord
280
     1
270
     1
271
     1
  0
XRECORD
  5
26
102
{ACAD_REACTORS
330
22
102
}
330
22
100
AcDbXrecord
280
     1
270
     1
271
     1
  0
XRECORD
  5
28
102
{ACAD_REACTORS
330
22
102
}
330
22
100
AcDbXrecord
280
     1
270
     1
271
     1
  0
XRECORD
  5
25
102
{ACAD_REACTORS
330
22
102
}
330
22
100
AcDbXrecord
280
     1
270
     1
271
     1
  0
XRECORD
  5
132
102
{ACAD_REACTORS
330
131
102
}
330
131
100
AcDbXrecord
280
     1
102
ACAD_ROUNDTRIP_2012_MLEADER_STYLE
298
     1
  0
XRECORD
  5
134
102
{ACAD_REACTORS
330
133
102
}
330
133
100
AcDbXrecord
280
     1
102
DISPLAYNAME
  1
Imperial24
102
FLAGS
 90
        0
  0
CELLSTYLEMAP
  5
FF
102
{ACAD_REACTORS
330
FE
102
}
330
FE
100
AcDbCellStyleMap
 90
        3
300
CELLSTYLE
  1
TABLEFORMAT_BEGIN
 90
        5
170
     1
 91
        0
 92
    32768
 62
   257
 93
        1
300
CONTENTFORMAT
  1
CONTENTFORMAT_BEGIN
 90
        0
 91
        0
 92
      512
 93
        0
300

 40
0.0
140
1.0
 94
        5
 62
     0
340
55
144
0.25
309
CONTENTFORMAT_END
171
     0
 94
        0
309
TABLEFORMAT_END
  1
CELLSTYLE_BEGIN
 90
        1
 91
        1
300
_TITLE
309
CELLSTYLE_END
300
CELLSTYLE
  1
TABLEFORMAT_BEGIN
 90
        5
170
     1
 91
        0
 92
        0
 62
   257
 93
        1
300
CONTENTFORMAT
  1
CONTENTFORMAT_BEGIN
 90
        0
 91
        0
 92
      512
 93
        0
300

 40
0.0
140
1.0
 94
        5
 62
     0
340
55
144
0.18
309
CONTENTFORMAT_END
171
     0
 94
        0
309
TABLEFORMAT_END
  1
CELLSTYLE_BEGIN
 90
        2
 91
        1
300
_HEADER
309
CELLSTYLE_END
300
CELLSTYLE
  1
TABLEFORMAT_BEGIN
 90
        5
170
     1
 91
        0
 92
        0
 62
   257
 93
        1
300
CONTENTFORMAT
  1
CONTENTFORMAT_BEGIN
 90
        0
 91
        0
 92
      512
 93
        0
300

 40
0.0
140
1.0
 94
        2
 62
     0
340
55
144
0.18
309
CONTENTFORMAT_END
171
     0
 94
        0
309
TABLEFORMAT_END
  1
CELLSTYLE_BEGIN
 90
        3
 91
        2
300
_DATA
309
CELLSTYLE_END
  0
XRECORD
  5
10C
102
{ACAD_REACTORS
330
10B
102
}
330
10B
100
AcDbXrecord
280
     1
102
RTVSPost2010Prop28
280
     1
102
RTVSPost2010PropOp28
 70
     1
102
RTVSPost2010Prop29
280
     1
102
RTVSPost2010PropOp29
 70
     1
102
RTVSPost2010Prop30
280
     0
102
RTVSPost2010PropOp30
 70
     1
102
RTVSPost2010Prop31
280
     0
102
RTVSPost2010PropOp31
 70
     1
102
RTVSPost2010Prop32
280
     0
102
RTVSPost2010PropOp32
 70
     1
102
RTVSPost2010Prop33
280
     0
102
RTVSPost2010PropOp33
 70
     1
102
RTVSPost2010Prop34
280
     0
102
RTVSPost2010PropOp34
 70
     1
102
RTVSPost2010Prop35
280
     0
102
RTVSPost2010PropOp35
 70
     1
102
RTVSPost2010Prop36
280
     0
102
RTVSPost2010PropOp36
 70
     1
102
RTVSPost2010Prop37
 90
       50
102
RTVSPost2010PropOp37
 70
     1
102
RTVSPost2010Prop38
140
0.0
102
RTVSPost2010PropOp38
 70
     1
102
RTVSPost2010Prop39
140
1.0
102
RTVSPost2010PropOp39
 70
     1
102
RTVSPost2010Prop40
 90
        0
102
RTVSPost2010PropOp40
 70
     1
102
RTVSPost2010Prop41ColorIndex
 90
       18
102
RTVSPost2010Prop41ColorRGB
 90
        0
102
RTVSPost2010PropOp41
 70
     1
102
RTVSPost2010Prop42
 90
       50
102
RTVSPost2010PropOp42
 70
     1
102
RTVSPost2010Prop43
 90
        3
102
RTVSPost2010PropOp43
 70
     1
102
RTVSPost2010Prop44ColorIndex
 90
        5
102
RTVSPost2010Prop44ColorRGB
 90
      255
102
RTVSPost2010PropOp44
 70
     1
102
RTVSPost2010Prop45
280
     0
102
RTVSPost2010PropOp45
 70
     1
102
RTVSPost2010Prop46
 90
       50
102
RTVSPost2010PropOp46
 70
     1
102
RTVSPost2010Prop47
 90
       50
102
RTVSPost2010PropOp47
 70
     1
102
RTVSPost2010Prop48
 90
       50
102
RTVSPost2010PropOp48
 70
     1
102
RTVSPost2010Prop49
280
     0
102
RTVSPost2010PropOp49
 70
     1
102
RTVSPost2010Prop50
 90
       50
102
RTVSPost2010PropOp50
 70
     1
102
RTVSPost2010Prop51ColorIndex
 90
      256
102
RTVSPost2010Prop51ColorRGB
 90
-16777216
102
RTVSPost2010PropOp51
 70
     0
102
RTVSPost2010Prop52
140
1.0
102
RTVSPost2010PropOp52
 70
     0
102
RTVSPost2010Prop53
 90
        2
102
RTVSPost2010PropOp53
 70
     1
102
RTVSPost2010Prop54
  1
strokes_ogs.tif
102
RTVSPost2010PropOp54
 70
     1
102
RTVSPost2010Prop55
280
     0
102
RTVSPost2010PropOp55
 70
     1
102
RTVSPost2010Prop56
140
1.0
102
RTVSPost2010PropOp56
 70
     1
102
RTVSPost2010Prop57
140
1.0
102
RTVSPost2010PropOp57
 70
     1
  0
XRECORD
  5
10A
102
{ACAD_REACTORS
330
109
102
}
330
109
100
AcDbXrecord
280
     1
102
RTVSPost2010Prop28
280
     0
102
RTVSPost2010PropOp28
 70
     1
102
RTVSPost2010Prop29
280
     1
102
RTVSPost2010PropOp29
 70
     1
102
RTVSPost2010Prop30
280
     1
102
RTVSPost2010PropOp30
 70
     1
102
RTVSPost2010Prop31
280
     0
102
RTVSPost2010PropOp31
 70
     1
102
RTVSPost2010Prop32
280
     0
102
RTVSPost2010PropOp32
 70
     1
102
RTVSPost2010Prop33
280
     0
102
RTVSPost2010PropOp33
 70
     1
102
RTVSPost2010Prop34
280
     0
102
RTVSPost2010PropOp34
 70
     1
102
RTVSPost2010Prop35
280
     0
102
RTVSPost2010PropOp35
 70
     1
102
RTVSPost2010Prop36
280
     0
102
RTVSPost2010PropOp36
 70
     1
102
RTVSPost2010Prop37
 90
       50
102
RTVSPost2010PropOp37
 70
     1
102
RTVSPost2010Prop38
140
0.0
102
RTVSPost2010PropOp38
 70
     1
102
RTVSPost2010Prop39
140
1.0
102
RTVSPost2010PropOp39
 70
     1
102
RTVSPost2010Prop40
 90
        0
102
RTVSPost2010PropOp40
 70
     1
102
RTVSPost2010Prop41ColorIndex
 90
       18
102
RTVSPost2010Prop41ColorRGB
 90
        0
102
RTVSPost2010PropOp41
 70
     1
102
RTVSPost2010Prop42
 90
       50
102
RTVSPost2010PropOp42
 70
     1
102
RTVSPost2010Prop43
 90
        3
102
RTVSPost2010PropOp43
 70
     1
102
RTVSPost2010Prop44ColorIndex
 90
        5
102
RTVSPost2010Prop44ColorRGB
 90
      255
102
RTVSPost2010PropOp44
 70
     1
102
RTVSPost2010Prop45
280
     0
102
RTVSPost2010PropOp45
 70
     1
102
RTVSPost2010Prop46
 90
       50
102
RTVSPost2010PropOp46
 70
     1
102
RTVSPost2010Prop47
 90
       50
102
RTVSPost2010PropOp47
 70
     1
102
RTVSPost2010Prop48
 90
       50
102
RTVSPost2010PropOp48
 70
     1
102
RTVSPost2010Prop49
280
     0
102
RTVSPost2010PropOp49
 70
     1
102
RTVSPost2010Prop50
 90
       50
102
RTVSPost2010PropOp50
 70
     1
102
RTVSPost2010Prop51ColorIndex
 90
      256
102
RTVSPost2010Prop51ColorRGB
 90
-16777216
102
RTVSPost2010PropOp51
 70
     0
102
RTVSPost2010Prop52
140
1.0
102
RTVSPost2010PropOp52
 70
     0
102
RTVSPost2010Prop53
 90
        2
102
RTVSPost2010PropOp53
 70
     1
102
RTVSPost2010Prop54
  1
strokes_ogs.tif
102
RTVSPost2010PropOp54
 70
     1
102
RTVSPost2010Prop55
280
     0
102
RTVSPost2010PropOp55
 70
     1
102
RTVSPost2010Prop56
140
1.0
102
RTVSPost2010PropOp56
 70
     1
102
RTVSPost2010Prop57
140
1.0
102
RTVSPost2010PropOp57
 70
     1
  0
XRECORD
  5
118
102
{ACAD_REACTORS
330
117
102
}
330
117
100
AcDbXrecord
280
     1
102
RTVSPost2010Prop28
280
     0
102
RTVSPost2010PropOp28
 70
     1
102
RTVSPost2010Prop29
280
     1
102
RTVSPost2010PropOp29
 70
     1
102
RTVSPost2010Prop30
280
     1
102
RTVSPost2010PropOp30
 70
     1
102
RTVSPost2010Prop31
280
     0
102
RTVSPost2010PropOp31
 70
     1
102
RTVSPost2010Prop32
280
     0
102
RTVSPost2010PropOp32
 70
     1
102
RTVSPost2010Prop33
280
     0
102
RTVSPost2010PropOp33
 70
     1
102
RTVSPost2010Prop34
280
     0
102
RTVSPost2010PropOp34
 70
     1
102
RTVSPost2010Prop35
280
     0
102
RTVSPost2010PropOp35
 70
     1
102
RTVSPost2010Prop36
280
     0
102
RTVSPost2010PropOp36
 70
     1
102
RTVSPost2010Prop37
 90
       50
102
RTVSPost2010PropOp37
 70
     1
102
RTVSPost2010Prop38
140
0.0
102
RTVSPost2010PropOp38
 70
     1
102
RTVSPost2010Prop39
140
1.0
102
RTVSPost2010PropOp39
 70
     1
102
RTVSPost2010Prop40
 90
        0
102
RTVSPost2010PropOp40
 70
     1
102
RTVSPost2010Prop41ColorIndex
 90
       18
102
RTVSPost2010Prop41ColorRGB
 90
        0
102
RTVSPost2010PropOp41
 70
     1
102
RTVSPost2010Prop42
 90
       50
102
RTVSPost2010PropOp42
 70
     1
102
RTVSPost2010Prop43
 90
        3
102
RTVSPost2010PropOp43
 70
     1
102
RTVSPost2010Prop44ColorIndex
 90
        5
102
RTVSPost2010Prop44ColorRGB
 90
      255
102
RTVSPost2010PropOp44
 70
     1
102
RTVSPost2010Prop45
280
     0
102
RTVSPost2010PropOp45
 70
     1
102
RTVSPost2010Prop46
 90
       50
102
RTVSPost2010PropOp46
 70
     1
102
RTVSPost2010Prop47
 90
       50
102
RTVSPost2010PropOp47
 70
     1
102
RTVSPost2010Prop48
 90
       50
102
RTVSPost2010PropOp48
 70
     1
102
RTVSPost2010Prop49
280
     0
102
RTVSPost2010PropOp49
 70
     1
102
RTVSPost2010Prop50
 90
       50
102
RTVSPost2010PropOp50
 70
     1
102
RTVSPost2010Prop51ColorIndex
 90
      256
102
RTVSPost2010Prop51ColorRGB
 90
-16777216
102
RTVSPost2010PropOp51
 70
     0
102
RTVSPost2010Prop52
140
1.0
102
RTVSPost2010PropOp52
 70
     0
102
RTVSPost2010Prop53
 90
        2
102
RTVSPost2010PropOp53
 70
     1
102
RTVSPost2010Prop54
  1
strokes_ogs.tif
102
RTVSPost2010PropOp54
 70
     1
102
RTVSPost2010Prop55
280
     0
102
RTVSPost2010PropOp55
 70
     1
102
RTVSPost2010Prop56
140
1.0
102
RTVSPost2010PropOp56
 70
     1
102
RTVSPost2010Prop57
140
1.0
102
RTVSPost2010PropOp57
 70
     1
  0
XRECORD
  5
120
102
{ACAD_REACTORS
330
11F
102
}
330
11F
100
AcDbXrecord
280
     1
102
RTVSPost2010Prop28
280
     0
102
RTVSPost2010PropOp28
 70
     1
102
RTVSPost2010Prop29
280
     1
102
RTVSPost2010PropOp29
 70
     1
102
RTVSPost2010Prop30
280
     1
102
RTVSPost2010PropOp30
 70
     1
102
RTVSPost2010Prop31
280
     0
102
RTVSPost2010PropOp31
 70
     1
102
RTVSPost2010Prop32
280
     0
102
RTVSPost2010PropOp32
 70
     1
102
RTVSPost2010Prop33
280
     0
102
RTVSPost2010PropOp33
 70
     1
102
RTVSPost2010Prop34
280
     0
102
RTVSPost2010PropOp34
 70
     1
102
RTVSPost2010Prop35
280
     0
102
RTVSPost2010PropOp35
 70
     1
102
RTVSPost2010Prop36
280
     0
102
RTVSPost2010PropOp36
 70
     1
102
RTVSPost2010Prop37
 90
       50
102
RTVSPost2010PropOp37
 70
     1
102
RTVSPost2010Prop38
140
0.0
102
RTVSPost2010PropOp38
 70
     1
102
RTVSPost2010Prop39
140
1.0
102
RTVSPost2010PropOp39
 70
     1
102
RTVSPost2010Prop40
 90
        0
102
RTVSPost2010PropOp40
 70
     1
102
RTVSPost2010Prop41ColorIndex
 90
       18
102
RTVSPost2010Prop41ColorRGB
 90
        0
102
RTVSPost2010PropOp41
 70
     1
102
RTVSPost2010Prop42
 90
       50
102
RTVSPost2010PropOp42
 70
     1
102
RTVSPost2010Prop43
 90
        3
102
RTVSPost2010PropOp43
 70
     1
102
RTVSPost2010Prop44ColorIndex
 90
        5
102
RTVSPost2010Prop44ColorRGB
 90
      255
102
RTVSPost2010PropOp44
 70
     1
102
RTVSPost2010Prop45
280
     0
102
RTVSPost2010PropOp45
 70
     1
102
RTVSPost2010Prop46
 90
       50
102
RTVSPost2010PropOp46
 70
     1
102
RTVSPost2010Prop47
 90
       50
102
RTVSPost2010PropOp47
 70
     1
102
RTVSPost2010Prop48
 90
       50
102
RTVSPost2010PropOp48
 70
     1
102
RTVSPost2010Prop49
280
     0
102
RTVSPost2010PropOp49
 70
     1
102
RTVSPost2010Prop50
 90
       50
102
RTVSPost2010PropOp50
 70
     1
102
RTVSPost2010Prop51ColorIndex
 90
      256
102
RTVSPost2010Prop51ColorRGB
 90
-16777216
102
RTVSPost2010PropOp51
 70
     0
102
RTVSPost2010Prop52
140
1.0
102
RTVSPost2010PropOp52
 70
     0
102
RTVSPost2010Prop53
 90
        2
102
RTVSPost2010PropOp53
 70
     1
102
RTVSPost2010Prop54
  1
strokes_ogs.tif
102
RTVSPost2010PropOp54
 70
     1
102
RTVSPost2010Prop55
280
     0
102
RTVSPost2010PropOp55
 70
     1
102
RTVSPost2010Prop56
140
1.0
102
RTVSPost2010PropOp56
 70
     1
102
RTVSPost2010Prop57
140
1.0
102
RTVSPost2010PropOp57
 70
     1
  0
XRECORD
  5
112
102
{ACAD_REACTORS
330
111
102
}
330
111
100
AcDbXrecord
280
     1
102
RTVSPost2010Prop28
280
     0
102
RTVSPost2010PropOp28
 70
     1
102
RTVSPost2010Prop29
280
     1
102
RTVSPost2010PropOp29
 70
     1
102
RTVSPost2010Prop30
280
     1
102
RTVSPost2010PropOp30
 70
     1
102
RTVSPost2010Prop31
280
     0
102
RTVSPost2010PropOp31
 70
     1
102
RTVSPost2010Prop32
280
     0
102
RTVSPost2010PropOp32
 70
     1
102
RTVSPost2010Prop33
280
     0
102
RTVSPost2010PropOp33
 70
     1
102
RTVSPost2010Prop34
280
     0
102
RTVSPost2010PropOp34
 70
     1
102
RTVSPost2010Prop35
280
     0
102
RTVSPost2010PropOp35
 70
     1
102
RTVSPost2010Prop36
280
     0
102
RTVSPost2010PropOp36
 70
     1
102
RTVSPost2010Prop37
 90
       50
102
RTVSPost2010PropOp37
 70
     1
102
RTVSPost2010Prop38
140
0.0
102
RTVSPost2010PropOp38
 70
     1
102
RTVSPost2010Prop39
140
1.0
102
RTVSPost2010PropOp39
 70
     1
102
RTVSPost2010Prop40
 90
        0
102
RTVSPost2010PropOp40
 70
     1
102
RTVSPost2010Prop41ColorIndex
 90
       18
102
RTVSPost2010Prop41ColorRGB
 90
        0
102
RTVSPost2010PropOp41
 70
     1
102
RTVSPost2010Prop42
 90
       50
102
RTVSPost2010PropOp42
 70
     1
102
RTVSPost2010Prop43
 90
        3
102
RTVSPost2010PropOp43
 70
     1
102
RTVSPost2010Prop44ColorIndex
 90
        5
102
RTVSPost2010Prop44ColorRGB
 90
      255
102
RTVSPost2010PropOp44
 70
     1
102
RTVSPost2010Prop45
280
     0
102
RTVSPost2010PropOp45
 70
     1
102
RTVSPost2010Prop46
 90
       50
102
RTVSPost2010PropOp46
 70
     1
102
RTVSPost2010Prop47
 90
       50
102
RTVSPost2010PropOp47
 70
     1
102
RTVSPost2010Prop48
 90
       50
102
RTVSPost2010PropOp48
 70
     1
102
RTVSPost2010Prop49
280
     0
102
RTVSPost2010PropOp49
 70
     1
102
RTVSPost2010Prop50
 90
       50
102
RTVSPost2010PropOp50
 70
     1
102
RTVSPost2010Prop51ColorIndex
 90
      256
102
RTVSPost2010Prop51ColorRGB
 90
-16777216
102
RTVSPost2010PropOp51
 70
     0
102
RTVSPost2010Prop52
140
1.0
102
RTVSPost2010PropOp52
 70
     0
102
RTVSPost2010Prop53
 90
        2
102
RTVSPost2010PropOp53
 70
     1
102
RTVSPost2010Prop54
  1
strokes_ogs.tif
102
RTVSPost2010PropOp54
 70
     1
102
RTVSPost2010Prop55
280
     0
102
RTVSPost2010PropOp55
 70
     1
102
RTVSPost2010Prop56
140
1.0
102
RTVSPost2010PropOp56
 70
     1
102
RTVSPost2010Prop57
140
1.0
102
RTVSPost2010PropOp57
 70
     1
  0
XRECORD
  5
116
102
{ACAD_REACTORS
330
115
102
}
330
115
100
AcDbXrecord
280
     1
102
RTVSPost2010Prop28
280
     0
102
RTVSPost2010PropOp28
 70
     1
102
RTVSPost2010Prop29
280
     1
102
RTVSPost2010PropOp29
 70
     1
102
RTVSPost2010Prop30
280
     1
102
RTVSPost2010PropOp30
 70
     1
102
RTVSPost2010Prop31
280
     0
102
RTVSPost2010PropOp31
 70
     1
102
RTVSPost2010Prop32
280
     0
102
RTVSPost2010PropOp32
 70
     1
102
RTVSPost2010Prop33
280
     0
102
RTVSPost2010PropOp33
 70
     1
102
RTVSPost2010Prop34
280
     0
102
RTVSPost2010PropOp34
 70
     1
102
RTVSPost2010Prop35
280
     0
102
RTVSPost2010PropOp35
 70
     1
102
RTVSPost2010Prop36
280
     0
102
RTVSPost2010PropOp36
 70
     1
102
RTVSPost2010Prop37
 90
       50
102
RTVSPost2010PropOp37
 70
     1
102
RTVSPost2010Prop38
140
0.0
102
RTVSPost2010PropOp38
 70
     1
102
RTVSPost2010Prop39
140
1.0
102
RTVSPost2010PropOp39
 70
     1
102
RTVSPost2010Prop40
 90
        0
102
RTVSPost2010PropOp40
 70
     1
102
RTVSPost2010Prop41ColorIndex
 90
       18
102
RTVSPost2010Prop41ColorRGB
 90
        0
102
RTVSPost2010PropOp41
 70
     1
102
RTVSPost2010Prop42
 90
       50
102
RTVSPost2010PropOp42
 70
     1
102
RTVSPost2010Prop43
 90
        3
102
RTVSPost2010PropOp43
 70
     1
102
RTVSPost2010Prop44ColorIndex
 90
        5
102
RTVSPost2010Prop44ColorRGB
 90
      255
102
RTVSPost2010PropOp44
 70
     1
102
RTVSPost2010Prop45
280
     0
102
RTVSPost2010PropOp45
 70
     1
102
RTVSPost2010Prop46
 90
       50
102
RTVSPost2010PropOp46
 70
     1
102
RTVSPost2010Prop47
 90
       50
102
RTVSPost2010PropOp47
 70
     1
102
RTVSPost2010Prop48
 90
       50
102
RTVSPost2010PropOp48
 70
     1
102
RTVSPost2010Prop49
280
     0
102
RTVSPost2010PropOp49
 70
     1
102
RTVSPost2010Prop50
 90
       50
102
RTVSPost2010PropOp50
 70
     1
102
RTVSPost2010Prop51ColorIndex
 90
      256
102
RTVSPost2010Prop51ColorRGB
 90
-16777216
102
RTVSPost2010PropOp51
 70
     0
102
RTVSPost2010Prop52
140
1.0
102
RTVSPost2010PropOp52
 70
     0
102
RTVSPost2010Prop53
 90
        2
102
RTVSPost2010PropOp53
 70
     1
102
RTVSPost2010Prop54
  1
strokes_ogs.tif
102
RTVSPost2010PropOp54
 70
     1
102
RTVSPost2010Prop55
280
     0
102
RTVSPost2010PropOp55
 70
     1
102
RTVSPost2010Prop56
140
1.0
102
RTVSPost2010PropOp56
 70
     1
102
RTVSPost2010Prop57
140
1.0
102
RTVSPost2010PropOp57
 70
     1
  0
XRECORD
  5
130
102
{ACAD_REACTORS
330
12F
102
}
330
12F
100
AcDbXrecord
280
     1
102
RTVSPost2010Prop28
280
     0
102
RTVSPost2010PropOp28
 70
     0
102
RTVSPost2010Prop29
280
     1
102
RTVSPost2010PropOp29
 70
     0
102
RTVSPost2010Prop30
280
     1
102
RTVSPost2010PropOp30
 70
     0
102
RTVSPost2010Prop31
280
     0
102
RTVSPost2010PropOp31
 70
     0
102
RTVSPost2010Prop32
280
     0
102
RTVSPost2010PropOp32
 70
     0
102
RTVSPost2010Prop33
280
     0
102
RTVSPost2010PropOp33
 70
     0
102
RTVSPost2010Prop34
280
     0
102
RTVSPost2010PropOp34
 70
     0
102
RTVSPost2010Prop35
280
     0
102
RTVSPost2010PropOp35
 70
     0
102
RTVSPost2010Prop36
280
     0
102
RTVSPost2010PropOp36
 70
     0
102
RTVSPost2010Prop37
 90
       50
102
RTVSPost2010PropOp37
 70
     0
102
RTVSPost2010Prop38
140
0.0
102
RTVSPost2010PropOp38
 70
     0
102
RTVSPost2010Prop39
140
1.0
102
RTVSPost2010PropOp39
 70
     0
102
RTVSPost2010Prop40
 90
        0
102
RTVSPost2010PropOp40
 70
     0
102
RTVSPost2010Prop41ColorIndex
 90
       18
102
RTVSPost2010Prop41ColorRGB
 90
        0
102
RTVSPost2010PropOp41
 70
     0
102
RTVSPost2010Prop42
 90
       50
102
RTVSPost2010PropOp42
 70
     0
102
RTVSPost2010Prop43
 90
        3
102
RTVSPost2010PropOp43
 70
     0
102
RTVSPost2010Prop44ColorIndex
 90
        5
102
RTVSPost2010Prop44ColorRGB
 90
      255
102
RTVSPost2010PropOp44
 70
     0
102
RTVSPost2010Prop45
280
     0
102
RTVSPost2010PropOp45
 70
     0
102
RTVSPost2010Prop46
 90
       50
102
RTVSPost2010PropOp46
 70
     0
102
RTVSPost2010Prop47
 90
       50
102
RTVSPost2010PropOp47
 70
     0
102
RTVSPost2010Prop48
 90
       50
102
RTVSPost2010PropOp48
 70
     0
102
RTVSPost2010Prop49
280
     0
102
RTVSPost2010PropOp49
 70
     0
102
RTVSPost2010Prop50
 90
       50
102
RTVSPost2010PropOp50
 70
     0
102
RTVSPost2010Prop51ColorIndex
 90
      256
102
RTVSPost2010Prop51ColorRGB
 90
-16777216
102
RTVSPost2010PropOp51
 70
     0
102
RTVSPost2010Prop52
140
1.0
102
RTVSPost2010PropOp52
 70
     0
102
RTVSPost2010Prop53
 90
        2
102
RTVSPost2010PropOp53
 70
     0
102
RTVSPost2010Prop54
  1
strokes_ogs.tif
102
RTVSPost2010PropOp54
 70
     0
102
RTVSPost2010Prop55
280
     0
102
RTVSPost2010PropOp55
 70
     0
102
RTVSPost2010Prop56
140
1.0
102
RTVSPost2010PropOp56
 70
     0
102
RTVSPost2010Prop57
140
1.0
102
RTVSPost2010PropOp57
 70
     0
  0
XRECORD
  5
11E
102
{ACAD_REACTORS
330
11D
102
}
330
11D
100
AcDbXrecord
280
     1
102
RTVSPost2010Prop28
280
     0
102
RTVSPost2010PropOp28
 70
     1
102
RTVSPost2010Prop29
280
     1
102
RTVSPost2010PropOp29
 70
     1
102
RTVSPost2010Prop30
280
     1
102
RTVSPost2010PropOp30
 70
     1
102
RTVSPost2010Prop31
280
     0
102
RTVSPost2010PropOp31
 70
     1
102
RTVSPost2010Prop32
280
     0
102
RTVSPost2010PropOp32
 70
     1
102
RTVSPost2010Prop33
280
     0
102
RTVSPost2010PropOp33
 70
     1
102
RTVSPost2010Prop34
280
     0
102
RTVSPost2010PropOp34
 70
     1
102
RTVSPost2010Prop35
280
     0
102
RTVSPost2010PropOp35
 70
     1
102
RTVSPost2010Prop36
280
     0
102
RTVSPost2010PropOp36
 70
     1
102
RTVSPost2010Prop37
 90
       50
102
RTVSPost2010PropOp37
 70
     1
102
RTVSPost2010Prop38
140
0.0
102
RTVSPost2010PropOp38
 70
     1
102
RTVSPost2010Prop39
140
1.0
102
RTVSPost2010PropOp39
 70
     1
102
RTVSPost2010Prop40
 90
        0
102
RTVSPost2010PropOp40
 70
     1
102
RTVSPost2010Prop41ColorIndex
 90
       18
102
RTVSPost2010Prop41ColorRGB
 90
        0
102
RTVSPost2010PropOp41
 70
     1
102
RTVSPost2010Prop42
 90
       50
102
RTVSPost2010PropOp42
 70
     1
102
RTVSPost2010Prop43
 90
        3
102
RTVSPost2010PropOp43
 70
     1
102
RTVSPost2010Prop44ColorIndex
 90
        5
102
RTVSPost2010Prop44ColorRGB
 90
      255
102
RTVSPost2010PropOp44
 70
     1
102
RTVSPost2010Prop45
280
     0
102
RTVSPost2010PropOp45
 70
     1
102
RTVSPost2010Prop46
 90
       50
102
RTVSPost2010PropOp46
 70
     1
102
RTVSPost2010Prop47
 90
       50
102
RTVSPost2010PropOp47
 70
     1
102
RTVSPost2010Prop48
 90
       50
102
RTVSPost2010PropOp48
 70
     1
102
RTVSPost2010Prop49
280
     0
102
RTVSPost2010PropOp49
 70
     1
102
RTVSPost2010Prop50
 90
       50
102
RTVSPost2010PropOp50
 70
     1
102
RTVSPost2010Prop51ColorIndex
 90
      256
102
RTVSPost2010Prop51ColorRGB
 90
-16777216
102
RTVSPost2010PropOp51
 70
     0
102
RTVSPost2010Prop52
140
1.0
102
RTVSPost2010PropOp52
 70
     0
102
RTVSPost2010Prop53
 90
        2
102
RTVSPost2010PropOp53
 70
     1
102
RTVSPost2010Prop54
  1
strokes_ogs.tif
102
RTVSPost2010PropOp54
 70
     1
102
RTVSPost2010Prop55
280
     0
102
RTVSPost2010PropOp55
 70
     1
102
RTVSPost2010Prop56
140
1.0
102
RTVSPost2010PropOp56
 70
     1
102
RTVSPost2010Prop57
140
1.0
102
RTVSPost2010PropOp57
 70
     1
  0
XRECORD
  5
102
102
{ACAD_REACTORS
330
101
102
}
330
101
100
AcDbXrecord
280
     1
102
RTVSPost2010Prop28
280
     0
102
RTVSPost2010PropOp28
 70
     1
102
RTVSPost2010Prop29
280
     1
102
RTVSPost2010PropOp29
 70
     1
102
RTVSPost2010Prop30
280
     1
102
RTVSPost2010PropOp30
 70
     1
102
RTVSPost2010Prop31
280
     0
102
RTVSPost2010PropOp31
 70
     1
102
RTVSPost2010Prop32
280
     0
102
RTVSPost2010PropOp32
 70
     1
102
RTVSPost2010Prop33
280
     0
102
RTVSPost2010PropOp33
 70
     1
102
RTVSPost2010Prop34
280
     0
102
RTVSPost2010PropOp34
 70
     1
102
RTVSPost2010Prop35
280
     0
102
RTVSPost2010PropOp35
 70
     1
102
RTVSPost2010Prop36
280
     0
102
RTVSPost2010PropOp36
 70
     1
102
RTVSPost2010Prop37
 90
       50
102
RTVSPost2010PropOp37
 70
     1
102
RTVSPost2010Prop38
140
0.0
102
RTVSPost2010PropOp38
 70
     1
102
RTVSPost2010Prop39
140
1.0
102
RTVSPost2010PropOp39
 70
     1
102
RTVSPost2010Prop40
 90
        0
102
RTVSPost2010PropOp40
 70
     1
102
RTVSPost2010Prop41ColorIndex
 90
       18
102
RTVSPost2010Prop41ColorRGB
 90
        0
102
RTVSPost2010PropOp41
 70
     1
102
RTVSPost2010Prop42
 90
       50
102
RTVSPost2010PropOp42
 70
     1
102
RTVSPost2010Prop43
 90
        3
102
RTVSPost2010PropOp43
 70
     1
102
RTVSPost2010Prop44ColorIndex
 90
        5
102
RTVSPost2010Prop44ColorRGB
 90
      255
102
RTVSPost2010PropOp44
 70
     1
102
RTVSPost2010Prop45
280
     0
102
RTVSPost2010PropOp45
 70
     1
102
RTVSPost2010Prop46
 90
       50
102
RTVSPost2010PropOp46
 70
     1
102
RTVSPost2010Prop47
 90
       50
102
RTVSPost2010PropOp47
 70
     1
102
RTVSPost2010Prop48
 90
       50
102
RTVSPost2010PropOp48
 70
     1
102
RTVSPost2010Prop49
280
     0
102
RTVSPost2010PropOp49
 70
     1
102
RTVSPost2010Prop50
 90
       50
102
RTVSPost2010PropOp50
 70
     1
102
RTVSPost2010Prop51ColorIndex
 90
      256
102
RTVSPost2010Prop51ColorRGB
 90
-16777216
102
RTVSPost2010PropOp51
 70
     0
102
RTVSPost2010Prop52
140
1.0
102
RTVSPost2010PropOp52
 70
     0
102
RTVSPost2010Prop53
 90
        2
102
RTVSPost2010PropOp53
 70
     1
102
RTVSPost2010Prop54
  1
strokes_ogs.tif
102
RTVSPost2010PropOp54
 70
     1
102
RTVSPost2010Prop55
280
     0
102
RTVSPost2010PropOp55
 70
     1
102
RTVSPost2010Prop56
140
1.0
102
RTVSPost2010PropOp56
 70
     1
102
RTVSPost2010Prop57
140
1.0
102
RTVSPost2010PropOp57
 70
     1
  0
XRECORD
  5
104
102
{ACAD_REACTORS
330
103
102
}
330
103
100
AcDbXrecord
280
     1
102
RTVSPost2010Prop28
280
     0
102
RTVSPost2010PropOp28
 70
     1
102
RTVSPost2010Prop29
280
     1
102
RTVSPost2010PropOp29
 70
     1
102
RTVSPost2010Prop30
280
     1
102
RTVSPost2010PropOp30
 70
     1
102
RTVSPost2010Prop31
280
     0
102
RTVSPost2010PropOp31
 70
     1
102
RTVSPost2010Prop32
280
     0
102
RTVSPost2010PropOp32
 70
     1
102
RTVSPost2010Prop33
280
     0
102
RTVSPost2010PropOp33
 70
     1
102
RTVSPost2010Prop34
280
     0
102
RTVSPost2010PropOp34
 70
     1
102
RTVSPost2010Prop35
280
     0
102
RTVSPost2010PropOp35
 70
     1
102
RTVSPost2010Prop36
280
     0
102
RTVSPost2010PropOp36
 70
     1
102
RTVSPost2010Prop37
 90
       50
102
RTVSPost2010PropOp37
 70
     1
102
RTVSPost2010Prop38
140
0.0
102
RTVSPost2010PropOp38
 70
     1
102
RTVSPost2010Prop39
140
1.0
102
RTVSPost2010PropOp39
 70
     1
102
RTVSPost2010Prop40
 90
        0
102
RTVSPost2010PropOp40
 70
     1
102
RTVSPost2010Prop41ColorIndex
 90
       18
102
RTVSPost2010Prop41ColorRGB
 90
        0
102
RTVSPost2010PropOp41
 70
     1
102
RTVSPost2010Prop42
 90
       50
102
RTVSPost2010PropOp42
 70
     1
102
RTVSPost2010Prop43
 90
        3
102
RTVSPost2010PropOp43
 70
     1
102
RTVSPost2010Prop44ColorIndex
 90
        5
102
RTVSPost2010Prop44ColorRGB
 90
      255
102
RTVSPost2010PropOp44
 70
     1
102
RTVSPost2010Prop45
280
     0
102
RTVSPost2010PropOp45
 70
     1
102
RTVSPost2010Prop46
 90
       50
102
RTVSPost2010PropOp46
 70
     1
102
RTVSPost2010Prop47
 90
       50
102
RTVSPost2010PropOp47
 70
     1
102
RTVSPost2010Prop48
 90
       50
102
RTVSPost2010PropOp48
 70
     1
102
RTVSPost2010Prop49
280
     0
102
RTVSPost2010PropOp49
 70
     1
102
RTVSPost2010Prop50
 90
       50
102
RTVSPost2010PropOp50
 70
     1
102
RTVSPost2010Prop51ColorIndex
 90
      256
102
RTVSPost2010Prop51ColorRGB
 90
-16777216
102
RTVSPost2010PropOp51
 70
     0
102
RTVSPost2010Prop52
140
1.0
102
RTVSPost2010PropOp52
 70
     0
102
RTVSPost2010Prop53
 90
        2
102
RTVSPost2010PropOp53
 70
     1
102
RTVSPost2010Prop54
  1
strokes_ogs.tif
102
RTVSPost2010PropOp54
 70
     1
102
RTVSPost2010Prop55
280
     0
102
RTVSPost2010PropOp55
 70
     1
102
RTVSPost2010Prop56
140
1.0
102
RTVSPost2010PropOp56
 70
     1
102
RTVSPost2010Prop57
140
1.0
102
RTVSPost2010PropOp57
 70
     1
  0
XRECORD
  5
106
102
{ACAD_REACTORS
330
105
102
}
330
105
100
AcDbXrecord
280
     1
102
RTVSPost2010Prop28
280
     0
102
RTVSPost2010PropOp28
 70
     1
102
RTVSPost2010Prop29
280
     1
102
RTVSPost2010PropOp29
 70
     1
102
RTVSPost2010Prop30
280
     1
102
RTVSPost2010PropOp30
 70
     1
102
RTVSPost2010Prop31
280
     0
102
RTVSPost2010PropOp31
 70
     1
102
RTVSPost2010Prop32
280
     0
102
RTVSPost2010PropOp32
 70
     1
102
RTVSPost2010Prop33
280
     0
102
RTVSPost2010PropOp33
 70
     1
102
RTVSPost2010Prop34
280
     0
102
RTVSPost2010PropOp34
 70
     1
102
RTVSPost2010Prop35
280
     0
102
RTVSPost2010PropOp35
 70
     1
102
RTVSPost2010Prop36
280
     0
102
RTVSPost2010PropOp36
 70
     1
102
RTVSPost2010Prop37
 90
       50
102
RTVSPost2010PropOp37
 70
     1
102
RTVSPost2010Prop38
140
0.0
102
RTVSPost2010PropOp38
 70
     1
102
RTVSPost2010Prop39
140
1.0
102
RTVSPost2010PropOp39
 70
     1
102
RTVSPost2010Prop40
 90
        0
102
RTVSPost2010PropOp40
 70
     1
102
RTVSPost2010Prop41ColorIndex
 90
       18
102
RTVSPost2010Prop41ColorRGB
 90
        0
102
RTVSPost2010PropOp41
 70
     1
102
RTVSPost2010Prop42
 90
       50
102
RTVSPost2010PropOp42
 70
     1
102
RTVSPost2010Prop43
 90
        3
102
RTVSPost2010PropOp43
 70
     1
102
RTVSPost2010Prop44ColorIndex
 90
        5
102
RTVSPost2010Prop44ColorRGB
 90
      255
102
RTVSPost2010PropOp44
 70
     1
102
RTVSPost2010Prop45
280
     0
102
RTVSPost2010PropOp45
 70
     1
102
RTVSPost2010Prop46
 90
       50
102
RTVSPost2010PropOp46
 70
     1
102
RTVSPost2010Prop47
 90
       50
102
RTVSPost2010PropOp47
 70
     1
102
RTVSPost2010Prop48
 90
       50
102
RTVSPost2010PropOp48
 70
     1
102
RTVSPost2010Prop49
280
     0
102
RTVSPost2010PropOp49
 70
     1
102
RTVSPost2010Prop50
 90
       50
102
RTVSPost2010PropOp50
 70
     1
102
RTVSPost2010Prop51ColorIndex
 90
      256
102
RTVSPost2010Prop51ColorRGB
 90
-16777216
102
RTVSPost2010PropOp51
 70
     0
102
RTVSPost2010Prop52
140
1.0
102
RTVSPost2010PropOp52
 70
     0
102
RTVSPost2010Prop53
 90
        2
102
RTVSPost2010PropOp53
 70
     1
102
RTVSPost2010Prop54
  1
strokes_ogs.tif
102
RTVSPost2010PropOp54
 70
     1
102
RTVSPost2010Prop55
280
     0
102
RTVSPost2010PropOp55
 70
     1
102
RTVSPost2010Prop56
140
1.0
102
RTVSPost2010PropOp56
 70
     1
102
RTVSPost2010Prop57
140
1.0
102
RTVSPost2010PropOp57
 70
     1
  0
XRECORD
  5
108
102
{ACAD_REACTORS
330
107
102
}
330
107
100
AcDbXrecord
280
     1
102
RTVSPost2010Prop28
280
     0
102
RTVSPost2010PropOp28
 70
     1
102
RTVSPost2010Prop29
280
     1
102
RTVSPost2010PropOp29
 70
     1
102
RTVSPost2010Prop30
280
     1
102
RTVSPost2010PropOp30
 70
     1
102
RTVSPost2010Prop31
280
     0
102
RTVSPost2010PropOp31
 70
     1
102
RTVSPost2010Prop32
280
     0
102
RTVSPost2010PropOp32
 70
     1
102
RTVSPost2010Prop33
280
     0
102
RTVSPost2010PropOp33
 70
     1
102
RTVSPost2010Prop34
280
     0
102
RTVSPost2010PropOp34
 70
     1
102
RTVSPost2010Prop35
280
     0
102
RTVSPost2010PropOp35
 70
     1
102
RTVSPost2010Prop36
280
     0
102
RTVSPost2010PropOp36
 70
     1
102
RTVSPost2010Prop37
 90
       50
102
RTVSPost2010PropOp37
 70
     1
102
RTVSPost2010Prop38
140
0.0
102
RTVSPost2010PropOp38
 70
     1
102
RTVSPost2010Prop39
140
1.0
102
RTVSPost2010PropOp39
 70
     1
102
RTVSPost2010Prop40
 90
        0
102
RTVSPost2010PropOp40
 70
     1
102
RTVSPost2010Prop41ColorIndex
 90
       18
102
RTVSPost2010Prop41ColorRGB
 90
        0
102
RTVSPost2010PropOp41
 70
     1
102
RTVSPost2010Prop42
 90
       50
102
RTVSPost2010PropOp42
 70
     1
102
RTVSPost2010Prop43
 90
        3
102
RTVSPost2010PropOp43
 70
     1
102
RTVSPost2010Prop44ColorIndex
 90
        5
102
RTVSPost2010Prop44ColorRGB
 90
      255
102
RTVSPost2010PropOp44
 70
     1
102
RTVSPost2010Prop45
280
     0
102
RTVSPost2010PropOp45
 70
     1
102
RTVSPost2010Prop46
 90
       50
102
RTVSPost2010PropOp46
 70
     1
102
RTVSPost2010Prop47
 90
       50
102
RTVSPost2010PropOp47
 70
     1
102
RTVSPost2010Prop48
 90
       50
102
RTVSPost2010PropOp48
 70
     1
102
RTVSPost2010Prop49
280
     0
102
RTVSPost2010PropOp49
 70
     1
102
RTVSPost2010Prop50
 90
       50
102
RTVSPost2010PropOp50
 70
     1
102
RTVSPost2010Prop51ColorIndex
 90
      256
102
RTVSPost2010Prop51ColorRGB
 90
-16777216
102
RTVSPost2010PropOp51
 70
     0
102
RTVSPost2010Prop52
140
1.0
102
RTVSPost2010PropOp52
 70
     0
102
RTVSPost2010Prop53
 90
        2
102
RTVSPost2010PropOp53
 70
     1
102
RTVSPost2010Prop54
  1
strokes_ogs.tif
102
RTVSPost2010PropOp54
 70
     1
102
RTVSPost2010Prop55
280
     0
102
RTVSPost2010PropOp55
 70
     1
102
RTVSPost2010Prop56
140
1.0
102
RTVSPost2010PropOp56
 70
     1
102
RTVSPost2010Prop57
140
1.0
102
RTVSPost2010PropOp57
 70
     1
  0
XRECORD
  5
110
102
{ACAD_REACTORS
330
10F
102
}
330
10F
100
AcDbXrecord
280
     1
102
RTVSPost2010Prop28
280
     0
102
RTVSPost2010PropOp28
 70
     1
102
RTVSPost2010Prop29
280
     1
102
RTVSPost2010PropOp29
 70
     1
102
RTVSPost2010Prop30
280
     1
102
RTVSPost2010PropOp30
 70
     1
102
RTVSPost2010Prop31
280
     0
102
RTVSPost2010PropOp31
 70
     1
102
RTVSPost2010Prop32
280
     0
102
RTVSPost2010PropOp32
 70
     1
102
RTVSPost2010Prop33
280
     0
102
RTVSPost2010PropOp33
 70
     1
102
RTVSPost2010Prop34
280
     0
102
RTVSPost2010PropOp34
 70
     1
102
RTVSPost2010Prop35
280
     0
102
RTVSPost2010PropOp35
 70
     1
102
RTVSPost2010Prop36
280
     0
102
RTVSPost2010PropOp36
 70
     1
102
RTVSPost2010Prop37
 90
       50
102
RTVSPost2010PropOp37
 70
     1
102
RTVSPost2010Prop38
140
0.0
102
RTVSPost2010PropOp38
 70
     1
102
RTVSPost2010Prop39
140
1.0
102
RTVSPost2010PropOp39
 70
     1
102
RTVSPost2010Prop40
 90
        0
102
RTVSPost2010PropOp40
 70
     1
102
RTVSPost2010Prop41ColorIndex
 90
       18
102
RTVSPost2010Prop41ColorRGB
 90
        0
102
RTVSPost2010PropOp41
 70
     1
102
RTVSPost2010Prop42
 90
       50
102
RTVSPost2010PropOp42
 70
     1
102
RTVSPost2010Prop43
 90
        3
102
RTVSPost2010PropOp43
 70
     1
102
RTVSPost2010Prop44ColorIndex
 90
        5
102
RTVSPost2010Prop44ColorRGB
 90
      255
102
RTVSPost2010PropOp44
 70
     1
102
RTVSPost2010Prop45
280
     0
102
RTVSPost2010PropOp45
 70
     1
102
RTVSPost2010Prop46
 90
       50
102
RTVSPost2010PropOp46
 70
     1
102
RTVSPost2010Prop47
 90
       50
102
RTVSPost2010PropOp47
 70
     1
102
RTVSPost2010Prop48
 90
       50
102
RTVSPost2010PropOp48
 70
     1
102
RTVSPost2010Prop49
280
     0
102
RTVSPost2010PropOp49
 70
     1
102
RTVSPost2010Prop50
 90
       50
102
RTVSPost2010PropOp50
 70
     1
102
RTVSPost2010Prop51ColorIndex
 90
      256
102
RTVSPost2010Prop51ColorRGB
 90
-16777216
102
RTVSPost2010PropOp51
 70
     0
102
RTVSPost2010Prop52
140
1.0
102
RTVSPost2010PropOp52
 70
     0
102
RTVSPost2010Prop53
 90
        2
102
RTVSPost2010PropOp53
 70
     1
102
RTVSPost2010Prop54
  1
strokes_ogs.tif
102
RTVSPost2010PropOp54
 70
     1
102
RTVSPost2010Prop55
280
     0
102
RTVSPost2010PropOp55
 70
     1
102
RTVSPost2010Prop56
140
1.0
102
RTVSPost2010PropOp56
 70
     1
102
RTVSPost2010Prop57
140
1.0
102
RTVSPost2010PropOp57
 70
     1
  0
XRECORD
  5
12C
102
{ACAD_REACTORS
330
12B
102
}
330
12B
100
AcDbXrecord
280
     1
102
RTVSPost2010Prop28
280
     0
102
RTVSPost2010PropOp28
 70
     0
102
RTVSPost2010Prop29
280
     1
102
RTVSPost2010PropOp29
 70
     0
102
RTVSPost2010Prop30
280
     1
102
RTVSPost2010PropOp30
 70
     0
102
RTVSPost2010Prop31
280
     0
102
RTVSPost2010PropOp31
 70
     0
102
RTVSPost2010Prop32
280
     0
102
RTVSPost2010PropOp32
 70
     0
102
RTVSPost2010Prop33
280
     0
102
RTVSPost2010PropOp33
 70
     0
102
RTVSPost2010Prop34
280
     0
102
RTVSPost2010PropOp34
 70
     0
102
RTVSPost2010Prop35
280
     0
102
RTVSPost2010PropOp35
 70
     0
102
RTVSPost2010Prop36
280
     0
102
RTVSPost2010PropOp36
 70
     0
102
RTVSPost2010Prop37
 90
       50
102
RTVSPost2010PropOp37
 70
     0
102
RTVSPost2010Prop38
140
0.0
102
RTVSPost2010PropOp38
 70
     0
102
RTVSPost2010Prop39
140
1.0
102
RTVSPost2010PropOp39
 70
     0
102
RTVSPost2010Prop40
 90
        0
102
RTVSPost2010PropOp40
 70
     0
102
RTVSPost2010Prop41ColorIndex
 90
       18
102
RTVSPost2010Prop41ColorRGB
 90
        0
102
RTVSPost2010PropOp41
 70
     0
102
RTVSPost2010Prop42
 90
       50
102
RTVSPost2010PropOp42
 70
     0
102
RTVSPost2010Prop43
 90
        3
102
RTVSPost2010PropOp43
 70
     0
102
RTVSPost2010Prop44ColorIndex
 90
        5
102
RTVSPost2010Prop44ColorRGB
 90
      255
102
RTVSPost2010PropOp44
 70
     0
102
RTVSPost2010Prop45
280
     0
102
RTVSPost2010PropOp45
 70
     0
102
RTVSPost2010Prop46
 90
       50
102
RTVSPost2010PropOp46
 70
     0
102
RTVSPost2010Prop47
 90
       50
102
RTVSPost2010PropOp47
 70
     0
102
RTVSPost2010Prop48
 90
       50
102
RTVSPost2010PropOp48
 70
     0
102
RTVSPost2010Prop49
280
     0
102
RTVSPost2010PropOp49
 70
     0
102
RTVSPost2010Prop50
 90
       50
102
RTVSPost2010PropOp50
 70
     0
102
RTVSPost2010Prop51ColorIndex
 90
      256
102
RTVSPost2010Prop51ColorRGB
 90
-16777216
102
RTVSPost2010PropOp51
 70
     0
102
RTVSPost2010Prop52
140
1.0
102
RTVSPost2010PropOp52
 70
     0
102
RTVSPost2010Prop53
 90
        2
102
RTVSPost2010PropOp53
 70
     0
102
RTVSPost2010Prop54
  1
strokes_ogs.tif
102
RTVSPost2010PropOp54
 70
     0
102
RTVSPost2010Prop55
280
     0
102
RTVSPost2010PropOp55
 70
     0
102
RTVSPost2010Prop56
140
1.0
102
RTVSPost2010PropOp56
 70
     0
102
RTVSPost2010Prop57
140
1.0
102
RTVSPost2010PropOp57
 70
     0
  0
XRECORD
  5
11C
102
{ACAD_REACTORS
330
11B
102
}
330
11B
100
AcDbXrecord
280
     1
102
RTVSPost2010Prop28
280
     0
102
RTVSPost2010PropOp28
 70
     1
102
RTVSPost2010Prop29
280
     1
102
RTVSPost2010PropOp29
 70
     1
102
RTVSPost2010Prop30
280
     1
102
RTVSPost2010PropOp30
 70
     1
102
RTVSPost2010Prop31
280
     0
102
RTVSPost2010PropOp31
 70
     1
102
RTVSPost2010Prop32
280
     0
102
RTVSPost2010PropOp32
 70
     1
102
RTVSPost2010Prop33
280
     0
102
RTVSPost2010PropOp33
 70
     1
102
RTVSPost2010Prop34
280
     0
102
RTVSPost2010PropOp34
 70
     1
102
RTVSPost2010Prop35
280
     0
102
RTVSPost2010PropOp35
 70
     1
102
RTVSPost2010Prop36
280
     0
102
RTVSPost2010PropOp36
 70
     1
102
RTVSPost2010Prop37
 90
       50
102
RTVSPost2010PropOp37
 70
     1
102
RTVSPost2010Prop38
140
0.0
102
RTVSPost2010PropOp38
 70
     1
102
RTVSPost2010Prop39
140
1.0
102
RTVSPost2010PropOp39
 70
     1
102
RTVSPost2010Prop40
 90
        0
102
RTVSPost2010PropOp40
 70
     1
102
RTVSPost2010Prop41ColorIndex
 90
       18
102
RTVSPost2010Prop41ColorRGB
 90
        0
102
RTVSPost2010PropOp41
 70
     1
102
RTVSPost2010Prop42
 90
       50
102
RTVSPost2010PropOp42
 70
     1
102
RTVSPost2010Prop43
 90
        3
102
RTVSPost2010PropOp43
 70
     1
102
RTVSPost2010Prop44ColorIndex
 90
        5
102
RTVSPost2010Prop44ColorRGB
 90
      255
102
RTVSPost2010PropOp44
 70
     1
102
RTVSPost2010Prop45
280
     0
102
RTVSPost2010PropOp45
 70
     1
102
RTVSPost2010Prop46
 90
       50
102
RTVSPost2010PropOp46
 70
     1
102
RTVSPost2010Prop47
 90
       50
102
RTVSPost2010PropOp47
 70
     1
102
RTVSPost2010Prop48
 90
       50
102
RTVSPost2010PropOp48
 70
     1
102
RTVSPost2010Prop49
280
     0
102
RTVSPost2010PropOp49
 70
     1
102
RTVSPost2010Prop50
 90
       50
102
RTVSPost2010PropOp50
 70
     1
102
RTVSPost2010Prop51ColorIndex
 90
      256
102
RTVSPost2010Prop51ColorRGB
 90
-16777216
102
RTVSPost2010PropOp51
 70
     0
102
RTVSPost2010Prop52
140
1.0
102
RTVSPost2010PropOp52
 70
     0
102
RTVSPost2010Prop53
 90
        2
102
RTVSPost2010PropOp53
 70
     1
102
RTVSPost2010Prop54
  1
strokes_ogs.tif
102
RTVSPost2010PropOp54
 70
     1
102
RTVSPost2010Prop55
280
     0
102
RTVSPost2010PropOp55
 70
     1
102
RTVSPost2010Prop56
140
1.0
102
RTVSPost2010PropOp56
 70
     1
102
RTVSPost2010Prop57
140
1.0
102
RTVSPost2010PropOp57
 70
     1
  0
XRECORD
  5
12E
102
{ACAD_REACTORS
330
12D
102
}
330
12D
100
AcDbXrecord
280
     1
102
RTVSPost2010Prop28
280
     0
102
RTVSPost2010PropOp28
 70
     0
102
RTVSPost2010Prop29
280
     1
102
RTVSPost2010PropOp29
 70
     0
102
RTVSPost2010Prop30
280
     1
102
RTVSPost2010PropOp30
 70
     0
102
RTVSPost2010Prop31
280
     0
102
RTVSPost2010PropOp31
 70
     0
102
RTVSPost2010Prop32
280
     0
102
RTVSPost2010PropOp32
 70
     0
102
RTVSPost2010Prop33
280
     0
102
RTVSPost2010PropOp33
 70
     0
102
RTVSPost2010Prop34
280
     0
102
RTVSPost2010PropOp34
 70
     0
102
RTVSPost2010Prop35
280
     0
102
RTVSPost2010PropOp35
 70
     0
102
RTVSPost2010Prop36
280
     0
102
RTVSPost2010PropOp36
 70
     0
102
RTVSPost2010Prop37
 90
       50
102
RTVSPost2010PropOp37
 70
     0
102
RTVSPost2010Prop38
140
0.0
102
RTVSPost2010PropOp38
 70
     0
102
RTVSPost2010Prop39
140
1.0
102
RTVSPost2010PropOp39
 70
     0
102
RTVSPost2010Prop40
 90
        0
102
RTVSPost2010PropOp40
 70
     0
102
RTVSPost2010Prop41ColorIndex
 90
       18
102
RTVSPost2010Prop41ColorRGB
 90
        0
102
RTVSPost2010PropOp41
 70
     0
102
RTVSPost2010Prop42
 90
       50
102
RTVSPost2010PropOp42
 70
     0
102
RTVSPost2010Prop43
 90
        3
102
RTVSPost2010PropOp43
 70
     0
102
RTVSPost2010Prop44ColorIndex
 90
        5
102
RTVSPost2010Prop44ColorRGB
 90
      255
102
RTVSPost2010PropOp44
 70
     0
102
RTVSPost2010Prop45
280
     0
102
RTVSPost2010PropOp45
 70
     0
102
RTVSPost2010Prop46
 90
       50
102
RTVSPost2010PropOp46
 70
     0
102
RTVSPost2010Prop47
 90
       50
102
RTVSPost2010PropOp47
 70
     0
102
RTVSPost2010Prop48
 90
       50
102
RTVSPost2010PropOp48
 70
     0
102
RTVSPost2010Prop49
280
     0
102
RTVSPost2010PropOp49
 70
     0
102
RTVSPost2010Prop50
 90
       50
102
RTVSPost2010PropOp50
 70
     0
102
RTVSPost2010Prop51ColorIndex
 90
      256
102
RTVSPost2010Prop51ColorRGB
 90
-16777216
102
RTVSPost2010PropOp51
 70
     0
102
RTVSPost2010Prop52
140
1.0
102
RTVSPost2010PropOp52
 70
     0
102
RTVSPost2010Prop53
 90
        2
102
RTVSPost2010PropOp53
 70
     0
102
RTVSPost2010Prop54
  1
strokes_ogs.tif
102
RTVSPost2010PropOp54
 70
     0
102
RTVSPost2010Prop55
280
     0
102
RTVSPost2010PropOp55
 70
     0
102
RTVSPost2010Prop56
140
1.0
102
RTVSPost2010PropOp56
 70
     0
102
RTVSPost2010Prop57
140
1.0
102
RTVSPost2010PropOp57
 70
     0
  0
XRECORD
  5
114
102
{ACAD_REACTORS
330
113
102
}
330
113
100
AcDbXrecord
280
     1
102
RTVSPost2010Prop28
280
     0
102
RTVSPost2010PropOp28
 70
     1
102
RTVSPost2010Prop29
280
     1
102
RTVSPost2010PropOp29
 70
     1
102
RTVSPost2010Prop30
280
     1
102
RTVSPost2010PropOp30
 70
     1
102
RTVSPost2010Prop31
280
     0
102
RTVSPost2010PropOp31
 70
     1
102
RTVSPost2010Prop32
280
     0
102
RTVSPost2010PropOp32
 70
     1
102
RTVSPost2010Prop33
280
     0
102
RTVSPost2010PropOp33
 70
     1
102
RTVSPost2010Prop34
280
     0
102
RTVSPost2010PropOp34
 70
     1
102
RTVSPost2010Prop35
280
     0
102
RTVSPost2010PropOp35
 70
     1
102
RTVSPost2010Prop36
280
     0
102
RTVSPost2010PropOp36
 70
     1
102
RTVSPost2010Prop37
 90
       50
102
RTVSPost2010PropOp37
 70
     1
102
RTVSPost2010Prop38
140
0.0
102
RTVSPost2010PropOp38
 70
     1
102
RTVSPost2010Prop39
140
1.0
102
RTVSPost2010PropOp39
 70
     1
102
RTVSPost2010Prop40
 90
        0
102
RTVSPost2010PropOp40
 70
     1
102
RTVSPost2010Prop41ColorIndex
 90
       18
102
RTVSPost2010Prop41ColorRGB
 90
        0
102
RTVSPost2010PropOp41
 70
     1
102
RTVSPost2010Prop42
 90
       50
102
RTVSPost2010PropOp42
 70
     1
102
RTVSPost2010Prop43
 90
        3
102
RTVSPost2010PropOp43
 70
     1
102
RTVSPost2010Prop44ColorIndex
 90
        5
102
RTVSPost2010Prop44ColorRGB
 90
      255
102
RTVSPost2010PropOp44
 70
     1
102
RTVSPost2010Prop45
280
     0
102
RTVSPost2010PropOp45
 70
     1
102
RTVSPost2010Prop46
 90
       50
102
RTVSPost2010PropOp46
 70
     1
102
RTVSPost2010Prop47
 90
       50
102
RTVSPost2010PropOp47
 70
     1
102
RTVSPost2010Prop48
 90
       50
102
RTVSPost2010PropOp48
 70
     1
102
RTVSPost2010Prop49
280
     0
102
RTVSPost2010PropOp49
 70
     1
102
RTVSPost2010Prop50
 90
       50
102
RTVSPost2010PropOp50
 70
     1
102
RTVSPost2010Prop51ColorIndex
 90
      256
102
RTVSPost2010Prop51ColorRGB
 90
-16777216
102
RTVSPost2010PropOp51
 70
     0
102
RTVSPost2010Prop52
140
1.0
102
RTVSPost2010PropOp52
 70
     0
102
RTVSPost2010Prop53
 90
        2
102
RTVSPost2010PropOp53
 70
     1
102
RTVSPost2010Prop54
  1
strokes_ogs.tif
102
RTVSPost2010PropOp54
 70
     1
102
RTVSPost2010Prop55
280
     0
102
RTVSPost2010PropOp55
 70
     1
102
RTVSPost2010Prop56
140
1.0
102
RTVSPost2010PropOp56
 70
     1
102
RTVSPost2010Prop57
140
1.0
102
RTVSPost2010PropOp57
 70
     1
  0
XRECORD
  5
12A
102
{ACAD_REACTORS
330
129
102
}
330
129
100
AcDbXrecord
280
     1
102
RTVSPost2010Prop28
280
     0
102
RTVSPost2010PropOp28
 70
     1
102
RTVSPost2010Prop29
280
     1
102
RTVSPost2010PropOp29
 70
     1
102
RTVSPost2010Prop30
280
     1
102
RTVSPost2010PropOp30
 70
     1
102
RTVSPost2010Prop31
280
     0
102
RTVSPost2010PropOp31
 70
     1
102
RTVSPost2010Prop32
280
     0
102
RTVSPost2010PropOp32
 70
     1
102
RTVSPost2010Prop33
280
     0
102
RTVSPost2010PropOp33
 70
     1
102
RTVSPost2010Prop34
280
     0
102
RTVSPost2010PropOp34
 70
     1
102
RTVSPost2010Prop35
280
     0
102
RTVSPost2010PropOp35
 70
     1
102
RTVSPost2010Prop36
280
     0
102
RTVSPost2010PropOp36
 70
     1
102
RTVSPost2010Prop37
 90
       50
102
RTVSPost2010PropOp37
 70
     1
102
RTVSPost2010Prop38
140
0.0
102
RTVSPost2010PropOp38
 70
     1
102
RTVSPost2010Prop39
140
1.0
102
RTVSPost2010PropOp39
 70
     1
102
RTVSPost2010Prop40
 90
        0
102
RTVSPost2010PropOp40
 70
     1
102
RTVSPost2010Prop41ColorIndex
 90
       18
102
RTVSPost2010Prop41ColorRGB
 90
        0
102
RTVSPost2010PropOp41
 70
     1
102
RTVSPost2010Prop42
 90
       50
102
RTVSPost2010PropOp42
 70
     1
102
RTVSPost2010Prop43
 90
        3
102
RTVSPost2010PropOp43
 70
     1
102
RTVSPost2010Prop44ColorIndex
 90
        5
102
RTVSPost2010Prop44ColorRGB
 90
      255
102
RTVSPost2010PropOp44
 70
     1
102
RTVSPost2010Prop45
280
     0
102
RTVSPost2010PropOp45
 70
     1
102
RTVSPost2010Prop46
 90
       50
102
RTVSPost2010PropOp46
 70
     1
102
RTVSPost2010Prop47
 90
       50
102
RTVSPost2010PropOp47
 70
     1
102
RTVSPost2010Prop48
 90
       50
102
RTVSPost2010PropOp48
 70
     1
102
RTVSPost2010Prop49
280
     0
102
RTVSPost2010PropOp49
 70
     1
102
RTVSPost2010Prop50
 90
       50
102
RTVSPost2010PropOp50
 70
     1
102
RTVSPost2010Prop51ColorIndex
 90
      256
102
RTVSPost2010Prop51ColorRGB
 90
-16777216
102
RTVSPost2010PropOp51
 70
     0
102
RTVSPost2010Prop52
140
1.0
102
RTVSPost2010PropOp52
 70
     0
102
RTVSPost2010Prop53
 90
        2
102
RTVSPost2010PropOp53
 70
     1
102
RTVSPost2010Prop54
  1
strokes_ogs.tif
102
RTVSPost2010PropOp54
 70
     1
102
RTVSPost2010Prop55
280
     0
102
RTVSPost2010PropOp55
 70
     1
102
RTVSPost2010Prop56
140
1.0
102
RTVSPost2010PropOp56
 70
     1
102
RTVSPost2010Prop57
140
1.0
102
RTVSPost2010PropOp57
 70
     1
  0
XRECORD
  5
128
102
{ACAD_REACTORS
330
127
102
}
330
127
100
AcDbXrecord
280
     1
102
RTVSPost2010Prop28
280
     0
102
RTVSPost2010PropOp28
 70
     1
102
RTVSPost2010Prop29
280
     1
102
RTVSPost2010PropOp29
 70
     1
102
RTVSPost2010Prop30
280
     1
102
RTVSPost2010PropOp30
 70
     1
102
RTVSPost2010Prop31
280
     0
102
RTVSPost2010PropOp31
 70
     1
102
RTVSPost2010Prop32
280
     0
102
RTVSPost2010PropOp32
 70
     1
102
RTVSPost2010Prop33
280
     0
102
RTVSPost2010PropOp33
 70
     1
102
RTVSPost2010Prop34
280
     0
102
RTVSPost2010PropOp34
 70
     1
102
RTVSPost2010Prop35
280
     0
102
RTVSPost2010PropOp35
 70
     1
102
RTVSPost2010Prop36
280
     0
102
RTVSPost2010PropOp36
 70
     1
102
RTVSPost2010Prop37
 90
       50
102
RTVSPost2010PropOp37
 70
     1
102
RTVSPost2010Prop38
140
0.0
102
RTVSPost2010PropOp38
 70
     1
102
RTVSPost2010Prop39
140
1.0
102
RTVSPost2010PropOp39
 70
     1
102
RTVSPost2010Prop40
 90
        0
102
RTVSPost2010PropOp40
 70
     1
102
RTVSPost2010Prop41ColorIndex
 90
       18
102
RTVSPost2010Prop41ColorRGB
 90
        0
102
RTVSPost2010PropOp41
 70
     1
102
RTVSPost2010Prop42
 90
       50
102
RTVSPost2010PropOp42
 70
     1
102
RTVSPost2010Prop43
 90
        3
102
RTVSPost2010PropOp43
 70
     1
102
RTVSPost2010Prop44ColorIndex
 90
        5
102
RTVSPost2010Prop44ColorRGB
 90
      255
102
RTVSPost2010PropOp44
 70
     1
102
RTVSPost2010Prop45
280
     0
102
RTVSPost2010PropOp45
 70
     1
102
RTVSPost2010Prop46
 90
       50
102
RTVSPost2010PropOp46
 70
     1
102
RTVSPost2010Prop47
 90
       50
102
RTVSPost2010PropOp47
 70
     1
102
RTVSPost2010Prop48
 90
       50
102
RTVSPost2010PropOp48
 70
     1
102
RTVSPost2010Prop49
280
     0
102
RTVSPost2010PropOp49
 70
     1
102
RTVSPost2010Prop50
 90
       50
102
RTVSPost2010PropOp50
 70
     1
102
RTVSPost2010Prop51ColorIndex
 90
      256
102
RTVSPost2010Prop51ColorRGB
 90
-16777216
102
RTVSPost2010PropOp51
 70
     0
102
RTVSPost2010Prop52
140
1.0
102
RTVSPost2010PropOp52
 70
     0
102
RTVSPost2010Prop53
 90
        2
102
RTVSPost2010PropOp53
 70
     1
102
RTVSPost2010Prop54
  1
strokes_ogs.tif
102
RTVSPost2010PropOp54
 70
     1
102
RTVSPost2010Prop55
280
     0
102
RTVSPost2010PropOp55
 70
     1
102
RTVSPost2010Prop56
140
1.0
102
RTVSPost2010PropOp56
 70
     1
102
RTVSPost2010Prop57
140
1.0
102
RTVSPost2010PropOp57
 70
     1
  0
XRECORD
  5
122
102
{ACAD_REACTORS
330
121
102
}
330
121
100
AcDbXrecord
280
     1
102
RTVSPost2010Prop28
280
     0
102
RTVSPost2010PropOp28
 70
     1
102
RTVSPost2010Prop29
280
     1
102
RTVSPost2010PropOp29
 70
     1
102
RTVSPost2010Prop30
280
     1
102
RTVSPost2010PropOp30
 70
     1
102
RTVSPost2010Prop31
280
     0
102
RTVSPost2010PropOp31
 70
     1
102
RTVSPost2010Prop32
280
     0
102
RTVSPost2010PropOp32
 70
     1
102
RTVSPost2010Prop33
280
     0
102
RTVSPost2010PropOp33
 70
     1
102
RTVSPost2010Prop34
280
     0
102
RTVSPost2010PropOp34
 70
     1
102
RTVSPost2010Prop35
280
     0
102
RTVSPost2010PropOp35
 70
     1
102
RTVSPost2010Prop36
280
     0
102
RTVSPost2010PropOp36
 70
     1
102
RTVSPost2010Prop37
 90
       50
102
RTVSPost2010PropOp37
 70
     1
102
RTVSPost2010Prop38
140
0.0
102
RTVSPost2010PropOp38
 70
     1
102
RTVSPost2010Prop39
140
1.0
102
RTVSPost2010PropOp39
 70
     1
102
RTVSPost2010Prop40
 90
        0
102
RTVSPost2010PropOp40
 70
     1
102
RTVSPost2010Prop41ColorIndex
 90
       18
102
RTVSPost2010Prop41ColorRGB
 90
        0
102
RTVSPost2010PropOp41
 70
     1
102
RTVSPost2010Prop42
 90
       50
102
RTVSPost2010PropOp42
 70
     1
102
RTVSPost2010Prop43
 90
        3
102
RTVSPost2010PropOp43
 70
     1
102
RTVSPost2010Prop44ColorIndex
 90
        5
102
RTVSPost2010Prop44ColorRGB
 90
      255
102
RTVSPost2010PropOp44
 70
     1
102
RTVSPost2010Prop45
280
     0
102
RTVSPost2010PropOp45
 70
     1
102
RTVSPost2010Prop46
 90
       50
102
RTVSPost2010PropOp46
 70
     1
102
RTVSPost2010Prop47
 90
       50
102
RTVSPost2010PropOp47
 70
     1
102
RTVSPost2010Prop48
 90
       50
102
RTVSPost2010PropOp48
 70
     1
102
RTVSPost2010Prop49
280
     0
102
RTVSPost2010PropOp49
 70
     1
102
RTVSPost2010Prop50
 90
       50
102
RTVSPost2010PropOp50
 70
     1
102
RTVSPost2010Prop51ColorIndex
 90
      256
102
RTVSPost2010Prop51ColorRGB
 90
-16777216
102
RTVSPost2010PropOp51
 70
     0
102
RTVSPost2010Prop52
140
1.0
102
RTVSPost2010PropOp52
 70
     0
102
RTVSPost2010Prop53
 90
        2
102
RTVSPost2010PropOp53
 70
     1
102
RTVSPost2010Prop54
  1
strokes_ogs.tif
102
RTVSPost2010PropOp54
 70
     1
102
RTVSPost2010Prop55
280
     0
102
RTVSPost2010PropOp55
 70
     1
102
RTVSPost2010Prop56
140
1.0
102
RTVSPost2010PropOp56
 70
     1
102
RTVSPost2010Prop57
140
1.0
102
RTVSPost2010PropOp57
 70
     1
  0
XRECORD
  5
124
102
{ACAD_REACTORS
330
123
102
}
330
123
100
AcDbXrecord
280
     1
102
RTVSPost2010Prop28
280
     0
102
RTVSPost2010PropOp28
 70
     1
102
RTVSPost2010Prop29
280
     1
102
RTVSPost2010PropOp29
 70
     1
102
RTVSPost2010Prop30
280
     1
102
RTVSPost2010PropOp30
 70
     1
102
RTVSPost2010Prop31
280
     0
102
RTVSPost2010PropOp31
 70
     1
102
RTVSPost2010Prop32
280
     0
102
RTVSPost2010PropOp32
 70
     1
102
RTVSPost2010Prop33
280
     0
102
RTVSPost2010PropOp33
 70
     1
102
RTVSPost2010Prop34
280
     0
102
RTVSPost2010PropOp34
 70
     1
102
RTVSPost2010Prop35
280
     0
102
RTVSPost2010PropOp35
 70
     1
102
RTVSPost2010Prop36
280
     0
102
RTVSPost2010PropOp36
 70
     1
102
RTVSPost2010Prop37
 90
       50
102
RTVSPost2010PropOp37
 70
     1
102
RTVSPost2010Prop38
140
0.0
102
RTVSPost2010PropOp38
 70
     1
102
RTVSPost2010Prop39
140
1.0
102
RTVSPost2010PropOp39
 70
     1
102
RTVSPost2010Prop40
 90
        0
102
RTVSPost2010PropOp40
 70
     1
102
RTVSPost2010Prop41ColorIndex
 90
       18
102
RTVSPost2010Prop41ColorRGB
 90
        0
102
RTVSPost2010PropOp41
 70
     1
102
RTVSPost2010Prop42
 90
       50
102
RTVSPost2010PropOp42
 70
     1
102
RTVSPost2010Prop43
 90
        3
102
RTVSPost2010PropOp43
 70
     1
102
RTVSPost2010Prop44ColorIndex
 90
        5
102
RTVSPost2010Prop44ColorRGB
 90
      255
102
RTVSPost2010PropOp44
 70
     1
102
RTVSPost2010Prop45
280
     0
102
RTVSPost2010PropOp45
 70
     1
102
RTVSPost2010Prop46
 90
       50
102
RTVSPost2010PropOp46
 70
     1
102
RTVSPost2010Prop47
 90
       50
102
RTVSPost2010PropOp47
 70
     1
102
RTVSPost2010Prop48
 90
       50
102
RTVSPost2010PropOp48
 70
     1
102
RTVSPost2010Prop49
280
     0
102
RTVSPost2010PropOp49
 70
     1
102
RTVSPost2010Prop50
 90
       50
102
RTVSPost2010PropOp50
 70
     1
102
RTVSPost2010Prop51ColorIndex
 90
      256
102
RTVSPost2010Prop51ColorRGB
 90
-16777216
102
RTVSPost2010PropOp51
 70
     0
102
RTVSPost2010Prop52
140
1.0
102
RTVSPost2010PropOp52
 70
     0
102
RTVSPost2010Prop53
 90
        2
102
RTVSPost2010PropOp53
 70
     1
102
RTVSPost2010Prop54
  1
strokes_ogs.tif
102
RTVSPost2010PropOp54
 70
     1
102
RTVSPost2010Prop55
280
     0
102
RTVSPost2010PropOp55
 70
     1
102
RTVSPost2010Prop56
140
1.0
102
RTVSPost2010PropOp56
 70
     1
102
RTVSPost2010Prop57
140
1.0
102
RTVSPost2010PropOp57
 70
     1
  0
XRECORD
  5
11A
102
{ACAD_REACTORS
330
119
102
}
330
119
100
AcDbXrecord
280
     1
102
RTVSPost2010Prop28
280
     0
102
RTVSPost2010PropOp28
 70
     1
102
RTVSPost2010Prop29
280
     1
102
RTVSPost2010PropOp29
 70
     1
102
RTVSPost2010Prop30
280
     1
102
RTVSPost2010PropOp30
 70
     1
102
RTVSPost2010Prop31
280
     0
102
RTVSPost2010PropOp31
 70
     1
102
RTVSPost2010Prop32
280
     0
102
RTVSPost2010PropOp32
 70
     1
102
RTVSPost2010Prop33
280
     0
102
RTVSPost2010PropOp33
 70
     1
102
RTVSPost2010Prop34
280
     0
102
RTVSPost2010PropOp34
 70
     1
102
RTVSPost2010Prop35
280
     0
102
RTVSPost2010PropOp35
 70
     1
102
RTVSPost2010Prop36
280
     0
102
RTVSPost2010PropOp36
 70
     1
102
RTVSPost2010Prop37
 90
       50
102
RTVSPost2010PropOp37
 70
     1
102
RTVSPost2010Prop38
140
0.0
102
RTVSPost2010PropOp38
 70
     1
102
RTVSPost2010Prop39
140
1.0
102
RTVSPost2010PropOp39
 70
     1
102
RTVSPost2010Prop40
 90
        0
102
RTVSPost2010PropOp40
 70
     1
102
RTVSPost2010Prop41ColorIndex
 90
       18
102
RTVSPost2010Prop41ColorRGB
 90
        0
102
RTVSPost2010PropOp41
 70
     1
102
RTVSPost2010Prop42
 90
       50
102
RTVSPost2010PropOp42
 70
     1
102
RTVSPost2010Prop43
 90
        3
102
RTVSPost2010PropOp43
 70
     1
102
RTVSPost2010Prop44ColorIndex
 90
        5
102
RTVSPost2010Prop44ColorRGB
 90
      255
102
RTVSPost2010PropOp44
 70
     1
102
RTVSPost2010Prop45
280
     0
102
RTVSPost2010PropOp45
 70
     1
102
RTVSPost2010Prop46
 90
       50
102
RTVSPost2010PropOp46
 70
     1
102
RTVSPost2010Prop47
 90
       50
102
RTVSPost2010PropOp47
 70
     1
102
RTVSPost2010Prop48
 90
       50
102
RTVSPost2010PropOp48
 70
     1
102
RTVSPost2010Prop49
280
     0
102
RTVSPost2010PropOp49
 70
     1
102
RTVSPost2010Prop50
 90
       50
102
RTVSPost2010PropOp50
 70
     1
102
RTVSPost2010Prop51ColorIndex
 90
      256
102
RTVSPost2010Prop51ColorRGB
 90
-16777216
102
RTVSPost2010PropOp51
 70
     0
102
RTVSPost2010Prop52
140
1.0
102
RTVSPost2010PropOp52
 70
     0
102
RTVSPost2010Prop53
 90
        2
102
RTVSPost2010PropOp53
 70
     1
102
RTVSPost2010Prop54
  1
strokes_ogs.tif
102
RTVSPost2010PropOp54
 70
     1
102
RTVSPost2010Prop55
280
     0
102
RTVSPost2010PropOp55
 70
     1
102
RTVSPost2010Prop56
140
1.0
102
RTVSPost2010PropOp56
 70
     1
102
RTVSPost2010Prop57
140
1.0
102
RTVSPost2010PropOp57
 70
     1
  0
XRECORD
  5
10E
102
{ACAD_REACTORS
330
10D
102
}
330
10D
100
AcDbXrecord
280
     1
102
RTVSPost2010Prop28
280
     0
102
RTVSPost2010PropOp28
 70
     1
102
RTVSPost2010Prop29
280
     1
102
RTVSPost2010PropOp29
 70
     1
102
RTVSPost2010Prop30
280
     1
102
RTVSPost2010PropOp30
 70
     1
102
RTVSPost2010Prop31
280
     0
102
RTVSPost2010PropOp31
 70
     1
102
RTVSPost2010Prop32
280
     0
102
RTVSPost2010PropOp32
 70
     1
102
RTVSPost2010Prop33
280
     0
102
RTVSPost2010PropOp33
 70
     1
102
RTVSPost2010Prop34
280
     0
102
RTVSPost2010PropOp34
 70
     1
102
RTVSPost2010Prop35
280
     0
102
RTVSPost2010PropOp35
 70
     1
102
RTVSPost2010Prop36
280
     0
102
RTVSPost2010PropOp36
 70
     1
102
RTVSPost2010Prop37
 90
       50
102
RTVSPost2010PropOp37
 70
     1
102
RTVSPost2010Prop38
140
0.0
102
RTVSPost2010PropOp38
 70
     1
102
RTVSPost2010Prop39
140
1.0
102
RTVSPost2010PropOp39
 70
     1
102
RTVSPost2010Prop40
 90
        0
102
RTVSPost2010PropOp40
 70
     1
102
RTVSPost2010Prop41ColorIndex
 90
       18
102
RTVSPost2010Prop41ColorRGB
 90
        0
102
RTVSPost2010PropOp41
 70
     1
102
RTVSPost2010Prop42
 90
       50
102
RTVSPost2010PropOp42
 70
     1
102
RTVSPost2010Prop43
 90
        3
102
RTVSPost2010PropOp43
 70
     1
102
RTVSPost2010Prop44ColorIndex
 90
        5
102
RTVSPost2010Prop44ColorRGB
 90
      255
102
RTVSPost2010PropOp44
 70
     1
102
RTVSPost2010Prop45
280
     0
102
RTVSPost2010PropOp45
 70
     1
102
RTVSPost2010Prop46
 90
       50
102
RTVSPost2010PropOp46
 70
     1
102
RTVSPost2010Prop47
 90
       50
102
RTVSPost2010PropOp47
 70
     1
102
RTVSPost2010Prop48
 90
       50
102
RTVSPost2010PropOp48
 70
     1
102
RTVSPost2010Prop49
280
     0
102
RTVSPost2010PropOp49
 70
     1
102
RTVSPost2010Prop50
 90
       50
102
RTVSPost2010PropOp50
 70
     1
102
RTVSPost2010Prop51ColorIndex
 90
      256
102
RTVSPost2010Prop51ColorRGB
 90
-16777216
102
RTVSPost2010PropOp51
 70
     0
102
RTVSPost2010Prop52
140
1.0
102
RTVSPost2010PropOp52
 70
     0
102
RTVSPost2010Prop53
 90
        2
102
RTVSPost2010PropOp53
 70
     1
102
RTVSPost2010Prop54
  1
strokes_ogs.tif
102
RTVSPost2010PropOp54
 70
     1
102
RTVSPost2010Prop55
280
     0
102
RTVSPost2010PropOp55
 70
     1
102
RTVSPost2010Prop56
140
1.0
102
RTVSPost2010PropOp56
 70
     1
102
RTVSPost2010Prop57
140
1.0
102
RTVSPost2010PropOp57
 70
     1
  0
XRECORD
  5
126
102
{ACAD_REACTORS
330
125
102
}
330
125
100
AcDbXrecord
280
     1
102
RTVSPost2010Prop28
280
     0
102
RTVSPost2010PropOp28
 70
     1
102
RTVSPost2010Prop29
280
     1
102
RTVSPost2010PropOp29
 70
     1
102
RTVSPost2010Prop30
280
     1
102
RTVSPost2010PropOp30
 70
     1
102
RTVSPost2010Prop31
280
     0
102
RTVSPost2010PropOp31
 70
     1
102
RTVSPost2010Prop32
280
     0
102
RTVSPost2010PropOp32
 70
     1
102
RTVSPost2010Prop33
280
     0
102
RTVSPost2010PropOp33
 70
     1
102
RTVSPost2010Prop34
280
     0
102
RTVSPost2010PropOp34
 70
     1
102
RTVSPost2010Prop35
280
     0
102
RTVSPost2010PropOp35
 70
     1
102
RTVSPost2010Prop36
280
     0
102
RTVSPost2010PropOp36
 70
     1
102
RTVSPost2010Prop37
 90
       50
102
RTVSPost2010PropOp37
 70
     1
102
RTVSPost2010Prop38
140
0.0
102
RTVSPost2010PropOp38
 70
     1
102
RTVSPost2010Prop39
140
1.0
102
RTVSPost2010PropOp39
 70
     1
102
RTVSPost2010Prop40
 90
        0
102
RTVSPost2010PropOp40
 70
     1
102
RTVSPost2010Prop41ColorIndex
 90
       18
102
RTVSPost2010Prop41ColorRGB
 90
        0
102
RTVSPost2010PropOp41
 70
     1
102
RTVSPost2010Prop42
 90
       50
102
RTVSPost2010PropOp42
 70
     1
102
RTVSPost2010Prop43
 90
        3
102
RTVSPost2010PropOp43
 70
     1
102
RTVSPost2010Prop44ColorIndex
 90
        5
102
RTVSPost2010Prop44ColorRGB
 90
      255
102
RTVSPost2010PropOp44
 70
     1
102
RTVSPost2010Prop45
280
     0
102
RTVSPost2010PropOp45
 70
     1
102
RTVSPost2010Prop46
 90
       50
102
RTVSPost2010PropOp46
 70
     1
102
RTVSPost2010Prop47
 90
       50
102
RTVSPost2010PropOp47
 70
     1
102
RTVSPost2010Prop48
 90
       50
102
RTVSPost2010PropOp48
 70
     1
102
RTVSPost2010Prop49
280
     0
102
RTVSPost2010PropOp49
 70
     1
102
RTVSPost2010Prop50
 90
       50
102
RTVSPost2010PropOp50
 70
     1
102
RTVSPost2010Prop51ColorIndex
 90
      256
102
RTVSPost2010Prop51ColorRGB
 90
-16777216
102
RTVSPost2010PropOp51
 70
     0
102
RTVSPost2010Prop52
140
1.0
102
RTVSPost2010PropOp52
 70
     0
102
RTVSPost2010Prop53
 90
        2
102
RTVSPost2010PropOp53
 70
     1
102
RTVSPost2010Prop54
  1
strokes_ogs.tif
102
RTVSPost2010PropOp54
 70
     1
102
RTVSPost2010Prop55
280
     0
102
RTVSPost2010PropOp55
 70
     1
102
RTVSPost2010Prop56
140
1.0
102
RTVSPost2010PropOp56
 70
     1
102
RTVSPost2010Prop57
140
1.0
102
RTVSPost2010PropOp57
 70
     1
  0
ENDSEC
  0
EOF
