  0
SECTION
  2
HEADER
  9
$ACADVER
  1
AC1024
  9
$ACADMAINTVER
 70
     6
  9
$DWGCODEPAGE
  3
UNDEFINED
  9
$INSBASE
 10
0.0
 20
0.0
 30
0.0
  9
$EXTMIN
 10
1.000000000000000E+20
 20
1.000000000000000E+20
 30
1.000000000000000E+20
  9
$EXTMAX
 10
-1.000000000000000E+20
 20
-1.000000000000000E+20
 30
-1.000000000000000E+20
  9
$LIMMIN
 10
0.0
 20
0.0
  9
$LIMMAX
 10
12.0
 20
9.0
  9
$ORTHOMODE
 70
     0
  9
$REGENMODE
 70
     1
  9
$FILLMODE
 70
     1
  9
$QTEXTMODE
 70
     0
  9
$MIRRTEXT
 70
     1
  9
$LTSCALE
 40
1.0
  9
$ATTMODE
 70
     1
  9
$TEXTSIZE
 40
0.2
  9
$TRACEWID
 40
0.05
  9
$TEXTSTYLE
  7
Standard
  9
$CLAYER
  8
0
  9
$CELTYPE
  6
ByLayer
  9
$CECOLOR
 62
   256
  9
$CELTSCALE
 40
1.0
  9
$DISPSILH
 70
     0
  9
$DIMSCALE
 40
1.0
  9
$DIMASZ
 40
0.18
  9
$DIMEXO
 40
0.0625
  9
$DIMDLI
 40
0.38
  9
$DIMRND
 40
0.0
  9
$DIMDLE
 40
0.0
  9
$DIMEXE
 40
0.18
  9
$DIMTP
 40
0.0
  9
$DIMTM
 40
0.0
  9
$DIMTXT
 40
0.18
  9
$DIMCEN
 40
0.09
  9
$DIMTSZ
 40
0.0
  9
$DIMTOL
 70
     0
  9
$DIMLIM
 70
     0
  9
$DIMTIH
 70
     1
  9
$DIMTOH
 70
     1
  9
$DIMSE1
 70
     0
  9
$DIMSE2
 70
     0
  9
$DIMTAD
 70
     0
  9
$DIMZIN
 70
     0
  9
$DIMBLK
  1

  9
$DIMASO
 70
     1
  9
$DIMSHO
 70
     1
  9
$DIMPOST
  1

  9
$DIMAPOST
  1

  9
$DIMALT
 70
     0
  9
$DIMALTD
 70
     2
  9
$DIMALTF
 40
25.4
  9
$DIMLFAC
 40
1.0
  9
$DIMTOFL
 70
     0
  9
$DIMTVP
 40
0.0
  9
$DIMTIX
 70
     0
  9
$DIMSOXD
 70
     0
  9
$DIMSAH
 70
     0
  9
$DIMBLK1
  1

  9
$DIMBLK2
  1

  9
$DIMSTYLE
  2
Standard
  9
$DIMCLRD
 70
     0
  9
$DIMCLRE
 70
     0
  9
$DIMCLRT
 70
     0
  9
$DIMTFAC
 40
1.0
  9
$DIMGAP
 40
0.09
  9
$DIMJUST
 70
     0
  9
$DIMSD1
 70
     0
  9
$DIMSD2
 70
     0
  9
$DIMTOLJ
 70
     1
  9
$DIMTZIN
 70
     0
  9
$DIMALTZ
 70
     0
  9
$DIMALTTZ
 70
     0
  9
$DIMUPT
 70
     0
  9
$DIMDEC
 70
     4
  9
$DIMTDEC
 70
     4
  9
$DIMALTU
 70
     2
  9
$DIMALTTD
 70
     2
  9
$DIMTXSTY
  7
Standard
  9
$DIMAUNIT
 70
     0
  9
$DIMADEC
 70
     0
  9
$DIMALTRND
 40
0.0
  9
$DIMAZIN
 70
     0
  9
$DIMDSEP
 70
    46
  9
$DIMATFIT
 70
     3
  9
$DIMFRAC
 70
     0
  9
$DIMLDRBLK
  1

  9
$DIMLUNIT
 70
     2
  9
$DIMLWD
 70
    -2
  9
$DIMLWE
 70
    -2
  9
$DIMTMOVE
 70
     0
  9
$DIMFXL
 40
1.0
  9
$DIMFXLON
 70
     0
  9
$DIMJOGANG
 40
0.7853981633974483
  9
$DIMTFILL
 70
     0
  9
$DIMTFILLCLR
 70
     0
  9
$DIMARCSYM
 70
     0
  9
$DIMLTYPE
  6

  9
$DIMLTEX1
  6

  9
$DIMLTEX2
  6

  9
$DIMTXTDIRECTION
 70
     0
  9
$LUNITS
 70
     2
  9
$LUPREC
 70
     4
  9
$SKETCHINC
 40
0.1
  9
$FILLETRAD
 40
0.5
  9
$AUNITS
 70
     0
  9
$AUPREC
 70
     0
  9
$MENU
  1
.
  9
$ELEVATION
 40
0.0
  9
$PELEVATION
 40
0.0
  9
$THICKNESS
 40
0.0
  9
$LIMCHECK
 70
     0
  9
$CHAMFERA
 40
0.5
  9
$CHAMFERB
 40
0.5
  9
$CHAMFERC
 40
1.0
  9
$CHAMFERD
 40
0.0
  9
$SKPOLY
 70
     0
  9
$TDCREATE
 40
2458263.581805556
  9
$TDUCREATE
 40
2458263.206805556
  9
$TDUPDATE
 40
2458263.581805556
  9
$TDUUPDATE
 40
2458263.206805556
  9
$TDINDWG
 40
0.0000000116
  9
$TDUSRTIMER
 40
0.0000000116
  9
$USRTIMER
 70
     1
  9
$ANGBASE
 50
0.0
  9
$ANGDIR
 70
     0
  9
$PDMODE
 70
     0
  9
$PDSIZE
 40
0.0
  9
$PLINEWID
 40
0.0
  9
$SPLFRAME
 70
     0
  9
$SPLINETYPE
 70
     6
  9
$SPLINESEGS
 70
     8
  9
$HANDSEED
  5
EB
  9
$SURFTAB1
 70
     6
  9
$SURFTAB2
 70
     6
  9
$SURFTYPE
 70
     6
  9
$SURFU
 70
     6
  9
$SURFV
 70
     6
  9
$UCSBASE
  2

  9
$UCSNAME
  2

  9
$UCSORG
 10
0.0
 20
0.0
 30
0.0
  9
$UCSXDIR
 10
1.0
 20
0.0
 30
0.0
  9
$UCSYDIR
 10
0.0
 20
1.0
 30
0.0
  9
$UCSORTHOREF
  2

  9
$UCSORTHOVIEW
 70
     0
  9
$UCSORGTOP
 10
0.0
 20
0.0
 30
0.0
  9
$UCSORGBOTTOM
 10
0.0
 20
0.0
 30
0.0
  9
$UCSORGLEFT
 10
0.0
 20
0.0
 30
0.0
  9
$UCSORGRIGHT
 10
0.0
 20
0.0
 30
0.0
  9
$UCSORGFRONT
 10
0.0
 20
0.0
 30
0.0
  9
$UCSORGBACK
 10
0.0
 20
0.0
 30
0.0
  9
$PUCSBASE
  2

  9
$PUCSNAME
  2

  9
$PUCSORG
 10
0.0
 20
0.0
 30
0.0
  9
$PUCSXDIR
 10
1.0
 20
0.0
 30
0.0
  9
$PUCSYDIR
 10
0.0
 20
1.0
 30
0.0
  9
$PUCSORTHOREF
  2

  9
$PUCSORTHOVIEW
 70
     0
  9
$PUCSORGTOP
 10
0.0
 20
0.0
 30
0.0
  9
$PUCSORGBOTTOM
 10
0.0
 20
0.0
 30
0.0
  9
$PUCSORGLEFT
 10
0.0
 20
0.0
 30
0.0
  9
$PUCSORGRIGHT
 10
0.0
 20
0.0
 30
0.0
  9
$PUCSORGFRONT
 10
0.0
 20
0.0
 30
0.0
  9
$PUCSORGBACK
 10
0.0
 20
0.0
 30
0.0
  9
$USERI1
 70
     0
  9
$USERI2
 70
     0
  9
$USERI3
 70
     0
  9
$USERI4
 70
     0
  9
$USERI5
 70
     0
  9
$USERR1
 40
0.0
  9
$USERR2
 40
0.0
  9
$USERR3
 40
0.0
  9
$USERR4
 40
0.0
  9
$USERR5
 40
0.0
  9
$WORLDVIEW
 70
     1
  9
$SHADEDGE
 70
     3
  9
$SHADEDIF
 70
    70
  9
$TILEMODE
 70
     1
  9
$MAXACTVP
 70
    64
  9
$PINSBASE
 10
0.0
 20
0.0
 30
0.0
  9
$PLIMCHECK
 70
     0
  9
$PEXTMIN
 10
1.000000000000000E+20
 20
1.000000000000000E+20
 30
1.000000000000000E+20
  9
$PEXTMAX
 10
-1.000000000000000E+20
 20
-1.000000000000000E+20
 30
-1.000000000000000E+20
  9
$PLIMMIN
 10
0.0
 20
0.0
  9
$PLIMMAX
 10
12.0
 20
9.0
  9
$UNITMODE
 70
     0
  9
$VISRETAIN
 70
     1
  9
$PLINEGEN
 70
     0
  9
$PSLTSCALE
 70
     1
  9
$TREEDEPTH
 70
  3020
  9
$CMLSTYLE
  2
Standard
  9
$CMLJUST
 70
     0
  9
$CMLSCALE
 40
1.0
  9
$PROXYGRAPHICS
 70
     1
  9
$MEASUREMENT
 70
     0
  9
$CELWEIGHT
370
    -1
  9
$ENDCAPS
280
     0
  9
$JOINSTYLE
280
     0
  9
$LWDISPLAY
290
     1
  9
$INSUNITS
 70
     1
  9
$HYPERLINKBASE
  1

  9
$STYLESHEET
  1

  9
$XEDIT
290
     1
  9
$CEPSNTYPE
380
     0
  9
$PSTYLEMODE
290
     1
  9
$FINGERPRINTGUID
  2
{624B7C3F-4479-20BC-3E25-B052CA4CDE4D}
  9
$VERSIONGUID
  2
{FAEB1C32-E019-11D5-929B-00C0DF256EC4}
  9
$EXTNAMES
290
     1
  9
$PSVPSCALE
 40
0.0
  9
$OLESTARTUP
290
     0
  9
$SORTENTS
280
   127
  9
$INDEXCTL
280
     0
  9
$HIDETEXT
280
     1
  9
$XCLIPFRAME
280
     2
  9
$HALOGAP
280
     0
  9
$OBSCOLOR
 70
   257
  9
$OBSLTYPE
280
     0
  9
$INTERSECTIONDISPLAY
280
     0
  9
$INTERSECTIONCOLOR
 70
   257
  9
$DIMASSOC
280
     2
  9
$PROJECTNAME
  1

  9
$CAMERADISPLAY
290
     0
  9
$LENSLENGTH
 40
50.0
  9
$CAMERAHEIGHT
 40
0.0
  9
$STEPSPERSEC
 40
2.0
  9
$STEPSIZE
 40
6.0
  9
$3DDWFPREC
 40
2.0
  9
$PSOLWIDTH
 40
0.25
  9
$PSOLHEIGHT
 40
4.0
  9
$LOFTANG1
 40
1.570796326794897
  9
$LOFTANG2
 40
1.570796326794897
  9
$LOFTMAG1
 40
0.0
  9
$LOFTMAG2
 40
0.0
  9
$LOFTPARAM
 70
     7
  9
$LOFTNORMALS
280
     1
  9
$LATITUDE
 40
37.795
  9
$LONGITUDE
 40
-122.394
  9
$NORTHDIRECTION
 40
0.0
  9
$TIMEZONE
 70
 -8000
  9
$LIGHTGLYPHDISPLAY
280
     1
  9
$TILEMODELIGHTSYNCH
280
     1
  9
$CMATERIAL
347
3C
  9
$SOLIDHIST
280
     1
  9
$SHOWHIST
280
     1
  9
$DWFFRAME
280
     2
  9
$DGNFRAME
280
     2
  9
$REALWORLDSCALE
290
     1
  9
$INTERFERECOLOR
 62
   256
  9
$CSHADOW
280
     0
  9
$SHADOWPLANELOCATION
 40
0.0
  0
ENDSEC
  0
SECTION
  2
CLASSES
  0
CLASS
  1
ACDBDICTIONARYWDFLT
  2
AcDbDictionaryWithDefault
  3
ObjectDBX Classes
 90
        0
 91
        4
280
     0
281
     0
  0
CLASS
  1
VISUALSTYLE
  2
AcDbVisualStyle
  3
ObjectDBX Classes
 90
     4095
 91
        4
280
     0
281
     0
  0
CLASS
  1
MATERIAL
  2
AcDbMaterial
  3
ObjectDBX Classes
 90
     1153
 91
        4
280
     0
281
     0
  0
CLASS
  1
SUN
  2
AcDbSun
  3
SCENEOE
 90
     1024
 91
        4
280
     0
281
     0
  0
ENDSEC
  0
SECTION
  2
TABLES
  0
TABLE
  2
VPORT
  5
8
330
0
100
AcDbSymbolTable
 70
     1
  0
VPORT
  5
29
330
8
100
AcDbSymbolTableRecord
100
AcDbViewportTableRecord
  2
*Active
 70
     0
 10
0.0
 20
0.0
 11
1.0
 21
1.0
 12
0.0
 22
0.0
 13
0.0
 23
0.0
 14
0.5
 24
0.5
 15
0.5
 25
0.5
 16
0.0
 26
0.0
 36
1.0
 17
105.0007777515277
 27
-148.5000416295416
 37
0.0
 40
297.0000832590831
 41
0.7070757462376333
 42
50.0
 43
0.0
 44
0.0
 50
0.0
 51
0.0
 71
     0
 72
   100
 73
     1
 74
     3
 75
     0
 76
     0
 77
     0
 78
     0
281
     0
 65
     1
110
0.0
120
0.0
130
0.0
111
1.0
121
0.0
131
0.0
112
0.0
122
1.0
132
0.0
 79
     0
146
0.0
 60
     3
 61
     5
292
     1
282
     1
141
0.0
142
0.0
 63
   250
361
3F
  0
ENDTAB
  0
TABLE
  2
LTYPE
  5
5
330
0
100
AcDbSymbolTable
 70
     1
  0
LTYPE
  5
14
330
5
100
AcDbSymbolTableRecord
100
AcDbLinetypeTableRecord
  2
ByBlock
 70
     0
  3

 72
    65
 73
     0
 40
0.0
  0
LTYPE
  5
15
330
5
100
AcDbSymbolTableRecord
100
AcDbLinetypeTableRecord
  2
ByLayer
 70
     0
  3

 72
    65
 73
     0
 40
0.0
  0
LTYPE
  5
16
330
5
100
AcDbSymbolTableRecord
100
AcDbLinetypeTableRecord
  2
Continuous
 70
     0
  3
Solid line
 72
    65
 73
     0
 40
0.0
  0
ENDTAB
  0
TABLE
  2
LAYER
  5
2
330
0
100
AcDbSymbolTable
 70
     2
  0
LAYER
  5
10
330
2
100
AcDbSymbolTableRecord
100
AcDbLayerTableRecord
  2
0
 70
     0
 62
     7
  6
Continuous
370
    -3
390
F
347
3E
  0
LAYER
  5
40
330
2
100
AcDbSymbolTableRecord
100
AcDbLayerTableRecord
  2
_U+30EC_U+30A4_U+30E4_U+30FC 1
 70
     0
 62
     7
  6
Continuous
370
    -3
390
F
347
3E
  0
ENDTAB
  0
TABLE
  2
STYLE
  5
3
330
0
100
AcDbSymbolTable
 70
     1
  0
STYLE
  5
11
330
3
100
AcDbSymbolTableRecord
100
AcDbTextStyleTableRecord
  2
Standard
 70
     0
 40
0.0
 41
1.0
 50
0.0
 71
     0
 42
0.2
  3
txt
  4

  0
ENDTAB
  0
TABLE
  2
VIEW
  5
6
330
0
100
AcDbSymbolTable
 70
     0
  0
ENDTAB
  0
TABLE
  2
UCS
  5
7
330
0
100
AcDbSymbolTable
 70
     0
  0
ENDTAB
  0
TABLE
  2
APPID
  5
9
330
0
100
AcDbSymbolTable
 70
     1
  0
APPID
  5
12
330
9
100
AcDbSymbolTableRecord
100
AcDbRegAppTableRecord
  2
ACAD
 70
     0
  0
ENDTAB
  0
TABLE
  2
DIMSTYLE
  5
A
330
0
100
AcDbSymbolTable
 70
     1
100
AcDbDimStyleTable
  0
DIMSTYLE
105
27
330
A
100
AcDbSymbolTableRecord
100
AcDbDimStyleTableRecord
  2
Standard
 70
     0
178
     0
340
11
  0
ENDTAB
  0
TABLE
  2
BLOCK_RECORD
  5
1
330
0
100
AcDbSymbolTable
 70
     6
  0
BLOCK_RECORD
  5
1F
330
1
100
AcDbSymbolTableRecord
100
AcDbBlockTableRecord
  2
*Model_Space
340
22
 70
     0
280
     1
281
     0
  0
BLOCK_RECORD
  5
1B
330
1
100
AcDbSymbolTableRecord
100
AcDbBlockTableRecord
  2
*Paper_Space
340
1E
 70
     0
280
     1
281
     0
  0
BLOCK_RECORD
  5
23
330
1
100
AcDbSymbolTableRecord
100
AcDbBlockTableRecord
  2
*Paper_Space0
340
26
 70
     0
280
     1
281
     0
  0
BLOCK_RECORD
  5
8F
330
1
100
AcDbSymbolTableRecord
100
AcDbBlockTableRecord
  2
block 2
340
0
102
{BLKREFS
331
90
102
}
 70
     0
280
     1
281
     0
  0
BLOCK_RECORD
  5
A1
330
1
100
AcDbSymbolTableRecord
100
AcDbBlockTableRecord
  2
block 3
340
0
102
{BLKREFS
331
A2
102
}
 70
     0
280
     1
281
     0
  0
BLOCK_RECORD
  5
B5
330
1
100
AcDbSymbolTableRecord
100
AcDbBlockTableRecord
  2
block 4
340
0
102
{BLKREFS
331
B6
102
}
 70
     0
280
     1
281
     0
  0
BLOCK_RECORD
  5
C9
330
1
100
AcDbSymbolTableRecord
100
AcDbBlockTableRecord
  2
block 5
340
0
102
{BLKREFS
331
CA
102
}
 70
     0
280
     1
281
     0
  0
BLOCK_RECORD
  5
D8
330
1
100
AcDbSymbolTableRecord
100
AcDbBlockTableRecord
  2
block 6
340
0
102
{BLKREFS
331
D9
102
}
 70
     0
280
     1
281
     0
  0
ENDTAB
  0
ENDSEC
  0
SECTION
  2
BLOCKS
  0
BLOCK
  5
20
330
1F
100
AcDbEntity
  8
0
100
AcDbBlockBegin
  2
*Model_Space
 70
     0
 10
0.0
 20
0.0
 30
0.0
  3
*Model_Space
  1

  0
ENDBLK
  5
21
330
1F
100
AcDbEntity
  8
0
100
AcDbBlockEnd
  0
BLOCK
  5
1C
330
1B
100
AcDbEntity
 67
     1
  8
0
100
AcDbBlockBegin
  2
*Paper_Space
 70
     0
 10
0.0
 20
0.0
 30
0.0
  3
*Paper_Space
  1

  0
ENDBLK
  5
1D
330
1B
100
AcDbEntity
 67
     1
  8
0
100
AcDbBlockEnd
  0
BLOCK
  5
24
330
23
100
AcDbEntity
  8
0
100
AcDbBlockBegin
  2
*Paper_Space0
 70
     0
 10
0.0
 20
0.0
 30
0.0
  3
*Paper_Space0
  1

  0
ENDBLK
  5
25
330
23
100
AcDbEntity
  8
0
100
AcDbBlockEnd
  0
BLOCK
  5
91
330
8F
100
AcDbEntity
  8
0
100
AcDbBlockBegin
  2
block 2
 70
     0
 10
0.0
 20
0.0
 30
0.0
  3
block 2
  1

  0
SPLINE
  5
93
330
8F
100
AcDbEntity
  8
_U+30EC_U+30A4_U+30E4_U+30FC 1
370
     0
100
AcDbSpline
210
0.0
220
0.0
230
1.0
 70
    11
 71
     3
 72
    26
 73
    22
 74
     0
 42
0.0000000001
 43
0.0000000001
 12
1.0
 22
0.0
 32
0.0
 13
1.0
 23
0.0
 33
0.0
 40
0.0
 40
0.0
 40
0.0
 40
0.0
 40
1.0
 40
1.0
 40
1.0
 40
2.0
 40
2.0
 40
2.0
 40
3.0
 40
3.0
 40
3.0
 40
4.0
 40
4.0
 40
4.0
 40
5.0
 40
5.0
 40
5.0
 40
6.0
 40
6.0
 40
6.0
 40
7.0
 40
7.0
 40
7.0
 40
7.0
 10
123.2383002079057
 20
-144.4394178241332
 30
0.0
 10
123.2383002079057
 20
-144.4394178241332
 30
0.0
 10
122.1341471048831
 20
-144.4394178241332
 30
0.0
 10
122.1341471048831
 20
-144.4394178241332
 30
0.0
 10
122.1341471048831
 20
-144.4394178241332
 30
0.0
 10
122.1341471048831
 20
-144.7694579716201
 30
0.0
 10
122.1341471048831
 20
-144.7694579716201
 30
0.0
 10
122.1341471048831
 20
-144.7694579716201
 30
0.0
 10
121.9860079990174
 20
-144.7694579716201
 30
0.0
 10
121.9860079990174
 20
-144.7694579716201
 30
0.0
 10
121.9711940884308
 20
-144.4373507668421
 30
0.0
 10
121.8082410719785
 20
-144.3908419777912
 30
0.0
 10
121.6938639018682
 20
-144.361214156618
 30
0.0
 10
121.6938639018682
 20
-144.361214156618
 30
0.0
 10
121.6938639018682
 20
-144.2151421080434
 30
0.0
 10
121.6938639018682
 20
-144.2151421080434
 30
0.0
 10
121.6938639018682
 20
-144.2151421080434
 30
0.0
 10
123.2383002079057
 20
-144.2151421080434
 30
0.0
 10
123.2383002079057
 20
-144.2151421080434
 30
0.0
 10
123.2383002079057
 20
-144.2151421080434
 30
0.0
 10
123.2383002079057
 20
-144.4394178241332
 30
0.0
 10
123.2383002079057
 20
-144.4394178241332
 30
0.0
  0
HATCH
  5
94
330
8F
100
AcDbEntity
  8
_U+30EC_U+30A4_U+30E4_U+30FC 1
 62
   179
420
  2234388
100
AcDbHatch
 10
0.0
 20
0.0
 30
0.0
210
0.0
220
0.0
230
1.0
  2
SOLID
 70
     1
 71
     0
 91
        1
 92
        1
 93
        1
 72
     4
 94
        3
 73
     0
 74
     1
 95
       26
 96
       22
 40
0.0
 40
0.0
 40
0.0
 40
0.0
 40
1.0
 40
1.0
 40
1.0
 40
2.0
 40
2.0
 40
2.0
 40
3.0
 40
3.0
 40
3.0
 40
4.0
 40
4.0
 40
4.0
 40
5.0
 40
5.0
 40
5.0
 40
6.0
 40
6.0
 40
6.0
 40
7.0
 40
7.0
 40
7.0
 40
7.0
 10
123.2383002079057
 20
-144.4394178241332
 10
123.2383002079057
 20
-144.4394178241332
 10
122.1341471048831
 20
-144.4394178241332
 10
122.1341471048831
 20
-144.4394178241332
 10
122.1341471048831
 20
-144.4394178241332
 10
122.1341471048831
 20
-144.7694579716201
 10
122.1341471048831
 20
-144.7694579716201
 10
122.1341471048831
 20
-144.7694579716201
 10
121.9860079990174
 20
-144.7694579716201
 10
121.9860079990174
 20
-144.7694579716201
 10
121.9711940884308
 20
-144.4373507668421
 10
121.8082410719785
 20
-144.3908419777912
 10
121.6938639018682
 20
-144.361214156618
 10
121.6938639018682
 20
-144.361214156618
 10
121.6938639018682
 20
-144.2151421080434
 10
121.6938639018682
 20
-144.2151421080434
 10
121.6938639018682
 20
-144.2151421080434
 10
123.2383002079057
 20
-144.2151421080434
 10
123.2383002079057
 20
-144.2151421080434
 10
123.2383002079057
 20
-144.2151421080434
 10
123.2383002079057
 20
-144.4394178241332
 10
123.2383002079057
 20
-144.4394178241332
 97
        0
 97
        0
 75
     2
 76
     1
 98
        0
  0
ENDBLK
  5
92
330
8F
100
AcDbEntity
  8
0
100
AcDbBlockEnd
  0
BLOCK
  5
A3
330
A1
100
AcDbEntity
  8
0
100
AcDbBlockBegin
  2
block 3
 70
     0
 10
0.0
 20
0.0
 30
0.0
  3
block 3
  1

  0
SPLINE
  5
A5
330
A1
100
AcDbEntity
  8
_U+30EC_U+30A4_U+30E4_U+30FC 1
370
     0
100
AcDbSpline
210
0.0
220
0.0
230
1.0
 70
    11
 71
     3
 72
    62
 73
    58
 74
     0
 42
0.0000000001
 43
0.0000000001
 12
1.0
 22
0.0
 32
0.0
 13
1.0
 23
0.0
 33
0.0
 40
0.0
 40
0.0
 40
0.0
 40
0.0
 40
1.0
 40
1.0
 40
1.0
 40
2.0
 40
2.0
 40
2.0
 40
3.0
 40
3.0
 40
3.0
 40
4.0
 40
4.0
 40
4.0
 40
5.0
 40
5.0
 40
5.0
 40
6.0
 40
6.0
 40
6.0
 40
7.0
 40
7.0
 40
7.0
 40
8.0
 40
8.0
 40
8.0
 40
9.0
 40
9.0
 40
9.0
 40
10.0
 40
10.0
 40
10.0
 40
11.0
 40
11.0
 40
11.0
 40
12.0
 40
12.0
 40
12.0
 40
13.0
 40
13.0
 40
13.0
 40
14.0
 40
14.0
 40
14.0
 40
15.0
 40
15.0
 40
15.0
 40
16.0
 40
16.0
 40
16.0
 40
17.0
 40
17.0
 40
17.0
 40
18.0
 40
18.0
 40
18.0
 40
19.0
 40
19.0
 40
19.0
 40
19.0
 10
102.1379516346218
 20
-139.1871975020956
 30
0.0
 10
102.0426947444546
 20
-139.1871975020956
 30
0.0
 10
101.8247924550126
 20
-139.1661824196355
 30
0.0
 10
101.7000799984465
 20
-138.9801472634321
 30
0.0
 10
101.6260104455136
 20
-138.8678371506129
 30
0.0
 10
101.6217040761571
 20
-138.7686184006377
 30
0.0
 10
101.6175699615748
 20
-138.6838690517006
 30
0.0
 10
101.6175699615748
 20
-138.6838690517006
 30
0.0
 10
101.837539308308
 20
-138.6838690517006
 30
0.0
 10
101.837539308308
 20
-138.6838690517006
 30
0.0
 10
101.8396063655991
 20
-138.7579386046334
 30
0.0
 10
101.8502861616034
 20
-138.9925496071789
 30
0.0
 10
102.1336452652652
 20
-138.9925496071789
 30
0.0
 10
102.2712768299009
 20
-138.9925496071789
 30
0.0
 10
102.423550050349
 20
-138.9229586783769
 30
0.0
 10
102.423550050349
 20
-138.6945488477049
 30
0.0
 10
102.423550050349
 20
-138.5781046203034
 30
0.0
 10
102.385481745237
 20
-138.5295287739614
 30
0.0
 10
102.3537868667727
 20
-138.4978338954971
 30
0.0
 10
102.2797173138398
 20
-138.4237643425642
 30
0.0
 10
102.1632730864384
 20
-138.4110174892688
 30
0.0
 10
102.1083238134486
 20
-138.4110174892688
 30
0.0
 10
102.0893757882797
 20
-138.4110174892688
 30
0.0
 10
102.0533745404589
 20
-138.4130845465599
 30
0.0
 10
102.0258137765769
 20
-138.4172186611422
 30
0.0
 10
102.0258137765769
 20
-138.4172186611422
 30
0.0
 10
102.0258137765769
 20
-138.2225707662256
 30
0.0
 10
102.0258137765769
 20
-138.2225707662256
 30
0.0
 10
102.0638820816889
 20
-138.2291164476476
 30
0.0
 10
102.1062567561575
 20
-138.2311835049387
 30
0.0
 10
102.1126301828052
 20
-138.2311835049387
 30
0.0
 10
102.1780869970249
 20
-138.2311835049387
 30
0.0
 10
102.3770412612981
 20
-138.2098239129302
 30
0.0
 10
102.3770412612981
 20
-137.9731458530935
 30
0.0
 10
102.3770412612981
 20
-137.7953789260546
 30
0.0
 10
102.2457831233101
 20
-137.7402573982906
 30
0.0
 10
102.1358845773306
 20
-137.7402573982906
 30
0.0
 10
101.8714734988377
 20
-137.7402573982906
 30
0.0
 10
101.8628607601246
 20
-137.9731458530935
 30
0.0
 10
101.8587266455423
 20
-138.0448038391867
 30
0.0
 10
101.8587266455423
 20
-138.0448038391867
 30
0.0
 10
101.6556382666868
 20
-138.0448038391867
 30
0.0
 10
101.6556382666868
 20
-138.0448038391867
 30
0.0
 10
101.6640787506256
 20
-137.9200913826207
 30
0.0
 10
101.6916395145077
 20
-137.5435424460829
 30
0.0
 10
102.1484591758518
 20
-137.5435424460829
 30
0.0
 10
102.3727348919415
 20
-137.5435424460829
 30
0.0
 10
102.613891575909
 20
-137.6706664694886
 30
0.0
 10
102.613891575909
 20
-137.9666001716716
 30
0.0
 10
102.613891575909
 20
-138.1529798374236
 30
0.0
 10
102.5188069405161
 20
-138.235317619521
 30
0.0
 10
102.4192436809924
 20
-138.2966403191585
 30
0.0
 10
102.4807386354041
 20
-138.3242010830405
 30
0.0
 10
102.6626396770253
 20
-138.4044718078468
 30
0.0
 10
102.6626396770253
 20
-138.6818019944094
 30
0.0
 10
102.6626396770253
 20
-139.020110371061
 30
0.0
 10
102.4151095664101
 20
-139.1871975020956
 30
0.0
 10
102.1379516346218
 20
-139.1871975020956
 30
0.0
  0
HATCH
  5
A6
330
A1
100
AcDbEntity
  8
_U+30EC_U+30A4_U+30E4_U+30FC 1
 62
   179
420
  2234388
100
AcDbHatch
 10
0.0
 20
0.0
 30
0.0
210
0.0
220
0.0
230
1.0
  2
SOLID
 70
     1
 71
     0
 91
        1
 92
        1
 93
        1
 72
     4
 94
        3
 73
     0
 74
     1
 95
       62
 96
       58
 40
0.0
 40
0.0
 40
0.0
 40
0.0
 40
1.0
 40
1.0
 40
1.0
 40
2.0
 40
2.0
 40
2.0
 40
3.0
 40
3.0
 40
3.0
 40
4.0
 40
4.0
 40
4.0
 40
5.0
 40
5.0
 40
5.0
 40
6.0
 40
6.0
 40
6.0
 40
7.0
 40
7.0
 40
7.0
 40
8.0
 40
8.0
 40
8.0
 40
9.0
 40
9.0
 40
9.0
 40
10.0
 40
10.0
 40
10.0
 40
11.0
 40
11.0
 40
11.0
 40
12.0
 40
12.0
 40
12.0
 40
13.0
 40
13.0
 40
13.0
 40
14.0
 40
14.0
 40
14.0
 40
15.0
 40
15.0
 40
15.0
 40
16.0
 40
16.0
 40
16.0
 40
17.0
 40
17.0
 40
17.0
 40
18.0
 40
18.0
 40
18.0
 40
19.0
 40
19.0
 40
19.0
 40
19.0
 10
102.1379516346218
 20
-139.1871975020956
 10
102.0426947444546
 20
-139.1871975020956
 10
101.8247924550126
 20
-139.1661824196355
 10
101.7000799984465
 20
-138.9801472634321
 10
101.6260104455136
 20
-138.8678371506129
 10
101.6217040761571
 20
-138.7686184006377
 10
101.6175699615748
 20
-138.6838690517006
 10
101.6175699615748
 20
-138.6838690517006
 10
101.837539308308
 20
-138.6838690517006
 10
101.837539308308
 20
-138.6838690517006
 10
101.8396063655991
 20
-138.7579386046334
 10
101.8502861616034
 20
-138.9925496071789
 10
102.1336452652652
 20
-138.9925496071789
 10
102.2712768299009
 20
-138.9925496071789
 10
102.423550050349
 20
-138.9229586783769
 10
102.423550050349
 20
-138.6945488477049
 10
102.423550050349
 20
-138.5781046203034
 10
102.385481745237
 20
-138.5295287739614
 10
102.3537868667727
 20
-138.4978338954971
 10
102.2797173138398
 20
-138.4237643425642
 10
102.1632730864384
 20
-138.4110174892688
 10
102.1083238134486
 20
-138.4110174892688
 10
102.0893757882797
 20
-138.4110174892688
 10
102.0533745404589
 20
-138.4130845465599
 10
102.0258137765769
 20
-138.4172186611422
 10
102.0258137765769
 20
-138.4172186611422
 10
102.0258137765769
 20
-138.2225707662256
 10
102.0258137765769
 20
-138.2225707662256
 10
102.0638820816889
 20
-138.2291164476476
 10
102.1062567561575
 20
-138.2311835049387
 10
102.1126301828052
 20
-138.2311835049387
 10
102.1780869970249
 20
-138.2311835049387
 10
102.3770412612981
 20
-138.2098239129302
 10
102.3770412612981
 20
-137.9731458530935
 10
102.3770412612981
 20
-137.7953789260546
 10
102.2457831233101
 20
-137.7402573982906
 10
102.1358845773306
 20
-137.7402573982906
 10
101.8714734988377
 20
-137.7402573982906
 10
101.8628607601246
 20
-137.9731458530935
 10
101.8587266455423
 20
-138.0448038391867
 10
101.8587266455423
 20
-138.0448038391867
 10
101.6556382666868
 20
-138.0448038391867
 10
101.6556382666868
 20
-138.0448038391867
 10
101.6640787506256
 20
-137.9200913826207
 10
101.6916395145077
 20
-137.5435424460829
 10
102.1484591758518
 20
-137.5435424460829
 10
102.3727348919415
 20
-137.5435424460829
 10
102.613891575909
 20
-137.6706664694886
 10
102.613891575909
 20
-137.9666001716716
 10
102.613891575909
 20
-138.1529798374236
 10
102.5188069405161
 20
-138.235317619521
 10
102.4192436809924
 20
-138.2966403191585
 10
102.4807386354041
 20
-138.3242010830405
 10
102.6626396770253
 20
-138.4044718078468
 10
102.6626396770253
 20
-138.6818019944094
 10
102.6626396770253
 20
-139.020110371061
 10
102.4151095664101
 20
-139.1871975020956
 10
102.1379516346218
 20
-139.1871975020956
 97
        0
 97
        0
 75
     2
 76
     1
 98
        0
  0
SPLINE
  5
A7
330
A1
100
AcDbEntity
  8
_U+30EC_U+30A4_U+30E4_U+30FC 1
370
     0
100
AcDbSpline
210
0.0
220
0.0
230
1.0
 70
    11
 71
     3
 72
    53
 73
    49
 74
     0
 42
0.0000000001
 43
0.0000000001
 12
1.0
 22
0.0
 32
0.0
 13
1.0
 23
0.0
 33
0.0
 40
0.0
 40
0.0
 40
0.0
 40
0.0
 40
1.0
 40
1.0
 40
1.0
 40
2.0
 40
2.0
 40
2.0
 40
3.0
 40
3.0
 40
3.0
 40
4.0
 40
4.0
 40
4.0
 40
5.0
 40
5.0
 40
5.0
 40
6.0
 40
6.0
 40
6.0
 40
7.0
 40
7.0
 40
7.0
 40
8.0
 40
8.0
 40
8.0
 40
9.0
 40
9.0
 40
9.0
 40
10.0
 40
10.0
 40
10.0
 40
11.0
 40
11.0
 40
11.0
 40
12.0
 40
12.0
 40
12.0
 40
13.0
 40
13.0
 40
13.0
 40
14.0
 40
14.0
 40
14.0
 40
15.0
 40
15.0
 40
15.0
 40
16.0
 40
16.0
 40
16.0
 40
16.0
 10
103.3042887111531
 20
-139.1871975020956
 30
0.0
 10
103.2259127888637
 20
-139.1871975020956
 30
0.0
 10
103.1244547268231
 20
-139.1703165342178
 30
0.0
 10
103.0228244100082
 20
-139.1069267772893
 30
0.0
 10
102.8493638523259
 20
-138.9970282313098
 30
0.0
 10
102.8281765150916
 20
-138.8657700933218
 30
0.0
 10
102.8092284899227
 20
-138.7579386046334
 30
0.0
 10
102.8092284899227
 20
-138.7579386046334
 30
0.0
 10
103.0312648939471
 20
-138.7579386046334
 30
0.0
 10
103.0312648939471
 20
-138.7579386046334
 30
0.0
 10
103.086386421711
 20
-138.9567206141324
 30
0.0
 10
103.2133381903425
 20
-138.9863484353055
 30
0.0
 10
103.3063557684442
 20
-138.9863484353055
 30
0.0
 10
103.4458821355969
 20
-138.9863484353055
 30
0.0
 10
103.5983276108192
 20
-138.8867851757818
 30
0.0
 10
103.5983276108192
 20
-138.6542412305274
 30
0.0
 10
103.5983276108192
 20
-138.3982706359733
 30
0.0
 10
103.4184936264891
 20
-138.3283351976228
 30
0.0
 10
103.2979152845054
 20
-138.3283351976228
 30
0.0
 10
103.2662204060411
 20
-138.3283351976228
 30
0.0
 10
103.1244547268231
 20
-138.3283351976228
 30
0.0
 10
103.0355712633036
 20
-138.4575262783196
 30
0.0
 10
103.0355712633036
 20
-138.4575262783196
 30
0.0
 10
102.8600436483301
 20
-138.4385782531508
 30
0.0
 10
102.8600436483301
 20
-138.4385782531508
 30
0.0
 10
102.8600436483301
 20
-138.4385782531508
 30
0.0
 10
102.9806219903139
 20
-137.5921182924249
 30
0.0
 10
102.9806219903139
 20
-137.5921182924249
 30
0.0
 10
102.9806219903139
 20
-137.5921182924249
 30
0.0
 10
103.7590413152061
 20
-137.5921182924249
 30
0.0
 10
103.7590413152061
 20
-137.5921182924249
 30
0.0
 10
103.7590413152061
 20
-137.5921182924249
 30
0.0
 10
103.7590413152061
 20
-137.7867661873415
 30
0.0
 10
103.7590413152061
 20
-137.7867661873415
 30
0.0
 10
103.7590413152061
 20
-137.7867661873415
 30
0.0
 10
103.1434027519919
 20
-137.7867661873415
 30
0.0
 10
103.1434027519919
 20
-137.7867661873415
 30
0.0
 10
103.1434027519919
 20
-137.7867661873415
 30
0.0
 10
103.0779459377722
 20
-138.2098239129302
 30
0.0
 10
103.0779459377722
 20
-138.2098239129302
 30
0.0
 10
103.1392686374096
 20
-138.1760619771748
 30
0.0
 10
103.2217786742814
 20
-138.1357543599973
 30
0.0
 10
103.3401177041997
 20
-138.1357543599973
 30
0.0
 10
103.5940212414626
 20
-138.1357543599973
 30
0.0
 10
103.8310438108478
 20
-138.3221340257493
 30
0.0
 10
103.8310438108478
 20
-138.6352932053586
 30
0.0
 10
103.8310438108478
 20
-138.9525864995501
 30
0.0
 10
103.606768094758
 20
-139.1871975020956
 30
0.0
 10
103.3042887111531
 20
-139.1871975020956
 30
0.0
  0
HATCH
  5
A8
330
A1
100
AcDbEntity
  8
_U+30EC_U+30A4_U+30E4_U+30FC 1
 62
   179
420
  2234388
100
AcDbHatch
 10
0.0
 20
0.0
 30
0.0
210
0.0
220
0.0
230
1.0
  2
SOLID
 70
     1
 71
     0
 91
        1
 92
        1
 93
        1
 72
     4
 94
        3
 73
     0
 74
     1
 95
       53
 96
       49
 40
0.0
 40
0.0
 40
0.0
 40
0.0
 40
1.0
 40
1.0
 40
1.0
 40
2.0
 40
2.0
 40
2.0
 40
3.0
 40
3.0
 40
3.0
 40
4.0
 40
4.0
 40
4.0
 40
5.0
 40
5.0
 40
5.0
 40
6.0
 40
6.0
 40
6.0
 40
7.0
 40
7.0
 40
7.0
 40
8.0
 40
8.0
 40
8.0
 40
9.0
 40
9.0
 40
9.0
 40
10.0
 40
10.0
 40
10.0
 40
11.0
 40
11.0
 40
11.0
 40
12.0
 40
12.0
 40
12.0
 40
13.0
 40
13.0
 40
13.0
 40
14.0
 40
14.0
 40
14.0
 40
15.0
 40
15.0
 40
15.0
 40
16.0
 40
16.0
 40
16.0
 40
16.0
 10
103.3042887111531
 20
-139.1871975020956
 10
103.2259127888637
 20
-139.1871975020956
 10
103.1244547268231
 20
-139.1703165342178
 10
103.0228244100082
 20
-139.1069267772893
 10
102.8493638523259
 20
-138.9970282313098
 10
102.8281765150916
 20
-138.8657700933218
 10
102.8092284899227
 20
-138.7579386046334
 10
102.8092284899227
 20
-138.7579386046334
 10
103.0312648939471
 20
-138.7579386046334
 10
103.0312648939471
 20
-138.7579386046334
 10
103.086386421711
 20
-138.9567206141324
 10
103.2133381903425
 20
-138.9863484353055
 10
103.3063557684442
 20
-138.9863484353055
 10
103.4458821355969
 20
-138.9863484353055
 10
103.5983276108192
 20
-138.8867851757818
 10
103.5983276108192
 20
-138.6542412305274
 10
103.5983276108192
 20
-138.3982706359733
 10
103.4184936264891
 20
-138.3283351976228
 10
103.2979152845054
 20
-138.3283351976228
 10
103.2662204060411
 20
-138.3283351976228
 10
103.1244547268231
 20
-138.3283351976228
 10
103.0355712633036
 20
-138.4575262783196
 10
103.0355712633036
 20
-138.4575262783196
 10
102.8600436483301
 20
-138.4385782531508
 10
102.8600436483301
 20
-138.4385782531508
 10
102.8600436483301
 20
-138.4385782531508
 10
102.9806219903139
 20
-137.5921182924249
 10
102.9806219903139
 20
-137.5921182924249
 10
102.9806219903139
 20
-137.5921182924249
 10
103.7590413152061
 20
-137.5921182924249
 10
103.7590413152061
 20
-137.5921182924249
 10
103.7590413152061
 20
-137.5921182924249
 10
103.7590413152061
 20
-137.7867661873415
 10
103.7590413152061
 20
-137.7867661873415
 10
103.7590413152061
 20
-137.7867661873415
 10
103.1434027519919
 20
-137.7867661873415
 10
103.1434027519919
 20
-137.7867661873415
 10
103.1434027519919
 20
-137.7867661873415
 10
103.0779459377722
 20
-138.2098239129302
 10
103.0779459377722
 20
-138.2098239129302
 10
103.1392686374096
 20
-138.1760619771748
 10
103.2217786742814
 20
-138.1357543599973
 10
103.3401177041997
 20
-138.1357543599973
 10
103.5940212414626
 20
-138.1357543599973
 10
103.8310438108478
 20
-138.3221340257493
 10
103.8310438108478
 20
-138.6352932053586
 10
103.8310438108478
 20
-138.9525864995501
 10
103.606768094758
 20
-139.1871975020956
 10
103.3042887111531
 20
-139.1871975020956
 97
        0
 97
        0
 75
     2
 76
     1
 98
        0
  0
ENDBLK
  5
A4
330
A1
100
AcDbEntity
  8
0
100
AcDbBlockEnd
  0
BLOCK
  5
B7
330
B5
100
AcDbEntity
  8
0
100
AcDbBlockBegin
  2
block 4
 70
     0
 10
0.0
 20
0.0
 30
0.0
  3
block 4
  1

  0
SPLINE
  5
B9
330
B5
100
AcDbEntity
  8
_U+30EC_U+30A4_U+30E4_U+30FC 1
370
     0
100
AcDbSpline
210
0.0
220
0.0
230
1.0
 70
    11
 71
     3
 72
    26
 73
    22
 74
     0
 42
0.0000000001
 43
0.0000000001
 12
1.0
 22
0.0
 32
0.0
 13
1.0
 23
0.0
 33
0.0
 40
0.0
 40
0.0
 40
0.0
 40
0.0
 40
1.0
 40
1.0
 40
1.0
 40
2.0
 40
2.0
 40
2.0
 40
3.0
 40
3.0
 40
3.0
 40
4.0
 40
4.0
 40
4.0
 40
5.0
 40
5.0
 40
5.0
 40
6.0
 40
6.0
 40
6.0
 40
7.0
 40
7.0
 40
7.0
 40
7.0
 10
92.09997691924931
 20
-158.8364718569923
 30
0.0
 10
92.09997691924931
 20
-158.8364718569923
 30
0.0
 10
92.09997691924931
 20
-157.7323187539697
 30
0.0
 10
92.09997691924931
 20
-157.7323187539697
 30
0.0
 10
92.09997691924931
 20
-157.7323187539697
 30
0.0
 10
91.76993677176237
 20
-157.7323187539697
 30
0.0
 10
91.76993677176237
 20
-157.7323187539697
 30
0.0
 10
91.76993677176237
 20
-157.7323187539697
 30
0.0
 10
91.76993677176237
 20
-157.584179648104
 30
0.0
 10
91.76993677176237
 20
-157.584179648104
 30
0.0
 10
92.10204397654047
 20
-157.5693657375174
 30
0.0
 10
92.14855276559133
 20
-157.4064127210651
 30
0.0
 10
92.17818058676448
 20
-157.2920355509548
 30
0.0
 10
92.17818058676448
 20
-157.2920355509548
 30
0.0
 10
92.32425263533908
 20
-157.2920355509548
 30
0.0
 10
92.32425263533908
 20
-157.2920355509548
 30
0.0
 10
92.32425263533908
 20
-157.2920355509548
 30
0.0
 10
92.32425263533908
 20
-158.8364718569923
 30
0.0
 10
92.32425263533908
 20
-158.8364718569923
 30
0.0
 10
92.32425263533908
 20
-158.8364718569923
 30
0.0
 10
92.09997691924931
 20
-158.8364718569923
 30
0.0
 10
92.09997691924931
 20
-158.8364718569923
 30
0.0
  0
HATCH
  5
BA
330
B5
100
AcDbEntity
  8
_U+30EC_U+30A4_U+30E4_U+30FC 1
 62
   179
420
  2234388
100
AcDbHatch
 10
0.0
 20
0.0
 30
0.0
210
0.0
220
0.0
230
1.0
  2
SOLID
 70
     1
 71
     0
 91
        1
 92
        1
 93
        1
 72
     4
 94
        3
 73
     0
 74
     1
 95
       26
 96
       22
 40
0.0
 40
0.0
 40
0.0
 40
0.0
 40
1.0
 40
1.0
 40
1.0
 40
2.0
 40
2.0
 40
2.0
 40
3.0
 40
3.0
 40
3.0
 40
4.0
 40
4.0
 40
4.0
 40
5.0
 40
5.0
 40
5.0
 40
6.0
 40
6.0
 40
6.0
 40
7.0
 40
7.0
 40
7.0
 40
7.0
 10
92.09997691924931
 20
-158.8364718569923
 10
92.09997691924931
 20
-158.8364718569923
 10
92.09997691924931
 20
-157.7323187539697
 10
92.09997691924931
 20
-157.7323187539697
 10
92.09997691924931
 20
-157.7323187539697
 10
91.76993677176237
 20
-157.7323187539697
 10
91.76993677176237
 20
-157.7323187539697
 10
91.76993677176237
 20
-157.7323187539697
 10
91.76993677176237
 20
-157.584179648104
 10
91.76993677176237
 20
-157.584179648104
 10
92.10204397654047
 20
-157.5693657375174
 10
92.14855276559133
 20
-157.4064127210651
 10
92.17818058676448
 20
-157.2920355509548
 10
92.17818058676448
 20
-157.2920355509548
 10
92.32425263533908
 20
-157.2920355509548
 10
92.32425263533908
 20
-157.2920355509548
 10
92.32425263533908
 20
-157.2920355509548
 10
92.32425263533908
 20
-158.8364718569923
 10
92.32425263533908
 20
-158.8364718569923
 10
92.32425263533908
 20
-158.8364718569923
 10
92.09997691924931
 20
-158.8364718569923
 10
92.09997691924931
 20
-158.8364718569923
 97
        0
 97
        0
 75
     2
 76
     1
 98
        0
  0
SPLINE
  5
BB
330
B5
100
AcDbEntity
  8
_U+30EC_U+30A4_U+30E4_U+30FC 1
370
     0
100
AcDbSpline
210
0.0
220
0.0
230
1.0
 70
    11
 71
     3
 72
    53
 73
    49
 74
     0
 42
0.0000000001
 43
0.0000000001
 12
1.0
 22
0.0
 32
0.0
 13
1.0
 23
0.0
 33
0.0
 40
0.0
 40
0.0
 40
0.0
 40
0.0
 40
1.0
 40
1.0
 40
1.0
 40
2.0
 40
2.0
 40
2.0
 40
3.0
 40
3.0
 40
3.0
 40
4.0
 40
4.0
 40
4.0
 40
5.0
 40
5.0
 40
5.0
 40
6.0
 40
6.0
 40
6.0
 40
7.0
 40
7.0
 40
7.0
 40
8.0
 40
8.0
 40
8.0
 40
9.0
 40
9.0
 40
9.0
 40
10.0
 40
10.0
 40
10.0
 40
11.0
 40
11.0
 40
11.0
 40
12.0
 40
12.0
 40
12.0
 40
13.0
 40
13.0
 40
13.0
 40
14.0
 40
14.0
 40
14.0
 40
15.0
 40
15.0
 40
15.0
 40
16.0
 40
16.0
 40
16.0
 40
16.0
 10
93.30644935818381
 20
-158.8871147606255
 30
0.0
 10
93.22807343589437
 20
-158.8871147606255
 30
0.0
 10
93.12661537385377
 20
-158.8702337927477
 30
0.0
 10
93.02498505703889
 20
-158.8068440358191
 30
0.0
 10
92.85152449935657
 20
-158.6969454898397
 30
0.0
 10
92.83033716212228
 20
-158.5656873518516
 30
0.0
 10
92.81138913695341
 20
-158.4578558631633
 30
0.0
 10
92.81138913695341
 20
-158.4578558631633
 30
0.0
 10
93.03342554097776
 20
-158.4578558631633
 30
0.0
 10
93.03342554097776
 20
-158.4578558631633
 30
0.0
 10
93.08854706874176
 20
-158.6566378726622
 30
0.0
 10
93.21549883737322
 20
-158.6862656938354
 30
0.0
 10
93.30851641547495
 20
-158.6862656938354
 30
0.0
 10
93.44821503740184
 20
-158.6862656938354
 30
0.0
 10
93.60048825784988
 20
-158.5867024343117
 30
0.0
 10
93.60048825784988
 20
-158.3541584890573
 30
0.0
 10
93.60048825784988
 20
-158.0981878945032
 30
0.0
 10
93.42065427351984
 20
-158.0282524561527
 30
0.0
 10
93.3000759315361
 20
-158.0282524561527
 30
0.0
 10
93.26838105307179
 20
-158.0282524561527
 30
0.0
 10
93.12661537385377
 20
-158.0282524561527
 30
0.0
 10
93.03773191033432
 20
-158.1574435368495
 30
0.0
 10
93.03773191033432
 20
-158.1574435368495
 30
0.0
 10
92.86220429536084
 20
-158.1384955116807
 30
0.0
 10
92.86220429536084
 20
-158.1384955116807
 30
0.0
 10
92.86220429536084
 20
-158.1384955116807
 30
0.0
 10
92.98278263734458
 20
-157.2920355509548
 30
0.0
 10
92.98278263734458
 20
-157.2920355509548
 30
0.0
 10
92.98278263734458
 20
-157.2920355509548
 30
0.0
 10
93.76120196223678
 20
-157.2920355509548
 30
0.0
 10
93.76120196223678
 20
-157.2920355509548
 30
0.0
 10
93.76120196223678
 20
-157.2920355509548
 30
0.0
 10
93.76120196223678
 20
-157.4866834458714
 30
0.0
 10
93.76120196223678
 20
-157.4866834458714
 30
0.0
 10
93.76120196223678
 20
-157.4866834458714
 30
0.0
 10
93.14556339902263
 20
-157.4866834458714
 30
0.0
 10
93.14556339902263
 20
-157.4866834458714
 30
0.0
 10
93.14556339902263
 20
-157.4866834458714
 30
0.0
 10
93.08010658480289
 20
-157.9097411714601
 30
0.0
 10
93.08010658480289
 20
-157.9097411714601
 30
0.0
 10
93.14142928444033
 20
-157.8759792357046
 30
0.0
 10
93.22393932131207
 20
-157.8356716185272
 30
0.0
 10
93.3422783512304
 20
-157.8356716185272
 30
0.0
 10
93.59618188849332
 20
-157.8356716185272
 30
0.0
 10
93.83320445787851
 20
-158.0220512842792
 30
0.0
 10
93.83320445787851
 20
-158.3352104638884
 30
0.0
 10
93.83320445787851
 20
-158.6525037580799
 30
0.0
 10
93.60892874178874
 20
-158.8871147606255
 30
0.0
 10
93.30644935818381
 20
-158.8871147606255
 30
0.0
  0
HATCH
  5
BC
330
B5
100
AcDbEntity
  8
_U+30EC_U+30A4_U+30E4_U+30FC 1
 62
   179
420
  2234388
100
AcDbHatch
 10
0.0
 20
0.0
 30
0.0
210
0.0
220
0.0
230
1.0
  2
SOLID
 70
     1
 71
     0
 91
        1
 92
        1
 93
        1
 72
     4
 94
        3
 73
     0
 74
     1
 95
       53
 96
       49
 40
0.0
 40
0.0
 40
0.0
 40
0.0
 40
1.0
 40
1.0
 40
1.0
 40
2.0
 40
2.0
 40
2.0
 40
3.0
 40
3.0
 40
3.0
 40
4.0
 40
4.0
 40
4.0
 40
5.0
 40
5.0
 40
5.0
 40
6.0
 40
6.0
 40
6.0
 40
7.0
 40
7.0
 40
7.0
 40
8.0
 40
8.0
 40
8.0
 40
9.0
 40
9.0
 40
9.0
 40
10.0
 40
10.0
 40
10.0
 40
11.0
 40
11.0
 40
11.0
 40
12.0
 40
12.0
 40
12.0
 40
13.0
 40
13.0
 40
13.0
 40
14.0
 40
14.0
 40
14.0
 40
15.0
 40
15.0
 40
15.0
 40
16.0
 40
16.0
 40
16.0
 40
16.0
 10
93.30644935818381
 20
-158.8871147606255
 10
93.22807343589437
 20
-158.8871147606255
 10
93.12661537385377
 20
-158.8702337927477
 10
93.02498505703889
 20
-158.8068440358191
 10
92.85152449935657
 20
-158.6969454898397
 10
92.83033716212228
 20
-158.5656873518516
 10
92.81138913695341
 20
-158.4578558631633
 10
92.81138913695341
 20
-158.4578558631633
 10
93.03342554097776
 20
-158.4578558631633
 10
93.03342554097776
 20
-158.4578558631633
 10
93.08854706874176
 20
-158.6566378726622
 10
93.21549883737322
 20
-158.6862656938354
 10
93.30851641547495
 20
-158.6862656938354
 10
93.44821503740184
 20
-158.6862656938354
 10
93.60048825784988
 20
-158.5867024343117
 10
93.60048825784988
 20
-158.3541584890573
 10
93.60048825784988
 20
-158.0981878945032
 10
93.42065427351984
 20
-158.0282524561527
 10
93.3000759315361
 20
-158.0282524561527
 10
93.26838105307179
 20
-158.0282524561527
 10
93.12661537385377
 20
-158.0282524561527
 10
93.03773191033432
 20
-158.1574435368495
 10
93.03773191033432
 20
-158.1574435368495
 10
92.86220429536084
 20
-158.1384955116807
 10
92.86220429536084
 20
-158.1384955116807
 10
92.86220429536084
 20
-158.1384955116807
 10
92.98278263734458
 20
-157.2920355509548
 10
92.98278263734458
 20
-157.2920355509548
 10
92.98278263734458
 20
-157.2920355509548
 10
93.76120196223678
 20
-157.2920355509548
 10
93.76120196223678
 20
-157.2920355509548
 10
93.76120196223678
 20
-157.2920355509548
 10
93.76120196223678
 20
-157.4866834458714
 10
93.76120196223678
 20
-157.4866834458714
 10
93.76120196223678
 20
-157.4866834458714
 10
93.14556339902263
 20
-157.4866834458714
 10
93.14556339902263
 20
-157.4866834458714
 10
93.14556339902263
 20
-157.4866834458714
 10
93.08010658480289
 20
-157.9097411714601
 10
93.08010658480289
 20
-157.9097411714601
 10
93.14142928444033
 20
-157.8759792357046
 10
93.22393932131207
 20
-157.8356716185272
 10
93.3422783512304
 20
-157.8356716185272
 10
93.59618188849332
 20
-157.8356716185272
 10
93.83320445787851
 20
-158.0220512842792
 10
93.83320445787851
 20
-158.3352104638884
 10
93.83320445787851
 20
-158.6525037580799
 10
93.60892874178874
 20
-158.8871147606255
 10
93.30644935818381
 20
-158.8871147606255
 97
        0
 97
        0
 75
     2
 76
     1
 98
        0
  0
ENDBLK
  5
B8
330
B5
100
AcDbEntity
  8
0
100
AcDbBlockEnd
  0
BLOCK
  5
CB
330
C9
100
AcDbEntity
  8
0
100
AcDbBlockBegin
  2
block 5
 70
     0
 10
0.0
 20
0.0
 30
0.0
  3
block 5
  1

  0
SPLINE
  5
CD
330
C9
100
AcDbEntity
  8
_U+30EC_U+30A4_U+30E4_U+30FC 1
370
     0
100
AcDbSpline
210
0.0
220
0.0
230
1.0
 70
    11
 71
     3
 72
    32
 73
    28
 74
     0
 42
0.0000000001
 43
0.0000000001
 12
1.0
 22
0.0
 32
0.0
 13
1.0
 23
0.0
 33
0.0
 40
0.0
 40
0.0
 40
0.0
 40
0.0
 40
1.0
 40
1.0
 40
1.0
 40
2.0
 40
2.0
 40
2.0
 40
3.0
 40
3.0
 40
3.0
 40
4.0
 40
4.0
 40
4.0
 40
5.0
 40
5.0
 40
5.0
 40
6.0
 40
6.0
 40
6.0
 40
7.0
 40
7.0
 40
7.0
 40
8.0
 40
8.0
 40
8.0
 40
9.0
 40
9.0
 40
9.0
 40
9.0
 10
103.241243463773
 20
-158.8871147606255
 30
0.0
 10
102.7249959053083
 20
-158.8871147606255
 30
0.0
 10
102.7165554213695
 20
-158.3331434065973
 30
0.0
 10
102.7165554213695
 20
-158.1192029769633
 30
0.0
 10
102.7165554213695
 20
-157.888726089
 30
0.0
 10
102.7356757013126
 20
-157.2413926473216
 30
0.0
 10
103.279311768885
 20
-157.2413926473216
 30
0.0
 10
103.4527723265674
 20
-157.2413926473216
 30
0.0
 10
103.6980631251172
 20
-157.3113280856722
 30
0.0
 10
103.7363036850034
 20
-157.6434352904503
 30
0.0
 10
103.7363036850034
 20
-157.6434352904503
 30
0.0
 10
103.5225355101437
 20
-157.6434352904503
 30
0.0
 10
103.5225355101437
 20
-157.6434352904503
 30
0.0
 10
103.5120279689137
 20
-157.5862467053951
 30
0.0
 10
103.4803330904494
 20
-157.4381075995294
 30
0.0
 10
103.2772447115939
 20
-157.4381075995294
 30
0.0
 10
102.985272869219
 20
-157.4381075995294
 30
0.0
 10
102.9449652520415
 20
-157.7660806897252
 30
0.0
 10
102.9323906535204
 20
-157.9710638710975
 30
0.0
 10
103.0254082316221
 20
-157.8928602035824
 30
0.0
 10
103.0931043579073
 20
-157.8336045612361
 30
0.0
 10
103.2750053995285
 20
-157.8336045612361
 30
0.0
 10
103.4548393838585
 20
-157.8336045612361
 30
0.0
 10
103.7573187674635
 20
-157.9417805594729
 30
0.0
 10
103.7573187674635
 20
-158.3479573171838
 30
0.0
 10
103.7573187674635
 20
-158.6673176686665
 30
0.0
 10
103.5585367579645
 20
-158.8871147606255
 30
0.0
 10
103.241243463773
 20
-158.8871147606255
 30
0.0
  0
SPLINE
  5
CE
330
C9
100
AcDbEntity
  8
_U+30EC_U+30A4_U+30E4_U+30FC 1
370
     0
100
AcDbSpline
210
0.0
220
0.0
230
1.0
 70
    11
 71
     3
 72
    17
 73
    13
 74
     0
 42
0.0000000001
 43
0.0000000001
 12
1.0
 22
0.0
 32
0.0
 13
1.0
 23
0.0
 33
0.0
 40
0.0
 40
0.0
 40
0.0
 40
0.0
 40
1.0
 40
1.0
 40
1.0
 40
2.0
 40
2.0
 40
2.0
 40
3.0
 40
3.0
 40
3.0
 40
4.0
 40
4.0
 40
4.0
 40
4.0
 10
103.2581244316508
 20
-158.0282524561527
 30
0.0
 10
102.995780410449
 20
-158.0282524561527
 30
0.0
 10
102.957712105337
 20
-158.239781318947
 30
0.0
 10
102.957712105337
 20
-158.3562255463484
 30
0.0
 10
102.957712105337
 20
-158.5319254160962
 30
0.0
 10
103.0529689955041
 20
-158.6948784325485
 30
0.0
 10
103.2369370944165
 20
-158.6948784325485
 30
0.0
 10
103.3575154364002
 20
-158.6948784325485
 30
0.0
 10
103.533215306148
 20
-158.6356227902022
 30
0.0
 10
103.533215306148
 20
-158.350024374475
 30
0.0
 10
103.533215306148
 20
-158.1257486583852
 30
0.0
 10
103.3935166842211
 20
-158.0282524561527
 30
0.0
 10
103.2581244316508
 20
-158.0282524561527
 30
0.0
  0
HATCH
  5
CF
330
C9
100
AcDbEntity
  8
_U+30EC_U+30A4_U+30E4_U+30FC 1
 62
   179
420
  2234388
100
AcDbHatch
 10
0.0
 20
0.0
 30
0.0
210
0.0
220
0.0
230
1.0
  2
SOLID
 70
     1
 71
     0
 91
        2
 92
        1
 93
        1
 72
     4
 94
        3
 73
     0
 74
     1
 95
       32
 96
       28
 40
0.0
 40
0.0
 40
0.0
 40
0.0
 40
1.0
 40
1.0
 40
1.0
 40
2.0
 40
2.0
 40
2.0
 40
3.0
 40
3.0
 40
3.0
 40
4.0
 40
4.0
 40
4.0
 40
5.0
 40
5.0
 40
5.0
 40
6.0
 40
6.0
 40
6.0
 40
7.0
 40
7.0
 40
7.0
 40
8.0
 40
8.0
 40
8.0
 40
9.0
 40
9.0
 40
9.0
 40
9.0
 10
103.241243463773
 20
-158.8871147606255
 10
102.7249959053083
 20
-158.8871147606255
 10
102.7165554213695
 20
-158.3331434065973
 10
102.7165554213695
 20
-158.1192029769633
 10
102.7165554213695
 20
-157.888726089
 10
102.7356757013126
 20
-157.2413926473216
 10
103.279311768885
 20
-157.2413926473216
 10
103.4527723265674
 20
-157.2413926473216
 10
103.6980631251172
 20
-157.3113280856722
 10
103.7363036850034
 20
-157.6434352904503
 10
103.7363036850034
 20
-157.6434352904503
 10
103.5225355101437
 20
-157.6434352904503
 10
103.5225355101437
 20
-157.6434352904503
 10
103.5120279689137
 20
-157.5862467053951
 10
103.4803330904494
 20
-157.4381075995294
 10
103.2772447115939
 20
-157.4381075995294
 10
102.985272869219
 20
-157.4381075995294
 10
102.9449652520415
 20
-157.7660806897252
 10
102.9323906535204
 20
-157.9710638710975
 10
103.0254082316221
 20
-157.8928602035824
 10
103.0931043579073
 20
-157.8336045612361
 10
103.2750053995285
 20
-157.8336045612361
 10
103.4548393838585
 20
-157.8336045612361
 10
103.7573187674635
 20
-157.9417805594729
 10
103.7573187674635
 20
-158.3479573171838
 10
103.7573187674635
 20
-158.6673176686665
 10
103.5585367579645
 20
-158.8871147606255
 10
103.241243463773
 20
-158.8871147606255
 97
        0
 97
        0
 92
        1
 93
        1
 72
     4
 94
        3
 73
     0
 74
     1
 95
       17
 96
       13
 40
0.0
 40
0.0
 40
0.0
 40
0.0
 40
1.0
 40
1.0
 40
1.0
 40
2.0
 40
2.0
 40
2.0
 40
3.0
 40
3.0
 40
3.0
 40
4.0
 40
4.0
 40
4.0
 40
4.0
 10
103.2581244316508
 20
-158.0282524561527
 10
102.995780410449
 20
-158.0282524561527
 10
102.957712105337
 20
-158.239781318947
 10
102.957712105337
 20
-158.3562255463484
 10
102.957712105337
 20
-158.5319254160962
 10
103.0529689955041
 20
-158.6948784325485
 10
103.2369370944165
 20
-158.6948784325485
 10
103.3575154364002
 20
-158.6948784325485
 10
103.533215306148
 20
-158.6356227902022
 10
103.533215306148
 20
-158.350024374475
 10
103.533215306148
 20
-158.1257486583852
 10
103.3935166842211
 20
-158.0282524561527
 10
103.2581244316508
 20
-158.0282524561527
 97
        0
 97
        0
 75
     2
 76
     1
 98
        0
  0
ENDBLK
  5
CC
330
C9
100
AcDbEntity
  8
0
100
AcDbBlockEnd
  0
BLOCK
  5
DA
330
D8
100
AcDbEntity
  8
0
100
AcDbBlockBegin
  2
block 6
 70
     0
 10
0.0
 20
0.0
 30
0.0
  3
block 6
  1

  0
SPLINE
  5
DC
330
D8
100
AcDbEntity
  8
_U+30EC_U+30A4_U+30E4_U+30FC 1
370
     0
100
AcDbSpline
210
0.0
220
0.0
230
1.0
 70
    11
 71
     3
 72
    32
 73
    28
 74
     0
 42
0.0000000001
 43
0.0000000001
 12
1.0
 22
0.0
 32
0.0
 13
1.0
 23
0.0
 33
0.0
 40
0.0
 40
0.0
 40
0.0
 40
0.0
 40
1.0
 40
1.0
 40
1.0
 40
2.0
 40
2.0
 40
2.0
 40
3.0
 40
3.0
 40
3.0
 40
4.0
 40
4.0
 40
4.0
 40
5.0
 40
5.0
 40
5.0
 40
6.0
 40
6.0
 40
6.0
 40
7.0
 40
7.0
 40
7.0
 40
8.0
 40
8.0
 40
8.0
 40
9.0
 40
9.0
 40
9.0
 40
9.0
 10
123.642065398777
 20
-150.5355142852828
 30
0.0
 10
123.642065398777
 20
-150.7088025881908
 30
0.0
 10
123.5724744699749
 20
-150.9544378962892
 30
0.0
 10
123.2403672651969
 20
-150.9923339466269
 30
0.0
 10
123.2403672651969
 20
-150.9923339466269
 30
0.0
 10
123.2403672651969
 20
-150.7787380265414
 30
0.0
 10
123.2403672651969
 20
-150.7787380265414
 30
0.0
 10
123.2996229075432
 20
-150.7680582305372
 30
0.0
 10
123.4474175038604
 20
-150.7363633520729
 30
0.0
 10
123.4474175038604
 20
-150.5334472279916
 30
0.0
 10
123.4474175038604
 20
-150.2413031308425
 30
0.0
 10
123.117721865922
 20
-150.2034070805047
 30
0.0
 10
122.9123941750011
 20
-150.1906602272093
 30
0.0
 10
122.9926648998074
 20
-150.2816107480199
 30
0.0
 10
123.0498534848625
 20
-150.3491346195308
 30
0.0
 10
123.0498534848625
 20
-150.531035661152
 30
0.0
 10
123.0498534848625
 20
-150.710869645482
 30
0.0
 10
122.9440890534654
 20
-151.0136935386355
 30
0.0
 10
122.5379122957544
 20
-151.0136935386355
 30
0.0
 10
122.2185519442718
 20
-151.0136935386355
 30
0.0
 10
121.9984103427643
 20
-150.814567019588
 30
0.0
 10
121.9984103427643
 20
-150.4972737253965
 30
0.0
 10
121.9984103427643
 20
-149.9832654789973
 30
0.0
 10
122.552726206341
 20
-149.972585682993
 30
0.0
 10
122.7663221264265
 20
-149.972585682993
 30
0.0
 10
122.9967990143897
 20
-149.972585682993
 30
0.0
 10
123.642065398777
 20
-149.9918782177104
 30
0.0
 10
123.642065398777
 20
-150.5355142852828
 30
0.0
  0
SPLINE
  5
DD
330
D8
100
AcDbEntity
  8
_U+30EC_U+30A4_U+30E4_U+30FC 1
370
     0
100
AcDbSpline
210
0.0
220
0.0
230
1.0
 70
    11
 71
     3
 72
    17
 73
    13
 74
     0
 42
0.0000000001
 43
0.0000000001
 12
1.0
 22
0.0
 32
0.0
 13
1.0
 23
0.0
 33
0.0
 40
0.0
 40
0.0
 40
0.0
 40
0.0
 40
1.0
 40
1.0
 40
1.0
 40
2.0
 40
2.0
 40
2.0
 40
3.0
 40
3.0
 40
3.0
 40
4.0
 40
4.0
 40
4.0
 40
4.0
 10
122.1909911803898
 20
-150.4952066681054
 30
0.0
 10
122.1909911803898
 20
-150.613717952798
 30
0.0
 10
122.2481797654449
 20
-150.7894178225457
 30
0.0
 10
122.5337781811721
 20
-150.7894178225457
 30
0.0
 10
122.760120954553
 20
-150.7894178225457
 30
0.0
 10
122.8552055899459
 20
-150.6495469458446
 30
0.0
 10
122.8552055899459
 20
-150.5141546932742
 30
0.0
 10
122.8552055899459
 20
-150.2519829268467
 30
0.0
 10
122.6457437844427
 20
-150.2137423669605
 30
0.0
 10
122.5292995570413
 20
-150.2137423669605
 30
0.0
 10
122.3539441968421
 20
-150.2137423669605
 30
0.0
 10
122.1909911803898
 20
-150.3091715119019
 30
0.0
 10
122.1909911803898
 20
-150.4952066681054
 30
0.0
  0
HATCH
  5
DE
330
D8
100
AcDbEntity
  8
_U+30EC_U+30A4_U+30E4_U+30FC 1
 62
   179
420
  2234388
100
AcDbHatch
 10
0.0
 20
0.0
 30
0.0
210
0.0
220
0.0
230
1.0
  2
SOLID
 70
     1
 71
     0
 91
        2
 92
        1
 93
        1
 72
     4
 94
        3
 73
     0
 74
     1
 95
       32
 96
       28
 40
0.0
 40
0.0
 40
0.0
 40
0.0
 40
1.0
 40
1.0
 40
1.0
 40
2.0
 40
2.0
 40
2.0
 40
3.0
 40
3.0
 40
3.0
 40
4.0
 40
4.0
 40
4.0
 40
5.0
 40
5.0
 40
5.0
 40
6.0
 40
6.0
 40
6.0
 40
7.0
 40
7.0
 40
7.0
 40
8.0
 40
8.0
 40
8.0
 40
9.0
 40
9.0
 40
9.0
 40
9.0
 10
123.642065398777
 20
-150.5355142852828
 10
123.642065398777
 20
-150.7088025881908
 10
123.5724744699749
 20
-150.9544378962892
 10
123.2403672651969
 20
-150.9923339466269
 10
123.2403672651969
 20
-150.9923339466269
 10
123.2403672651969
 20
-150.7787380265414
 10
123.2403672651969
 20
-150.7787380265414
 10
123.2996229075432
 20
-150.7680582305372
 10
123.4474175038604
 20
-150.7363633520729
 10
123.4474175038604
 20
-150.5334472279916
 10
123.4474175038604
 20
-150.2413031308425
 10
123.117721865922
 20
-150.2034070805047
 10
122.9123941750011
 20
-150.1906602272093
 10
122.9926648998074
 20
-150.2816107480199
 10
123.0498534848625
 20
-150.3491346195308
 10
123.0498534848625
 20
-150.531035661152
 10
123.0498534848625
 20
-150.710869645482
 10
122.9440890534654
 20
-151.0136935386355
 10
122.5379122957544
 20
-151.0136935386355
 10
122.2185519442718
 20
-151.0136935386355
 10
121.9984103427643
 20
-150.814567019588
 10
121.9984103427643
 20
-150.4972737253965
 10
121.9984103427643
 20
-149.9832654789973
 10
122.552726206341
 20
-149.972585682993
 10
122.7663221264265
 20
-149.972585682993
 10
122.9967990143897
 20
-149.972585682993
 10
123.642065398777
 20
-149.9918782177104
 10
123.642065398777
 20
-150.5355142852828
 97
        0
 97
        0
 92
        1
 93
        1
 72
     4
 94
        3
 73
     0
 74
     1
 95
       17
 96
       13
 40
0.0
 40
0.0
 40
0.0
 40
0.0
 40
1.0
 40
1.0
 40
1.0
 40
2.0
 40
2.0
 40
2.0
 40
3.0
 40
3.0
 40
3.0
 40
4.0
 40
4.0
 40
4.0
 40
4.0
 10
122.1909911803898
 20
-150.4952066681054
 10
122.1909911803898
 20
-150.613717952798
 10
122.2481797654449
 20
-150.7894178225457
 10
122.5337781811721
 20
-150.7894178225457
 10
122.760120954553
 20
-150.7894178225457
 10
122.8552055899459
 20
-150.6495469458446
 10
122.8552055899459
 20
-150.5141546932742
 10
122.8552055899459
 20
-150.2519829268467
 10
122.6457437844427
 20
-150.2137423669605
 10
122.5292995570413
 20
-150.2137423669605
 10
122.3539441968421
 20
-150.2137423669605
 10
122.1909911803898
 20
-150.3091715119019
 10
122.1909911803898
 20
-150.4952066681054
 97
        0
 97
        0
 75
     2
 76
     1
 98
        0
  0
POLYLINE
  5
DF
330
D8
100
AcDbEntity
  8
_U+30EC_U+30A4_U+30E4_U+30FC 1
370
     0
100
AcDb2dPolyline
 66
     1
 10
0.0
 20
0.0
 30
0.0
  0
VERTEX
  5
E0
330
DF
100
AcDbEntity
  8
_U+30EC_U+30A4_U+30E4_U+30FC 1
370
     0
100
AcDbVertex
100
AcDb2dVertex
 10
123.5914224951438
 20
-149.7562336865193
 30
0.0
  0
VERTEX
  5
E1
330
DF
100
AcDbEntity
  8
_U+30EC_U+30A4_U+30E4_U+30FC 1
370
     0
100
AcDbVertex
100
AcDb2dVertex
 10
123.3395860151721
 20
-149.7562336865193
 30
0.0
  0
VERTEX
  5
E2
330
DF
100
AcDbEntity
  8
_U+30EC_U+30A4_U+30E4_U+30FC 1
370
     0
100
AcDbVertex
100
AcDb2dVertex
 10
123.3395860151721
 20
-149.5043972065475
 30
0.0
  0
VERTEX
  5
E3
330
DF
100
AcDbEntity
  8
_U+30EC_U+30A4_U+30E4_U+30FC 1
370
     0
100
AcDbVertex
100
AcDb2dVertex
 10
123.5914224951438
 20
-149.5043972065475
 30
0.0
  0
VERTEX
  5
E4
330
DF
100
AcDbEntity
  8
_U+30EC_U+30A4_U+30E4_U+30FC 1
370
     0
100
AcDbVertex
100
AcDb2dVertex
 10
123.5914224951438
 20
-149.7562336865193
 30
0.0
  0
SEQEND
  5
E5
330
DF
100
AcDbEntity
  8
_U+30EC_U+30A4_U+30E4_U+30FC 1
370
     0
  0
HATCH
  5
E6
330
D8
100
AcDbEntity
  8
_U+30EC_U+30A4_U+30E4_U+30FC 1
 62
   179
420
  2234388
100
AcDbHatch
 10
0.0
 20
0.0
 30
0.0
210
0.0
220
0.0
230
1.0
  2
SOLID
 70
     1
 71
     0
 91
        1
 92
        1
 93
        4
 72
     1
 10
123.5914224951438
 20
-149.7562336865193
 11
123.3395860151721
 21
-149.7562336865193
 72
     1
 10
123.3395860151721
 20
-149.7562336865193
 11
123.3395860151721
 21
-149.5043972065475
 72
     1
 10
123.3395860151721
 20
-149.5043972065475
 11
123.5914224951438
 21
-149.5043972065475
 72
     1
 10
123.5914224951438
 20
-149.5043972065475
 11
123.5914224951438
 21
-149.7562336865193
 97
        0
 75
     2
 76
     1
 98
        0
  0
SPLINE
  5
E7
330
D8
100
AcDbEntity
  8
_U+30EC_U+30A4_U+30E4_U+30FC 1
370
     0
100
AcDbSpline
210
0.0
220
0.0
230
1.0
 70
    11
 71
     3
 72
    26
 73
    22
 74
     0
 42
0.0000000001
 43
0.0000000001
 12
1.0
 22
0.0
 32
0.0
 13
1.0
 23
0.0
 33
0.0
 40
0.0
 40
0.0
 40
0.0
 40
0.0
 40
1.0
 40
1.0
 40
1.0
 40
2.0
 40
2.0
 40
2.0
 40
3.0
 40
3.0
 40
3.0
 40
4.0
 40
4.0
 40
4.0
 40
5.0
 40
5.0
 40
5.0
 40
6.0
 40
6.0
 40
6.0
 40
7.0
 40
7.0
 40
7.0
 40
7.0
 10
123.5914224951438
 20
-148.8570637648691
 30
0.0
 10
123.5914224951438
 20
-148.8570637648691
 30
0.0
 10
123.5914224951438
 20
-149.0940863342543
 30
0.0
 10
123.5914224951438
 20
-149.0940863342543
 30
0.0
 10
123.2823974301169
 20
-149.0685926276634
 30
0.0
 10
122.7642550691353
 20
-148.8760117900379
 30
0.0
 10
122.2585150519007
 20
-148.469835032327
 30
0.0
 10
122.2585150519007
 20
-148.469835032327
 30
0.0
 10
122.2585150519007
 20
-149.3076822543398
 30
0.0
 10
122.2585150519007
 20
-149.3076822543398
 30
0.0
 10
122.2585150519007
 20
-149.3076822543398
 30
0.0
 10
122.0469861891063
 20
-149.3076822543398
 30
0.0
 10
122.0469861891063
 20
-149.3076822543398
 30
0.0
 10
122.0469861891063
 20
-149.3076822543398
 30
0.0
 10
122.0469861891063
 20
-148.2328124629418
 30
0.0
 10
122.0469861891063
 20
-148.2328124629418
 30
0.0
 10
122.0469861891063
 20
-148.2328124629418
 30
0.0
 10
122.2585150519007
 20
-148.2328124629418
 30
0.0
 10
122.2585150519007
 20
-148.2328124629418
 30
0.0
 10
122.5485920917587
 20
-148.5566514385553
 30
0.0
 10
123.1408040056731
 20
-148.8233018291136
 30
0.0
 10
123.5914224951438
 20
-148.8570637648691
 30
0.0
  0
HATCH
  5
E8
330
D8
100
AcDbEntity
  8
_U+30EC_U+30A4_U+30E4_U+30FC 1
 62
   179
420
  2234388
100
AcDbHatch
 10
0.0
 20
0.0
 30
0.0
210
0.0
220
0.0
230
1.0
  2
SOLID
 70
     1
 71
     0
 91
        1
 92
        1
 93
        1
 72
     4
 94
        3
 73
     0
 74
     1
 95
       26
 96
       22
 40
0.0
 40
0.0
 40
0.0
 40
0.0
 40
1.0
 40
1.0
 40
1.0
 40
2.0
 40
2.0
 40
2.0
 40
3.0
 40
3.0
 40
3.0
 40
4.0
 40
4.0
 40
4.0
 40
5.0
 40
5.0
 40
5.0
 40
6.0
 40
6.0
 40
6.0
 40
7.0
 40
7.0
 40
7.0
 40
7.0
 10
123.5914224951438
 20
-148.8570637648691
 10
123.5914224951438
 20
-148.8570637648691
 10
123.5914224951438
 20
-149.0940863342543
 10
123.5914224951438
 20
-149.0940863342543
 10
123.2823974301169
 20
-149.0685926276634
 10
122.7642550691353
 20
-148.8760117900379
 10
122.2585150519007
 20
-148.469835032327
 10
122.2585150519007
 20
-148.469835032327
 10
122.2585150519007
 20
-149.3076822543398
 10
122.2585150519007
 20
-149.3076822543398
 10
122.2585150519007
 20
-149.3076822543398
 10
122.0469861891063
 20
-149.3076822543398
 10
122.0469861891063
 20
-149.3076822543398
 10
122.0469861891063
 20
-149.3076822543398
 10
122.0469861891063
 20
-148.2328124629418
 10
122.0469861891063
 20
-148.2328124629418
 10
122.0469861891063
 20
-148.2328124629418
 10
122.2585150519007
 20
-148.2328124629418
 10
122.2585150519007
 20
-148.2328124629418
 10
122.5485920917587
 20
-148.5566514385553
 10
123.1408040056731
 20
-148.8233018291136
 10
123.5914224951438
 20
-148.8570637648691
 97
        0
 97
        0
 75
     2
 76
     1
 98
        0
  0
ENDBLK
  5
DB
330
D8
100
AcDbEntity
  8
0
100
AcDbBlockEnd
  0
ENDSEC
  0
SECTION
  2
ENTITIES
  0
POLYLINE
  5
41
330
1F
100
AcDbEntity
  8
_U+30EC_U+30A4_U+30E4_U+30FC 1
370
     0
100
AcDb2dPolyline
 66
     1
 10
0.0
 20
0.0
 30
0.0
  0
VERTEX
  5
42
330
41
100
AcDbEntity
  8
_U+30EC_U+30A4_U+30E4_U+30FC 1
370
     0
100
AcDbVertex
100
AcDb2dVertex
 10
85.17544265313106
 20
-144.780923680032
 30
0.0
  0
VERTEX
  5
43
330
41
100
AcDbEntity
  8
_U+30EC_U+30A4_U+30E4_U+30FC 1
370
     0
100
AcDbVertex
100
AcDb2dVertex
 10
100.2390473009222
 20
-144.780923680032
 30
0.0
  0
VERTEX
  5
44
330
41
100
AcDbEntity
  8
_U+30EC_U+30A4_U+30E4_U+30FC 1
370
     0
100
AcDbVertex
100
AcDb2dVertex
 10
100.2390473009222
 20
-155.4820900422384
 30
0.0
  0
VERTEX
  5
45
330
41
100
AcDbEntity
  8
_U+30EC_U+30A4_U+30E4_U+30FC 1
370
     0
100
AcDbVertex
100
AcDb2dVertex
 10
106.2390901935737
 20
-155.4820900422384
 30
0.0
  0
VERTEX
  5
46
330
41
100
AcDbEntity
  8
_U+30EC_U+30A4_U+30E4_U+30FC 1
370
     0
100
AcDbVertex
100
AcDb2dVertex
 10
106.2390901935737
 20
-154.4816127814751
 30
0.0
  0
VERTEX
  5
47
330
41
100
AcDbEntity
  8
_U+30EC_U+30A4_U+30E4_U+30FC 1
370
     0
100
AcDbVertex
100
AcDb2dVertex
 10
101.1389816031332
 20
-154.4816127814751
 30
0.0
  0
VERTEX
  5
48
330
41
100
AcDbEntity
  8
_U+30EC_U+30A4_U+30E4_U+30FC 1
370
     0
100
AcDbVertex
100
AcDb2dVertex
 10
101.1389816031332
 20
-144.780923680032
 30
0.0
  0
VERTEX
  5
49
330
41
100
AcDbEntity
  8
_U+30EC_U+30A4_U+30E4_U+30FC 1
370
     0
100
AcDbVertex
100
AcDb2dVertex
 10
120.2376651039467
 20
-144.780923680032
 30
0.0
  0
VERTEX
  5
4A
330
41
100
AcDbEntity
  8
_U+30EC_U+30A4_U+30E4_U+30FC 1
370
     0
100
AcDbVertex
100
AcDb2dVertex
 10
120.2376651039467
 20
-143.7811569702125
 30
0.0
  0
VERTEX
  5
4B
330
41
100
AcDbEntity
  8
_U+30EC_U+30A4_U+30E4_U+30FC 1
370
     0
100
AcDbVertex
100
AcDb2dVertex
 10
85.17544265313106
 20
-143.7811569702125
 30
0.0
  0
VERTEX
  5
4C
330
41
100
AcDbEntity
  8
_U+30EC_U+30A4_U+30E4_U+30FC 1
370
     0
100
AcDbVertex
100
AcDb2dVertex
 10
85.17544265313106
 20
-144.780923680032
 30
0.0
  0
SEQEND
  5
4E
330
41
100
AcDbEntity
  8
_U+30EC_U+30A4_U+30E4_U+30FC 1
370
     0
  0
HATCH
  5
4D
330
1F
100
AcDbEntity
  8
_U+30EC_U+30A4_U+30E4_U+30FC 1
 62
     9
420
 13224394
100
AcDbHatch
 10
0.0
 20
0.0
 30
0.0
210
0.0
220
0.0
230
1.0
  2
SOLID
 70
     1
 71
     0
 91
        1
 92
        1
 93
       10
 72
     1
 10
85.17544265313106
 20
-144.780923680032
 11
100.2390473009222
 21
-144.780923680032
 72
     1
 10
100.2390473009222
 20
-144.780923680032
 11
100.2390473009222
 21
-155.4820900422384
 72
     1
 10
100.2390473009222
 20
-155.4820900422384
 11
106.2390901935737
 21
-155.4820900422384
 72
     1
 10
106.2390901935737
 20
-155.4820900422384
 11
106.2390901935737
 21
-154.4816127814751
 72
     1
 10
106.2390901935737
 20
-154.4816127814751
 11
101.1389816031332
 21
-154.4816127814751
 72
     1
 10
101.1389816031332
 20
-154.4816127814751
 11
101.1389816031332
 21
-144.780923680032
 72
     1
 10
101.1389816031332
 20
-144.780923680032
 11
120.2376651039467
 21
-144.780923680032
 72
     1
 10
120.2376651039467
 20
-144.780923680032
 11
120.2376651039467
 21
-143.7811569702125
 72
     1
 10
120.2376651039467
 20
-143.7811569702125
 11
85.17544265313106
 21
-143.7811569702125
 72
     1
 10
85.17544265313106
 20
-143.7811569702125
 11
85.17544265313106
 21
-144.780923680032
 97
        0
 75
     2
 76
     1
 98
        0
  0
POLYLINE
  5
4F
330
1F
100
AcDbEntity
  8
_U+30EC_U+30A4_U+30E4_U+30FC 1
 62
   179
420
  2234388
370
    25
100
AcDb2dPolyline
 66
     1
 10
0.0
 20
0.0
 30
0.0
  0
VERTEX
  5
50
330
4F
100
AcDbEntity
  8
_U+30EC_U+30A4_U+30E4_U+30FC 1
 62
   179
420
  2234388
370
    25
100
AcDbVertex
100
AcDb2dVertex
 10
85.23883779302135
 20
-143.7811569702125
 30
0.0
  0
VERTEX
  5
51
330
4F
100
AcDbEntity
  8
_U+30EC_U+30A4_U+30E4_U+30FC 1
 62
   179
420
  2234388
370
    25
100
AcDbVertex
100
AcDb2dVertex
 10
120.2375682106361
 20
-143.7811569702125
 30
0.0
  0
SEQEND
  5
52
330
4F
100
AcDbEntity
  8
_U+30EC_U+30A4_U+30E4_U+30FC 1
 62
   179
420
  2234388
370
    25
  0
POLYLINE
  5
53
330
1F
100
AcDbEntity
  8
_U+30EC_U+30A4_U+30E4_U+30FC 1
 62
   179
420
  2234388
370
    25
100
AcDb2dPolyline
 66
     1
 10
0.0
 20
0.0
 30
0.0
  0
VERTEX
  5
54
330
53
100
AcDbEntity
  8
_U+30EC_U+30A4_U+30E4_U+30FC 1
 62
   179
420
  2234388
370
    25
100
AcDbVertex
100
AcDb2dVertex
 10
85.2391553877614
 20
-144.780923680032
 30
0.0
  0
VERTEX
  5
55
330
53
100
AcDbEntity
  8
_U+30EC_U+30A4_U+30E4_U+30FC 1
 62
   179
420
  2234388
370
    25
100
AcDbVertex
100
AcDb2dVertex
 10
100.2389073439181
 20
-144.780923680032
 30
0.0
  0
SEQEND
  5
56
330
53
100
AcDbEntity
  8
_U+30EC_U+30A4_U+30E4_U+30FC 1
 62
   179
420
  2234388
370
    25
  0
POLYLINE
  5
57
330
1F
100
AcDbEntity
  8
_U+30EC_U+30A4_U+30E4_U+30FC 1
 62
   179
420
  2234388
370
    25
100
AcDb2dPolyline
 66
     1
 10
0.0
 20
0.0
 30
0.0
  0
VERTEX
  5
58
330
57
100
AcDbEntity
  8
_U+30EC_U+30A4_U+30E4_U+30FC 1
 62
   179
420
  2234388
370
    25
100
AcDbVertex
100
AcDb2dVertex
 10
100.2389827053819
 20
-144.780923680032
 30
0.0
  0
VERTEX
  5
59
330
57
100
AcDbEntity
  8
_U+30EC_U+30A4_U+30E4_U+30FC 1
 62
   179
420
  2234388
370
    25
100
AcDbVertex
100
AcDb2dVertex
 10
100.2389827053819
 20
-155.4820900422384
 30
0.0
  0
SEQEND
  5
5A
330
57
100
AcDbEntity
  8
_U+30EC_U+30A4_U+30E4_U+30FC 1
 62
   179
420
  2234388
370
    25
  0
POLYLINE
  5
5B
330
1F
100
AcDbEntity
  8
_U+30EC_U+30A4_U+30E4_U+30FC 1
 62
   179
420
  2234388
370
    25
100
AcDb2dPolyline
 66
     1
 10
0.0
 20
0.0
 30
0.0
  0
VERTEX
  5
5C
330
5B
100
AcDbEntity
  8
_U+30EC_U+30A4_U+30E4_U+30FC 1
 62
   179
420
  2234388
370
    25
100
AcDbVertex
100
AcDb2dVertex
 10
101.1391646238309
 20
-144.780923680032
 30
0.0
  0
VERTEX
  5
5D
330
5B
100
AcDbEntity
  8
_U+30EC_U+30A4_U+30E4_U+30FC 1
 62
   179
420
  2234388
370
    25
100
AcDbVertex
100
AcDb2dVertex
 10
120.2378481246443
 20
-144.780923680032
 30
0.0
  0
SEQEND
  5
5E
330
5B
100
AcDbEntity
  8
_U+30EC_U+30A4_U+30E4_U+30FC 1
 62
   179
420
  2234388
370
    25
  0
POLYLINE
  5
5F
330
1F
100
AcDbEntity
  8
_U+30EC_U+30A4_U+30E4_U+30FC 1
 62
   179
420
  2234388
370
    25
100
AcDb2dPolyline
 66
     1
 10
0.0
 20
0.0
 30
0.0
  0
VERTEX
  5
60
330
5F
100
AcDbEntity
  8
_U+30EC_U+30A4_U+30E4_U+30FC 1
 62
   179
420
  2234388
370
    25
100
AcDbVertex
100
AcDb2dVertex
 10
101.1391646238309
 20
-154.4816127814751
 30
0.0
  0
VERTEX
  5
61
330
5F
100
AcDbEntity
  8
_U+30EC_U+30A4_U+30E4_U+30FC 1
 62
   179
420
  2234388
370
    25
100
AcDbVertex
100
AcDb2dVertex
 10
106.239262448348
 20
-154.4816127814751
 30
0.0
  0
SEQEND
  5
62
330
5F
100
AcDbEntity
  8
_U+30EC_U+30A4_U+30E4_U+30FC 1
 62
   179
420
  2234388
370
    25
  0
POLYLINE
  5
63
330
1F
100
AcDbEntity
  8
_U+30EC_U+30A4_U+30E4_U+30FC 1
 62
   179
420
  2234388
370
    25
100
AcDb2dPolyline
 66
     1
 10
0.0
 20
0.0
 30
0.0
  0
VERTEX
  5
64
330
63
100
AcDbEntity
  8
_U+30EC_U+30A4_U+30E4_U+30FC 1
 62
   179
420
  2234388
370
    25
100
AcDbVertex
100
AcDb2dVertex
 10
100.2389827053819
 20
-155.4820469785449
 30
0.0
  0
VERTEX
  5
65
330
63
100
AcDbEntity
  8
_U+30EC_U+30A4_U+30E4_U+30FC 1
 62
   179
420
  2234388
370
    25
100
AcDbVertex
100
AcDb2dVertex
 10
106.2393701075819
 20
-155.4820469785449
 30
0.0
  0
SEQEND
  5
66
330
63
100
AcDbEntity
  8
_U+30EC_U+30A4_U+30E4_U+30FC 1
 62
   179
420
  2234388
370
    25
  0
POLYLINE
  5
67
330
1F
100
AcDbEntity
  8
_U+30EC_U+30A4_U+30E4_U+30FC 1
 62
   179
420
  2234388
370
    25
100
AcDb2dPolyline
 66
     1
 10
0.0
 20
0.0
 30
0.0
  0
VERTEX
  5
68
330
67
100
AcDbEntity
  8
_U+30EC_U+30A4_U+30E4_U+30FC 1
 62
   179
420
  2234388
370
    25
100
AcDbVertex
100
AcDb2dVertex
 10
106.2393055120415
 20
-154.4816127814751
 30
0.0
  0
VERTEX
  5
69
330
67
100
AcDbEntity
  8
_U+30EC_U+30A4_U+30E4_U+30FC 1
 62
   179
420
  2234388
370
    25
100
AcDbVertex
100
AcDb2dVertex
 10
106.2393055120415
 20
-155.4821008081618
 30
0.0
  0
SEQEND
  5
6A
330
67
100
AcDbEntity
  8
_U+30EC_U+30A4_U+30E4_U+30FC 1
 62
   179
420
  2234388
370
    25
  0
POLYLINE
  5
6B
330
1F
100
AcDbEntity
  8
_U+30EC_U+30A4_U+30E4_U+30FC 1
 62
   179
420
  2234388
370
    25
100
AcDb2dPolyline
 66
     1
 10
0.0
 20
0.0
 30
0.0
  0
VERTEX
  5
6C
330
6B
100
AcDbEntity
  8
_U+30EC_U+30A4_U+30E4_U+30FC 1
 62
   179
420
  2234388
370
    25
100
AcDbVertex
100
AcDb2dVertex
 10
85.17854862202948
 20
-143.7811569702125
 30
0.0
  0
VERTEX
  5
6D
330
6B
100
AcDbEntity
  8
_U+30EC_U+30A4_U+30E4_U+30FC 1
 62
   179
420
  2234388
370
    25
100
AcDbVertex
100
AcDb2dVertex
 10
85.17854862202948
 20
-144.7809344459554
 30
0.0
  0
SEQEND
  5
6E
330
6B
100
AcDbEntity
  8
_U+30EC_U+30A4_U+30E4_U+30FC 1
 62
   179
420
  2234388
370
    25
  0
POLYLINE
  5
6F
330
1F
100
AcDbEntity
  8
_U+30EC_U+30A4_U+30E4_U+30FC 1
 62
   179
420
  2234388
370
    25
100
AcDb2dPolyline
 66
     1
 10
0.0
 20
0.0
 30
0.0
  0
VERTEX
  5
70
330
6F
100
AcDbEntity
  8
_U+30EC_U+30A4_U+30E4_U+30FC 1
 62
   179
420
  2234388
370
    25
100
AcDbVertex
100
AcDb2dVertex
 10
120.2377404654104
 20
-143.7811569702125
 30
0.0
  0
VERTEX
  5
71
330
6F
100
AcDbEntity
  8
_U+30EC_U+30A4_U+30E4_U+30FC 1
 62
   179
420
  2234388
370
    25
100
AcDbVertex
100
AcDb2dVertex
 10
120.2377404654104
 20
-144.7809344459554
 30
0.0
  0
SEQEND
  5
72
330
6F
100
AcDbEntity
  8
_U+30EC_U+30A4_U+30E4_U+30FC 1
 62
   179
420
  2234388
370
    25
  0
POLYLINE
  5
73
330
1F
100
AcDbEntity
  8
_U+30EC_U+30A4_U+30E4_U+30FC 1
 62
   179
420
  2234388
370
    25
100
AcDb2dPolyline
 66
     1
 10
0.0
 20
0.0
 30
0.0
  0
VERTEX
  5
74
330
73
100
AcDbEntity
  8
_U+30EC_U+30A4_U+30E4_U+30FC 1
 62
   179
420
  2234388
370
    25
100
AcDbVertex
100
AcDb2dVertex
 10
101.1391646238309
 20
-144.780923680032
 30
0.0
  0
VERTEX
  5
75
330
73
100
AcDbEntity
  8
_U+30EC_U+30A4_U+30E4_U+30FC 1
 62
   179
420
  2234388
370
    25
100
AcDbVertex
100
AcDb2dVertex
 10
101.1391646238309
 20
-154.4816127814751
 30
0.0
  0
SEQEND
  5
76
330
73
100
AcDbEntity
  8
_U+30EC_U+30A4_U+30E4_U+30FC 1
 62
   179
420
  2234388
370
    25
  0
SPLINE
  5
77
330
1F
100
AcDbEntity
  8
_U+30EC_U+30A4_U+30E4_U+30FC 1
 62
   179
420
  2234388
370
     9
100
AcDbSpline
210
0.0
220
0.0
230
1.0
 70
    11
 71
     3
 72
    17
 73
    13
 74
     0
 42
0.0000000001
 43
0.0000000001
 12
1.0
 22
0.0
 32
0.0
 13
1.0
 23
0.0
 33
0.0
 40
0.0
 40
0.0
 40
0.0
 40
0.0
 40
1.0
 40
1.0
 40
1.0
 40
2.0
 40
2.0
 40
2.0
 40
3.0
 40
3.0
 40
3.0
 40
4.0
 40
4.0
 40
4.0
 40
4.0
 10
85.2564400777663
 20
-139.7807228586638
 30
0.0
 10
85.2564400777663
 20
-139.7256982242103
 30
0.0
 10
85.21163230461127
 20
-139.6808904510553
 30
0.0
 10
85.15660228719642
 20
-139.6808904510553
 30
0.0
 10
85.10156688681955
 20
-139.6808904510553
 30
0.0
 10
85.05676449662589
 20
-139.7256982242103
 30
0.0
 10
85.05676449662589
 20
-139.7807228586638
 30
0.0
 10
85.05676449662589
 20
-139.8357582590406
 30
0.0
 10
85.10156688681955
 20
-139.880566032196
 30
0.0
 10
85.15660228719642
 20
-139.880566032196
 30
0.0
 10
85.21163230461127
 20
-139.880566032196
 30
0.0
 10
85.2564400777663
 20
-139.8357582590406
 30
0.0
 10
85.2564400777663
 20
-139.7807228586638
 30
0.0
  0
SPLINE
  5
78
330
1F
100
AcDbEntity
  8
_U+30EC_U+30A4_U+30E4_U+30FC 1
 62
   179
420
  2234388
370
     9
100
AcDbSpline
210
0.0
220
0.0
230
1.0
 70
    11
 71
     3
 72
    17
 73
    13
 74
     0
 42
0.0000000001
 43
0.0000000001
 12
1.0
 22
0.0
 32
0.0
 13
1.0
 23
0.0
 33
0.0
 40
0.0
 40
0.0
 40
0.0
 40
0.0
 40
1.0
 40
1.0
 40
1.0
 40
2.0
 40
2.0
 40
2.0
 40
3.0
 40
3.0
 40
3.0
 40
4.0
 40
4.0
 40
4.0
 40
4.0
 10
120.3372929590107
 20
-139.7807228586638
 30
0.0
 10
120.3372929590107
 20
-139.7256982242103
 30
0.0
 10
120.2931957367995
 20
-139.6808904510553
 30
0.0
 10
120.2378050609507
 20
-139.6808904510553
 30
0.0
 10
120.1827696605739
 20
-139.6808904510553
 30
0.0
 10
120.1379726533422
 20
-139.7256982242103
 30
0.0
 10
120.1379726533422
 20
-139.7807228586638
 30
0.0
 10
120.1379726533422
 20
-139.8357582590406
 30
0.0
 10
120.1827696605739
 20
-139.880566032196
 30
0.0
 10
120.2378050609507
 20
-139.880566032196
 30
0.0
 10
120.2931957367995
 20
-139.880566032196
 30
0.0
 10
120.3372929590107
 20
-139.8357582590406
 30
0.0
 10
120.3372929590107
 20
-139.7807228586638
 30
0.0
  0
SPLINE
  5
79
330
1F
100
AcDbEntity
  8
_U+30EC_U+30A4_U+30E4_U+30FC 1
 62
   179
420
  2234388
370
     9
100
AcDbSpline
210
0.0
220
0.0
230
1.0
 70
    11
 71
     3
 72
    17
 73
    13
 74
     0
 42
0.0000000001
 43
0.0000000001
 12
1.0
 22
0.0
 32
0.0
 13
1.0
 23
0.0
 33
0.0
 40
0.0
 40
0.0
 40
0.0
 40
0.0
 40
1.0
 40
1.0
 40
1.0
 40
2.0
 40
2.0
 40
2.0
 40
3.0
 40
3.0
 40
3.0
 40
4.0
 40
4.0
 40
4.0
 40
4.0
 10
124.3370595833092
 20
-144.780923680032
 30
0.0
 10
124.3370595833092
 20
-144.7258990455785
 30
0.0
 10
124.2922518101542
 20
-144.6810912724235
 30
0.0
 10
124.2372164097773
 20
-144.6810912724235
 30
0.0
 10
124.1821810094004
 20
-144.6810912724235
 30
0.0
 10
124.1373840021688
 20
-144.7258990455785
 30
0.0
 10
124.1373840021688
 20
-144.780923680032
 30
0.0
 10
124.1373840021688
 20
-144.8359590804089
 30
0.0
 10
124.1821810094004
 20
-144.8807668535639
 30
0.0
 10
124.2372164097773
 20
-144.8807668535639
 30
0.0
 10
124.2922518101542
 20
-144.8807668535639
 30
0.0
 10
124.3370595833092
 20
-144.8359590804089
 30
0.0
 10
124.3370595833092
 20
-144.780923680032
 30
0.0
  0
SPLINE
  5
7A
330
1F
100
AcDbEntity
  8
_U+30EC_U+30A4_U+30E4_U+30FC 1
 62
   179
420
  2234388
370
     9
100
AcDbSpline
210
0.0
220
0.0
230
1.0
 70
    11
 71
     3
 72
    17
 73
    13
 74
     0
 42
0.0000000001
 43
0.0000000001
 12
1.0
 22
0.0
 32
0.0
 13
1.0
 23
0.0
 33
0.0
 40
0.0
 40
0.0
 40
0.0
 40
0.0
 40
1.0
 40
1.0
 40
1.0
 40
2.0
 40
2.0
 40
2.0
 40
3.0
 40
3.0
 40
3.0
 40
4.0
 40
4.0
 40
4.0
 40
4.0
 10
124.3370595833092
 20
-143.7811569702125
 30
0.0
 10
124.3370595833092
 20
-143.7254217848152
 30
0.0
 10
124.2922518101542
 20
-143.6806247775835
 30
0.0
 10
124.2372164097773
 20
-143.6806247775835
 30
0.0
 10
124.1821810094004
 20
-143.6806247775835
 30
0.0
 10
124.1373840021688
 20
-143.7254217848152
 30
0.0
 10
124.1373840021688
 20
-143.7811569702125
 30
0.0
 10
124.1373840021688
 20
-143.8361923705893
 30
0.0
 10
124.1821810094004
 20
-143.8810001437444
 30
0.0
 10
124.2372164097773
 20
-143.8810001437444
 30
0.0
 10
124.2922518101542
 20
-143.8810001437444
 30
0.0
 10
124.3370595833092
 20
-143.8361923705893
 30
0.0
 10
124.3370595833092
 20
-143.7811569702125
 30
0.0
  0
SPLINE
  5
7B
330
1F
100
AcDbEntity
  8
_U+30EC_U+30A4_U+30E4_U+30FC 1
 62
   179
420
  2234388
370
     9
100
AcDbSpline
210
0.0
220
0.0
230
1.0
 70
    11
 71
     3
 72
    17
 73
    13
 74
     0
 42
0.0000000001
 43
0.0000000001
 12
1.0
 22
0.0
 32
0.0
 13
1.0
 23
0.0
 33
0.0
 40
0.0
 40
0.0
 40
0.0
 40
0.0
 40
1.0
 40
1.0
 40
1.0
 40
2.0
 40
2.0
 40
2.0
 40
3.0
 40
3.0
 40
3.0
 40
4.0
 40
4.0
 40
4.0
 40
4.0
 10
124.3370595833092
 20
-154.4816127814751
 30
0.0
 10
124.3370595833092
 20
-154.4265881470216
 30
0.0
 10
124.2922518101542
 20
-154.3817803738666
 30
0.0
 10
124.2372164097773
 20
-154.3817803738666
 30
0.0
 10
124.1821810094004
 20
-154.3817803738666
 30
0.0
 10
124.1373840021688
 20
-154.4265881470216
 30
0.0
 10
124.1373840021688
 20
-154.4816127814751
 30
0.0
 10
124.1373840021688
 20
-154.5366481818519
 30
0.0
 10
124.1821810094004
 20
-154.581455955007
 30
0.0
 10
124.2372164097773
 20
-154.581455955007
 30
0.0
 10
124.2922518101542
 20
-154.581455955007
 30
0.0
 10
124.3370595833092
 20
-154.5366481818519
 30
0.0
 10
124.3370595833092
 20
-154.4816127814751
 30
0.0
  0
SPLINE
  5
7C
330
1F
100
AcDbEntity
  8
_U+30EC_U+30A4_U+30E4_U+30FC 1
 62
   179
420
  2234388
370
     9
100
AcDbSpline
210
0.0
220
0.0
230
1.0
 70
    11
 71
     3
 72
    17
 73
    13
 74
     0
 42
0.0000000001
 43
0.0000000001
 12
1.0
 22
0.0
 32
0.0
 13
1.0
 23
0.0
 33
0.0
 40
0.0
 40
0.0
 40
0.0
 40
0.0
 40
1.0
 40
1.0
 40
1.0
 40
2.0
 40
2.0
 40
2.0
 40
3.0
 40
3.0
 40
3.0
 40
4.0
 40
4.0
 40
4.0
 40
4.0
 10
100.3392026862325
 20
-159.4818459006135
 30
0.0
 10
100.3392026862325
 20
-159.42682126616
 30
0.0
 10
100.2943949130775
 20
-159.382013493005
 30
0.0
 10
100.2390042372287
 20
-159.382013493005
 30
0.0
 10
100.1839796027752
 20
-159.382013493005
 30
0.0
 10
100.1391718296202
 20
-159.42682126616
 30
0.0
 10
100.1391718296202
 20
-159.4818459006135
 30
0.0
 10
100.1391718296202
 20
-159.5368813009904
 30
0.0
 10
100.1839796027752
 20
-159.5816890741454
 30
0.0
 10
100.2390042372287
 20
-159.5816890741454
 30
0.0
 10
100.2943949130775
 20
-159.5816890741454
 30
0.0
 10
100.3392026862325
 20
-159.5368813009904
 30
0.0
 10
100.3392026862325
 20
-159.4818459006135
 30
0.0
  0
SPLINE
  5
7D
330
1F
100
AcDbEntity
  8
_U+30EC_U+30A4_U+30E4_U+30FC 1
 62
   179
420
  2234388
370
     9
100
AcDbSpline
210
0.0
220
0.0
230
1.0
 70
    11
 71
     3
 72
    17
 73
    13
 74
     0
 42
0.0000000001
 43
0.0000000001
 12
1.0
 22
0.0
 32
0.0
 13
1.0
 23
0.0
 33
0.0
 40
0.0
 40
0.0
 40
0.0
 40
0.0
 40
1.0
 40
1.0
 40
1.0
 40
2.0
 40
2.0
 40
2.0
 40
3.0
 40
3.0
 40
3.0
 40
4.0
 40
4.0
 40
4.0
 40
4.0
 10
106.3392132811138
 20
-159.4818459006135
 30
0.0
 10
106.3392132811138
 20
-159.42682126616
 30
0.0
 10
106.2944055079587
 20
-159.382013493005
 30
0.0
 10
106.2393701075819
 20
-159.382013493005
 30
0.0
 10
106.184334707205
 20
-159.382013493005
 30
0.0
 10
106.1395376999734
 20
-159.42682126616
 30
0.0
 10
106.1395376999734
 20
-159.4818459006135
 30
0.0
 10
106.1395376999734
 20
-159.5368813009904
 30
0.0
 10
106.184334707205
 20
-159.5816890741454
 30
0.0
 10
106.2393701075819
 20
-159.5816890741454
 30
0.0
 10
106.2944055079587
 20
-159.5816890741454
 30
0.0
 10
106.3392132811138
 20
-159.5368813009904
 30
0.0
 10
106.3392132811138
 20
-159.4818459006135
 30
0.0
  0
SPLINE
  5
7E
330
1F
100
AcDbEntity
  8
_U+30EC_U+30A4_U+30E4_U+30FC 1
 62
   179
420
  2234388
370
     9
100
AcDbSpline
210
0.0
220
0.0
230
1.0
 70
    11
 71
     3
 72
    17
 73
    13
 74
     0
 42
0.0000000001
 43
0.0000000001
 12
1.0
 22
0.0
 32
0.0
 13
1.0
 23
0.0
 33
0.0
 40
0.0
 40
0.0
 40
0.0
 40
0.0
 40
1.0
 40
1.0
 40
1.0
 40
2.0
 40
2.0
 40
2.0
 40
3.0
 40
3.0
 40
3.0
 40
4.0
 40
4.0
 40
4.0
 40
4.0
 10
85.3446345221887
 20
-159.4818459006135
 30
0.0
 10
85.3446345221887
 20
-159.42682126616
 30
0.0
 10
85.29982674903366
 20
-159.382013493005
 30
0.0
 10
85.24479673161882
 20
-159.382013493005
 30
0.0
 10
85.18976133124195
 20
-159.382013493005
 30
0.0
 10
85.14495894104829
 20
-159.42682126616
 30
0.0
 10
85.14495894104829
 20
-159.4818459006135
 30
0.0
 10
85.14495894104829
 20
-159.5368813009904
 30
0.0
 10
85.18976133124195
 20
-159.5816890741454
 30
0.0
 10
85.24479673161882
 20
-159.5816890741454
 30
0.0
 10
85.29982674903366
 20
-159.5816890741454
 30
0.0
 10
85.3446345221887
 20
-159.5368813009904
 30
0.0
 10
85.3446345221887
 20
-159.4818459006135
 30
0.0
  0
POLYLINE
  5
7F
330
1F
100
AcDbEntity
  8
_U+30EC_U+30A4_U+30E4_U+30FC 1
 62
   179
420
  2234388
370
     9
100
AcDb2dPolyline
 66
     1
 10
0.0
 20
0.0
 30
0.0
  0
VERTEX
  5
80
330
7F
100
AcDbEntity
  8
_U+30EC_U+30A4_U+30E4_U+30FC 1
 62
   179
420
  2234388
370
     9
100
AcDbVertex
100
AcDb2dVertex
 10
124.2371841120071
 20
-143.7811569702125
 30
0.0
  0
VERTEX
  5
81
330
7F
100
AcDbEntity
  8
_U+30EC_U+30A4_U+30E4_U+30FC 1
 62
   179
420
  2234388
370
     9
100
AcDbVertex
100
AcDb2dVertex
 10
124.2371841120071
 20
-140.0106722163808
 30
0.0
  0
SEQEND
  5
82
330
7F
100
AcDbEntity
  8
_U+30EC_U+30A4_U+30E4_U+30FC 1
 62
   179
420
  2234388
370
     9
  0
POLYLINE
  5
83
330
1F
100
AcDbEntity
  8
_U+30EC_U+30A4_U+30E4_U+30FC 1
 62
   179
420
  2234388
370
     9
100
AcDb2dPolyline
 66
     1
 10
0.0
 20
0.0
 30
0.0
  0
VERTEX
  5
84
330
83
100
AcDbEntity
  8
_U+30EC_U+30A4_U+30E4_U+30FC 1
 62
   179
420
  2234388
370
     9
100
AcDbVertex
100
AcDb2dVertex
 10
124.2371841120071
 20
-144.780923680032
 30
0.0
  0
VERTEX
  5
85
330
83
100
AcDbEntity
  8
_U+30EC_U+30A4_U+30E4_U+30FC 1
 62
   179
420
  2234388
370
     9
100
AcDbVertex
100
AcDb2dVertex
 10
124.2371841120071
 20
-143.7811569702125
 30
0.0
  0
SEQEND
  5
86
330
83
100
AcDbEntity
  8
_U+30EC_U+30A4_U+30E4_U+30FC 1
 62
   179
420
  2234388
370
     9
  0
POLYLINE
  5
87
330
1F
100
AcDbEntity
  8
_U+30EC_U+30A4_U+30E4_U+30FC 1
 62
   179
420
  2234388
370
     9
100
AcDb2dPolyline
 66
     1
 10
0.0
 20
0.0
 30
0.0
  0
VERTEX
  5
88
330
87
100
AcDbEntity
  8
_U+30EC_U+30A4_U+30E4_U+30FC 1
 62
   179
420
  2234388
370
     9
100
AcDbVertex
100
AcDb2dVertex
 10
122.7771418794348
 20
-144.780923680032
 30
0.0
  0
VERTEX
  5
89
330
87
100
AcDbEntity
  8
_U+30EC_U+30A4_U+30E4_U+30FC 1
 62
   179
420
  2234388
370
     9
100
AcDbVertex
100
AcDb2dVertex
 10
125.2370584810605
 20
-144.780923680032
 30
0.0
  0
SEQEND
  5
8A
330
87
100
AcDbEntity
  8
_U+30EC_U+30A4_U+30E4_U+30FC 1
 62
   179
420
  2234388
370
     9
  0
POLYLINE
  5
8B
330
1F
100
AcDbEntity
  8
_U+30EC_U+30A4_U+30E4_U+30FC 1
 62
   179
420
  2234388
370
     9
100
AcDb2dPolyline
 66
     1
 10
0.0
 20
0.0
 30
0.0
  0
VERTEX
  5
8C
330
8B
100
AcDbEntity
  8
_U+30EC_U+30A4_U+30E4_U+30FC 1
 62
   179
420
  2234388
370
     9
100
AcDbVertex
100
AcDb2dVertex
 10
122.7771418794348
 20
-143.7811569702125
 30
0.0
  0
VERTEX
  5
8D
330
8B
100
AcDbEntity
  8
_U+30EC_U+30A4_U+30E4_U+30FC 1
 62
   179
420
  2234388
370
     9
100
AcDbVertex
100
AcDb2dVertex
 10
125.2370584810605
 20
-143.7811569702125
 30
0.0
  0
SEQEND
  5
8E
330
8B
100
AcDbEntity
  8
_U+30EC_U+30A4_U+30E4_U+30FC 1
 62
   179
420
  2234388
370
     9
  0
INSERT
  5
90
330
1F
100
AcDbEntity
  8
_U+30EC_U+30A4_U+30E4_U+30FC 1
100
AcDbBlockReference
  2
block 2
 10
0.0
 20
0.0
 30
0.0
  0
POLYLINE
  5
95
330
1F
100
AcDbEntity
  8
_U+30EC_U+30A4_U+30E4_U+30FC 1
 62
   179
420
  2234388
370
     9
100
AcDb2dPolyline
 66
     1
 10
0.0
 20
0.0
 30
0.0
  0
VERTEX
  5
96
330
95
100
AcDbEntity
  8
_U+30EC_U+30A4_U+30E4_U+30FC 1
 62
   179
420
  2234388
370
     9
100
AcDbVertex
100
AcDb2dVertex
 10
85.23883779302135
 20
-139.7807228586638
 30
0.0
  0
VERTEX
  5
97
330
95
100
AcDbEntity
  8
_U+30EC_U+30A4_U+30E4_U+30FC 1
 62
   179
420
  2234388
370
     9
100
AcDbVertex
100
AcDb2dVertex
 10
120.2375682106361
 20
-139.7807228586638
 30
0.0
  0
SEQEND
  5
98
330
95
100
AcDbEntity
  8
_U+30EC_U+30A4_U+30E4_U+30FC 1
 62
   179
420
  2234388
370
     9
  0
POLYLINE
  5
99
330
1F
100
AcDbEntity
  8
_U+30EC_U+30A4_U+30E4_U+30FC 1
 62
   179
420
  2234388
370
     9
100
AcDb2dPolyline
 66
     1
 10
0.0
 20
0.0
 30
0.0
  0
VERTEX
  5
9A
330
99
100
AcDbEntity
  8
_U+30EC_U+30A4_U+30E4_U+30FC 1
 62
   179
420
  2234388
370
     9
100
AcDbVertex
100
AcDb2dVertex
 10
85.15650001092388
 20
-141.2406897297726
 30
0.0
  0
VERTEX
  5
9B
330
99
100
AcDbEntity
  8
_U+30EC_U+30A4_U+30E4_U+30FC 1
 62
   179
420
  2234388
370
     9
100
AcDbVertex
100
AcDb2dVertex
 10
85.15650001092388
 20
-138.7807731281466
 30
0.0
  0
SEQEND
  5
9C
330
99
100
AcDbEntity
  8
_U+30EC_U+30A4_U+30E4_U+30FC 1
 62
   179
420
  2234388
370
     9
  0
POLYLINE
  5
9D
330
1F
100
AcDbEntity
  8
_U+30EC_U+30A4_U+30E4_U+30FC 1
 62
   179
420
  2234388
370
     9
100
AcDb2dPolyline
 66
     1
 10
0.0
 20
0.0
 30
0.0
  0
VERTEX
  5
9E
330
9D
100
AcDbEntity
  8
_U+30EC_U+30A4_U+30E4_U+30FC 1
 62
   179
420
  2234388
370
     9
100
AcDbVertex
100
AcDb2dVertex
 10
120.2377404654104
 20
-141.2406897297726
 30
0.0
  0
VERTEX
  5
9F
330
9D
100
AcDbEntity
  8
_U+30EC_U+30A4_U+30E4_U+30FC 1
 62
   179
420
  2234388
370
     9
100
AcDbVertex
100
AcDb2dVertex
 10
120.2377404654104
 20
-138.7807731281466
 30
0.0
  0
SEQEND
  5
A0
330
9D
100
AcDbEntity
  8
_U+30EC_U+30A4_U+30E4_U+30FC 1
 62
   179
420
  2234388
370
     9
  0
INSERT
  5
A2
330
1F
100
AcDbEntity
  8
_U+30EC_U+30A4_U+30E4_U+30FC 1
100
AcDbBlockReference
  2
block 3
 10
0.0
 20
0.0
 30
0.0
  0
POLYLINE
  5
A9
330
1F
100
AcDbEntity
  8
_U+30EC_U+30A4_U+30E4_U+30FC 1
 62
   179
420
  2234388
370
     9
100
AcDb2dPolyline
 66
     1
 10
0.0
 20
0.0
 30
0.0
  0
VERTEX
  5
AA
330
A9
100
AcDbEntity
  8
_U+30EC_U+30A4_U+30E4_U+30FC 1
 62
   179
420
  2234388
370
     9
100
AcDbVertex
100
AcDb2dVertex
 10
100.2389827053819
 20
-159.4818459006135
 30
0.0
  0
VERTEX
  5
AB
330
A9
100
AcDbEntity
  8
_U+30EC_U+30A4_U+30E4_U+30FC 1
 62
   179
420
  2234388
370
     9
100
AcDbVertex
100
AcDb2dVertex
 10
85.23921998330174
 20
-159.4818459006135
 30
0.0
  0
SEQEND
  5
AC
330
A9
100
AcDbEntity
  8
_U+30EC_U+30A4_U+30E4_U+30FC 1
 62
   179
420
  2234388
370
     9
  0
POLYLINE
  5
AD
330
1F
100
AcDbEntity
  8
_U+30EC_U+30A4_U+30E4_U+30FC 1
 62
   179
420
  2234388
370
     9
100
AcDb2dPolyline
 66
     1
 10
0.0
 20
0.0
 30
0.0
  0
VERTEX
  5
AE
330
AD
100
AcDbEntity
  8
_U+30EC_U+30A4_U+30E4_U+30FC 1
 62
   179
420
  2234388
370
     9
100
AcDbVertex
100
AcDb2dVertex
 10
100.2389827053819
 20
-158.0218036680412
 30
0.0
  0
VERTEX
  5
AF
330
AD
100
AcDbEntity
  8
_U+30EC_U+30A4_U+30E4_U+30FC 1
 62
   179
420
  2234388
370
     9
100
AcDbVertex
100
AcDb2dVertex
 10
100.2389827053819
 20
-160.4817310355903
 30
0.0
  0
SEQEND
  5
B0
330
AD
100
AcDbEntity
  8
_U+30EC_U+30A4_U+30E4_U+30FC 1
 62
   179
420
  2234388
370
     9
  0
POLYLINE
  5
B1
330
1F
100
AcDbEntity
  8
_U+30EC_U+30A4_U+30E4_U+30FC 1
 62
   179
420
  2234388
370
     9
100
AcDb2dPolyline
 66
     1
 10
0.0
 20
0.0
 30
0.0
  0
VERTEX
  5
B2
330
B1
100
AcDbEntity
  8
_U+30EC_U+30A4_U+30E4_U+30FC 1
 62
   179
420
  2234388
370
     9
100
AcDbVertex
100
AcDb2dVertex
 10
85.24469445534628
 20
-147.3213478567786
 30
0.0
  0
VERTEX
  5
B3
330
B1
100
AcDbEntity
  8
_U+30EC_U+30A4_U+30E4_U+30FC 1
 62
   179
420
  2234388
370
     9
100
AcDbVertex
100
AcDb2dVertex
 10
85.24469445534628
 20
-160.4817310355903
 30
0.0
  0
SEQEND
  5
B4
330
B1
100
AcDbEntity
  8
_U+30EC_U+30A4_U+30E4_U+30FC 1
 62
   179
420
  2234388
370
     9
  0
INSERT
  5
B6
330
1F
100
AcDbEntity
  8
_U+30EC_U+30A4_U+30E4_U+30FC 1
100
AcDbBlockReference
  2
block 4
 10
0.0
 20
0.0
 30
0.0
  0
POLYLINE
  5
BD
330
1F
100
AcDbEntity
  8
_U+30EC_U+30A4_U+30E4_U+30FC 1
 62
   179
420
  2234388
370
     9
100
AcDb2dPolyline
 66
     1
 10
0.0
 20
0.0
 30
0.0
  0
VERTEX
  5
BE
330
BD
100
AcDbEntity
  8
_U+30EC_U+30A4_U+30E4_U+30FC 1
 62
   179
420
  2234388
370
     9
100
AcDbVertex
100
AcDb2dVertex
 10
100.2389827053819
 20
-159.4818459006135
 30
0.0
  0
VERTEX
  5
BF
330
BD
100
AcDbEntity
  8
_U+30EC_U+30A4_U+30E4_U+30FC 1
 62
   179
420
  2234388
370
     9
100
AcDbVertex
100
AcDb2dVertex
 10
106.2393701075819
 20
-159.4818459006135
 30
0.0
  0
SEQEND
  5
C0
330
BD
100
AcDbEntity
  8
_U+30EC_U+30A4_U+30E4_U+30FC 1
 62
   179
420
  2234388
370
     9
  0
POLYLINE
  5
C1
330
1F
100
AcDbEntity
  8
_U+30EC_U+30A4_U+30E4_U+30FC 1
 62
   179
420
  2234388
370
     9
100
AcDb2dPolyline
 66
     1
 10
0.0
 20
0.0
 30
0.0
  0
VERTEX
  5
C2
330
C1
100
AcDbEntity
  8
_U+30EC_U+30A4_U+30E4_U+30FC 1
 62
   179
420
  2234388
370
     9
100
AcDbVertex
100
AcDb2dVertex
 10
100.2389827053819
 20
-158.0218036680412
 30
0.0
  0
VERTEX
  5
C3
330
C1
100
AcDbEntity
  8
_U+30EC_U+30A4_U+30E4_U+30FC 1
 62
   179
420
  2234388
370
     9
100
AcDbVertex
100
AcDb2dVertex
 10
100.2389827053819
 20
-160.4817310355903
 30
0.0
  0
SEQEND
  5
C4
330
C1
100
AcDbEntity
  8
_U+30EC_U+30A4_U+30E4_U+30FC 1
 62
   179
420
  2234388
370
     9
  0
POLYLINE
  5
C5
330
1F
100
AcDbEntity
  8
_U+30EC_U+30A4_U+30E4_U+30FC 1
 62
   179
420
  2234388
370
     9
100
AcDb2dPolyline
 66
     1
 10
0.0
 20
0.0
 30
0.0
  0
VERTEX
  5
C6
330
C5
100
AcDbEntity
  8
_U+30EC_U+30A4_U+30E4_U+30FC 1
 62
   179
420
  2234388
370
     9
100
AcDbVertex
100
AcDb2dVertex
 10
106.2393055120415
 20
-158.0218036680412
 30
0.0
  0
VERTEX
  5
C7
330
C5
100
AcDbEntity
  8
_U+30EC_U+30A4_U+30E4_U+30FC 1
 62
   179
420
  2234388
370
     9
100
AcDbVertex
100
AcDb2dVertex
 10
106.2393055120415
 20
-160.4817310355903
 30
0.0
  0
SEQEND
  5
C8
330
C5
100
AcDbEntity
  8
_U+30EC_U+30A4_U+30E4_U+30FC 1
 62
   179
420
  2234388
370
     9
  0
INSERT
  5
CA
330
1F
100
AcDbEntity
  8
_U+30EC_U+30A4_U+30E4_U+30FC 1
100
AcDbBlockReference
  2
block 5
 10
0.0
 20
0.0
 30
0.0
  0
POLYLINE
  5
D0
330
1F
100
AcDbEntity
  8
_U+30EC_U+30A4_U+30E4_U+30FC 1
 62
   179
420
  2234388
370
     9
100
AcDb2dPolyline
 66
     1
 10
0.0
 20
0.0
 30
0.0
  0
VERTEX
  5
D1
330
D0
100
AcDbEntity
  8
_U+30EC_U+30A4_U+30E4_U+30FC 1
 62
   179
420
  2234388
370
     9
100
AcDbVertex
100
AcDb2dVertex
 10
124.2371841120071
 20
-154.4816127814751
 30
0.0
  0
VERTEX
  5
D2
330
D0
100
AcDbEntity
  8
_U+30EC_U+30A4_U+30E4_U+30FC 1
 62
   179
420
  2234388
370
     9
100
AcDbVertex
100
AcDb2dVertex
 10
124.2371841120071
 20
-144.7809344459554
 30
0.0
  0
SEQEND
  5
D3
330
D0
100
AcDbEntity
  8
_U+30EC_U+30A4_U+30E4_U+30FC 1
 62
   179
420
  2234388
370
     9
  0
POLYLINE
  5
D4
330
1F
100
AcDbEntity
  8
_U+30EC_U+30A4_U+30E4_U+30FC 1
 62
   179
420
  2234388
370
     9
100
AcDb2dPolyline
 66
     1
 10
0.0
 20
0.0
 30
0.0
  0
VERTEX
  5
D5
330
D4
100
AcDbEntity
  8
_U+30EC_U+30A4_U+30E4_U+30FC 1
 62
   179
420
  2234388
370
     9
100
AcDbVertex
100
AcDb2dVertex
 10
108.7789976059975
 20
-154.4816127814751
 30
0.0
  0
VERTEX
  5
D6
330
D4
100
AcDbEntity
  8
_U+30EC_U+30A4_U+30E4_U+30FC 1
 62
   179
420
  2234388
370
     9
100
AcDbVertex
100
AcDb2dVertex
 10
125.2367785670524
 20
-154.4816127814751
 30
0.0
  0
SEQEND
  5
D7
330
D4
100
AcDbEntity
  8
_U+30EC_U+30A4_U+30E4_U+30FC 1
 62
   179
420
  2234388
370
     9
  0
INSERT
  5
D9
330
1F
100
AcDbEntity
  8
_U+30EC_U+30A4_U+30E4_U+30FC 1
100
AcDbBlockReference
  2
block 6
 10
0.0
 20
0.0
 30
0.0
  0
ENDSEC
  0
SECTION
  2
OBJECTS
  0
DICTIONARY
  5
C
330
0
100
AcDbDictionary
281
     1
  3
ACAD_GROUP
350
D
  3
ACAD_LAYOUT
350
1A
  3
ACAD_MATERIAL
350
3B
  3
ACAD_MLEADERSTYLE
350
EA
  3
ACAD_MLINESTYLE
350
17
  3
ACAD_PLOTSETTINGS
350
19
  3
ACAD_PLOTSTYLENAME
350
E
  3
ACAD_TABLESTYLE
350
E9
  3
ACAD_VISUALSTYLE
350
2A
  0
SUN
  5
3F
330
29
100
AcDbSun
 90
        1
290
     0
 63
     7
421
 16777215
 40
1.0
291
     1
 91
  2455826
 92
 54000000
292
     0
 70
     2
 71
   256
280
     1
  0
DICTIONARY
  5
D
102
{ACAD_REACTORS
330
C
102
}
330
C
100
AcDbDictionary
281
     1
  0
DICTIONARY
  5
1A
102
{ACAD_REACTORS
330
C
102
}
330
C
100
AcDbDictionary
281
     1
  3
Layout1
350
1E
  3
Layout2
350
26
  3
Model
350
22
  0
DICTIONARY
  5
3B
102
{ACAD_REACTORS
330
C
102
}
330
C
100
AcDbDictionary
281
     1
  3
ByBlock
350
3D
  3
ByLayer
350
3C
  3
Global
350
3E
  0
DICTIONARY
  5
EA
102
{ACAD_REACTORS
330
C
102
}
330
C
100
AcDbDictionary
281
     1
  0
DICTIONARY
  5
17
102
{ACAD_REACTORS
330
C
102
}
330
C
100
AcDbDictionary
281
     1
  3
Standard
350
18
  0
DICTIONARY
  5
19
102
{ACAD_REACTORS
330
C
102
}
330
C
100
AcDbDictionary
281
     1
  0
ACDBDICTIONARYWDFLT
  5
E
102
{ACAD_REACTORS
330
C
102
}
330
C
100
AcDbDictionary
281
     1
  3
Normal
350
F
100
AcDbDictionaryWithDefault
340
F
  0
DICTIONARY
  5
E9
102
{ACAD_REACTORS
330
C
102
}
330
C
100
AcDbDictionary
281
     1
  0
DICTIONARY
  5
2A
102
{ACAD_REACTORS
330
C
102
}
330
C
100
AcDbDictionary
281
     1
  3
2dWireframe
350
2F
  3
3D Hidden
350
31
  3
3dWireframe
350
30
  3
Basic
350
32
  3
Brighten
350
36
  3
ColorChange
350
3A
  3
Conceptual
350
34
  3
Dim
350
35
  3
Facepattern
350
39
  3
Flat
350
2B
  3
FlatWithEdges
350
2C
  3
Gouraud
350
2D
  3
GouraudWithEdges
350
2E
  3
Linepattern
350
38
  3
Realistic
350
33
  3
Thicken
350
37
  0
LAYOUT
  5
1E
102
{ACAD_REACTORS
330
1A
102
}
330
1A
100
AcDbPlotSettings
  1

  2
none_device
  4

  6

 40
0.0
 41
0.0
 42
0.0
 43
0.0
 44
0.0
 45
0.0
 46
0.0
 47
0.0
 48
0.0
 49
0.0
140
0.0
141
0.0
142
1.0
143
1.0
 70
   688
 72
     0
 73
     0
 74
     5
  7

 75
    16
 76
     0
 77
     2
 78
   300
147
1.0
148
0.0
149
0.0
100
AcDbLayout
  1
Layout1
 70
     1
 71
     1
 10
0.0
 20
0.0
 11
12.0
 21
9.0
 12
0.0
 22
0.0
 32
0.0
 14
1.000000000000000E+20
 24
1.000000000000000E+20
 34
1.000000000000000E+20
 15
-1.000000000000000E+20
 25
-1.000000000000000E+20
 35
-1.000000000000000E+20
146
0.0
 13
0.0
 23
0.0
 33
0.0
 16
1.0
 26
0.0
 36
0.0
 17
0.0
 27
1.0
 37
0.0
 76
     0
330
1B
  0
LAYOUT
  5
26
102
{ACAD_REACTORS
330
1A
102
}
330
1A
100
AcDbPlotSettings
  1

  2
none_device
  4

  6

 40
0.0
 41
0.0
 42
0.0
 43
0.0
 44
0.0
 45
0.0
 46
0.0
 47
0.0
 48
0.0
 49
0.0
140
0.0
141
0.0
142
1.0
143
1.0
 70
   688
 72
     0
 73
     0
 74
     5
  7

 75
    16
 76
     0
 77
     2
 78
   300
147
1.0
148
0.0
149
0.0
100
AcDbLayout
  1
Layout2
 70
     1
 71
     2
 10
0.0
 20
0.0
 11
0.0
 21
0.0
 12
0.0
 22
0.0
 32
0.0
 14
0.0
 24
0.0
 34
0.0
 15
0.0
 25
0.0
 35
0.0
146
0.0
 13
0.0
 23
0.0
 33
0.0
 16
1.0
 26
0.0
 36
0.0
 17
0.0
 27
1.0
 37
0.0
 76
     0
330
23
  0
LAYOUT
  5
22
102
{ACAD_REACTORS
330
1A
102
}
330
1A
100
AcDbPlotSettings
  1

  2
none_device
  4

  6

 40
0.0
 41
0.0
 42
0.0
 43
0.0
 44
0.0
 45
0.0
 46
0.0
 47
0.0
 48
0.0
 49
0.0
140
0.0
141
0.0
142
1.0
143
1.0
 70
  1712
 72
     0
 73
     0
 74
     0
  7

 75
     0
 76
     0
 77
     2
 78
   300
147
1.0
148
0.0
149
0.0
100
AcDbLayout
  1
Model
 70
     1
 71
     0
 10
0.0
 20
0.0
 11
12.0
 21
9.0
 12
0.0
 22
0.0
 32
0.0
 14
1.000000000000000E+20
 24
1.000000000000000E+20
 34
1.000000000000000E+20
 15
-1.000000000000000E+20
 25
-1.000000000000000E+20
 35
-1.000000000000000E+20
146
0.0
 13
0.0
 23
0.0
 33
0.0
 16
1.0
 26
0.0
 36
0.0
 17
0.0
 27
1.0
 37
0.0
 76
     0
330
1F
331
29
  0
MATERIAL
  5
3D
102
{ACAD_REACTORS
330
3B
102
}
330
3B
100
AcDbMaterial
  1
ByBlock
 72
     1
 94
      127
  0
MATERIAL
  5
3C
102
{ACAD_REACTORS
330
3B
102
}
330
3B
100
AcDbMaterial
  1
ByLayer
 72
     1
 94
      127
  0
MATERIAL
  5
3E
102
{ACAD_REACTORS
330
3B
102
}
330
3B
100
AcDbMaterial
  1
Global
 72
     1
 94
      127
  0
MLINESTYLE
  5
18
102
{ACAD_REACTORS
330
17
102
}
330
17
100
AcDbMlineStyle
  2
Standard
 70
     0
  3

 62
   256
 51
90.0
 52
90.0
 71
     2
 49
0.5
 62
   256
  6
BYLAYER
 49
-0.5
 62
   256
  6
BYLAYER
  0
ACDBPLACEHOLDER
  5
F
102
{ACAD_REACTORS
330
E
102
}
330
E
  0
VISUALSTYLE
  5
2F
102
{ACAD_REACTORS
330
2A
102
}
330
2A
100
AcDbVisualStyle
  2
2dWireframe
 70
     4
177
     2
291
     0
 71
     0
176
     1
 72
     2
176
     1
 73
     0
176
     1
 90
        0
176
     1
 40
-0.6
176
     1
 41
-30.0
176
     1
 62
     5
 63
     7
421
 16777215
176
     1
 74
     1
176
     1
 91
        4
176
     1
 64
     7
176
     1
 65
   257
176
     1
 75
     1
176
     1
175
     1
176
     1
 42
1.0
176
     1
 92
        0
176
     1
 66
   257
176
     1
 43
1.0
176
     1
 76
     1
176
     1
 77
     6
176
     1
 78
     2
176
     1
 67
     7
176
     1
 79
     5
176
     1
170
     0
176
     1
171
     0
176
     1
290
     0
176
     1
 93
        1
176
     1
 44
0.0
176
     1
173
     0
176
     1
  0
VISUALSTYLE
  5
31
102
{ACAD_REACTORS
330
2A
102
}
330
2A
100
AcDbVisualStyle
  2
3D Hidden
 70
     6
177
     2
291
     0
 71
     1
176
     1
 72
     2
176
     1
 73
     2
176
     1
 90
        0
176
     1
 40
-0.6
176
     1
 41
-30.0
176
     1
 62
     5
 63
     7
421
 16777215
176
     1
 74
     2
176
     1
 91
        2
176
     1
 64
     7
176
     1
 65
   257
176
     1
 75
     2
176
     1
175
     1
176
     1
 42
40.0
176
     1
 92
        0
176
     1
 66
   257
176
     1
 43
1.0
176
     1
 76
     1
176
     1
 77
     6
176
     1
 78
     2
176
     1
 67
     7
176
     1
 79
     3
176
     1
170
     0
176
     1
171
     0
176
     1
290
     0
176
     1
 93
        1
176
     1
 44
0.0
176
     1
173
     0
176
     1
  0
VISUALSTYLE
  5
30
102
{ACAD_REACTORS
330
2A
102
}
330
2A
100
AcDbVisualStyle
  2
3dWireframe
 70
     5
177
     2
291
     0
 71
     0
176
     1
 72
     2
176
     1
 73
     0
176
     1
 90
        0
176
     1
 40
-0.6
176
     1
 41
-30.0
176
     1
 62
     5
 63
     7
421
 16777215
176
     1
 74
     1
176
     1
 91
        4
176
     1
 64
     7
176
     1
 65
   257
176
     1
 75
     1
176
     1
175
     1
176
     1
 42
1.0
176
     1
 92
        0
176
     1
 66
   257
176
     1
 43
1.0
176
     1
 76
     1
176
     1
 77
     6
176
     1
 78
     2
176
     1
 67
     7
176
     1
 79
     5
176
     1
170
     0
176
     1
171
     0
176
     1
290
     0
176
     1
 93
        1
176
     1
 44
0.0
176
     1
173
     0
176
     1
  0
VISUALSTYLE
  5
32
102
{ACAD_REACTORS
330
2A
102
}
330
2A
100
AcDbVisualStyle
  2
Basic
 70
     7
177
     2
291
     1
 71
     1
176
     1
 72
     0
176
     1
 73
     1
176
     1
 90
        0
176
     1
 40
-0.6
176
     1
 41
-30.0
176
     1
 62
     5
 63
     7
421
 16777215
176
     1
 74
     0
176
     1
 91
        4
176
     1
 64
     7
176
     1
 65
   257
176
     1
 75
     1
176
     1
175
     1
176
     1
 42
1.0
176
     1
 92
        8
176
     1
 66
     7
176
     1
 43
1.0
176
     1
 76
     1
176
     1
 77
     6
176
     1
 78
     2
176
     1
 67
     7
176
     1
 79
     5
176
     1
170
     0
176
     1
171
     0
176
     1
290
     0
176
     1
 93
        1
176
     1
 44
0.0
176
     1
173
     0
176
     1
  0
VISUALSTYLE
  5
36
102
{ACAD_REACTORS
330
2A
102
}
330
2A
100
AcDbVisualStyle
  2
Brighten
 70
    12
177
     2
291
     1
 71
     2
176
     1
 72
     2
176
     1
 73
     0
176
     1
 90
        0
176
     1
 40
-0.6
176
     1
 41
-30.0
176
     1
 62
     5
 63
     7
421
 16777215
176
     1
 74
     1
176
     1
 91
        4
176
     1
 64
     7
176
     1
 65
   257
176
     1
 75
     1
176
     1
175
     1
176
     1
 42
1.0
176
     1
 92
        8
176
     1
 66
     7
176
     1
 43
1.0
176
     1
 76
     1
176
     1
 77
     6
176
     1
 78
     2
176
     1
 67
     7
176
     1
 79
     5
176
     1
170
     0
176
     1
171
     0
176
     1
290
     0
176
     1
 93
        1
176
     1
 44
50.0
176
     1
173
     0
176
     1
  0
VISUALSTYLE
  5
3A
102
{ACAD_REACTORS
330
2A
102
}
330
2A
100
AcDbVisualStyle
  2
ColorChange
 70
    16
177
     2
291
     1
 71
     2
176
     1
 72
     2
176
     1
 73
     3
176
     1
 90
        0
176
     1
 40
-0.6
176
     1
 41
-30.0
176
     1
 62
     5
 63
     8
421
  8421504
176
     1
 74
     1
176
     1
 91
        4
176
     1
 64
     7
176
     1
 65
   257
176
     1
 75
     1
176
     1
175
     1
176
     1
 42
1.0
176
     1
 92
        8
176
     1
 66
     8
424
  8421504
176
     1
 43
1.0
176
     1
 76
     1
176
     1
 77
     6
176
     1
 78
     2
176
     1
 67
     7
176
     1
 79
     5
176
     1
170
     0
176
     1
171
     0
176
     1
290
     0
176
     1
 93
        1
176
     1
 44
0.0
176
     1
173
     0
176
     1
  0
VISUALSTYLE
  5
34
102
{ACAD_REACTORS
330
2A
102
}
330
2A
100
AcDbVisualStyle
  2
Conceptual
 70
     9
177
     2
291
     0
 71
     3
176
     1
 72
     2
176
     1
 73
     0
176
     1
 90
        0
176
     1
 40
-0.6
176
     1
 41
-30.0
176
     1
 62
     5
 63
     7
421
 16777215
176
     1
 74
     2
176
     1
 91
        2
176
     1
 64
     7
176
     1
 65
   257
176
     1
 75
     1
176
     1
175
     1
176
     1
 42
40.0
176
     1
 92
        8
176
     1
 66
     7
176
     1
 43
1.0
176
     1
 76
     1
176
     1
 77
     6
176
     1
 78
     2
176
     1
 67
     7
176
     1
 79
     3
176
     1
170
     0
176
     1
171
     0
176
     1
290
     0
176
     1
 93
        1
176
     1
 44
0.0
176
     1
173
     0
176
     1
  0
VISUALSTYLE
  5
35
102
{ACAD_REACTORS
330
2A
102
}
330
2A
100
AcDbVisualStyle
  2
Dim
 70
    11
177
     2
291
     1
 71
     2
176
     1
 72
     2
176
     1
 73
     0
176
     1
 90
        0
176
     1
 40
-0.6
176
     1
 41
-30.0
176
     1
 62
     5
 63
     7
421
 16777215
176
     1
 74
     1
176
     1
 91
        4
176
     1
 64
     7
176
     1
 65
   257
176
     1
 75
     1
176
     1
175
     1
176
     1
 42
1.0
176
     1
 92
        8
176
     1
 66
     7
176
     1
 43
1.0
176
     1
 76
     1
176
     1
 77
     6
176
     1
 78
     2
176
     1
 67
     7
176
     1
 79
     5
176
     1
170
     0
176
     1
171
     0
176
     1
290
     0
176
     1
 93
        1
176
     1
 44
-50.0
176
     1
173
     0
176
     1
  0
VISUALSTYLE
  5
39
102
{ACAD_REACTORS
330
2A
102
}
330
2A
100
AcDbVisualStyle
  2
Facepattern
 70
    15
177
     2
291
     1
 71
     2
176
     1
 72
     2
176
     1
 73
     0
176
     1
 90
        0
176
     1
 40
-0.6
176
     1
 41
-30.0
176
     1
 62
     5
 63
     7
421
 16777215
176
     1
 74
     1
176
     1
 91
        4
176
     1
 64
     7
176
     1
 65
   257
176
     1
 75
     1
176
     1
175
     1
176
     1
 42
1.0
176
     1
 92
        8
176
     1
 66
     7
176
     1
 43
1.0
176
     1
 76
     1
176
     1
 77
     6
176
     1
 78
     2
176
     1
 67
     7
176
     1
 79
     5
176
     1
170
     0
176
     1
171
     0
176
     1
290
     0
176
     1
 93
        1
176
     1
 44
0.0
176
     1
173
     0
176
     1
  0
VISUALSTYLE
  5
2B
102
{ACAD_REACTORS
330
2A
102
}
330
2A
100
AcDbVisualStyle
  2
Flat
 70
     0
177
     2
291
     1
 71
     2
176
     1
 72
     1
176
     1
 73
     1
176
     1
 90
        2
176
     1
 40
-0.6
176
     1
 41
30.0
176
     1
 62
     5
 63
     7
421
 16777215
176
     1
 74
     0
176
     1
 91
        4
176
     1
 64
     7
176
     1
 65
   257
176
     1
 75
     1
176
     1
175
     1
176
     1
 42
1.0
176
     1
 92
        8
176
     1
 66
     7
176
     1
 43
1.0
176
     1
 76
     1
176
     1
 77
     6
176
     1
 78
     2
176
     1
 67
     7
176
     1
 79
     5
176
     1
170
     0
176
     1
171
     0
176
     1
290
     0
176
     1
 93
       13
176
     1
 44
0.0
176
     1
173
     0
176
     1
  0
VISUALSTYLE
  5
2C
102
{ACAD_REACTORS
330
2A
102
}
330
2A
100
AcDbVisualStyle
  2
FlatWithEdges
 70
     1
177
     2
291
     1
 71
     2
176
     1
 72
     1
176
     1
 73
     1
176
     1
 90
        2
176
     1
 40
-0.6
176
     1
 41
30.0
176
     1
 62
     5
 63
     7
421
 16777215
176
     1
 74
     1
176
     1
 91
        4
176
     1
 64
     7
176
     1
 65
   257
176
     1
 75
     1
176
     1
175
     1
176
     1
 42
1.0
176
     1
 92
        0
176
     1
 66
   257
176
     1
 43
1.0
176
     1
 76
     1
176
     1
 77
     6
176
     1
 78
     2
176
     1
 67
     7
176
     1
 79
     5
176
     1
170
     0
176
     1
171
     0
176
     1
290
     0
176
     1
 93
       13
176
     1
 44
0.0
176
     1
173
     0
176
     1
  0
VISUALSTYLE
  5
2D
102
{ACAD_REACTORS
330
2A
102
}
330
2A
100
AcDbVisualStyle
  2
Gouraud
 70
     2
177
     2
291
     1
 71
     2
176
     1
 72
     2
176
     1
 73
     1
176
     1
 90
        2
176
     1
 40
-0.6
176
     1
 41
30.0
176
     1
 62
     5
 63
     7
421
 16777215
176
     1
 74
     0
176
     1
 91
        4
176
     1
 64
     7
176
     1
 65
   257
176
     1
 75
     1
176
     1
175
     1
176
     1
 42
1.0
176
     1
 92
        0
176
     1
 66
     7
176
     1
 43
1.0
176
     1
 76
     1
176
     1
 77
     6
176
     1
 78
     2
176
     1
 67
     7
176
     1
 79
     5
176
     1
170
     0
176
     1
171
     0
176
     1
290
     0
176
     1
 93
       13
176
     1
 44
0.0
176
     1
173
     0
176
     1
  0
VISUALSTYLE
  5
2E
102
{ACAD_REACTORS
330
2A
102
}
330
2A
100
AcDbVisualStyle
  2
GouraudWithEdges
 70
     3
177
     2
291
     1
 71
     2
176
     1
 72
     2
176
     1
 73
     1
176
     1
 90
        2
176
     1
 40
-0.6
176
     1
 41
30.0
176
     1
 62
     5
 63
     7
421
 16777215
176
     1
 74
     1
176
     1
 91
        4
176
     1
 64
     7
176
     1
 65
   257
176
     1
 75
     1
176
     1
175
     1
176
     1
 42
1.0
176
     1
 92
        0
176
     1
 66
   257
176
     1
 43
1.0
176
     1
 76
     1
176
     1
 77
     6
176
     1
 78
     2
176
     1
 67
     7
176
     1
 79
     5
176
     1
170
     0
176
     1
171
     0
176
     1
290
     0
176
     1
 93
       13
176
     1
 44
0.0
176
     1
173
     0
176
     1
  0
VISUALSTYLE
  5
38
102
{ACAD_REACTORS
330
2A
102
}
330
2A
100
AcDbVisualStyle
  2
Linepattern
 70
    14
177
     2
291
     1
 71
     2
176
     1
 72
     2
176
     1
 73
     0
176
     1
 90
        0
176
     1
 40
-0.6
176
     1
 41
-30.0
176
     1
 62
     5
 63
     7
421
 16777215
176
     1
 74
     1
176
     1
 91
        4
176
     1
 64
     7
176
     1
 65
   257
176
     1
 75
     7
176
     1
175
     7
176
     1
 42
1.0
176
     1
 92
        8
176
     1
 66
     7
176
     1
 43
1.0
176
     1
 76
     1
176
     1
 77
     6
176
     1
 78
     2
176
     1
 67
     7
176
     1
 79
     5
176
     1
170
     0
176
     1
171
     0
176
     1
290
     0
176
     1
 93
        1
176
     1
 44
0.0
176
     1
173
     0
176
     1
  0
VISUALSTYLE
  5
33
102
{ACAD_REACTORS
330
2A
102
}
330
2A
100
AcDbVisualStyle
  2
Realistic
 70
     8
177
     2
291
     0
 71
     2
176
     1
 72
     2
176
     1
 73
     0
176
     1
 90
        0
176
     1
 40
-0.6
176
     1
 41
-30.0
176
     1
 62
     5
 63
     7
421
 16777215
176
     1
 74
     1
176
     1
 91
        0
176
     1
 64
     7
176
     1
 65
   257
176
     1
 75
     1
176
     1
175
     1
176
     1
 42
1.0
176
     1
 92
        8
176
     1
 66
     8
424
  7895160
176
     1
 43
1.0
176
     1
 76
     1
176
     1
 77
     6
176
     1
 78
     2
176
     1
 67
     7
176
     1
 79
     5
176
     1
170
     0
176
     1
171
     0
176
     1
290
     0
176
     1
 93
       13
176
     1
 44
0.0
176
     1
173
     0
176
     1
  0
VISUALSTYLE
  5
37
102
{ACAD_REACTORS
330
2A
102
}
330
2A
100
AcDbVisualStyle
  2
Thicken
 70
    13
177
     2
291
     1
 71
     2
176
     1
 72
     2
176
     1
 73
     0
176
     1
 90
        0
176
     1
 40
-0.6
176
     1
 41
-30.0
176
     1
 62
     5
 63
     7
421
 16777215
176
     1
 74
     1
176
     1
 91
        4
176
     1
 64
     7
176
     1
 65
   257
176
     1
 75
     1
176
     1
175
     1
176
     1
 42
1.0
176
     1
 92
       12
176
     1
 66
     7
176
     1
 43
1.0
176
     1
 76
     1
176
     1
 77
     6
176
     1
 78
     2
176
     1
 67
     7
176
     1
 79
     5
176
     1
170
     0
176
     1
171
     0
176
     1
290
     0
176
     1
 93
        1
176
     1
 44
0.0
176
     1
173
     0
176
     1
  0
ENDSEC
  0
EOF
