  0
SECTION
  2
HEADER
  9
$ACADVER
  1
AC1024
  9
$ACADMAINTVER
 70
     6
  9
$DWGCODEPAGE
  3
UNDEFINED
  9
$INSBASE
 10
0.0
 20
0.0
 30
0.0
  9
$EXTMIN
 10
1.000000000000000E+20
 20
1.000000000000000E+20
 30
1.000000000000000E+20
  9
$EXTMAX
 10
-1.000000000000000E+20
 20
-1.000000000000000E+20
 30
-1.000000000000000E+20
  9
$LIMMIN
 10
0.0
 20
0.0
  9
$LIMMAX
 10
12.0
 20
9.0
  9
$ORTHOMODE
 70
     0
  9
$REGENMODE
 70
     1
  9
$FILLMODE
 70
     1
  9
$QTEXTMODE
 70
     0
  9
$MIRRTEXT
 70
     1
  9
$LTSCALE
 40
1.0
  9
$ATTMODE
 70
     1
  9
$TEXTSIZE
 40
0.2
  9
$TRACEWID
 40
0.05
  9
$TEXTSTYLE
  7
Standard
  9
$CLAYER
  8
0
  9
$CELTYPE
  6
ByLayer
  9
$CECOLOR
 62
   256
  9
$CELTSCALE
 40
1.0
  9
$DISPSILH
 70
     0
  9
$DIMSCALE
 40
1.0
  9
$DIMASZ
 40
0.18
  9
$DIMEXO
 40
0.0625
  9
$DIMDLI
 40
0.38
  9
$DIMRND
 40
0.0
  9
$DIMDLE
 40
0.0
  9
$DIMEXE
 40
0.18
  9
$DIMTP
 40
0.0
  9
$DIMTM
 40
0.0
  9
$DIMTXT
 40
0.18
  9
$DIMCEN
 40
0.09
  9
$DIMTSZ
 40
0.0
  9
$DIMTOL
 70
     0
  9
$DIMLIM
 70
     0
  9
$DIMTIH
 70
     1
  9
$DIMTOH
 70
     1
  9
$DIMSE1
 70
     0
  9
$DIMSE2
 70
     0
  9
$DIMTAD
 70
     0
  9
$DIMZIN
 70
     0
  9
$DIMBLK
  1

  9
$DIMASO
 70
     1
  9
$DIMSHO
 70
     1
  9
$DIMPOST
  1

  9
$DIMAPOST
  1

  9
$DIMALT
 70
     0
  9
$DIMALTD
 70
     2
  9
$DIMALTF
 40
25.4
  9
$DIMLFAC
 40
1.0
  9
$DIMTOFL
 70
     0
  9
$DIMTVP
 40
0.0
  9
$DIMTIX
 70
     0
  9
$DIMSOXD
 70
     0
  9
$DIMSAH
 70
     0
  9
$DIMBLK1
  1

  9
$DIMBLK2
  1

  9
$DIMSTYLE
  2
Standard
  9
$DIMCLRD
 70
     0
  9
$DIMCLRE
 70
     0
  9
$DIMCLRT
 70
     0
  9
$DIMTFAC
 40
1.0
  9
$DIMGAP
 40
0.09
  9
$DIMJUST
 70
     0
  9
$DIMSD1
 70
     0
  9
$DIMSD2
 70
     0
  9
$DIMTOLJ
 70
     1
  9
$DIMTZIN
 70
     0
  9
$DIMALTZ
 70
     0
  9
$DIMALTTZ
 70
     0
  9
$DIMUPT
 70
     0
  9
$DIMDEC
 70
     4
  9
$DIMTDEC
 70
     4
  9
$DIMALTU
 70
     2
  9
$DIMALTTD
 70
     2
  9
$DIMTXSTY
  7
Standard
  9
$DIMAUNIT
 70
     0
  9
$DIMADEC
 70
     0
  9
$DIMALTRND
 40
0.0
  9
$DIMAZIN
 70
     0
  9
$DIMDSEP
 70
    46
  9
$DIMATFIT
 70
     3
  9
$DIMFRAC
 70
     0
  9
$DIMLDRBLK
  1

  9
$DIMLUNIT
 70
     2
  9
$DIMLWD
 70
    -2
  9
$DIMLWE
 70
    -2
  9
$DIMTMOVE
 70
     0
  9
$DIMFXL
 40
1.0
  9
$DIMFXLON
 70
     0
  9
$DIMJOGANG
 40
0.7853981633974483
  9
$DIMTFILL
 70
     0
  9
$DIMTFILLCLR
 70
     0
  9
$DIMARCSYM
 70
     0
  9
$DIMLTYPE
  6

  9
$DIMLTEX1
  6

  9
$DIMLTEX2
  6

  9
$DIMTXTDIRECTION
 70
     0
  9
$LUNITS
 70
     2
  9
$LUPREC
 70
     4
  9
$SKETCHINC
 40
0.1
  9
$FILLETRAD
 40
0.5
  9
$AUNITS
 70
     0
  9
$AUPREC
 70
     0
  9
$MENU
  1
.
  9
$ELEVATION
 40
0.0
  9
$PELEVATION
 40
0.0
  9
$THICKNESS
 40
0.0
  9
$LIMCHECK
 70
     0
  9
$CHAMFERA
 40
0.5
  9
$CHAMFERB
 40
0.5
  9
$CHAMFERC
 40
1.0
  9
$CHAMFERD
 40
0.0
  9
$SKPOLY
 70
     0
  9
$TDCREATE
 40
2458263.581712963
  9
$TDUCREATE
 40
2458263.206712963
  9
$TDUPDATE
 40
2458263.581712963
  9
$TDUUPDATE
 40
2458263.206712963
  9
$TDINDWG
 40
0.0000000116
  9
$TDUSRTIMER
 40
0.0000000116
  9
$USRTIMER
 70
     1
  9
$ANGBASE
 50
0.0
  9
$ANGDIR
 70
     0
  9
$PDMODE
 70
     0
  9
$PDSIZE
 40
0.0
  9
$PLINEWID
 40
0.0
  9
$SPLFRAME
 70
     0
  9
$SPLINETYPE
 70
     6
  9
$SPLINESEGS
 70
     8
  9
$HANDSEED
  5
EC
  9
$SURFTAB1
 70
     6
  9
$SURFTAB2
 70
     6
  9
$SURFTYPE
 70
     6
  9
$SURFU
 70
     6
  9
$SURFV
 70
     6
  9
$UCSBASE
  2

  9
$UCSNAME
  2

  9
$UCSORG
 10
0.0
 20
0.0
 30
0.0
  9
$UCSXDIR
 10
1.0
 20
0.0
 30
0.0
  9
$UCSYDIR
 10
0.0
 20
1.0
 30
0.0
  9
$UCSORTHOREF
  2

  9
$UCSORTHOVIEW
 70
     0
  9
$UCSORGTOP
 10
0.0
 20
0.0
 30
0.0
  9
$UCSORGBOTTOM
 10
0.0
 20
0.0
 30
0.0
  9
$UCSORGLEFT
 10
0.0
 20
0.0
 30
0.0
  9
$UCSORGRIGHT
 10
0.0
 20
0.0
 30
0.0
  9
$UCSORGFRONT
 10
0.0
 20
0.0
 30
0.0
  9
$UCSORGBACK
 10
0.0
 20
0.0
 30
0.0
  9
$PUCSBASE
  2

  9
$PUCSNAME
  2

  9
$PUCSORG
 10
0.0
 20
0.0
 30
0.0
  9
$PUCSXDIR
 10
1.0
 20
0.0
 30
0.0
  9
$PUCSYDIR
 10
0.0
 20
1.0
 30
0.0
  9
$PUCSORTHOREF
  2

  9
$PUCSORTHOVIEW
 70
     0
  9
$PUCSORGTOP
 10
0.0
 20
0.0
 30
0.0
  9
$PUCSORGBOTTOM
 10
0.0
 20
0.0
 30
0.0
  9
$PUCSORGLEFT
 10
0.0
 20
0.0
 30
0.0
  9
$PUCSORGRIGHT
 10
0.0
 20
0.0
 30
0.0
  9
$PUCSORGFRONT
 10
0.0
 20
0.0
 30
0.0
  9
$PUCSORGBACK
 10
0.0
 20
0.0
 30
0.0
  9
$USERI1
 70
     0
  9
$USERI2
 70
     0
  9
$USERI3
 70
     0
  9
$USERI4
 70
     0
  9
$USERI5
 70
     0
  9
$USERR1
 40
0.0
  9
$USERR2
 40
0.0
  9
$USERR3
 40
0.0
  9
$USERR4
 40
0.0
  9
$USERR5
 40
0.0
  9
$WORLDVIEW
 70
     1
  9
$SHADEDGE
 70
     3
  9
$SHADEDIF
 70
    70
  9
$TILEMODE
 70
     1
  9
$MAXACTVP
 70
    64
  9
$PINSBASE
 10
0.0
 20
0.0
 30
0.0
  9
$PLIMCHECK
 70
     0
  9
$PEXTMIN
 10
1.000000000000000E+20
 20
1.000000000000000E+20
 30
1.000000000000000E+20
  9
$PEXTMAX
 10
-1.000000000000000E+20
 20
-1.000000000000000E+20
 30
-1.000000000000000E+20
  9
$PLIMMIN
 10
0.0
 20
0.0
  9
$PLIMMAX
 10
12.0
 20
9.0
  9
$UNITMODE
 70
     0
  9
$VISRETAIN
 70
     1
  9
$PLINEGEN
 70
     0
  9
$PSLTSCALE
 70
     1
  9
$TREEDEPTH
 70
  3020
  9
$CMLSTYLE
  2
Standard
  9
$CMLJUST
 70
     0
  9
$CMLSCALE
 40
1.0
  9
$PROXYGRAPHICS
 70
     1
  9
$MEASUREMENT
 70
     0
  9
$CELWEIGHT
370
    -1
  9
$ENDCAPS
280
     0
  9
$JOINSTYLE
280
     0
  9
$LWDISPLAY
290
     1
  9
$INSUNITS
 70
     1
  9
$HYPERLINKBASE
  1

  9
$STYLESHEET
  1

  9
$XEDIT
290
     1
  9
$CEPSNTYPE
380
     0
  9
$PSTYLEMODE
290
     1
  9
$FINGERPRINTGUID
  2
{3BAA9F1C-3F5B-0D5C-4D29-B1482E48AA94}
  9
$VERSIONGUID
  2
{FAEB1C32-E019-11D5-929B-00C0DF256EC4}
  9
$EXTNAMES
290
     1
  9
$PSVPSCALE
 40
0.0
  9
$OLESTARTUP
290
     0
  9
$SORTENTS
280
   127
  9
$INDEXCTL
280
     0
  9
$HIDETEXT
280
     1
  9
$XCLIPFRAME
280
     2
  9
$HALOGAP
280
     0
  9
$OBSCOLOR
 70
   257
  9
$OBSLTYPE
280
     0
  9
$INTERSECTIONDISPLAY
280
     0
  9
$INTERSECTIONCOLOR
 70
   257
  9
$DIMASSOC
280
     2
  9
$PROJECTNAME
  1

  9
$CAMERADISPLAY
290
     0
  9
$LENSLENGTH
 40
50.0
  9
$CAMERAHEIGHT
 40
0.0
  9
$STEPSPERSEC
 40
2.0
  9
$STEPSIZE
 40
6.0
  9
$3DDWFPREC
 40
2.0
  9
$PSOLWIDTH
 40
0.25
  9
$PSOLHEIGHT
 40
4.0
  9
$LOFTANG1
 40
1.570796326794897
  9
$LOFTANG2
 40
1.570796326794897
  9
$LOFTMAG1
 40
0.0
  9
$LOFTMAG2
 40
0.0
  9
$LOFTPARAM
 70
     7
  9
$LOFTNORMALS
280
     1
  9
$LATITUDE
 40
37.795
  9
$LONGITUDE
 40
-122.394
  9
$NORTHDIRECTION
 40
0.0
  9
$TIMEZONE
 70
 -8000
  9
$LIGHTGLYPHDISPLAY
280
     1
  9
$TILEMODELIGHTSYNCH
280
     1
  9
$CMATERIAL
347
3C
  9
$SOLIDHIST
280
     1
  9
$SHOWHIST
280
     1
  9
$DWFFRAME
280
     2
  9
$DGNFRAME
280
     2
  9
$REALWORLDSCALE
290
     1
  9
$INTERFERECOLOR
 62
   256
  9
$CSHADOW
280
     0
  9
$SHADOWPLANELOCATION
 40
0.0
  0
ENDSEC
  0
SECTION
  2
CLASSES
  0
CLASS
  1
ACDBDICTIONARYWDFLT
  2
AcDbDictionaryWithDefault
  3
ObjectDBX Classes
 90
        0
 91
        4
280
     0
281
     0
  0
CLASS
  1
VISUALSTYLE
  2
AcDbVisualStyle
  3
ObjectDBX Classes
 90
     4095
 91
        4
280
     0
281
     0
  0
CLASS
  1
MATERIAL
  2
AcDbMaterial
  3
ObjectDBX Classes
 90
     1153
 91
        4
280
     0
281
     0
  0
CLASS
  1
SUN
  2
AcDbSun
  3
SCENEOE
 90
     1024
 91
        4
280
     0
281
     0
  0
ENDSEC
  0
SECTION
  2
TABLES
  0
TABLE
  2
VPORT
  5
8
330
0
100
AcDbSymbolTable
 70
     1
  0
VPORT
  5
29
330
8
100
AcDbSymbolTableRecord
100
AcDbViewportTableRecord
  2
*Active
 70
     0
 10
0.0
 20
0.0
 11
1.0
 21
1.0
 12
0.0
 22
0.0
 13
0.0
 23
0.0
 14
0.5
 24
0.5
 15
0.5
 25
0.5
 16
0.0
 26
0.0
 36
1.0
 17
105.0007777515277
 27
-148.5000416295416
 37
0.0
 40
297.0000832590831
 41
0.7070757462376333
 42
50.0
 43
0.0
 44
0.0
 50
0.0
 51
0.0
 71
     0
 72
   100
 73
     1
 74
     3
 75
     0
 76
     0
 77
     0
 78
     0
281
     0
 65
     1
110
0.0
120
0.0
130
0.0
111
1.0
121
0.0
131
0.0
112
0.0
122
1.0
132
0.0
 79
     0
146
0.0
 60
     3
 61
     5
292
     1
282
     1
141
0.0
142
0.0
 63
   250
361
3F
  0
ENDTAB
  0
TABLE
  2
LTYPE
  5
5
330
0
100
AcDbSymbolTable
 70
     1
  0
LTYPE
  5
14
330
5
100
AcDbSymbolTableRecord
100
AcDbLinetypeTableRecord
  2
ByBlock
 70
     0
  3

 72
    65
 73
     0
 40
0.0
  0
LTYPE
  5
15
330
5
100
AcDbSymbolTableRecord
100
AcDbLinetypeTableRecord
  2
ByLayer
 70
     0
  3

 72
    65
 73
     0
 40
0.0
  0
LTYPE
  5
16
330
5
100
AcDbSymbolTableRecord
100
AcDbLinetypeTableRecord
  2
Continuous
 70
     0
  3
Solid line
 72
    65
 73
     0
 40
0.0
  0
ENDTAB
  0
TABLE
  2
LAYER
  5
2
330
0
100
AcDbSymbolTable
 70
     2
  0
LAYER
  5
10
330
2
100
AcDbSymbolTableRecord
100
AcDbLayerTableRecord
  2
0
 70
     0
 62
     7
  6
Continuous
370
    -3
390
F
347
3E
  0
LAYER
  5
40
330
2
100
AcDbSymbolTableRecord
100
AcDbLayerTableRecord
  2
_U+30EC_U+30A4_U+30E4_U+30FC 1
 70
     0
 62
     7
  6
Continuous
370
    -3
390
F
347
3E
  0
ENDTAB
  0
TABLE
  2
STYLE
  5
3
330
0
100
AcDbSymbolTable
 70
     1
  0
STYLE
  5
11
330
3
100
AcDbSymbolTableRecord
100
AcDbTextStyleTableRecord
  2
Standard
 70
     0
 40
0.0
 41
1.0
 50
0.0
 71
     0
 42
0.2
  3
txt
  4

  0
ENDTAB
  0
TABLE
  2
VIEW
  5
6
330
0
100
AcDbSymbolTable
 70
     0
  0
ENDTAB
  0
TABLE
  2
UCS
  5
7
330
0
100
AcDbSymbolTable
 70
     0
  0
ENDTAB
  0
TABLE
  2
APPID
  5
9
330
0
100
AcDbSymbolTable
 70
     1
  0
APPID
  5
12
330
9
100
AcDbSymbolTableRecord
100
AcDbRegAppTableRecord
  2
ACAD
 70
     0
  0
ENDTAB
  0
TABLE
  2
DIMSTYLE
  5
A
330
0
100
AcDbSymbolTable
 70
     1
100
AcDbDimStyleTable
  0
DIMSTYLE
105
27
330
A
100
AcDbSymbolTableRecord
100
AcDbDimStyleTableRecord
  2
Standard
 70
     0
178
     0
340
11
  0
ENDTAB
  0
TABLE
  2
BLOCK_RECORD
  5
1
330
0
100
AcDbSymbolTable
 70
     6
  0
BLOCK_RECORD
  5
1F
330
1
100
AcDbSymbolTableRecord
100
AcDbBlockTableRecord
  2
*Model_Space
340
22
 70
     0
280
     1
281
     0
  0
BLOCK_RECORD
  5
1B
330
1
100
AcDbSymbolTableRecord
100
AcDbBlockTableRecord
  2
*Paper_Space
340
1E
 70
     0
280
     1
281
     0
  0
BLOCK_RECORD
  5
23
330
1
100
AcDbSymbolTableRecord
100
AcDbBlockTableRecord
  2
*Paper_Space0
340
26
 70
     0
280
     1
281
     0
  0
BLOCK_RECORD
  5
8F
330
1
100
AcDbSymbolTableRecord
100
AcDbBlockTableRecord
  2
block 2
340
0
102
{BLKREFS
331
90
102
}
 70
     0
280
     1
281
     0
  0
BLOCK_RECORD
  5
A1
330
1
100
AcDbSymbolTableRecord
100
AcDbBlockTableRecord
  2
block 3
340
0
102
{BLKREFS
331
A2
102
}
 70
     0
280
     1
281
     0
  0
BLOCK_RECORD
  5
B5
330
1
100
AcDbSymbolTableRecord
100
AcDbBlockTableRecord
  2
block 4
340
0
102
{BLKREFS
331
B6
102
}
 70
     0
280
     1
281
     0
  0
BLOCK_RECORD
  5
C9
330
1
100
AcDbSymbolTableRecord
100
AcDbBlockTableRecord
  2
block 5
340
0
102
{BLKREFS
331
CA
102
}
 70
     0
280
     1
281
     0
  0
BLOCK_RECORD
  5
D8
330
1
100
AcDbSymbolTableRecord
100
AcDbBlockTableRecord
  2
block 6
340
0
102
{BLKREFS
331
D9
102
}
 70
     0
280
     1
281
     0
  0
ENDTAB
  0
ENDSEC
  0
SECTION
  2
BLOCKS
  0
BLOCK
  5
20
330
1F
100
AcDbEntity
  8
0
100
AcDbBlockBegin
  2
*Model_Space
 70
     0
 10
0.0
 20
0.0
 30
0.0
  3
*Model_Space
  1

  0
ENDBLK
  5
21
330
1F
100
AcDbEntity
  8
0
100
AcDbBlockEnd
  0
BLOCK
  5
1C
330
1B
100
AcDbEntity
 67
     1
  8
0
100
AcDbBlockBegin
  2
*Paper_Space
 70
     0
 10
0.0
 20
0.0
 30
0.0
  3
*Paper_Space
  1

  0
ENDBLK
  5
1D
330
1B
100
AcDbEntity
 67
     1
  8
0
100
AcDbBlockEnd
  0
BLOCK
  5
24
330
23
100
AcDbEntity
  8
0
100
AcDbBlockBegin
  2
*Paper_Space0
 70
     0
 10
0.0
 20
0.0
 30
0.0
  3
*Paper_Space0
  1

  0
ENDBLK
  5
25
330
23
100
AcDbEntity
  8
0
100
AcDbBlockEnd
  0
BLOCK
  5
91
330
8F
100
AcDbEntity
  8
0
100
AcDbBlockBegin
  2
block 2
 70
     0
 10
0.0
 20
0.0
 30
0.0
  3
block 2
  1

  0
SPLINE
  5
93
330
8F
100
AcDbEntity
  8
_U+30EC_U+30A4_U+30E4_U+30FC 1
370
     0
100
AcDbSpline
210
0.0
220
0.0
230
1.0
 70
    11
 71
     3
 72
    26
 73
    22
 74
     0
 42
0.0000000001
 43
0.0000000001
 12
1.0
 22
0.0
 32
0.0
 13
1.0
 23
0.0
 33
0.0
 40
0.0
 40
0.0
 40
0.0
 40
0.0
 40
1.0
 40
1.0
 40
1.0
 40
2.0
 40
2.0
 40
2.0
 40
3.0
 40
3.0
 40
3.0
 40
4.0
 40
4.0
 40
4.0
 40
5.0
 40
5.0
 40
5.0
 40
6.0
 40
6.0
 40
6.0
 40
7.0
 40
7.0
 40
7.0
 40
7.0
 10
121.760009735185
 20
-143.0813611838477
 30
0.0
 10
121.760009735185
 20
-143.0813611838477
 30
0.0
 10
120.6555121226139
 20
-143.0813611838477
 30
0.0
 10
120.6555121226139
 20
-143.0813611838477
 30
0.0
 10
120.6555121226139
 20
-143.0813611838477
 30
0.0
 10
120.6555121226139
 20
-143.4114013313346
 30
0.0
 10
120.6555121226139
 20
-143.4114013313346
 30
0.0
 10
120.6555121226139
 20
-143.4114013313346
 30
0.0
 10
120.5073730167482
 20
-143.4114013313346
 30
0.0
 10
120.5073730167482
 20
-143.4114013313346
 30
0.0
 10
120.4929036157101
 20
-143.0792941265566
 30
0.0
 10
120.3296060897093
 20
-143.0327853375057
 30
0.0
 10
120.215228919599
 20
-143.0031575163325
 30
0.0
 10
120.215228919599
 20
-143.0031575163325
 30
0.0
 10
120.215228919599
 20
-142.857085467758
 30
0.0
 10
120.215228919599
 20
-142.857085467758
 30
0.0
 10
120.215228919599
 20
-142.857085467758
 30
0.0
 10
121.760009735185
 20
-142.857085467758
 30
0.0
 10
121.760009735185
 20
-142.857085467758
 30
0.0
 10
121.760009735185
 20
-142.857085467758
 30
0.0
 10
121.760009735185
 20
-143.0813611838477
 30
0.0
 10
121.760009735185
 20
-143.0813611838477
 30
0.0
  0
HATCH
  5
94
330
8F
100
AcDbEntity
  8
_U+30EC_U+30A4_U+30E4_U+30FC 1
 62
   179
420
  2234388
100
AcDbHatch
 10
0.0
 20
0.0
 30
0.0
210
0.0
220
0.0
230
1.0
  2
SOLID
 70
     1
 71
     0
 91
        1
 92
        1
 93
        1
 72
     4
 94
        3
 73
     0
 74
     1
 95
       26
 96
       22
 40
0.0
 40
0.0
 40
0.0
 40
0.0
 40
1.0
 40
1.0
 40
1.0
 40
2.0
 40
2.0
 40
2.0
 40
3.0
 40
3.0
 40
3.0
 40
4.0
 40
4.0
 40
4.0
 40
5.0
 40
5.0
 40
5.0
 40
6.0
 40
6.0
 40
6.0
 40
7.0
 40
7.0
 40
7.0
 40
7.0
 10
121.760009735185
 20
-143.0813611838477
 10
121.760009735185
 20
-143.0813611838477
 10
120.6555121226139
 20
-143.0813611838477
 10
120.6555121226139
 20
-143.0813611838477
 10
120.6555121226139
 20
-143.0813611838477
 10
120.6555121226139
 20
-143.4114013313346
 10
120.6555121226139
 20
-143.4114013313346
 10
120.6555121226139
 20
-143.4114013313346
 10
120.5073730167482
 20
-143.4114013313346
 10
120.5073730167482
 20
-143.4114013313346
 10
120.4929036157101
 20
-143.0792941265566
 10
120.3296060897093
 20
-143.0327853375057
 10
120.215228919599
 20
-143.0031575163325
 10
120.215228919599
 20
-143.0031575163325
 10
120.215228919599
 20
-142.857085467758
 10
120.215228919599
 20
-142.857085467758
 10
120.215228919599
 20
-142.857085467758
 10
121.760009735185
 20
-142.857085467758
 10
121.760009735185
 20
-142.857085467758
 10
121.760009735185
 20
-142.857085467758
 10
121.760009735185
 20
-143.0813611838477
 10
121.760009735185
 20
-143.0813611838477
 97
        0
 97
        0
 75
     2
 76
     1
 98
        0
  0
ENDBLK
  5
92
330
8F
100
AcDbEntity
  8
0
100
AcDbBlockEnd
  0
BLOCK
  5
A3
330
A1
100
AcDbEntity
  8
0
100
AcDbBlockBegin
  2
block 3
 70
     0
 10
0.0
 20
0.0
 30
0.0
  3
block 3
  1

  0
SPLINE
  5
A5
330
A1
100
AcDbEntity
  8
_U+30EC_U+30A4_U+30E4_U+30FC 1
370
     0
100
AcDbSpline
210
0.0
220
0.0
230
1.0
 70
    11
 71
     3
 72
    62
 73
    58
 74
     0
 42
0.0000000001
 43
0.0000000001
 12
1.0
 22
0.0
 32
0.0
 13
1.0
 23
0.0
 33
0.0
 40
0.0
 40
0.0
 40
0.0
 40
0.0
 40
1.0
 40
1.0
 40
1.0
 40
2.0
 40
2.0
 40
2.0
 40
3.0
 40
3.0
 40
3.0
 40
4.0
 40
4.0
 40
4.0
 40
5.0
 40
5.0
 40
5.0
 40
6.0
 40
6.0
 40
6.0
 40
7.0
 40
7.0
 40
7.0
 40
8.0
 40
8.0
 40
8.0
 40
9.0
 40
9.0
 40
9.0
 40
10.0
 40
10.0
 40
10.0
 40
11.0
 40
11.0
 40
11.0
 40
12.0
 40
12.0
 40
12.0
 40
13.0
 40
13.0
 40
13.0
 40
14.0
 40
14.0
 40
14.0
 40
15.0
 40
15.0
 40
15.0
 40
16.0
 40
16.0
 40
16.0
 40
17.0
 40
17.0
 40
17.0
 40
18.0
 40
18.0
 40
18.0
 40
19.0
 40
19.0
 40
19.0
 40
19.0
 10
102.1722303347
 20
-137.8274183140674
 30
0.0
 10
102.0768011897586
 20
-137.8274183140674
 30
0.0
 10
101.8590711550908
 20
-137.8064032316074
 30
0.0
 10
101.7340141889762
 20
-137.6203680754039
 30
0.0
 10
101.6599446360433
 20
-137.5080579625848
 30
0.0
 10
101.655810521461
 20
-137.4088392126096
 30
0.0
 10
101.6516764068787
 20
-137.3240898636725
 30
0.0
 10
101.6516764068787
 20
-137.3240898636725
 30
0.0
 10
101.8718180083862
 20
-137.3240898636725
 30
0.0
 10
101.8718180083862
 20
-137.3240898636725
 30
0.0
 10
101.8738850656774
 20
-137.3981594166053
 30
0.0
 10
101.8842203521331
 20
-137.6327704191508
 30
0.0
 10
102.1677517105692
 20
-137.6327704191508
 30
0.0
 10
102.3052110204306
 20
-137.6327704191508
 30
0.0
 10
102.4578287504272
 20
-137.5631794903488
 30
0.0
 10
102.4578287504272
 20
-137.3347696596767
 30
0.0
 10
102.4578287504272
 20
-137.2183254322753
 30
0.0
 10
102.4195881905409
 20
-137.1697495859333
 30
0.0
 10
102.3878933120766
 20
-137.138054707469
 30
0.0
 10
102.3138237591438
 20
-137.0639851545361
 30
0.0
 10
102.1973795317423
 20
-137.0512383012407
 30
0.0
 10
102.1426025135269
 20
-137.0512383012407
 30
0.0
 10
102.1233099788095
 20
-137.0512383012407
 30
0.0
 10
102.0874809857629
 20
-137.0533053585318
 30
0.0
 10
102.0599202218809
 20
-137.0574394731141
 30
0.0
 10
102.0599202218809
 20
-137.0574394731141
 30
0.0
 10
102.0599202218809
 20
-136.8627915781975
 30
0.0
 10
102.0599202218809
 20
-136.8627915781975
 30
0.0
 10
102.0981607817671
 20
-136.8693372596195
 30
0.0
 10
102.1401909466872
 20
-136.8714043169106
 30
0.0
 10
102.1467366281092
 20
-136.8714043169106
 30
0.0
 10
102.2121934423289
 20
-136.8714043169106
 30
0.0
 10
102.4109754518278
 20
-136.8500447249021
 30
0.0
 10
102.4109754518278
 20
-136.6133666650654
 30
0.0
 10
102.4109754518278
 20
-136.4355997380265
 30
0.0
 10
102.2800618233883
 20
-136.3804782102625
 30
0.0
 10
102.1698187678603
 20
-136.3804782102625
 30
0.0
 10
101.9055799441417
 20
-136.3804782102625
 30
0.0
 10
101.8969672054285
 20
-136.6133666650654
 30
0.0
 10
101.8928330908462
 20
-136.6850246511586
 30
0.0
 10
101.8928330908462
 20
-136.6850246511586
 30
0.0
 10
101.6895724572165
 20
-136.6850246511586
 30
0.0
 10
101.6895724572165
 20
-136.6850246511586
 30
0.0
 10
101.6981851959296
 20
-136.5603121945926
 30
0.0
 10
101.7257459598116
 20
-136.1837632580548
 30
0.0
 10
102.1825656211557
 20
-136.1837632580548
 30
0.0
 10
102.4068413372455
 20
-136.1837632580548
 30
0.0
 10
102.647998021213
 20
-136.3108872814605
 30
0.0
 10
102.647998021213
 20
-136.6068209836434
 30
0.0
 10
102.647998021213
 20
-136.7932006493955
 30
0.0
 10
102.5529133858201
 20
-136.8755384314929
 30
0.0
 10
102.4533501262964
 20
-136.9368611311304
 30
0.0
 10
102.5146728259338
 20
-136.9644218950124
 30
0.0
 10
102.696573867555
 20
-137.0446926198187
 30
0.0
 10
102.696573867555
 20
-137.3220228063813
 30
0.0
 10
102.696573867555
 20
-137.6603311830328
 30
0.0
 10
102.4492160117141
 20
-137.8274183140674
 30
0.0
 10
102.1722303347
 20
-137.8274183140674
 30
0.0
  0
HATCH
  5
A6
330
A1
100
AcDbEntity
  8
_U+30EC_U+30A4_U+30E4_U+30FC 1
 62
   179
420
  2234388
100
AcDbHatch
 10
0.0
 20
0.0
 30
0.0
210
0.0
220
0.0
230
1.0
  2
SOLID
 70
     1
 71
     0
 91
        1
 92
        1
 93
        1
 72
     4
 94
        3
 73
     0
 74
     1
 95
       62
 96
       58
 40
0.0
 40
0.0
 40
0.0
 40
0.0
 40
1.0
 40
1.0
 40
1.0
 40
2.0
 40
2.0
 40
2.0
 40
3.0
 40
3.0
 40
3.0
 40
4.0
 40
4.0
 40
4.0
 40
5.0
 40
5.0
 40
5.0
 40
6.0
 40
6.0
 40
6.0
 40
7.0
 40
7.0
 40
7.0
 40
8.0
 40
8.0
 40
8.0
 40
9.0
 40
9.0
 40
9.0
 40
10.0
 40
10.0
 40
10.0
 40
11.0
 40
11.0
 40
11.0
 40
12.0
 40
12.0
 40
12.0
 40
13.0
 40
13.0
 40
13.0
 40
14.0
 40
14.0
 40
14.0
 40
15.0
 40
15.0
 40
15.0
 40
16.0
 40
16.0
 40
16.0
 40
17.0
 40
17.0
 40
17.0
 40
18.0
 40
18.0
 40
18.0
 40
19.0
 40
19.0
 40
19.0
 40
19.0
 10
102.1722303347
 20
-137.8274183140674
 10
102.0768011897586
 20
-137.8274183140674
 10
101.8590711550908
 20
-137.8064032316074
 10
101.7340141889762
 20
-137.6203680754039
 10
101.6599446360433
 20
-137.5080579625848
 10
101.655810521461
 20
-137.4088392126096
 10
101.6516764068787
 20
-137.3240898636725
 10
101.6516764068787
 20
-137.3240898636725
 10
101.8718180083862
 20
-137.3240898636725
 10
101.8718180083862
 20
-137.3240898636725
 10
101.8738850656774
 20
-137.3981594166053
 10
101.8842203521331
 20
-137.6327704191508
 10
102.1677517105692
 20
-137.6327704191508
 10
102.3052110204306
 20
-137.6327704191508
 10
102.4578287504272
 20
-137.5631794903488
 10
102.4578287504272
 20
-137.3347696596767
 10
102.4578287504272
 20
-137.2183254322753
 10
102.4195881905409
 20
-137.1697495859333
 10
102.3878933120766
 20
-137.138054707469
 10
102.3138237591438
 20
-137.0639851545361
 10
102.1973795317423
 20
-137.0512383012407
 10
102.1426025135269
 20
-137.0512383012407
 10
102.1233099788095
 20
-137.0512383012407
 10
102.0874809857629
 20
-137.0533053585318
 10
102.0599202218809
 20
-137.0574394731141
 10
102.0599202218809
 20
-137.0574394731141
 10
102.0599202218809
 20
-136.8627915781975
 10
102.0599202218809
 20
-136.8627915781975
 10
102.0981607817671
 20
-136.8693372596195
 10
102.1401909466872
 20
-136.8714043169106
 10
102.1467366281092
 20
-136.8714043169106
 10
102.2121934423289
 20
-136.8714043169106
 10
102.4109754518278
 20
-136.8500447249021
 10
102.4109754518278
 20
-136.6133666650654
 10
102.4109754518278
 20
-136.4355997380265
 10
102.2800618233883
 20
-136.3804782102625
 10
102.1698187678603
 20
-136.3804782102625
 10
101.9055799441417
 20
-136.3804782102625
 10
101.8969672054285
 20
-136.6133666650654
 10
101.8928330908462
 20
-136.6850246511586
 10
101.8928330908462
 20
-136.6850246511586
 10
101.6895724572165
 20
-136.6850246511586
 10
101.6895724572165
 20
-136.6850246511586
 10
101.6981851959296
 20
-136.5603121945926
 10
101.7257459598116
 20
-136.1837632580548
 10
102.1825656211557
 20
-136.1837632580548
 10
102.4068413372455
 20
-136.1837632580548
 10
102.647998021213
 20
-136.3108872814605
 10
102.647998021213
 20
-136.6068209836434
 10
102.647998021213
 20
-136.7932006493955
 10
102.5529133858201
 20
-136.8755384314929
 10
102.4533501262964
 20
-136.9368611311304
 10
102.5146728259338
 20
-136.9644218950124
 10
102.696573867555
 20
-137.0446926198187
 10
102.696573867555
 20
-137.3220228063813
 10
102.696573867555
 20
-137.6603311830328
 10
102.4492160117141
 20
-137.8274183140674
 10
102.1722303347
 20
-137.8274183140674
 97
        0
 97
        0
 75
     2
 76
     1
 98
        0
  0
SPLINE
  5
A7
330
A1
100
AcDbEntity
  8
_U+30EC_U+30A4_U+30E4_U+30FC 1
370
     0
100
AcDbSpline
210
0.0
220
0.0
230
1.0
 70
    11
 71
     3
 72
    44
 73
    40
 74
     0
 42
0.0000000001
 43
0.0000000001
 12
1.0
 22
0.0
 32
0.0
 13
1.0
 23
0.0
 33
0.0
 40
0.0
 40
0.0
 40
0.0
 40
0.0
 40
1.0
 40
1.0
 40
1.0
 40
2.0
 40
2.0
 40
2.0
 40
3.0
 40
3.0
 40
3.0
 40
4.0
 40
4.0
 40
4.0
 40
5.0
 40
5.0
 40
5.0
 40
6.0
 40
6.0
 40
6.0
 40
7.0
 40
7.0
 40
7.0
 40
8.0
 40
8.0
 40
8.0
 40
9.0
 40
9.0
 40
9.0
 40
10.0
 40
10.0
 40
10.0
 40
11.0
 40
11.0
 40
11.0
 40
12.0
 40
12.0
 40
12.0
 40
13.0
 40
13.0
 40
13.0
 40
13.0
 10
103.4503607597277
 20
-137.1948987829756
 30
0.0
 10
103.2326307250599
 20
-137.3537176848456
 30
0.0
 10
103.1396131469582
 20
-137.4277872377785
 30
0.0
 10
103.0906927910676
 20
-137.5714477195134
 30
0.0
 10
103.0906927910676
 20
-137.5714477195134
 30
0.0
 10
103.8692843707341
 20
-137.5714477195134
 30
0.0
 10
103.8692843707341
 20
-137.5714477195134
 30
0.0
 10
103.8692843707341
 20
-137.5714477195134
 30
0.0
 10
103.8692843707341
 20
-137.7767754104343
 30
0.0
 10
103.8692843707341
 20
-137.7767754104343
 30
0.0
 10
103.8692843707341
 20
-137.7767754104343
 30
0.0
 10
102.8412678779355
 20
-137.7767754104343
 30
0.0
 10
102.8412678779355
 20
-137.7767754104343
 30
0.0
 10
102.8729627563998
 20
-137.4191744990653
 30
0.0
 10
102.9384195706196
 20
-137.3409708315502
 30
0.0
 10
103.3235812458705
 20
-137.0426255625275
 30
0.0
 10
103.5795518404246
 20
-136.8438435530286
 30
0.0
 10
103.6450086546443
 20
-136.7759751719692
 30
0.0
 10
103.6450086546443
 20
-136.6385158621077
 30
0.0
 10
103.6450086546443
 20
-136.5200045774151
 30
0.0
 10
103.5730061590026
 20
-136.3890909489756
 30
0.0
 10
103.3762912067948
 20
-136.3890909489756
 30
0.0
 10
103.1161864976585
 20
-136.3890909489756
 30
0.0
 10
103.1075737589453
 20
-136.6195678369389
 30
0.0
 10
103.103439644363
 20
-136.7360120643403
 30
0.0
 10
103.103439644363
 20
-136.7360120643403
 30
0.0
 10
102.8791639282733
 20
-136.7360120643403
 30
0.0
 10
102.8791639282733
 20
-136.7360120643403
 30
0.0
 10
102.8877766669864
 20
-136.6088880409346
 30
0.0
 10
102.8984564629907
 20
-136.496922437664
 30
0.0
 10
102.978727187797
 20
-136.3784111529714
 30
0.0
 10
103.0886257337765
 20
-136.2175251938102
 30
0.0
 10
103.2750053995285
 20
-136.1837632580548
 30
0.0
 10
103.3911051173814
 20
-136.1837632580548
 30
0.0
 10
103.668435303944
 20
-136.1837632580548
 30
0.0
 10
103.875830052156
 20
-136.3677313569671
 30
0.0
 10
103.875830052156
 20
-136.6405829193989
 30
0.0
 10
103.875830052156
 20
-136.8693372596195
 30
0.0
 10
103.7593858247546
 20
-136.9685560095947
 30
0.0
 10
103.4503607597277
 20
-137.1948987829756
 30
0.0
  0
HATCH
  5
A8
330
A1
100
AcDbEntity
  8
_U+30EC_U+30A4_U+30E4_U+30FC 1
 62
   179
420
  2234388
100
AcDbHatch
 10
0.0
 20
0.0
 30
0.0
210
0.0
220
0.0
230
1.0
  2
SOLID
 70
     1
 71
     0
 91
        1
 92
        1
 93
        1
 72
     4
 94
        3
 73
     0
 74
     1
 95
       44
 96
       40
 40
0.0
 40
0.0
 40
0.0
 40
0.0
 40
1.0
 40
1.0
 40
1.0
 40
2.0
 40
2.0
 40
2.0
 40
3.0
 40
3.0
 40
3.0
 40
4.0
 40
4.0
 40
4.0
 40
5.0
 40
5.0
 40
5.0
 40
6.0
 40
6.0
 40
6.0
 40
7.0
 40
7.0
 40
7.0
 40
8.0
 40
8.0
 40
8.0
 40
9.0
 40
9.0
 40
9.0
 40
10.0
 40
10.0
 40
10.0
 40
11.0
 40
11.0
 40
11.0
 40
12.0
 40
12.0
 40
12.0
 40
13.0
 40
13.0
 40
13.0
 40
13.0
 10
103.4503607597277
 20
-137.1948987829756
 10
103.2326307250599
 20
-137.3537176848456
 10
103.1396131469582
 20
-137.4277872377785
 10
103.0906927910676
 20
-137.5714477195134
 10
103.0906927910676
 20
-137.5714477195134
 10
103.8692843707341
 20
-137.5714477195134
 10
103.8692843707341
 20
-137.5714477195134
 10
103.8692843707341
 20
-137.5714477195134
 10
103.8692843707341
 20
-137.7767754104343
 10
103.8692843707341
 20
-137.7767754104343
 10
103.8692843707341
 20
-137.7767754104343
 10
102.8412678779355
 20
-137.7767754104343
 10
102.8412678779355
 20
-137.7767754104343
 10
102.8729627563998
 20
-137.4191744990653
 10
102.9384195706196
 20
-137.3409708315502
 10
103.3235812458705
 20
-137.0426255625275
 10
103.5795518404246
 20
-136.8438435530286
 10
103.6450086546443
 20
-136.7759751719692
 10
103.6450086546443
 20
-136.6385158621077
 10
103.6450086546443
 20
-136.5200045774151
 10
103.5730061590026
 20
-136.3890909489756
 10
103.3762912067948
 20
-136.3890909489756
 10
103.1161864976585
 20
-136.3890909489756
 10
103.1075737589453
 20
-136.6195678369389
 10
103.103439644363
 20
-136.7360120643403
 10
103.103439644363
 20
-136.7360120643403
 10
102.8791639282733
 20
-136.7360120643403
 10
102.8791639282733
 20
-136.7360120643403
 10
102.8877766669864
 20
-136.6088880409346
 10
102.8984564629907
 20
-136.496922437664
 10
102.978727187797
 20
-136.3784111529714
 10
103.0886257337765
 20
-136.2175251938102
 10
103.2750053995285
 20
-136.1837632580548
 10
103.3911051173814
 20
-136.1837632580548
 10
103.668435303944
 20
-136.1837632580548
 10
103.875830052156
 20
-136.3677313569671
 10
103.875830052156
 20
-136.6405829193989
 10
103.875830052156
 20
-136.8693372596195
 10
103.7593858247546
 20
-136.9685560095947
 10
103.4503607597277
 20
-137.1948987829756
 97
        0
 97
        0
 75
     2
 76
     1
 98
        0
  0
ENDBLK
  5
A4
330
A1
100
AcDbEntity
  8
0
100
AcDbBlockEnd
  0
BLOCK
  5
B7
330
B5
100
AcDbEntity
  8
0
100
AcDbBlockBegin
  2
block 4
 70
     0
 10
0.0
 20
0.0
 30
0.0
  3
block 4
  1

  0
SPLINE
  5
B9
330
B5
100
AcDbEntity
  8
_U+30EC_U+30A4_U+30E4_U+30FC 1
370
     0
100
AcDbSpline
210
0.0
220
0.0
230
1.0
 70
    11
 71
     3
 72
    26
 73
    22
 74
     0
 42
0.0000000001
 43
0.0000000001
 12
1.0
 22
0.0
 32
0.0
 13
1.0
 23
0.0
 33
0.0
 40
0.0
 40
0.0
 40
0.0
 40
0.0
 40
1.0
 40
1.0
 40
1.0
 40
2.0
 40
2.0
 40
2.0
 40
3.0
 40
3.0
 40
3.0
 40
4.0
 40
4.0
 40
4.0
 40
5.0
 40
5.0
 40
5.0
 40
6.0
 40
6.0
 40
6.0
 40
7.0
 40
7.0
 40
7.0
 40
7.0
 10
92.12081974693508
 20
-160.4766818175197
 30
0.0
 10
92.12081974693508
 20
-160.4766818175197
 30
0.0
 10
92.12081974693508
 20
-159.3725287144972
 30
0.0
 10
92.12081974693508
 20
-159.3725287144972
 30
0.0
 10
92.12081974693508
 20
-159.3725287144972
 30
0.0
 10
91.79077959944814
 20
-159.3725287144972
 30
0.0
 10
91.79077959944814
 20
-159.3725287144972
 30
0.0
 10
91.79077959944814
 20
-159.3725287144972
 30
0.0
 10
91.79077959944814
 20
-159.2243896086314
 30
0.0
 10
91.79077959944814
 20
-159.2243896086314
 30
0.0
 10
92.12288680422623
 20
-159.2095756980448
 30
0.0
 10
92.1693955932771
 20
-159.0466226815925
 30
0.0
 10
92.19902341445025
 20
-158.9322455114822
 30
0.0
 10
92.19902341445025
 20
-158.9322455114822
 30
0.0
 10
92.34509546302485
 20
-158.9322455114822
 30
0.0
 10
92.34509546302485
 20
-158.9322455114822
 30
0.0
 10
92.34509546302485
 20
-158.9322455114822
 30
0.0
 10
92.34509546302485
 20
-160.4766818175197
 30
0.0
 10
92.34509546302485
 20
-160.4766818175197
 30
0.0
 10
92.34509546302485
 20
-160.4766818175197
 30
0.0
 10
92.12081974693508
 20
-160.4766818175197
 30
0.0
 10
92.12081974693508
 20
-160.4766818175197
 30
0.0
  0
HATCH
  5
BA
330
B5
100
AcDbEntity
  8
_U+30EC_U+30A4_U+30E4_U+30FC 1
 62
   179
420
  2234388
100
AcDbHatch
 10
0.0
 20
0.0
 30
0.0
210
0.0
220
0.0
230
1.0
  2
SOLID
 70
     1
 71
     0
 91
        1
 92
        1
 93
        1
 72
     4
 94
        3
 73
     0
 74
     1
 95
       26
 96
       22
 40
0.0
 40
0.0
 40
0.0
 40
0.0
 40
1.0
 40
1.0
 40
1.0
 40
2.0
 40
2.0
 40
2.0
 40
3.0
 40
3.0
 40
3.0
 40
4.0
 40
4.0
 40
4.0
 40
5.0
 40
5.0
 40
5.0
 40
6.0
 40
6.0
 40
6.0
 40
7.0
 40
7.0
 40
7.0
 40
7.0
 10
92.12081974693508
 20
-160.4766818175197
 10
92.12081974693508
 20
-160.4766818175197
 10
92.12081974693508
 20
-159.3725287144972
 10
92.12081974693508
 20
-159.3725287144972
 10
92.12081974693508
 20
-159.3725287144972
 10
91.79077959944814
 20
-159.3725287144972
 10
91.79077959944814
 20
-159.3725287144972
 10
91.79077959944814
 20
-159.3725287144972
 10
91.79077959944814
 20
-159.2243896086314
 10
91.79077959944814
 20
-159.2243896086314
 10
92.12288680422623
 20
-159.2095756980448
 10
92.1693955932771
 20
-159.0466226815925
 10
92.19902341445025
 20
-158.9322455114822
 10
92.19902341445025
 20
-158.9322455114822
 10
92.34509546302485
 20
-158.9322455114822
 10
92.34509546302485
 20
-158.9322455114822
 10
92.34509546302485
 20
-158.9322455114822
 10
92.34509546302485
 20
-160.4766818175197
 10
92.34509546302485
 20
-160.4766818175197
 10
92.34509546302485
 20
-160.4766818175197
 10
92.12081974693508
 20
-160.4766818175197
 10
92.12081974693508
 20
-160.4766818175197
 97
        0
 97
        0
 75
     2
 76
     1
 98
        0
  0
SPLINE
  5
BB
330
B5
100
AcDbEntity
  8
_U+30EC_U+30A4_U+30E4_U+30FC 1
370
     0
100
AcDbSpline
210
0.0
220
0.0
230
1.0
 70
    11
 71
     3
 72
    44
 73
    40
 74
     0
 42
0.0000000001
 43
0.0000000001
 12
1.0
 22
0.0
 32
0.0
 13
1.0
 23
0.0
 33
0.0
 40
0.0
 40
0.0
 40
0.0
 40
0.0
 40
1.0
 40
1.0
 40
1.0
 40
2.0
 40
2.0
 40
2.0
 40
3.0
 40
3.0
 40
3.0
 40
4.0
 40
4.0
 40
4.0
 40
5.0
 40
5.0
 40
5.0
 40
6.0
 40
6.0
 40
6.0
 40
7.0
 40
7.0
 40
7.0
 40
8.0
 40
8.0
 40
8.0
 40
9.0
 40
9.0
 40
9.0
 40
10.0
 40
10.0
 40
10.0
 40
11.0
 40
11.0
 40
11.0
 40
12.0
 40
12.0
 40
12.0
 40
13.0
 40
13.0
 40
13.0
 40
13.0
 10
93.43925778914019
 20
-159.894805190061
 30
0.0
 10
93.2215277544724
 20
-160.0536240919311
 30
0.0
 10
93.12851017637065
 20
-160.1276936448639
 30
0.0
 10
93.07958982048011
 20
-160.2713541265988
 30
0.0
 10
93.07958982048011
 20
-160.2713541265988
 30
0.0
 10
93.85818140014656
 20
-160.2713541265988
 30
0.0
 10
93.85818140014656
 20
-160.2713541265988
 30
0.0
 10
93.85818140014656
 20
-160.2713541265988
 30
0.0
 10
93.85818140014656
 20
-160.4766818175197
 30
0.0
 10
93.85818140014656
 20
-160.4766818175197
 30
0.0
 10
93.85818140014656
 20
-160.4766818175197
 30
0.0
 10
92.83016490734802
 20
-160.4766818175197
 30
0.0
 10
92.83016490734802
 20
-160.4766818175197
 30
0.0
 10
92.86185978581231
 20
-160.1190809061508
 30
0.0
 10
92.92731660003206
 20
-160.0408772386356
 30
0.0
 10
93.312478275283
 20
-159.742531969613
 30
0.0
 10
93.56844886983706
 20
-159.5437499601141
 30
0.0
 10
93.6339056840568
 20
-159.4758815790547
 30
0.0
 10
93.6339056840568
 20
-159.3384222691932
 30
0.0
 10
93.6339056840568
 20
-159.2199109845006
 30
0.0
 10
93.56190318841509
 20
-159.0889973560611
 30
0.0
 10
93.36518823620732
 20
-159.0889973560611
 30
0.0
 10
93.10508352707096
 20
-159.0889973560611
 30
0.0
 10
93.09681529790636
 20
-159.3194742440243
 30
0.0
 10
93.09233667377553
 20
-159.4359184714257
 30
0.0
 10
93.09233667377553
 20
-159.4359184714257
 30
0.0
 10
92.86806095768577
 20
-159.4359184714257
 30
0.0
 10
92.86806095768577
 20
-159.4359184714257
 30
0.0
 10
92.8766736963989
 20
-159.30879444802
 30
0.0
 10
92.88735349240316
 20
-159.1968288447494
 30
0.0
 10
92.96762421720949
 20
-159.0783175600568
 30
0.0
 10
93.07752276318895
 20
-158.9174316008956
 30
0.0
 10
93.26390242894097
 20
-158.8836696651402
 30
0.0
 10
93.3800021467939
 20
-158.8836696651402
 30
0.0
 10
93.6573323333565
 20
-158.8836696651402
 30
0.0
 10
93.86472708156855
 20
-159.0676377640525
 30
0.0
 10
93.86472708156855
 20
-159.3404893264843
 30
0.0
 10
93.86472708156855
 20
-159.5692436667049
 30
0.0
 10
93.7482828541671
 20
-159.6684624166801
 30
0.0
 10
93.43925778914019
 20
-159.894805190061
 30
0.0
  0
HATCH
  5
BC
330
B5
100
AcDbEntity
  8
_U+30EC_U+30A4_U+30E4_U+30FC 1
 62
   179
420
  2234388
100
AcDbHatch
 10
0.0
 20
0.0
 30
0.0
210
0.0
220
0.0
230
1.0
  2
SOLID
 70
     1
 71
     0
 91
        1
 92
        1
 93
        1
 72
     4
 94
        3
 73
     0
 74
     1
 95
       44
 96
       40
 40
0.0
 40
0.0
 40
0.0
 40
0.0
 40
1.0
 40
1.0
 40
1.0
 40
2.0
 40
2.0
 40
2.0
 40
3.0
 40
3.0
 40
3.0
 40
4.0
 40
4.0
 40
4.0
 40
5.0
 40
5.0
 40
5.0
 40
6.0
 40
6.0
 40
6.0
 40
7.0
 40
7.0
 40
7.0
 40
8.0
 40
8.0
 40
8.0
 40
9.0
 40
9.0
 40
9.0
 40
10.0
 40
10.0
 40
10.0
 40
11.0
 40
11.0
 40
11.0
 40
12.0
 40
12.0
 40
12.0
 40
13.0
 40
13.0
 40
13.0
 40
13.0
 10
93.43925778914019
 20
-159.894805190061
 10
93.2215277544724
 20
-160.0536240919311
 10
93.12851017637065
 20
-160.1276936448639
 10
93.07958982048011
 20
-160.2713541265988
 10
93.07958982048011
 20
-160.2713541265988
 10
93.85818140014656
 20
-160.2713541265988
 10
93.85818140014656
 20
-160.2713541265988
 10
93.85818140014656
 20
-160.2713541265988
 10
93.85818140014656
 20
-160.4766818175197
 10
93.85818140014656
 20
-160.4766818175197
 10
93.85818140014656
 20
-160.4766818175197
 10
92.83016490734802
 20
-160.4766818175197
 10
92.83016490734802
 20
-160.4766818175197
 10
92.86185978581231
 20
-160.1190809061508
 10
92.92731660003206
 20
-160.0408772386356
 10
93.312478275283
 20
-159.742531969613
 10
93.56844886983706
 20
-159.5437499601141
 10
93.6339056840568
 20
-159.4758815790547
 10
93.6339056840568
 20
-159.3384222691932
 10
93.6339056840568
 20
-159.2199109845006
 10
93.56190318841509
 20
-159.0889973560611
 10
93.36518823620732
 20
-159.0889973560611
 10
93.10508352707096
 20
-159.0889973560611
 10
93.09681529790636
 20
-159.3194742440243
 10
93.09233667377553
 20
-159.4359184714257
 10
93.09233667377553
 20
-159.4359184714257
 10
92.86806095768577
 20
-159.4359184714257
 10
92.86806095768577
 20
-159.4359184714257
 10
92.8766736963989
 20
-159.30879444802
 10
92.88735349240316
 20
-159.1968288447494
 10
92.96762421720949
 20
-159.0783175600568
 10
93.07752276318895
 20
-158.9174316008956
 10
93.26390242894097
 20
-158.8836696651402
 10
93.3800021467939
 20
-158.8836696651402
 10
93.6573323333565
 20
-158.8836696651402
 10
93.86472708156855
 20
-159.0676377640525
 10
93.86472708156855
 20
-159.3404893264843
 10
93.86472708156855
 20
-159.5692436667049
 10
93.7482828541671
 20
-159.6684624166801
 10
93.43925778914019
 20
-159.894805190061
 97
        0
 97
        0
 75
     2
 76
     1
 98
        0
  0
ENDBLK
  5
B8
330
B5
100
AcDbEntity
  8
0
100
AcDbBlockEnd
  0
BLOCK
  5
CB
330
C9
100
AcDbEntity
  8
0
100
AcDbBlockBegin
  2
block 5
 70
     0
 10
0.0
 20
0.0
 30
0.0
  3
block 5
  1

  0
SPLINE
  5
CD
330
C9
100
AcDbEntity
  8
_U+30EC_U+30A4_U+30E4_U+30FC 1
370
     0
100
AcDbSpline
210
0.0
220
0.0
230
1.0
 70
    11
 71
     3
 72
    32
 73
    28
 74
     0
 42
0.0000000001
 43
0.0000000001
 12
1.0
 22
0.0
 32
0.0
 13
1.0
 23
0.0
 33
0.0
 40
0.0
 40
0.0
 40
0.0
 40
0.0
 40
1.0
 40
1.0
 40
1.0
 40
2.0
 40
2.0
 40
2.0
 40
3.0
 40
3.0
 40
3.0
 40
4.0
 40
4.0
 40
4.0
 40
5.0
 40
5.0
 40
5.0
 40
6.0
 40
6.0
 40
6.0
 40
7.0
 40
7.0
 40
7.0
 40
8.0
 40
8.0
 40
8.0
 40
9.0
 40
9.0
 40
9.0
 40
9.0
 10
101.7619194624068
 20
-160.5273247211529
 30
0.0
 10
101.2458441587163
 20
-160.5273247211529
 30
0.0
 10
101.2375759295517
 20
-159.9733533671247
 30
0.0
 10
101.2375759295517
 20
-159.7594129374907
 30
0.0
 10
101.2375759295517
 20
-159.5289360495275
 30
0.0
 10
101.2565239547206
 20
-158.8816026078491
 30
0.0
 10
101.800160022293
 20
-158.8816026078491
 30
0.0
 10
101.9734483252011
 20
-158.8816026078491
 30
0.0
 10
102.2190836332994
 20
-158.9515380461996
 30
0.0
 10
102.2569796836372
 20
-159.2836452509777
 30
0.0
 10
102.2569796836372
 20
-159.2836452509777
 30
0.0
 10
102.0433837635517
 20
-159.2836452509777
 30
0.0
 10
102.0433837635517
 20
-159.2836452509777
 30
0.0
 10
102.0327039675474
 20
-159.2264566659226
 30
0.0
 10
102.0010090890831
 20
-159.0783175600568
 30
0.0
 10
101.7980929650019
 20
-159.0783175600568
 30
0.0
 10
101.5059488678527
 20
-159.0783175600568
 30
0.0
 10
101.4659857602238
 20
-159.4062906502526
 30
0.0
 10
101.4532389069284
 20
-159.611273831625
 30
0.0
 10
101.5462564850301
 20
-159.5330701641098
 30
0.0
 10
101.6141248660895
 20
-159.4738145217635
 30
0.0
 10
101.7960259077107
 20
-159.4738145217635
 30
0.0
 10
101.9758598920408
 20
-159.4738145217635
 30
0.0
 10
102.2783392756457
 20
-159.5819905200003
 30
0.0
 10
102.2783392756457
 20
-159.9881672777113
 30
0.0
 10
102.2783392756457
 20
-160.307527629194
 30
0.0
 10
102.0792127565983
 20
-160.5273247211529
 30
0.0
 10
101.7619194624068
 20
-160.5273247211529
 30
0.0
  0
SPLINE
  5
CE
330
C9
100
AcDbEntity
  8
_U+30EC_U+30A4_U+30E4_U+30FC 1
370
     0
100
AcDbSpline
210
0.0
220
0.0
230
1.0
 70
    11
 71
     3
 72
    17
 73
    13
 74
     0
 42
0.0000000001
 43
0.0000000001
 12
1.0
 22
0.0
 32
0.0
 13
1.0
 23
0.0
 33
0.0
 40
0.0
 40
0.0
 40
0.0
 40
0.0
 40
1.0
 40
1.0
 40
1.0
 40
2.0
 40
2.0
 40
2.0
 40
3.0
 40
3.0
 40
3.0
 40
4.0
 40
4.0
 40
4.0
 40
4.0
 10
101.779144939833
 20
-159.6684624166801
 30
0.0
 10
101.516628663857
 20
-159.6684624166801
 30
0.0
 10
101.4787326135192
 20
-159.8799912794745
 30
0.0
 10
101.4787326135192
 20
-159.9964355068759
 30
0.0
 10
101.4787326135192
 20
-160.1721353766236
 30
0.0
 10
101.5738172489121
 20
-160.3350883930759
 30
0.0
 10
101.7577853478245
 20
-160.3350883930759
 30
0.0
 10
101.8783636898082
 20
-160.3350883930759
 30
0.0
 10
102.0540635595559
 20
-160.2758327507296
 30
0.0
 10
102.0540635595559
 20
-159.9902343350024
 30
0.0
 10
102.0540635595559
 20
-159.7659586189127
 30
0.0
 10
101.9141926828548
 20
-159.6684624166801
 30
0.0
 10
101.779144939833
 20
-159.6684624166801
 30
0.0
  0
HATCH
  5
CF
330
C9
100
AcDbEntity
  8
_U+30EC_U+30A4_U+30E4_U+30FC 1
 62
   179
420
  2234388
100
AcDbHatch
 10
0.0
 20
0.0
 30
0.0
210
0.0
220
0.0
230
1.0
  2
SOLID
 70
     1
 71
     0
 91
        2
 92
        1
 93
        1
 72
     4
 94
        3
 73
     0
 74
     1
 95
       32
 96
       28
 40
0.0
 40
0.0
 40
0.0
 40
0.0
 40
1.0
 40
1.0
 40
1.0
 40
2.0
 40
2.0
 40
2.0
 40
3.0
 40
3.0
 40
3.0
 40
4.0
 40
4.0
 40
4.0
 40
5.0
 40
5.0
 40
5.0
 40
6.0
 40
6.0
 40
6.0
 40
7.0
 40
7.0
 40
7.0
 40
8.0
 40
8.0
 40
8.0
 40
9.0
 40
9.0
 40
9.0
 40
9.0
 10
101.7619194624068
 20
-160.5273247211529
 10
101.2458441587163
 20
-160.5273247211529
 10
101.2375759295517
 20
-159.9733533671247
 10
101.2375759295517
 20
-159.7594129374907
 10
101.2375759295517
 20
-159.5289360495275
 10
101.2565239547206
 20
-158.8816026078491
 10
101.800160022293
 20
-158.8816026078491
 10
101.9734483252011
 20
-158.8816026078491
 10
102.2190836332994
 20
-158.9515380461996
 10
102.2569796836372
 20
-159.2836452509777
 10
102.2569796836372
 20
-159.2836452509777
 10
102.0433837635517
 20
-159.2836452509777
 10
102.0433837635517
 20
-159.2836452509777
 10
102.0327039675474
 20
-159.2264566659226
 10
102.0010090890831
 20
-159.0783175600568
 10
101.7980929650019
 20
-159.0783175600568
 10
101.5059488678527
 20
-159.0783175600568
 10
101.4659857602238
 20
-159.4062906502526
 10
101.4532389069284
 20
-159.611273831625
 10
101.5462564850301
 20
-159.5330701641098
 10
101.6141248660895
 20
-159.4738145217635
 10
101.7960259077107
 20
-159.4738145217635
 10
101.9758598920408
 20
-159.4738145217635
 10
102.2783392756457
 20
-159.5819905200003
 10
102.2783392756457
 20
-159.9881672777113
 10
102.2783392756457
 20
-160.307527629194
 10
102.0792127565983
 20
-160.5273247211529
 10
101.7619194624068
 20
-160.5273247211529
 97
        0
 97
        0
 92
        1
 93
        1
 72
     4
 94
        3
 73
     0
 74
     1
 95
       17
 96
       13
 40
0.0
 40
0.0
 40
0.0
 40
0.0
 40
1.0
 40
1.0
 40
1.0
 40
2.0
 40
2.0
 40
2.0
 40
3.0
 40
3.0
 40
3.0
 40
4.0
 40
4.0
 40
4.0
 40
4.0
 10
101.779144939833
 20
-159.6684624166801
 10
101.516628663857
 20
-159.6684624166801
 10
101.4787326135192
 20
-159.8799912794745
 10
101.4787326135192
 20
-159.9964355068759
 10
101.4787326135192
 20
-160.1721353766236
 10
101.5738172489121
 20
-160.3350883930759
 10
101.7577853478245
 20
-160.3350883930759
 10
101.8783636898082
 20
-160.3350883930759
 10
102.0540635595559
 20
-160.2758327507296
 10
102.0540635595559
 20
-159.9902343350024
 10
102.0540635595559
 20
-159.7659586189127
 10
101.9141926828548
 20
-159.6684624166801
 10
101.779144939833
 20
-159.6684624166801
 97
        0
 97
        0
 75
     2
 76
     1
 98
        0
  0
ENDBLK
  5
CC
330
C9
100
AcDbEntity
  8
0
100
AcDbBlockEnd
  0
BLOCK
  5
DA
330
D8
100
AcDbEntity
  8
0
100
AcDbBlockBegin
  2
block 6
 70
     0
 10
0.0
 20
0.0
 30
0.0
  3
block 6
  1

  0
SPLINE
  5
DC
330
D8
100
AcDbEntity
  8
_U+30EC_U+30A4_U+30E4_U+30FC 1
370
     0
100
AcDbSpline
210
0.0
220
0.0
230
1.0
 70
    11
 71
     3
 72
    26
 73
    22
 74
     0
 42
0.0000000001
 43
0.0000000001
 12
1.0
 22
0.0
 32
0.0
 13
1.0
 23
0.0
 33
0.0
 40
0.0
 40
0.0
 40
0.0
 40
0.0
 40
1.0
 40
1.0
 40
1.0
 40
2.0
 40
2.0
 40
2.0
 40
3.0
 40
3.0
 40
3.0
 40
4.0
 40
4.0
 40
4.0
 40
5.0
 40
5.0
 40
5.0
 40
6.0
 40
6.0
 40
6.0
 40
7.0
 40
7.0
 40
7.0
 40
7.0
 10
122.1127875128746
 20
-151.2717311904807
 30
0.0
 10
122.1127875128746
 20
-151.2717311904807
 30
0.0
 10
121.0082899003035
 20
-151.2717311904807
 30
0.0
 10
121.0082899003035
 20
-151.2717311904807
 30
0.0
 10
121.0082899003035
 20
-151.2717311904807
 30
0.0
 10
121.0082899003035
 20
-151.6017713379676
 30
0.0
 10
121.0082899003035
 20
-151.6017713379676
 30
0.0
 10
121.0082899003035
 20
-151.6017713379676
 30
0.0
 10
120.8601507944377
 20
-151.6017713379676
 30
0.0
 10
120.8601507944377
 20
-151.6017713379676
 30
0.0
 10
120.8456813933997
 20
-151.2696641331895
 30
0.0
 10
120.6823838673989
 20
-151.2231553441387
 30
0.0
 10
120.5680066972886
 20
-151.1935275229655
 30
0.0
 10
120.5680066972886
 20
-151.1935275229655
 30
0.0
 10
120.5680066972886
 20
-151.0474554743909
 30
0.0
 10
120.5680066972886
 20
-151.0474554743909
 30
0.0
 10
120.5680066972886
 20
-151.0474554743909
 30
0.0
 10
122.1127875128746
 20
-151.0474554743909
 30
0.0
 10
122.1127875128746
 20
-151.0474554743909
 30
0.0
 10
122.1127875128746
 20
-151.0474554743909
 30
0.0
 10
122.1127875128746
 20
-151.2717311904807
 30
0.0
 10
122.1127875128746
 20
-151.2717311904807
 30
0.0
  0
HATCH
  5
DD
330
D8
100
AcDbEntity
  8
_U+30EC_U+30A4_U+30E4_U+30FC 1
 62
   179
420
  2234388
100
AcDbHatch
 10
0.0
 20
0.0
 30
0.0
210
0.0
220
0.0
230
1.0
  2
SOLID
 70
     1
 71
     0
 91
        1
 92
        1
 93
        1
 72
     4
 94
        3
 73
     0
 74
     1
 95
       26
 96
       22
 40
0.0
 40
0.0
 40
0.0
 40
0.0
 40
1.0
 40
1.0
 40
1.0
 40
2.0
 40
2.0
 40
2.0
 40
3.0
 40
3.0
 40
3.0
 40
4.0
 40
4.0
 40
4.0
 40
5.0
 40
5.0
 40
5.0
 40
6.0
 40
6.0
 40
6.0
 40
7.0
 40
7.0
 40
7.0
 40
7.0
 10
122.1127875128746
 20
-151.2717311904807
 10
122.1127875128746
 20
-151.2717311904807
 10
121.0082899003035
 20
-151.2717311904807
 10
121.0082899003035
 20
-151.2717311904807
 10
121.0082899003035
 20
-151.2717311904807
 10
121.0082899003035
 20
-151.6017713379676
 10
121.0082899003035
 20
-151.6017713379676
 10
121.0082899003035
 20
-151.6017713379676
 10
120.8601507944377
 20
-151.6017713379676
 10
120.8601507944377
 20
-151.6017713379676
 10
120.8456813933997
 20
-151.2696641331895
 10
120.6823838673989
 20
-151.2231553441387
 10
120.5680066972886
 20
-151.1935275229655
 10
120.5680066972886
 20
-151.1935275229655
 10
120.5680066972886
 20
-151.0474554743909
 10
120.5680066972886
 20
-151.0474554743909
 10
120.5680066972886
 20
-151.0474554743909
 10
122.1127875128746
 20
-151.0474554743909
 10
122.1127875128746
 20
-151.0474554743909
 10
122.1127875128746
 20
-151.0474554743909
 10
122.1127875128746
 20
-151.2717311904807
 10
122.1127875128746
 20
-151.2717311904807
 97
        0
 97
        0
 75
     2
 76
     1
 98
        0
  0
SPLINE
  5
DE
330
D8
100
AcDbEntity
  8
_U+30EC_U+30A4_U+30E4_U+30FC 1
370
     0
100
AcDbSpline
210
0.0
220
0.0
230
1.0
 70
    11
 71
     3
 72
    44
 73
    40
 74
     0
 42
0.0000000001
 43
0.0000000001
 12
1.0
 22
0.0
 32
0.0
 13
1.0
 23
0.0
 33
0.0
 40
0.0
 40
0.0
 40
0.0
 40
0.0
 40
1.0
 40
1.0
 40
1.0
 40
2.0
 40
2.0
 40
2.0
 40
3.0
 40
3.0
 40
3.0
 40
4.0
 40
4.0
 40
4.0
 40
5.0
 40
5.0
 40
5.0
 40
6.0
 40
6.0
 40
6.0
 40
7.0
 40
7.0
 40
7.0
 40
8.0
 40
8.0
 40
8.0
 40
9.0
 40
9.0
 40
9.0
 40
10.0
 40
10.0
 40
10.0
 40
11.0
 40
11.0
 40
11.0
 40
12.0
 40
12.0
 40
12.0
 40
13.0
 40
13.0
 40
13.0
 40
13.0
 10
121.5305663758674
 20
-149.9532931482756
 30
0.0
 10
121.6897297872859
 20
-150.1710231829434
 30
0.0
 10
121.7634548306703
 20
-150.2640407610451
 30
0.0
 10
121.9074598219537
 20
-150.3129611169357
 30
0.0
 10
121.9074598219537
 20
-150.3129611169357
 30
0.0
 10
121.9074598219537
 20
-149.5343695372692
 30
0.0
 10
121.9074598219537
 20
-149.5343695372692
 30
0.0
 10
121.9074598219537
 20
-149.5343695372692
 30
0.0
 10
122.1127875128746
 20
-149.5343695372692
 30
0.0
 10
122.1127875128746
 20
-149.5343695372692
 30
0.0
 10
122.1127875128746
 20
-149.5343695372692
 30
0.0
 10
122.1127875128746
 20
-150.5623860300678
 30
0.0
 10
122.1127875128746
 20
-150.5623860300678
 30
0.0
 10
121.7551866015057
 20
-150.5306911516034
 30
0.0
 10
121.676638424442
 20
-150.4652343373837
 30
0.0
 10
121.3782931554193
 20
-150.0800726621328
 30
0.0
 10
121.1798556554689
 20
-149.8241020675787
 30
0.0
 10
121.111642764861
 20
-149.758645253359
 30
0.0
 10
120.974527964548
 20
-149.758645253359
 30
0.0
 10
120.8560166798554
 20
-149.758645253359
 30
0.0
 10
120.725103051416
 20
-149.8306477490007
 30
0.0
 10
120.725103051416
 20
-150.0273627012084
 30
0.0
 10
120.725103051416
 20
-150.2874674103448
 30
0.0
 10
120.9552354298306
 20
-150.2957356395094
 30
0.0
 10
121.0716796572321
 20
-150.3002142636402
 30
0.0
 10
121.0716796572321
 20
-150.3002142636402
 30
0.0
 10
121.0716796572321
 20
-150.52448997973
 30
0.0
 10
121.0716796572321
 20
-150.52448997973
 30
0.0
 10
120.9449001433749
 20
-150.5158772410169
 30
0.0
 10
120.8325900305557
 20
-150.5051974450126
 30
0.0
 10
120.7140787458631
 20
-150.4249267202063
 30
0.0
 10
120.5535372962505
 20
-150.3150281742268
 30
0.0
 10
120.5197753604951
 20
-150.1286485084748
 30
0.0
 10
120.5197753604951
 20
-150.0125487906219
 30
0.0
 10
120.5197753604951
 20
-149.7352186040593
 30
0.0
 10
120.7037434594074
 20
-149.5278238558472
 30
0.0
 10
120.9765950218392
 20
-149.5278238558472
 30
0.0
 10
121.2053493620598
 20
-149.5278238558472
 30
0.0
 10
121.304568112035
 20
-149.6442680832487
 30
0.0
 10
121.5305663758674
 20
-149.9532931482756
 30
0.0
  0
HATCH
  5
DF
330
D8
100
AcDbEntity
  8
_U+30EC_U+30A4_U+30E4_U+30FC 1
 62
   179
420
  2234388
100
AcDbHatch
 10
0.0
 20
0.0
 30
0.0
210
0.0
220
0.0
230
1.0
  2
SOLID
 70
     1
 71
     0
 91
        1
 92
        1
 93
        1
 72
     4
 94
        3
 73
     0
 74
     1
 95
       44
 96
       40
 40
0.0
 40
0.0
 40
0.0
 40
0.0
 40
1.0
 40
1.0
 40
1.0
 40
2.0
 40
2.0
 40
2.0
 40
3.0
 40
3.0
 40
3.0
 40
4.0
 40
4.0
 40
4.0
 40
5.0
 40
5.0
 40
5.0
 40
6.0
 40
6.0
 40
6.0
 40
7.0
 40
7.0
 40
7.0
 40
8.0
 40
8.0
 40
8.0
 40
9.0
 40
9.0
 40
9.0
 40
10.0
 40
10.0
 40
10.0
 40
11.0
 40
11.0
 40
11.0
 40
12.0
 40
12.0
 40
12.0
 40
13.0
 40
13.0
 40
13.0
 40
13.0
 10
121.5305663758674
 20
-149.9532931482756
 10
121.6897297872859
 20
-150.1710231829434
 10
121.7634548306703
 20
-150.2640407610451
 10
121.9074598219537
 20
-150.3129611169357
 10
121.9074598219537
 20
-150.3129611169357
 10
121.9074598219537
 20
-149.5343695372692
 10
121.9074598219537
 20
-149.5343695372692
 10
121.9074598219537
 20
-149.5343695372692
 10
122.1127875128746
 20
-149.5343695372692
 10
122.1127875128746
 20
-149.5343695372692
 10
122.1127875128746
 20
-149.5343695372692
 10
122.1127875128746
 20
-150.5623860300678
 10
122.1127875128746
 20
-150.5623860300678
 10
121.7551866015057
 20
-150.5306911516034
 10
121.676638424442
 20
-150.4652343373837
 10
121.3782931554193
 20
-150.0800726621328
 10
121.1798556554689
 20
-149.8241020675787
 10
121.111642764861
 20
-149.758645253359
 10
120.974527964548
 20
-149.758645253359
 10
120.8560166798554
 20
-149.758645253359
 10
120.725103051416
 20
-149.8306477490007
 10
120.725103051416
 20
-150.0273627012084
 10
120.725103051416
 20
-150.2874674103448
 10
120.9552354298306
 20
-150.2957356395094
 10
121.0716796572321
 20
-150.3002142636402
 10
121.0716796572321
 20
-150.3002142636402
 10
121.0716796572321
 20
-150.52448997973
 10
121.0716796572321
 20
-150.52448997973
 10
120.9449001433749
 20
-150.5158772410169
 10
120.8325900305557
 20
-150.5051974450126
 10
120.7140787458631
 20
-150.4249267202063
 10
120.5535372962505
 20
-150.3150281742268
 10
120.5197753604951
 20
-150.1286485084748
 10
120.5197753604951
 20
-150.0125487906219
 10
120.5197753604951
 20
-149.7352186040593
 10
120.7037434594074
 20
-149.5278238558472
 10
120.9765950218392
 20
-149.5278238558472
 10
121.2053493620598
 20
-149.5278238558472
 10
121.304568112035
 20
-149.6442680832487
 10
121.5305663758674
 20
-149.9532931482756
 97
        0
 97
        0
 75
     2
 76
     1
 98
        0
  0
POLYLINE
  5
E0
330
D8
100
AcDbEntity
  8
_U+30EC_U+30A4_U+30E4_U+30FC 1
370
     0
100
AcDb2dPolyline
 66
     1
 10
0.0
 20
0.0
 30
0.0
  0
VERTEX
  5
E1
330
E0
100
AcDbEntity
  8
_U+30EC_U+30A4_U+30E4_U+30FC 1
370
     0
100
AcDbVertex
100
AcDb2dVertex
 10
122.1127875128746
 20
-149.3094048020824
 30
0.0
  0
VERTEX
  5
E2
330
E0
100
AcDbEntity
  8
_U+30EC_U+30A4_U+30E4_U+30FC 1
370
     0
100
AcDbVertex
100
AcDb2dVertex
 10
121.8606065233543
 20
-149.3094048020824
 30
0.0
  0
VERTEX
  5
E3
330
E0
100
AcDbEntity
  8
_U+30EC_U+30A4_U+30E4_U+30FC 1
370
     0
100
AcDbVertex
100
AcDb2dVertex
 10
121.8606065233543
 20
-149.0575683221106
 30
0.0
  0
VERTEX
  5
E4
330
E0
100
AcDbEntity
  8
_U+30EC_U+30A4_U+30E4_U+30FC 1
370
     0
100
AcDbVertex
100
AcDb2dVertex
 10
122.1127875128746
 20
-149.0575683221106
 30
0.0
  0
VERTEX
  5
E5
330
E0
100
AcDbEntity
  8
_U+30EC_U+30A4_U+30E4_U+30FC 1
370
     0
100
AcDbVertex
100
AcDb2dVertex
 10
122.1127875128746
 20
-149.3094048020824
 30
0.0
  0
SEQEND
  5
E6
330
E0
100
AcDbEntity
  8
_U+30EC_U+30A4_U+30E4_U+30FC 1
370
     0
  0
HATCH
  5
E7
330
D8
100
AcDbEntity
  8
_U+30EC_U+30A4_U+30E4_U+30FC 1
 62
   179
420
  2234388
100
AcDbHatch
 10
0.0
 20
0.0
 30
0.0
210
0.0
220
0.0
230
1.0
  2
SOLID
 70
     1
 71
     0
 91
        1
 92
        1
 93
        4
 72
     1
 10
122.1127875128746
 20
-149.3094048020824
 11
121.8606065233543
 21
-149.3094048020824
 72
     1
 10
121.8606065233543
 20
-149.3094048020824
 11
121.8606065233543
 21
-149.0575683221106
 72
     1
 10
121.8606065233543
 20
-149.0575683221106
 11
122.1127875128746
 21
-149.0575683221106
 72
     1
 10
122.1127875128746
 20
-149.0575683221106
 11
122.1127875128746
 21
-149.3094048020824
 97
        0
 75
     2
 76
     1
 98
        0
  0
SPLINE
  5
E8
330
D8
100
AcDbEntity
  8
_U+30EC_U+30A4_U+30E4_U+30FC 1
370
     0
100
AcDbSpline
210
0.0
220
0.0
230
1.0
 70
    11
 71
     3
 72
    26
 73
    22
 74
     0
 42
0.0000000001
 43
0.0000000001
 12
1.0
 22
0.0
 32
0.0
 13
1.0
 23
0.0
 33
0.0
 40
0.0
 40
0.0
 40
0.0
 40
0.0
 40
1.0
 40
1.0
 40
1.0
 40
2.0
 40
2.0
 40
2.0
 40
3.0
 40
3.0
 40
3.0
 40
4.0
 40
4.0
 40
4.0
 40
5.0
 40
5.0
 40
5.0
 40
6.0
 40
6.0
 40
6.0
 40
7.0
 40
7.0
 40
7.0
 40
7.0
 10
122.1127875128746
 20
-148.4102348804322
 30
0.0
 10
122.1127875128746
 20
-148.4102348804322
 30
0.0
 10
122.1127875128746
 20
-148.6472574498173
 30
0.0
 10
122.1127875128746
 20
-148.6472574498173
 30
0.0
 10
121.8034179382991
 20
-148.6217637432265
 30
0.0
 10
121.2852755773176
 20
-148.429182905601
 30
0.0
 10
120.7795355600829
 20
-148.0230061478901
 30
0.0
 10
120.7795355600829
 20
-148.0230061478901
 30
0.0
 10
120.7795355600829
 20
-148.8608533699029
 30
0.0
 10
120.7795355600829
 20
-148.8608533699029
 30
0.0
 10
120.7795355600829
 20
-148.8608533699029
 30
0.0
 10
120.5680066972886
 20
-148.8608533699029
 30
0.0
 10
120.5680066972886
 20
-148.8608533699029
 30
0.0
 10
120.5680066972886
 20
-148.8608533699029
 30
0.0
 10
120.5680066972886
 20
-147.7859835785049
 30
0.0
 10
120.5680066972886
 20
-147.7859835785049
 30
0.0
 10
120.5680066972886
 20
-147.7859835785049
 30
0.0
 10
120.7795355600829
 20
-147.7859835785049
 30
0.0
 10
120.7795355600829
 20
-147.7859835785049
 30
0.0
 10
121.0696125999409
 20
-148.1098225541184
 30
0.0
 10
121.6621690234039
 20
-148.3764729446767
 30
0.0
 10
122.1127875128746
 20
-148.4102348804322
 30
0.0
  0
HATCH
  5
E9
330
D8
100
AcDbEntity
  8
_U+30EC_U+30A4_U+30E4_U+30FC 1
 62
   179
420
  2234388
100
AcDbHatch
 10
0.0
 20
0.0
 30
0.0
210
0.0
220
0.0
230
1.0
  2
SOLID
 70
     1
 71
     0
 91
        1
 92
        1
 93
        1
 72
     4
 94
        3
 73
     0
 74
     1
 95
       26
 96
       22
 40
0.0
 40
0.0
 40
0.0
 40
0.0
 40
1.0
 40
1.0
 40
1.0
 40
2.0
 40
2.0
 40
2.0
 40
3.0
 40
3.0
 40
3.0
 40
4.0
 40
4.0
 40
4.0
 40
5.0
 40
5.0
 40
5.0
 40
6.0
 40
6.0
 40
6.0
 40
7.0
 40
7.0
 40
7.0
 40
7.0
 10
122.1127875128746
 20
-148.4102348804322
 10
122.1127875128746
 20
-148.4102348804322
 10
122.1127875128746
 20
-148.6472574498173
 10
122.1127875128746
 20
-148.6472574498173
 10
121.8034179382991
 20
-148.6217637432265
 10
121.2852755773176
 20
-148.429182905601
 10
120.7795355600829
 20
-148.0230061478901
 10
120.7795355600829
 20
-148.0230061478901
 10
120.7795355600829
 20
-148.8608533699029
 10
120.7795355600829
 20
-148.8608533699029
 10
120.7795355600829
 20
-148.8608533699029
 10
120.5680066972886
 20
-148.8608533699029
 10
120.5680066972886
 20
-148.8608533699029
 10
120.5680066972886
 20
-148.8608533699029
 10
120.5680066972886
 20
-147.7859835785049
 10
120.5680066972886
 20
-147.7859835785049
 10
120.5680066972886
 20
-147.7859835785049
 10
120.7795355600829
 20
-147.7859835785049
 10
120.7795355600829
 20
-147.7859835785049
 10
121.0696125999409
 20
-148.1098225541184
 10
121.6621690234039
 20
-148.3764729446767
 10
122.1127875128746
 20
-148.4102348804322
 97
        0
 97
        0
 75
     2
 76
     1
 98
        0
  0
ENDBLK
  5
DB
330
D8
100
AcDbEntity
  8
0
100
AcDbBlockEnd
  0
ENDSEC
  0
SECTION
  2
ENTITIES
  0
POLYLINE
  5
41
330
1F
100
AcDbEntity
  8
_U+30EC_U+30A4_U+30E4_U+30FC 1
370
     0
100
AcDb2dPolyline
 66
     1
 10
0.0
 20
0.0
 30
0.0
  0
VERTEX
  5
42
330
41
100
AcDbEntity
  8
_U+30EC_U+30A4_U+30E4_U+30FC 1
370
     0
100
AcDbVertex
100
AcDb2dVertex
 10
86.6952788242192
 20
-143.422167254726
 30
0.0
  0
VERTEX
  5
43
330
41
100
AcDbEntity
  8
_U+30EC_U+30A4_U+30E4_U+30FC 1
370
     0
100
AcDbVertex
100
AcDb2dVertex
 10
98.75850675021272
 20
-143.422167254726
 30
0.0
  0
VERTEX
  5
44
330
41
100
AcDbEntity
  8
_U+30EC_U+30A4_U+30E4_U+30FC 1
370
     0
100
AcDbVertex
100
AcDb2dVertex
 10
98.75850675021272
 20
-157.1233550632582
 30
0.0
  0
VERTEX
  5
45
330
41
100
AcDbEntity
  8
_U+30EC_U+30A4_U+30E4_U+30FC 1
370
     0
100
AcDbVertex
100
AcDb2dVertex
 10
104.759260193808
 20
-157.1233550632582
 30
0.0
  0
VERTEX
  5
46
330
41
100
AcDbEntity
  8
_U+30EC_U+30A4_U+30E4_U+30FC 1
370
     0
100
AcDbVertex
100
AcDb2dVertex
 10
104.759260193808
 20
-156.1228724195332
 30
0.0
  0
VERTEX
  5
47
330
41
100
AcDbEntity
  8
_U+30EC_U+30A4_U+30E4_U+30FC 1
370
     0
100
AcDbVertex
100
AcDb2dVertex
 10
99.65915160336755
 20
-156.1228724195332
 30
0.0
  0
VERTEX
  5
48
330
41
100
AcDbEntity
  8
_U+30EC_U+30A4_U+30E4_U+30FC 1
370
     0
100
AcDbVertex
100
AcDb2dVertex
 10
99.65915160336755
 20
-143.422167254726
 30
0.0
  0
VERTEX
  5
49
330
41
100
AcDbEntity
  8
_U+30EC_U+30A4_U+30E4_U+30FC 1
370
     0
100
AcDbVertex
100
AcDb2dVertex
 10
118.7588901646733
 20
-143.422167254726
 30
0.0
  0
VERTEX
  5
4A
330
41
100
AcDbEntity
  8
_U+30EC_U+30A4_U+30E4_U+30FC 1
370
     0
100
AcDbVertex
100
AcDb2dVertex
 10
118.7588901646733
 20
-142.4223951619449
 30
0.0
  0
VERTEX
  5
4B
330
41
100
AcDbEntity
  8
_U+30EC_U+30A4_U+30E4_U+30FC 1
370
     0
100
AcDbVertex
100
AcDb2dVertex
 10
86.6952788242192
 20
-142.4223951619449
 30
0.0
  0
VERTEX
  5
4C
330
41
100
AcDbEntity
  8
_U+30EC_U+30A4_U+30E4_U+30FC 1
370
     0
100
AcDbVertex
100
AcDb2dVertex
 10
86.6952788242192
 20
-143.422167254726
 30
0.0
  0
SEQEND
  5
4E
330
41
100
AcDbEntity
  8
_U+30EC_U+30A4_U+30E4_U+30FC 1
370
     0
  0
HATCH
  5
4D
330
1F
100
AcDbEntity
  8
_U+30EC_U+30A4_U+30E4_U+30FC 1
 62
     9
420
 13224394
100
AcDbHatch
 10
0.0
 20
0.0
 30
0.0
210
0.0
220
0.0
230
1.0
  2
SOLID
 70
     1
 71
     0
 91
        1
 92
        1
 93
       10
 72
     1
 10
86.6952788242192
 20
-143.422167254726
 11
98.75850675021272
 21
-143.422167254726
 72
     1
 10
98.75850675021272
 20
-143.422167254726
 11
98.75850675021272
 21
-157.1233550632582
 72
     1
 10
98.75850675021272
 20
-157.1233550632582
 11
104.759260193808
 21
-157.1233550632582
 72
     1
 10
104.759260193808
 20
-157.1233550632582
 11
104.759260193808
 21
-156.1228724195332
 72
     1
 10
104.759260193808
 20
-156.1228724195332
 11
99.65915160336755
 21
-156.1228724195332
 72
     1
 10
99.65915160336755
 20
-156.1228724195332
 11
99.65915160336755
 21
-143.422167254726
 72
     1
 10
99.65915160336755
 20
-143.422167254726
 11
118.7588901646733
 21
-143.422167254726
 72
     1
 10
118.7588901646733
 20
-143.422167254726
 11
118.7588901646733
 21
-142.4223951619449
 72
     1
 10
118.7588901646733
 20
-142.4223951619449
 11
86.6952788242192
 21
-142.4223951619449
 72
     1
 10
86.6952788242192
 20
-142.4223951619449
 11
86.6952788242192
 21
-143.422167254726
 97
        0
 75
     2
 76
     1
 98
        0
  0
POLYLINE
  5
4F
330
1F
100
AcDbEntity
  8
_U+30EC_U+30A4_U+30E4_U+30FC 1
 62
   179
420
  2234388
370
    25
100
AcDb2dPolyline
 66
     1
 10
0.0
 20
0.0
 30
0.0
  0
VERTEX
  5
50
330
4F
100
AcDbEntity
  8
_U+30EC_U+30A4_U+30E4_U+30FC 1
 62
   179
420
  2234388
370
    25
100
AcDbVertex
100
AcDb2dVertex
 10
86.75867934707118
 20
-142.422427459715
 30
0.0
  0
VERTEX
  5
51
330
4F
100
AcDbEntity
  8
_U+30EC_U+30A4_U+30E4_U+30FC 1
 62
   179
420
  2234388
370
    25
100
AcDbVertex
100
AcDb2dVertex
 10
118.7587932713628
 20
-142.422427459715
 30
0.0
  0
SEQEND
  5
52
330
4F
100
AcDbEntity
  8
_U+30EC_U+30A4_U+30E4_U+30FC 1
 62
   179
420
  2234388
370
    25
  0
POLYLINE
  5
53
330
1F
100
AcDbEntity
  8
_U+30EC_U+30A4_U+30E4_U+30FC 1
 62
   179
420
  2234388
370
    25
100
AcDb2dPolyline
 66
     1
 10
0.0
 20
0.0
 30
0.0
  0
VERTEX
  5
54
330
53
100
AcDbEntity
  8
_U+30EC_U+30A4_U+30E4_U+30FC 1
 62
   179
420
  2234388
370
    25
100
AcDbVertex
100
AcDb2dVertex
 10
86.75934683432178
 20
-143.422167254726
 30
0.0
  0
VERTEX
  5
55
330
53
100
AcDbEntity
  8
_U+30EC_U+30A4_U+30E4_U+30FC 1
 62
   179
420
  2234388
370
    25
100
AcDbVertex
100
AcDb2dVertex
 10
98.75872206868056
 20
-143.422167254726
 30
0.0
  0
SEQEND
  5
56
330
53
100
AcDbEntity
  8
_U+30EC_U+30A4_U+30E4_U+30FC 1
 62
   179
420
  2234388
370
    25
  0
POLYLINE
  5
57
330
1F
100
AcDbEntity
  8
_U+30EC_U+30A4_U+30E4_U+30FC 1
 62
   179
420
  2234388
370
    25
100
AcDb2dPolyline
 66
     1
 10
0.0
 20
0.0
 30
0.0
  0
VERTEX
  5
58
330
57
100
AcDbEntity
  8
_U+30EC_U+30A4_U+30E4_U+30FC 1
 62
   179
420
  2234388
370
    25
100
AcDbVertex
100
AcDb2dVertex
 10
98.75862517537003
 20
-143.422167254726
 30
0.0
  0
VERTEX
  5
59
330
57
100
AcDbEntity
  8
_U+30EC_U+30A4_U+30E4_U+30FC 1
 62
   179
420
  2234388
370
    25
100
AcDbVertex
100
AcDb2dVertex
 10
98.75862517537003
 20
-157.1233550632582
 30
0.0
  0
SEQEND
  5
5A
330
57
100
AcDbEntity
  8
_U+30EC_U+30A4_U+30E4_U+30FC 1
 62
   179
420
  2234388
370
    25
  0
POLYLINE
  5
5B
330
1F
100
AcDbEntity
  8
_U+30EC_U+30A4_U+30E4_U+30FC 1
 62
   179
420
  2234388
370
    25
100
AcDb2dPolyline
 66
     1
 10
0.0
 20
0.0
 30
0.0
  0
VERTEX
  5
5C
330
5B
100
AcDbEntity
  8
_U+30EC_U+30A4_U+30E4_U+30FC 1
 62
   179
420
  2234388
370
    25
100
AcDbVertex
100
AcDb2dVertex
 10
99.65916236929127
 20
-143.422167254726
 30
0.0
  0
VERTEX
  5
5D
330
5B
100
AcDbEntity
  8
_U+30EC_U+30A4_U+30E4_U+30FC 1
 62
   179
420
  2234388
370
    25
100
AcDbVertex
100
AcDb2dVertex
 10
118.7589009305967
 20
-143.422167254726
 30
0.0
  0
SEQEND
  5
5E
330
5B
100
AcDbEntity
  8
_U+30EC_U+30A4_U+30E4_U+30FC 1
 62
   179
420
  2234388
370
    25
  0
POLYLINE
  5
5F
330
1F
100
AcDbEntity
  8
_U+30EC_U+30A4_U+30E4_U+30FC 1
 62
   179
420
  2234388
370
    25
100
AcDb2dPolyline
 66
     1
 10
0.0
 20
0.0
 30
0.0
  0
VERTEX
  5
60
330
5F
100
AcDbEntity
  8
_U+30EC_U+30A4_U+30E4_U+30FC 1
 62
   179
420
  2234388
370
    25
100
AcDbVertex
100
AcDb2dVertex
 10
99.65916236929127
 20
-156.1228724195332
 30
0.0
  0
VERTEX
  5
61
330
5F
100
AcDbEntity
  8
_U+30EC_U+30A4_U+30E4_U+30FC 1
 62
   179
420
  2234388
370
    25
100
AcDbVertex
100
AcDb2dVertex
 10
104.759260193808
 20
-156.1228724195332
 30
0.0
  0
SEQEND
  5
62
330
5F
100
AcDbEntity
  8
_U+30EC_U+30A4_U+30E4_U+30FC 1
 62
   179
420
  2234388
370
    25
  0
POLYLINE
  5
63
330
1F
100
AcDbEntity
  8
_U+30EC_U+30A4_U+30E4_U+30FC 1
 62
   179
420
  2234388
370
    25
100
AcDb2dPolyline
 66
     1
 10
0.0
 20
0.0
 30
0.0
  0
VERTEX
  5
64
330
63
100
AcDbEntity
  8
_U+30EC_U+30A4_U+30E4_U+30FC 1
 62
   179
420
  2234388
370
    25
100
AcDbVertex
100
AcDb2dVertex
 10
98.75862517537003
 20
-157.1233119995647
 30
0.0
  0
VERTEX
  5
65
330
63
100
AcDbEntity
  8
_U+30EC_U+30A4_U+30E4_U+30FC 1
 62
   179
420
  2234388
370
    25
100
AcDbVertex
100
AcDb2dVertex
 10
104.7593678530422
 20
-157.1233119995647
 30
0.0
  0
SEQEND
  5
66
330
63
100
AcDbEntity
  8
_U+30EC_U+30A4_U+30E4_U+30FC 1
 62
   179
420
  2234388
370
    25
  0
POLYLINE
  5
67
330
1F
100
AcDbEntity
  8
_U+30EC_U+30A4_U+30E4_U+30FC 1
 62
   179
420
  2234388
370
    25
100
AcDb2dPolyline
 66
     1
 10
0.0
 20
0.0
 30
0.0
  0
VERTEX
  5
68
330
67
100
AcDbEntity
  8
_U+30EC_U+30A4_U+30E4_U+30FC 1
 62
   179
420
  2234388
370
    25
100
AcDbVertex
100
AcDb2dVertex
 10
104.7593032575016
 20
-156.1228724195332
 30
0.0
  0
VERTEX
  5
69
330
67
100
AcDbEntity
  8
_U+30EC_U+30A4_U+30E4_U+30FC 1
 62
   179
420
  2234388
370
    25
100
AcDbVertex
100
AcDb2dVertex
 10
104.7593032575016
 20
-157.1233550632582
 30
0.0
  0
SEQEND
  5
6A
330
67
100
AcDbEntity
  8
_U+30EC_U+30A4_U+30E4_U+30FC 1
 62
   179
420
  2234388
370
    25
  0
POLYLINE
  5
6B
330
1F
100
AcDbEntity
  8
_U+30EC_U+30A4_U+30E4_U+30FC 1
 62
   179
420
  2234388
370
    25
100
AcDb2dPolyline
 66
     1
 10
0.0
 20
0.0
 30
0.0
  0
VERTEX
  5
6C
330
6B
100
AcDbEntity
  8
_U+30EC_U+30A4_U+30E4_U+30FC 1
 62
   179
420
  2234388
370
    25
100
AcDbVertex
100
AcDb2dVertex
 10
86.69873468562784
 20
-142.422427459715
 30
0.0
  0
VERTEX
  5
6D
330
6B
100
AcDbEntity
  8
_U+30EC_U+30A4_U+30E4_U+30FC 1
 62
   179
420
  2234388
370
    25
100
AcDbVertex
100
AcDb2dVertex
 10
86.69873468562784
 20
-143.4222049354579
 30
0.0
  0
SEQEND
  5
6E
330
6B
100
AcDbEntity
  8
_U+30EC_U+30A4_U+30E4_U+30FC 1
 62
   179
420
  2234388
370
    25
  0
POLYLINE
  5
6F
330
1F
100
AcDbEntity
  8
_U+30EC_U+30A4_U+30E4_U+30FC 1
 62
   179
420
  2234388
370
    25
100
AcDb2dPolyline
 66
     1
 10
0.0
 20
0.0
 30
0.0
  0
VERTEX
  5
70
330
6F
100
AcDbEntity
  8
_U+30EC_U+30A4_U+30E4_U+30FC 1
 62
   179
420
  2234388
370
    25
100
AcDbVertex
100
AcDb2dVertex
 10
118.7587932713628
 20
-142.422427459715
 30
0.0
  0
VERTEX
  5
71
330
6F
100
AcDbEntity
  8
_U+30EC_U+30A4_U+30E4_U+30FC 1
 62
   179
420
  2234388
370
    25
100
AcDbVertex
100
AcDb2dVertex
 10
118.7587932713628
 20
-143.4222049354579
 30
0.0
  0
SEQEND
  5
72
330
6F
100
AcDbEntity
  8
_U+30EC_U+30A4_U+30E4_U+30FC 1
 62
   179
420
  2234388
370
    25
  0
POLYLINE
  5
73
330
1F
100
AcDbEntity
  8
_U+30EC_U+30A4_U+30E4_U+30FC 1
 62
   179
420
  2234388
370
    25
100
AcDb2dPolyline
 66
     1
 10
0.0
 20
0.0
 30
0.0
  0
VERTEX
  5
74
330
73
100
AcDbEntity
  8
_U+30EC_U+30A4_U+30E4_U+30FC 1
 62
   179
420
  2234388
370
    25
100
AcDbVertex
100
AcDb2dVertex
 10
99.65916236929127
 20
-143.422167254726
 30
0.0
  0
VERTEX
  5
75
330
73
100
AcDbEntity
  8
_U+30EC_U+30A4_U+30E4_U+30FC 1
 62
   179
420
  2234388
370
    25
100
AcDbVertex
100
AcDb2dVertex
 10
99.65916236929127
 20
-156.1228724195332
 30
0.0
  0
SEQEND
  5
76
330
73
100
AcDbEntity
  8
_U+30EC_U+30A4_U+30E4_U+30FC 1
 62
   179
420
  2234388
370
    25
  0
SPLINE
  5
77
330
1F
100
AcDbEntity
  8
_U+30EC_U+30A4_U+30E4_U+30FC 1
 62
   179
420
  2234388
370
     9
100
AcDbSpline
210
0.0
220
0.0
230
1.0
 70
    11
 71
     3
 72
    17
 73
    13
 74
     0
 42
0.0000000001
 43
0.0000000001
 12
1.0
 22
0.0
 32
0.0
 13
1.0
 23
0.0
 33
0.0
 40
0.0
 40
0.0
 40
0.0
 40
0.0
 40
1.0
 40
1.0
 40
1.0
 40
2.0
 40
2.0
 40
2.0
 40
3.0
 40
3.0
 40
3.0
 40
4.0
 40
4.0
 40
4.0
 40
4.0
 10
86.77659384359448
 20
-138.4219664333579
 30
0.0
 10
86.77659384359448
 20
-138.3669364159427
 30
0.0
 10
86.73178607043977
 20
-138.3221340257493
 30
0.0
 10
86.6767506700629
 20
-138.3221340257493
 30
0.0
 10
86.62171526968604
 20
-138.3221340257493
 30
0.0
 10
86.57691826245409
 20
-138.3669364159427
 30
0.0
 10
86.57691826245409
 20
-138.4219664333579
 30
0.0
 10
86.57691826245409
 20
-138.4770018337347
 30
0.0
 10
86.62171526968604
 20
-138.521804223928
 30
0.0
 10
86.6767506700629
 20
-138.521804223928
 30
0.0
 10
86.73178607043977
 20
-138.521804223928
 30
0.0
 10
86.77659384359448
 20
-138.4770018337347
 30
0.0
 10
86.77659384359448
 20
-138.4219664333579
 30
0.0
  0
SPLINE
  5
78
330
1F
100
AcDbEntity
  8
_U+30EC_U+30A4_U+30E4_U+30FC 1
 62
   179
420
  2234388
370
     9
100
AcDbSpline
210
0.0
220
0.0
230
1.0
 70
    11
 71
     3
 72
    17
 73
    13
 74
     0
 42
0.0000000001
 43
0.0000000001
 12
1.0
 22
0.0
 32
0.0
 13
1.0
 23
0.0
 33
0.0
 40
0.0
 40
0.0
 40
0.0
 40
0.0
 40
1.0
 40
1.0
 40
1.0
 40
2.0
 40
2.0
 40
2.0
 40
3.0
 40
3.0
 40
3.0
 40
4.0
 40
4.0
 40
4.0
 40
4.0
 10
118.8587010404351
 20
-138.4219664333579
 30
0.0
 10
118.8587010404351
 20
-138.3669364159427
 30
0.0
 10
118.8146038182239
 20
-138.3221340257493
 30
0.0
 10
118.7588578669032
 20
-138.3221340257493
 30
0.0
 10
118.7038224665263
 20
-138.3221340257493
 30
0.0
 10
118.6590254592947
 20
-138.3669364159427
 30
0.0
 10
118.6590254592947
 20
-138.4219664333579
 30
0.0
 10
118.6590254592947
 20
-138.4770018337347
 30
0.0
 10
118.7038224665263
 20
-138.521804223928
 30
0.0
 10
118.7588578669032
 20
-138.521804223928
 30
0.0
 10
118.8146038182239
 20
-138.521804223928
 30
0.0
 10
118.8587010404351
 20
-138.4770018337347
 30
0.0
 10
118.8587010404351
 20
-138.4219664333579
 30
0.0
  0
SPLINE
  5
79
330
1F
100
AcDbEntity
  8
_U+30EC_U+30A4_U+30E4_U+30FC 1
 62
   179
420
  2234388
370
     9
100
AcDbSpline
210
0.0
220
0.0
230
1.0
 70
    11
 71
     3
 72
    17
 73
    13
 74
     0
 42
0.0000000001
 43
0.0000000001
 12
1.0
 22
0.0
 32
0.0
 13
1.0
 23
0.0
 33
0.0
 40
0.0
 40
0.0
 40
0.0
 40
0.0
 40
1.0
 40
1.0
 40
1.0
 40
2.0
 40
2.0
 40
2.0
 40
3.0
 40
3.0
 40
3.0
 40
4.0
 40
4.0
 40
4.0
 40
4.0
 10
122.8591243860604
 20
-143.422167254726
 30
0.0
 10
122.8591243860604
 20
-143.3671372373109
 30
0.0
 10
122.8143166129054
 20
-143.3223348471176
 30
0.0
 10
122.7592812125285
 20
-143.3223348471176
 30
0.0
 10
122.7042458121516
 20
-143.3223348471176
 30
0.0
 10
122.65944880492
 20
-143.3671372373109
 30
0.0
 10
122.65944880492
 20
-143.422167254726
 30
0.0
 10
122.65944880492
 20
-143.4772026551029
 30
0.0
 10
122.7042458121516
 20
-143.5220050452963
 30
0.0
 10
122.7592812125285
 20
-143.5220050452963
 30
0.0
 10
122.8143166129054
 20
-143.5220050452963
 30
0.0
 10
122.8591243860604
 20
-143.4772026551029
 30
0.0
 10
122.8591243860604
 20
-143.422167254726
 30
0.0
  0
SPLINE
  5
7A
330
1F
100
AcDbEntity
  8
_U+30EC_U+30A4_U+30E4_U+30FC 1
 62
   179
420
  2234388
370
     9
100
AcDbSpline
210
0.0
220
0.0
230
1.0
 70
    11
 71
     3
 72
    17
 73
    13
 74
     0
 42
0.0000000001
 43
0.0000000001
 12
1.0
 22
0.0
 32
0.0
 13
1.0
 23
0.0
 33
0.0
 40
0.0
 40
0.0
 40
0.0
 40
0.0
 40
1.0
 40
1.0
 40
1.0
 40
2.0
 40
2.0
 40
2.0
 40
3.0
 40
3.0
 40
3.0
 40
4.0
 40
4.0
 40
4.0
 40
4.0
 10
122.8591243860604
 20
-142.422427459715
 30
0.0
 10
122.8591243860604
 20
-142.3666922743177
 30
0.0
 10
122.8143166129054
 20
-142.3218898841244
 30
0.0
 10
122.7592812125285
 20
-142.3218898841244
 30
0.0
 10
122.7042458121516
 20
-142.3218898841244
 30
0.0
 10
122.65944880492
 20
-142.3666922743177
 30
0.0
 10
122.65944880492
 20
-142.422427459715
 30
0.0
 10
122.65944880492
 20
-142.4774628600919
 30
0.0
 10
122.7042458121516
 20
-142.5222652502856
 30
0.0
 10
122.7592812125285
 20
-142.5222652502856
 30
0.0
 10
122.8143166129054
 20
-142.5222652502856
 30
0.0
 10
122.8591243860604
 20
-142.4774628600919
 30
0.0
 10
122.8591243860604
 20
-142.422427459715
 30
0.0
  0
SPLINE
  5
7B
330
1F
100
AcDbEntity
  8
_U+30EC_U+30A4_U+30E4_U+30FC 1
 62
   179
420
  2234388
370
     9
100
AcDbSpline
210
0.0
220
0.0
230
1.0
 70
    11
 71
     3
 72
    17
 73
    13
 74
     0
 42
0.0000000001
 43
0.0000000001
 12
1.0
 22
0.0
 32
0.0
 13
1.0
 23
0.0
 33
0.0
 40
0.0
 40
0.0
 40
0.0
 40
0.0
 40
1.0
 40
1.0
 40
1.0
 40
2.0
 40
2.0
 40
2.0
 40
3.0
 40
3.0
 40
3.0
 40
4.0
 40
4.0
 40
4.0
 40
4.0
 10
122.8591243860604
 20
-156.1228724195332
 30
0.0
 10
122.8591243860604
 20
-156.067842402118
 30
0.0
 10
122.8143166129054
 20
-156.0230400119247
 30
0.0
 10
122.7592812125285
 20
-156.0230400119247
 30
0.0
 10
122.7042458121516
 20
-156.0230400119247
 30
0.0
 10
122.65944880492
 20
-156.067842402118
 30
0.0
 10
122.65944880492
 20
-156.1228724195332
 30
0.0
 10
122.65944880492
 20
-156.1779078199101
 30
0.0
 10
122.7042458121516
 20
-156.2227102101034
 30
0.0
 10
122.7592812125285
 20
-156.2227102101034
 30
0.0
 10
122.8143166129054
 20
-156.2227102101034
 30
0.0
 10
122.8591243860604
 20
-156.1779078199101
 30
0.0
 10
122.8591243860604
 20
-156.1228724195332
 30
0.0
  0
SPLINE
  5
7C
330
1F
100
AcDbEntity
  8
_U+30EC_U+30A4_U+30E4_U+30FC 1
 62
   179
420
  2234388
370
     9
100
AcDbSpline
210
0.0
220
0.0
230
1.0
 70
    11
 71
     3
 72
    17
 73
    13
 74
     0
 42
0.0000000001
 43
0.0000000001
 12
1.0
 22
0.0
 32
0.0
 13
1.0
 23
0.0
 33
0.0
 40
0.0
 40
0.0
 40
0.0
 40
0.0
 40
1.0
 40
1.0
 40
1.0
 40
2.0
 40
2.0
 40
2.0
 40
3.0
 40
3.0
 40
3.0
 40
4.0
 40
4.0
 40
4.0
 40
4.0
 10
98.85923272946272
 20
-161.1230732409014
 30
0.0
 10
98.85923272946272
 20
-161.0680432234863
 30
0.0
 10
98.814424956308
 20
-161.0232408332929
 30
0.0
 10
98.75868977091038
 20
-161.0232408332929
 30
0.0
 10
98.70365437053351
 20
-161.0232408332929
 30
0.0
 10
98.65884659737848
 20
-161.0680432234863
 30
0.0
 10
98.65884659737848
 20
-161.1230732409014
 30
0.0
 10
98.65884659737848
 20
-161.1781086412783
 30
0.0
 10
98.70365437053351
 20
-161.2229110314716
 30
0.0
 10
98.75868977091038
 20
-161.2229110314716
 30
0.0
 10
98.814424956308
 20
-161.2229110314716
 30
0.0
 10
98.85923272946272
 20
-161.1781086412783
 30
0.0
 10
98.85923272946272
 20
-161.1230732409014
 30
0.0
  0
SPLINE
  5
7D
330
1F
100
AcDbEntity
  8
_U+30EC_U+30A4_U+30E4_U+30FC 1
 62
   179
420
  2234388
370
     9
100
AcDbSpline
210
0.0
220
0.0
230
1.0
 70
    11
 71
     3
 72
    17
 73
    13
 74
     0
 42
0.0000000001
 43
0.0000000001
 12
1.0
 22
0.0
 32
0.0
 13
1.0
 23
0.0
 33
0.0
 40
0.0
 40
0.0
 40
0.0
 40
0.0
 40
1.0
 40
1.0
 40
1.0
 40
2.0
 40
2.0
 40
2.0
 40
3.0
 40
3.0
 40
3.0
 40
4.0
 40
4.0
 40
4.0
 40
4.0
 10
104.8592110265738
 20
-161.1230732409014
 30
0.0
 10
104.8592110265738
 20
-161.0680432234863
 30
0.0
 10
104.8144032534191
 20
-161.0232408332929
 30
0.0
 10
104.7593678530422
 20
-161.0232408332929
 30
0.0
 10
104.7043324526654
 20
-161.0232408332929
 30
0.0
 10
104.6595354454334
 20
-161.0680432234863
 30
0.0
 10
104.6595354454334
 20
-161.1230732409014
 30
0.0
 10
104.6595354454334
 20
-161.1781086412783
 30
0.0
 10
104.7043324526654
 20
-161.2229110314716
 30
0.0
 10
104.7593678530422
 20
-161.2229110314716
 30
0.0
 10
104.8144032534191
 20
-161.2229110314716
 30
0.0
 10
104.8592110265738
 20
-161.1781086412783
 30
0.0
 10
104.8592110265738
 20
-161.1230732409014
 30
0.0
  0
SPLINE
  5
7E
330
1F
100
AcDbEntity
  8
_U+30EC_U+30A4_U+30E4_U+30FC 1
 62
   179
420
  2234388
370
     9
100
AcDbSpline
210
0.0
220
0.0
230
1.0
 70
    11
 71
     3
 72
    17
 73
    13
 74
     0
 42
0.0000000001
 43
0.0000000001
 12
1.0
 22
0.0
 32
0.0
 13
1.0
 23
0.0
 33
0.0
 40
0.0
 40
0.0
 40
0.0
 40
0.0
 40
1.0
 40
1.0
 40
1.0
 40
2.0
 40
2.0
 40
2.0
 40
3.0
 40
3.0
 40
3.0
 40
4.0
 40
4.0
 40
4.0
 40
4.0
 10
86.86478828801688
 20
-161.1230732409014
 30
0.0
 10
86.86478828801688
 20
-161.0680432234863
 30
0.0
 10
86.81998051486217
 20
-161.0232408332929
 30
0.0
 10
86.7649451144853
 20
-161.0232408332929
 30
0.0
 10
86.70990971410843
 20
-161.0232408332929
 30
0.0
 10
86.66511270687647
 20
-161.0680432234863
 30
0.0
 10
86.66511270687647
 20
-161.1230732409014
 30
0.0
 10
86.66511270687647
 20
-161.1781086412783
 30
0.0
 10
86.70990971410843
 20
-161.2229110314716
 30
0.0
 10
86.7649451144853
 20
-161.2229110314716
 30
0.0
 10
86.81998051486217
 20
-161.2229110314716
 30
0.0
 10
86.86478828801688
 20
-161.1781086412783
 30
0.0
 10
86.86478828801688
 20
-161.1230732409014
 30
0.0
  0
POLYLINE
  5
7F
330
1F
100
AcDbEntity
  8
_U+30EC_U+30A4_U+30E4_U+30FC 1
 62
   179
420
  2234388
370
     9
100
AcDb2dPolyline
 66
     1
 10
0.0
 20
0.0
 30
0.0
  0
VERTEX
  5
80
330
7F
100
AcDbEntity
  8
_U+30EC_U+30A4_U+30E4_U+30FC 1
 62
   179
420
  2234388
370
     9
100
AcDbVertex
100
AcDb2dVertex
 10
122.7592273829115
 20
-142.422427459715
 30
0.0
  0
VERTEX
  5
81
330
7F
100
AcDbEntity
  8
_U+30EC_U+30A4_U+30E4_U+30FC 1
 62
   179
420
  2234388
370
     9
100
AcDbVertex
100
AcDb2dVertex
 10
122.7592273829115
 20
-138.6519427058834
 30
0.0
  0
SEQEND
  5
82
330
7F
100
AcDbEntity
  8
_U+30EC_U+30A4_U+30E4_U+30FC 1
 62
   179
420
  2234388
370
     9
  0
POLYLINE
  5
83
330
1F
100
AcDbEntity
  8
_U+30EC_U+30A4_U+30E4_U+30FC 1
 62
   179
420
  2234388
370
     9
100
AcDb2dPolyline
 66
     1
 10
0.0
 20
0.0
 30
0.0
  0
VERTEX
  5
84
330
83
100
AcDbEntity
  8
_U+30EC_U+30A4_U+30E4_U+30FC 1
 62
   179
420
  2234388
370
     9
100
AcDbVertex
100
AcDb2dVertex
 10
122.7592273829115
 20
-143.422167254726
 30
0.0
  0
VERTEX
  5
85
330
83
100
AcDbEntity
  8
_U+30EC_U+30A4_U+30E4_U+30FC 1
 62
   179
420
  2234388
370
     9
100
AcDbVertex
100
AcDb2dVertex
 10
122.7592273829115
 20
-142.4223951619449
 30
0.0
  0
SEQEND
  5
86
330
83
100
AcDbEntity
  8
_U+30EC_U+30A4_U+30E4_U+30FC 1
 62
   179
420
  2234388
370
     9
  0
POLYLINE
  5
87
330
1F
100
AcDbEntity
  8
_U+30EC_U+30A4_U+30E4_U+30FC 1
 62
   179
420
  2234388
370
     9
100
AcDb2dPolyline
 66
     1
 10
0.0
 20
0.0
 30
0.0
  0
VERTEX
  5
88
330
87
100
AcDbEntity
  8
_U+30EC_U+30A4_U+30E4_U+30FC 1
 62
   179
420
  2234388
370
     9
100
AcDbVertex
100
AcDb2dVertex
 10
121.2991851503393
 20
-143.422167254726
 30
0.0
  0
VERTEX
  5
89
330
87
100
AcDbEntity
  8
_U+30EC_U+30A4_U+30E4_U+30FC 1
 62
   179
420
  2234388
370
     9
100
AcDbVertex
100
AcDb2dVertex
 10
123.759101751965
 20
-143.422167254726
 30
0.0
  0
SEQEND
  5
8A
330
87
100
AcDbEntity
  8
_U+30EC_U+30A4_U+30E4_U+30FC 1
 62
   179
420
  2234388
370
     9
  0
POLYLINE
  5
8B
330
1F
100
AcDbEntity
  8
_U+30EC_U+30A4_U+30E4_U+30FC 1
 62
   179
420
  2234388
370
     9
100
AcDb2dPolyline
 66
     1
 10
0.0
 20
0.0
 30
0.0
  0
VERTEX
  5
8C
330
8B
100
AcDbEntity
  8
_U+30EC_U+30A4_U+30E4_U+30FC 1
 62
   179
420
  2234388
370
     9
100
AcDbVertex
100
AcDb2dVertex
 10
121.2991851503393
 20
-142.422427459715
 30
0.0
  0
VERTEX
  5
8D
330
8B
100
AcDbEntity
  8
_U+30EC_U+30A4_U+30E4_U+30FC 1
 62
   179
420
  2234388
370
     9
100
AcDbVertex
100
AcDb2dVertex
 10
123.759101751965
 20
-142.422427459715
 30
0.0
  0
SEQEND
  5
8E
330
8B
100
AcDbEntity
  8
_U+30EC_U+30A4_U+30E4_U+30FC 1
 62
   179
420
  2234388
370
     9
  0
INSERT
  5
90
330
1F
100
AcDbEntity
  8
_U+30EC_U+30A4_U+30E4_U+30FC 1
100
AcDbBlockReference
  2
block 2
 10
0.0
 20
0.0
 30
0.0
  0
POLYLINE
  5
95
330
1F
100
AcDbEntity
  8
_U+30EC_U+30A4_U+30E4_U+30FC 1
 62
   179
420
  2234388
370
     9
100
AcDb2dPolyline
 66
     1
 10
0.0
 20
0.0
 30
0.0
  0
VERTEX
  5
96
330
95
100
AcDbEntity
  8
_U+30EC_U+30A4_U+30E4_U+30FC 1
 62
   179
420
  2234388
370
     9
100
AcDbVertex
100
AcDb2dVertex
 10
86.75867934707118
 20
-138.4219664333579
 30
0.0
  0
VERTEX
  5
97
330
95
100
AcDbEntity
  8
_U+30EC_U+30A4_U+30E4_U+30FC 1
 62
   179
420
  2234388
370
     9
100
AcDbVertex
100
AcDb2dVertex
 10
118.7587932713628
 20
-138.4219664333579
 30
0.0
  0
SEQEND
  5
98
330
95
100
AcDbEntity
  8
_U+30EC_U+30A4_U+30E4_U+30FC 1
 62
   179
420
  2234388
370
     9
  0
POLYLINE
  5
99
330
1F
100
AcDbEntity
  8
_U+30EC_U+30A4_U+30E4_U+30FC 1
 62
   179
420
  2234388
370
     9
100
AcDb2dPolyline
 66
     1
 10
0.0
 20
0.0
 30
0.0
  0
VERTEX
  5
9A
330
99
100
AcDbEntity
  8
_U+30EC_U+30A4_U+30E4_U+30FC 1
 62
   179
420
  2234388
370
     9
100
AcDbVertex
100
AcDb2dVertex
 10
86.67668607452224
 20
-139.8820032829684
 30
0.0
  0
VERTEX
  5
9B
330
99
100
AcDbEntity
  8
_U+30EC_U+30A4_U+30E4_U+30FC 1
 62
   179
420
  2234388
370
     9
100
AcDbVertex
100
AcDb2dVertex
 10
86.67668607452224
 20
-137.4220866813427
 30
0.0
  0
SEQEND
  5
9C
330
99
100
AcDbEntity
  8
_U+30EC_U+30A4_U+30E4_U+30FC 1
 62
   179
420
  2234388
370
     9
  0
POLYLINE
  5
9D
330
1F
100
AcDbEntity
  8
_U+30EC_U+30A4_U+30E4_U+30FC 1
 62
   179
420
  2234388
370
     9
100
AcDb2dPolyline
 66
     1
 10
0.0
 20
0.0
 30
0.0
  0
VERTEX
  5
9E
330
9D
100
AcDbEntity
  8
_U+30EC_U+30A4_U+30E4_U+30FC 1
 62
   179
420
  2234388
370
     9
100
AcDbVertex
100
AcDb2dVertex
 10
118.7587932713628
 20
-139.8820032829684
 30
0.0
  0
VERTEX
  5
9F
330
9D
100
AcDbEntity
  8
_U+30EC_U+30A4_U+30E4_U+30FC 1
 62
   179
420
  2234388
370
     9
100
AcDbVertex
100
AcDb2dVertex
 10
118.7587932713628
 20
-137.4220866813427
 30
0.0
  0
SEQEND
  5
A0
330
9D
100
AcDbEntity
  8
_U+30EC_U+30A4_U+30E4_U+30FC 1
 62
   179
420
  2234388
370
     9
  0
INSERT
  5
A2
330
1F
100
AcDbEntity
  8
_U+30EC_U+30A4_U+30E4_U+30FC 1
100
AcDbBlockReference
  2
block 3
 10
0.0
 20
0.0
 30
0.0
  0
POLYLINE
  5
A9
330
1F
100
AcDbEntity
  8
_U+30EC_U+30A4_U+30E4_U+30FC 1
 62
   179
420
  2234388
370
     9
100
AcDb2dPolyline
 66
     1
 10
0.0
 20
0.0
 30
0.0
  0
VERTEX
  5
AA
330
A9
100
AcDbEntity
  8
_U+30EC_U+30A4_U+30E4_U+30FC 1
 62
   179
420
  2234388
370
     9
100
AcDbVertex
100
AcDb2dVertex
 10
98.75862517537003
 20
-161.1230732409014
 30
0.0
  0
VERTEX
  5
AB
330
A9
100
AcDbEntity
  8
_U+30EC_U+30A4_U+30E4_U+30FC 1
 62
   179
420
  2234388
370
     9
100
AcDbVertex
100
AcDb2dVertex
 10
86.75923917508754
 20
-161.1230732409014
 30
0.0
  0
SEQEND
  5
AC
330
A9
100
AcDbEntity
  8
_U+30EC_U+30A4_U+30E4_U+30FC 1
 62
   179
420
  2234388
370
     9
  0
POLYLINE
  5
AD
330
1F
100
AcDbEntity
  8
_U+30EC_U+30A4_U+30E4_U+30FC 1
 62
   179
420
  2234388
370
     9
100
AcDb2dPolyline
 66
     1
 10
0.0
 20
0.0
 30
0.0
  0
VERTEX
  5
AE
330
AD
100
AcDbEntity
  8
_U+30EC_U+30A4_U+30E4_U+30FC 1
 62
   179
420
  2234388
370
     9
100
AcDbVertex
100
AcDb2dVertex
 10
98.75862517537003
 20
-159.6630310083291
 30
0.0
  0
VERTEX
  5
AF
330
AD
100
AcDbEntity
  8
_U+30EC_U+30A4_U+30E4_U+30FC 1
 62
   179
420
  2234388
370
     9
100
AcDbVertex
100
AcDb2dVertex
 10
98.75862517537003
 20
-162.1229529929165
 30
0.0
  0
SEQEND
  5
B0
330
AD
100
AcDbEntity
  8
_U+30EC_U+30A4_U+30E4_U+30FC 1
 62
   179
420
  2234388
370
     9
  0
POLYLINE
  5
B1
330
1F
100
AcDbEntity
  8
_U+30EC_U+30A4_U+30E4_U+30FC 1
 62
   179
420
  2234388
370
     9
100
AcDb2dPolyline
 66
     1
 10
0.0
 20
0.0
 30
0.0
  0
VERTEX
  5
B2
330
B1
100
AcDbEntity
  8
_U+30EC_U+30A4_U+30E4_U+30FC 1
 62
   179
420
  2234388
370
     9
100
AcDbVertex
100
AcDb2dVertex
 10
86.76488051894464
 20
-145.9622361560008
 30
0.0
  0
VERTEX
  5
B3
330
B1
100
AcDbEntity
  8
_U+30EC_U+30A4_U+30E4_U+30FC 1
 62
   179
420
  2234388
370
     9
100
AcDbVertex
100
AcDb2dVertex
 10
86.76488051894464
 20
-162.1229906736484
 30
0.0
  0
SEQEND
  5
B4
330
B1
100
AcDbEntity
  8
_U+30EC_U+30A4_U+30E4_U+30FC 1
 62
   179
420
  2234388
370
     9
  0
INSERT
  5
B6
330
1F
100
AcDbEntity
  8
_U+30EC_U+30A4_U+30E4_U+30FC 1
100
AcDbBlockReference
  2
block 4
 10
0.0
 20
0.0
 30
0.0
  0
POLYLINE
  5
BD
330
1F
100
AcDbEntity
  8
_U+30EC_U+30A4_U+30E4_U+30FC 1
 62
   179
420
  2234388
370
     9
100
AcDb2dPolyline
 66
     1
 10
0.0
 20
0.0
 30
0.0
  0
VERTEX
  5
BE
330
BD
100
AcDbEntity
  8
_U+30EC_U+30A4_U+30E4_U+30FC 1
 62
   179
420
  2234388
370
     9
100
AcDbVertex
100
AcDb2dVertex
 10
98.75862517537003
 20
-161.1230732409014
 30
0.0
  0
VERTEX
  5
BF
330
BD
100
AcDbEntity
  8
_U+30EC_U+30A4_U+30E4_U+30FC 1
 62
   179
420
  2234388
370
     9
100
AcDbVertex
100
AcDb2dVertex
 10
104.7593678530422
 20
-161.1230732409014
 30
0.0
  0
SEQEND
  5
C0
330
BD
100
AcDbEntity
  8
_U+30EC_U+30A4_U+30E4_U+30FC 1
 62
   179
420
  2234388
370
     9
  0
POLYLINE
  5
C1
330
1F
100
AcDbEntity
  8
_U+30EC_U+30A4_U+30E4_U+30FC 1
 62
   179
420
  2234388
370
     9
100
AcDb2dPolyline
 66
     1
 10
0.0
 20
0.0
 30
0.0
  0
VERTEX
  5
C2
330
C1
100
AcDbEntity
  8
_U+30EC_U+30A4_U+30E4_U+30FC 1
 62
   179
420
  2234388
370
     9
100
AcDbVertex
100
AcDb2dVertex
 10
98.75862517537003
 20
-159.6630310083291
 30
0.0
  0
VERTEX
  5
C3
330
C1
100
AcDbEntity
  8
_U+30EC_U+30A4_U+30E4_U+30FC 1
 62
   179
420
  2234388
370
     9
100
AcDbVertex
100
AcDb2dVertex
 10
98.75862517537003
 20
-162.1229529929165
 30
0.0
  0
SEQEND
  5
C4
330
C1
100
AcDbEntity
  8
_U+30EC_U+30A4_U+30E4_U+30FC 1
 62
   179
420
  2234388
370
     9
  0
POLYLINE
  5
C5
330
1F
100
AcDbEntity
  8
_U+30EC_U+30A4_U+30E4_U+30FC 1
 62
   179
420
  2234388
370
     9
100
AcDb2dPolyline
 66
     1
 10
0.0
 20
0.0
 30
0.0
  0
VERTEX
  5
C6
330
C5
100
AcDbEntity
  8
_U+30EC_U+30A4_U+30E4_U+30FC 1
 62
   179
420
  2234388
370
     9
100
AcDbVertex
100
AcDb2dVertex
 10
104.7593032575016
 20
-159.6630310083291
 30
0.0
  0
VERTEX
  5
C7
330
C5
100
AcDbEntity
  8
_U+30EC_U+30A4_U+30E4_U+30FC 1
 62
   179
420
  2234388
370
     9
100
AcDbVertex
100
AcDb2dVertex
 10
104.7593032575016
 20
-162.1229529929165
 30
0.0
  0
SEQEND
  5
C8
330
C5
100
AcDbEntity
  8
_U+30EC_U+30A4_U+30E4_U+30FC 1
 62
   179
420
  2234388
370
     9
  0
INSERT
  5
CA
330
1F
100
AcDbEntity
  8
_U+30EC_U+30A4_U+30E4_U+30FC 1
100
AcDbBlockReference
  2
block 5
 10
0.0
 20
0.0
 30
0.0
  0
POLYLINE
  5
D0
330
1F
100
AcDbEntity
  8
_U+30EC_U+30A4_U+30E4_U+30FC 1
 62
   179
420
  2234388
370
     9
100
AcDb2dPolyline
 66
     1
 10
0.0
 20
0.0
 30
0.0
  0
VERTEX
  5
D1
330
D0
100
AcDbEntity
  8
_U+30EC_U+30A4_U+30E4_U+30FC 1
 62
   179
420
  2234388
370
     9
100
AcDbVertex
100
AcDb2dVertex
 10
122.7592273829115
 20
-156.1228724195332
 30
0.0
  0
VERTEX
  5
D2
330
D0
100
AcDbEntity
  8
_U+30EC_U+30A4_U+30E4_U+30FC 1
 62
   179
420
  2234388
370
     9
100
AcDbVertex
100
AcDb2dVertex
 10
122.7592273829115
 20
-143.422167254726
 30
0.0
  0
SEQEND
  5
D3
330
D0
100
AcDbEntity
  8
_U+30EC_U+30A4_U+30E4_U+30FC 1
 62
   179
420
  2234388
370
     9
  0
POLYLINE
  5
D4
330
1F
100
AcDbEntity
  8
_U+30EC_U+30A4_U+30E4_U+30FC 1
 62
   179
420
  2234388
370
     9
100
AcDb2dPolyline
 66
     1
 10
0.0
 20
0.0
 30
0.0
  0
VERTEX
  5
D5
330
D4
100
AcDbEntity
  8
_U+30EC_U+30A4_U+30E4_U+30FC 1
 62
   179
420
  2234388
370
     9
100
AcDbVertex
100
AcDb2dVertex
 10
107.2990168833044
 20
-156.1228724195332
 30
0.0
  0
VERTEX
  5
D6
330
D4
100
AcDbEntity
  8
_U+30EC_U+30A4_U+30E4_U+30FC 1
 62
   179
420
  2234388
370
     9
100
AcDbVertex
100
AcDb2dVertex
 10
123.7589187312673
 20
-156.1228724195332
 30
0.0
  0
SEQEND
  5
D7
330
D4
100
AcDbEntity
  8
_U+30EC_U+30A4_U+30E4_U+30FC 1
 62
   179
420
  2234388
370
     9
  0
INSERT
  5
D9
330
1F
100
AcDbEntity
  8
_U+30EC_U+30A4_U+30E4_U+30FC 1
100
AcDbBlockReference
  2
block 6
 10
0.0
 20
0.0
 30
0.0
  0
ENDSEC
  0
SECTION
  2
OBJECTS
  0
DICTIONARY
  5
C
330
0
100
AcDbDictionary
281
     1
  3
ACAD_GROUP
350
D
  3
ACAD_LAYOUT
350
1A
  3
ACAD_MATERIAL
350
3B
  3
ACAD_MLEADERSTYLE
350
EB
  3
ACAD_MLINESTYLE
350
17
  3
ACAD_PLOTSETTINGS
350
19
  3
ACAD_PLOTSTYLENAME
350
E
  3
ACAD_TABLESTYLE
350
EA
  3
ACAD_VISUALSTYLE
350
2A
  0
SUN
  5
3F
330
29
100
AcDbSun
 90
        1
290
     0
 63
     7
421
 16777215
 40
1.0
291
     1
 91
  2455826
 92
 54000000
292
     0
 70
     2
 71
   256
280
     1
  0
DICTIONARY
  5
D
102
{ACAD_REACTORS
330
C
102
}
330
C
100
AcDbDictionary
281
     1
  0
DICTIONARY
  5
1A
102
{ACAD_REACTORS
330
C
102
}
330
C
100
AcDbDictionary
281
     1
  3
Layout1
350
1E
  3
Layout2
350
26
  3
Model
350
22
  0
DICTIONARY
  5
3B
102
{ACAD_REACTORS
330
C
102
}
330
C
100
AcDbDictionary
281
     1
  3
ByBlock
350
3D
  3
ByLayer
350
3C
  3
Global
350
3E
  0
DICTIONARY
  5
EB
102
{ACAD_REACTORS
330
C
102
}
330
C
100
AcDbDictionary
281
     1
  0
DICTIONARY
  5
17
102
{ACAD_REACTORS
330
C
102
}
330
C
100
AcDbDictionary
281
     1
  3
Standard
350
18
  0
DICTIONARY
  5
19
102
{ACAD_REACTORS
330
C
102
}
330
C
100
AcDbDictionary
281
     1
  0
ACDBDICTIONARYWDFLT
  5
E
102
{ACAD_REACTORS
330
C
102
}
330
C
100
AcDbDictionary
281
     1
  3
Normal
350
F
100
AcDbDictionaryWithDefault
340
F
  0
DICTIONARY
  5
EA
102
{ACAD_REACTORS
330
C
102
}
330
C
100
AcDbDictionary
281
     1
  0
DICTIONARY
  5
2A
102
{ACAD_REACTORS
330
C
102
}
330
C
100
AcDbDictionary
281
     1
  3
2dWireframe
350
2F
  3
3D Hidden
350
31
  3
3dWireframe
350
30
  3
Basic
350
32
  3
Brighten
350
36
  3
ColorChange
350
3A
  3
Conceptual
350
34
  3
Dim
350
35
  3
Facepattern
350
39
  3
Flat
350
2B
  3
FlatWithEdges
350
2C
  3
Gouraud
350
2D
  3
GouraudWithEdges
350
2E
  3
Linepattern
350
38
  3
Realistic
350
33
  3
Thicken
350
37
  0
LAYOUT
  5
1E
102
{ACAD_REACTORS
330
1A
102
}
330
1A
100
AcDbPlotSettings
  1

  2
none_device
  4

  6

 40
0.0
 41
0.0
 42
0.0
 43
0.0
 44
0.0
 45
0.0
 46
0.0
 47
0.0
 48
0.0
 49
0.0
140
0.0
141
0.0
142
1.0
143
1.0
 70
   688
 72
     0
 73
     0
 74
     5
  7

 75
    16
 76
     0
 77
     2
 78
   300
147
1.0
148
0.0
149
0.0
100
AcDbLayout
  1
Layout1
 70
     1
 71
     1
 10
0.0
 20
0.0
 11
12.0
 21
9.0
 12
0.0
 22
0.0
 32
0.0
 14
1.000000000000000E+20
 24
1.000000000000000E+20
 34
1.000000000000000E+20
 15
-1.000000000000000E+20
 25
-1.000000000000000E+20
 35
-1.000000000000000E+20
146
0.0
 13
0.0
 23
0.0
 33
0.0
 16
1.0
 26
0.0
 36
0.0
 17
0.0
 27
1.0
 37
0.0
 76
     0
330
1B
  0
LAYOUT
  5
26
102
{ACAD_REACTORS
330
1A
102
}
330
1A
100
AcDbPlotSettings
  1

  2
none_device
  4

  6

 40
0.0
 41
0.0
 42
0.0
 43
0.0
 44
0.0
 45
0.0
 46
0.0
 47
0.0
 48
0.0
 49
0.0
140
0.0
141
0.0
142
1.0
143
1.0
 70
   688
 72
     0
 73
     0
 74
     5
  7

 75
    16
 76
     0
 77
     2
 78
   300
147
1.0
148
0.0
149
0.0
100
AcDbLayout
  1
Layout2
 70
     1
 71
     2
 10
0.0
 20
0.0
 11
0.0
 21
0.0
 12
0.0
 22
0.0
 32
0.0
 14
0.0
 24
0.0
 34
0.0
 15
0.0
 25
0.0
 35
0.0
146
0.0
 13
0.0
 23
0.0
 33
0.0
 16
1.0
 26
0.0
 36
0.0
 17
0.0
 27
1.0
 37
0.0
 76
     0
330
23
  0
LAYOUT
  5
22
102
{ACAD_REACTORS
330
1A
102
}
330
1A
100
AcDbPlotSettings
  1

  2
none_device
  4

  6

 40
0.0
 41
0.0
 42
0.0
 43
0.0
 44
0.0
 45
0.0
 46
0.0
 47
0.0
 48
0.0
 49
0.0
140
0.0
141
0.0
142
1.0
143
1.0
 70
  1712
 72
     0
 73
     0
 74
     0
  7

 75
     0
 76
     0
 77
     2
 78
   300
147
1.0
148
0.0
149
0.0
100
AcDbLayout
  1
Model
 70
     1
 71
     0
 10
0.0
 20
0.0
 11
12.0
 21
9.0
 12
0.0
 22
0.0
 32
0.0
 14
1.000000000000000E+20
 24
1.000000000000000E+20
 34
1.000000000000000E+20
 15
-1.000000000000000E+20
 25
-1.000000000000000E+20
 35
-1.000000000000000E+20
146
0.0
 13
0.0
 23
0.0
 33
0.0
 16
1.0
 26
0.0
 36
0.0
 17
0.0
 27
1.0
 37
0.0
 76
     0
330
1F
331
29
  0
MATERIAL
  5
3D
102
{ACAD_REACTORS
330
3B
102
}
330
3B
100
AcDbMaterial
  1
ByBlock
 72
     1
 94
      127
  0
MATERIAL
  5
3C
102
{ACAD_REACTORS
330
3B
102
}
330
3B
100
AcDbMaterial
  1
ByLayer
 72
     1
 94
      127
  0
MATERIAL
  5
3E
102
{ACAD_REACTORS
330
3B
102
}
330
3B
100
AcDbMaterial
  1
Global
 72
     1
 94
      127
  0
MLINESTYLE
  5
18
102
{ACAD_REACTORS
330
17
102
}
330
17
100
AcDbMlineStyle
  2
Standard
 70
     0
  3

 62
   256
 51
90.0
 52
90.0
 71
     2
 49
0.5
 62
   256
  6
BYLAYER
 49
-0.5
 62
   256
  6
BYLAYER
  0
ACDBPLACEHOLDER
  5
F
102
{ACAD_REACTORS
330
E
102
}
330
E
  0
VISUALSTYLE
  5
2F
102
{ACAD_REACTORS
330
2A
102
}
330
2A
100
AcDbVisualStyle
  2
2dWireframe
 70
     4
177
     2
291
     0
 71
     0
176
     1
 72
     2
176
     1
 73
     0
176
     1
 90
        0
176
     1
 40
-0.6
176
     1
 41
-30.0
176
     1
 62
     5
 63
     7
421
 16777215
176
     1
 74
     1
176
     1
 91
        4
176
     1
 64
     7
176
     1
 65
   257
176
     1
 75
     1
176
     1
175
     1
176
     1
 42
1.0
176
     1
 92
        0
176
     1
 66
   257
176
     1
 43
1.0
176
     1
 76
     1
176
     1
 77
     6
176
     1
 78
     2
176
     1
 67
     7
176
     1
 79
     5
176
     1
170
     0
176
     1
171
     0
176
     1
290
     0
176
     1
 93
        1
176
     1
 44
0.0
176
     1
173
     0
176
     1
  0
VISUALSTYLE
  5
31
102
{ACAD_REACTORS
330
2A
102
}
330
2A
100
AcDbVisualStyle
  2
3D Hidden
 70
     6
177
     2
291
     0
 71
     1
176
     1
 72
     2
176
     1
 73
     2
176
     1
 90
        0
176
     1
 40
-0.6
176
     1
 41
-30.0
176
     1
 62
     5
 63
     7
421
 16777215
176
     1
 74
     2
176
     1
 91
        2
176
     1
 64
     7
176
     1
 65
   257
176
     1
 75
     2
176
     1
175
     1
176
     1
 42
40.0
176
     1
 92
        0
176
     1
 66
   257
176
     1
 43
1.0
176
     1
 76
     1
176
     1
 77
     6
176
     1
 78
     2
176
     1
 67
     7
176
     1
 79
     3
176
     1
170
     0
176
     1
171
     0
176
     1
290
     0
176
     1
 93
        1
176
     1
 44
0.0
176
     1
173
     0
176
     1
  0
VISUALSTYLE
  5
30
102
{ACAD_REACTORS
330
2A
102
}
330
2A
100
AcDbVisualStyle
  2
3dWireframe
 70
     5
177
     2
291
     0
 71
     0
176
     1
 72
     2
176
     1
 73
     0
176
     1
 90
        0
176
     1
 40
-0.6
176
     1
 41
-30.0
176
     1
 62
     5
 63
     7
421
 16777215
176
     1
 74
     1
176
     1
 91
        4
176
     1
 64
     7
176
     1
 65
   257
176
     1
 75
     1
176
     1
175
     1
176
     1
 42
1.0
176
     1
 92
        0
176
     1
 66
   257
176
     1
 43
1.0
176
     1
 76
     1
176
     1
 77
     6
176
     1
 78
     2
176
     1
 67
     7
176
     1
 79
     5
176
     1
170
     0
176
     1
171
     0
176
     1
290
     0
176
     1
 93
        1
176
     1
 44
0.0
176
     1
173
     0
176
     1
  0
VISUALSTYLE
  5
32
102
{ACAD_REACTORS
330
2A
102
}
330
2A
100
AcDbVisualStyle
  2
Basic
 70
     7
177
     2
291
     1
 71
     1
176
     1
 72
     0
176
     1
 73
     1
176
     1
 90
        0
176
     1
 40
-0.6
176
     1
 41
-30.0
176
     1
 62
     5
 63
     7
421
 16777215
176
     1
 74
     0
176
     1
 91
        4
176
     1
 64
     7
176
     1
 65
   257
176
     1
 75
     1
176
     1
175
     1
176
     1
 42
1.0
176
     1
 92
        8
176
     1
 66
     7
176
     1
 43
1.0
176
     1
 76
     1
176
     1
 77
     6
176
     1
 78
     2
176
     1
 67
     7
176
     1
 79
     5
176
     1
170
     0
176
     1
171
     0
176
     1
290
     0
176
     1
 93
        1
176
     1
 44
0.0
176
     1
173
     0
176
     1
  0
VISUALSTYLE
  5
36
102
{ACAD_REACTORS
330
2A
102
}
330
2A
100
AcDbVisualStyle
  2
Brighten
 70
    12
177
     2
291
     1
 71
     2
176
     1
 72
     2
176
     1
 73
     0
176
     1
 90
        0
176
     1
 40
-0.6
176
     1
 41
-30.0
176
     1
 62
     5
 63
     7
421
 16777215
176
     1
 74
     1
176
     1
 91
        4
176
     1
 64
     7
176
     1
 65
   257
176
     1
 75
     1
176
     1
175
     1
176
     1
 42
1.0
176
     1
 92
        8
176
     1
 66
     7
176
     1
 43
1.0
176
     1
 76
     1
176
     1
 77
     6
176
     1
 78
     2
176
     1
 67
     7
176
     1
 79
     5
176
     1
170
     0
176
     1
171
     0
176
     1
290
     0
176
     1
 93
        1
176
     1
 44
50.0
176
     1
173
     0
176
     1
  0
VISUALSTYLE
  5
3A
102
{ACAD_REACTORS
330
2A
102
}
330
2A
100
AcDbVisualStyle
  2
ColorChange
 70
    16
177
     2
291
     1
 71
     2
176
     1
 72
     2
176
     1
 73
     3
176
     1
 90
        0
176
     1
 40
-0.6
176
     1
 41
-30.0
176
     1
 62
     5
 63
     8
421
  8421504
176
     1
 74
     1
176
     1
 91
        4
176
     1
 64
     7
176
     1
 65
   257
176
     1
 75
     1
176
     1
175
     1
176
     1
 42
1.0
176
     1
 92
        8
176
     1
 66
     8
424
  8421504
176
     1
 43
1.0
176
     1
 76
     1
176
     1
 77
     6
176
     1
 78
     2
176
     1
 67
     7
176
     1
 79
     5
176
     1
170
     0
176
     1
171
     0
176
     1
290
     0
176
     1
 93
        1
176
     1
 44
0.0
176
     1
173
     0
176
     1
  0
VISUALSTYLE
  5
34
102
{ACAD_REACTORS
330
2A
102
}
330
2A
100
AcDbVisualStyle
  2
Conceptual
 70
     9
177
     2
291
     0
 71
     3
176
     1
 72
     2
176
     1
 73
     0
176
     1
 90
        0
176
     1
 40
-0.6
176
     1
 41
-30.0
176
     1
 62
     5
 63
     7
421
 16777215
176
     1
 74
     2
176
     1
 91
        2
176
     1
 64
     7
176
     1
 65
   257
176
     1
 75
     1
176
     1
175
     1
176
     1
 42
40.0
176
     1
 92
        8
176
     1
 66
     7
176
     1
 43
1.0
176
     1
 76
     1
176
     1
 77
     6
176
     1
 78
     2
176
     1
 67
     7
176
     1
 79
     3
176
     1
170
     0
176
     1
171
     0
176
     1
290
     0
176
     1
 93
        1
176
     1
 44
0.0
176
     1
173
     0
176
     1
  0
VISUALSTYLE
  5
35
102
{ACAD_REACTORS
330
2A
102
}
330
2A
100
AcDbVisualStyle
  2
Dim
 70
    11
177
     2
291
     1
 71
     2
176
     1
 72
     2
176
     1
 73
     0
176
     1
 90
        0
176
     1
 40
-0.6
176
     1
 41
-30.0
176
     1
 62
     5
 63
     7
421
 16777215
176
     1
 74
     1
176
     1
 91
        4
176
     1
 64
     7
176
     1
 65
   257
176
     1
 75
     1
176
     1
175
     1
176
     1
 42
1.0
176
     1
 92
        8
176
     1
 66
     7
176
     1
 43
1.0
176
     1
 76
     1
176
     1
 77
     6
176
     1
 78
     2
176
     1
 67
     7
176
     1
 79
     5
176
     1
170
     0
176
     1
171
     0
176
     1
290
     0
176
     1
 93
        1
176
     1
 44
-50.0
176
     1
173
     0
176
     1
  0
VISUALSTYLE
  5
39
102
{ACAD_REACTORS
330
2A
102
}
330
2A
100
AcDbVisualStyle
  2
Facepattern
 70
    15
177
     2
291
     1
 71
     2
176
     1
 72
     2
176
     1
 73
     0
176
     1
 90
        0
176
     1
 40
-0.6
176
     1
 41
-30.0
176
     1
 62
     5
 63
     7
421
 16777215
176
     1
 74
     1
176
     1
 91
        4
176
     1
 64
     7
176
     1
 65
   257
176
     1
 75
     1
176
     1
175
     1
176
     1
 42
1.0
176
     1
 92
        8
176
     1
 66
     7
176
     1
 43
1.0
176
     1
 76
     1
176
     1
 77
     6
176
     1
 78
     2
176
     1
 67
     7
176
     1
 79
     5
176
     1
170
     0
176
     1
171
     0
176
     1
290
     0
176
     1
 93
        1
176
     1
 44
0.0
176
     1
173
     0
176
     1
  0
VISUALSTYLE
  5
2B
102
{ACAD_REACTORS
330
2A
102
}
330
2A
100
AcDbVisualStyle
  2
Flat
 70
     0
177
     2
291
     1
 71
     2
176
     1
 72
     1
176
     1
 73
     1
176
     1
 90
        2
176
     1
 40
-0.6
176
     1
 41
30.0
176
     1
 62
     5
 63
     7
421
 16777215
176
     1
 74
     0
176
     1
 91
        4
176
     1
 64
     7
176
     1
 65
   257
176
     1
 75
     1
176
     1
175
     1
176
     1
 42
1.0
176
     1
 92
        8
176
     1
 66
     7
176
     1
 43
1.0
176
     1
 76
     1
176
     1
 77
     6
176
     1
 78
     2
176
     1
 67
     7
176
     1
 79
     5
176
     1
170
     0
176
     1
171
     0
176
     1
290
     0
176
     1
 93
       13
176
     1
 44
0.0
176
     1
173
     0
176
     1
  0
VISUALSTYLE
  5
2C
102
{ACAD_REACTORS
330
2A
102
}
330
2A
100
AcDbVisualStyle
  2
FlatWithEdges
 70
     1
177
     2
291
     1
 71
     2
176
     1
 72
     1
176
     1
 73
     1
176
     1
 90
        2
176
     1
 40
-0.6
176
     1
 41
30.0
176
     1
 62
     5
 63
     7
421
 16777215
176
     1
 74
     1
176
     1
 91
        4
176
     1
 64
     7
176
     1
 65
   257
176
     1
 75
     1
176
     1
175
     1
176
     1
 42
1.0
176
     1
 92
        0
176
     1
 66
   257
176
     1
 43
1.0
176
     1
 76
     1
176
     1
 77
     6
176
     1
 78
     2
176
     1
 67
     7
176
     1
 79
     5
176
     1
170
     0
176
     1
171
     0
176
     1
290
     0
176
     1
 93
       13
176
     1
 44
0.0
176
     1
173
     0
176
     1
  0
VISUALSTYLE
  5
2D
102
{ACAD_REACTORS
330
2A
102
}
330
2A
100
AcDbVisualStyle
  2
Gouraud
 70
     2
177
     2
291
     1
 71
     2
176
     1
 72
     2
176
     1
 73
     1
176
     1
 90
        2
176
     1
 40
-0.6
176
     1
 41
30.0
176
     1
 62
     5
 63
     7
421
 16777215
176
     1
 74
     0
176
     1
 91
        4
176
     1
 64
     7
176
     1
 65
   257
176
     1
 75
     1
176
     1
175
     1
176
     1
 42
1.0
176
     1
 92
        0
176
     1
 66
     7
176
     1
 43
1.0
176
     1
 76
     1
176
     1
 77
     6
176
     1
 78
     2
176
     1
 67
     7
176
     1
 79
     5
176
     1
170
     0
176
     1
171
     0
176
     1
290
     0
176
     1
 93
       13
176
     1
 44
0.0
176
     1
173
     0
176
     1
  0
VISUALSTYLE
  5
2E
102
{ACAD_REACTORS
330
2A
102
}
330
2A
100
AcDbVisualStyle
  2
GouraudWithEdges
 70
     3
177
     2
291
     1
 71
     2
176
     1
 72
     2
176
     1
 73
     1
176
     1
 90
        2
176
     1
 40
-0.6
176
     1
 41
30.0
176
     1
 62
     5
 63
     7
421
 16777215
176
     1
 74
     1
176
     1
 91
        4
176
     1
 64
     7
176
     1
 65
   257
176
     1
 75
     1
176
     1
175
     1
176
     1
 42
1.0
176
     1
 92
        0
176
     1
 66
   257
176
     1
 43
1.0
176
     1
 76
     1
176
     1
 77
     6
176
     1
 78
     2
176
     1
 67
     7
176
     1
 79
     5
176
     1
170
     0
176
     1
171
     0
176
     1
290
     0
176
     1
 93
       13
176
     1
 44
0.0
176
     1
173
     0
176
     1
  0
VISUALSTYLE
  5
38
102
{ACAD_REACTORS
330
2A
102
}
330
2A
100
AcDbVisualStyle
  2
Linepattern
 70
    14
177
     2
291
     1
 71
     2
176
     1
 72
     2
176
     1
 73
     0
176
     1
 90
        0
176
     1
 40
-0.6
176
     1
 41
-30.0
176
     1
 62
     5
 63
     7
421
 16777215
176
     1
 74
     1
176
     1
 91
        4
176
     1
 64
     7
176
     1
 65
   257
176
     1
 75
     7
176
     1
175
     7
176
     1
 42
1.0
176
     1
 92
        8
176
     1
 66
     7
176
     1
 43
1.0
176
     1
 76
     1
176
     1
 77
     6
176
     1
 78
     2
176
     1
 67
     7
176
     1
 79
     5
176
     1
170
     0
176
     1
171
     0
176
     1
290
     0
176
     1
 93
        1
176
     1
 44
0.0
176
     1
173
     0
176
     1
  0
VISUALSTYLE
  5
33
102
{ACAD_REACTORS
330
2A
102
}
330
2A
100
AcDbVisualStyle
  2
Realistic
 70
     8
177
     2
291
     0
 71
     2
176
     1
 72
     2
176
     1
 73
     0
176
     1
 90
        0
176
     1
 40
-0.6
176
     1
 41
-30.0
176
     1
 62
     5
 63
     7
421
 16777215
176
     1
 74
     1
176
     1
 91
        0
176
     1
 64
     7
176
     1
 65
   257
176
     1
 75
     1
176
     1
175
     1
176
     1
 42
1.0
176
     1
 92
        8
176
     1
 66
     8
424
  7895160
176
     1
 43
1.0
176
     1
 76
     1
176
     1
 77
     6
176
     1
 78
     2
176
     1
 67
     7
176
     1
 79
     5
176
     1
170
     0
176
     1
171
     0
176
     1
290
     0
176
     1
 93
       13
176
     1
 44
0.0
176
     1
173
     0
176
     1
  0
VISUALSTYLE
  5
37
102
{ACAD_REACTORS
330
2A
102
}
330
2A
100
AcDbVisualStyle
  2
Thicken
 70
    13
177
     2
291
     1
 71
     2
176
     1
 72
     2
176
     1
 73
     0
176
     1
 90
        0
176
     1
 40
-0.6
176
     1
 41
-30.0
176
     1
 62
     5
 63
     7
421
 16777215
176
     1
 74
     1
176
     1
 91
        4
176
     1
 64
     7
176
     1
 65
   257
176
     1
 75
     1
176
     1
175
     1
176
     1
 42
1.0
176
     1
 92
       12
176
     1
 66
     7
176
     1
 43
1.0
176
     1
 76
     1
176
     1
 77
     6
176
     1
 78
     2
176
     1
 67
     7
176
     1
 79
     5
176
     1
170
     0
176
     1
171
     0
176
     1
290
     0
176
     1
 93
        1
176
     1
 44
0.0
176
     1
173
     0
176
     1
  0
ENDSEC
  0
EOF
