  0
SECTION
  2
HEADER
  9
$ACADVER
  1
AC1024
  9
$ACADMAINTVER
 70
     6
  9
$DWGCODEPAGE
  3
UNDEFINED
  9
$INSBASE
 10
0.0
 20
0.0
 30
0.0
  9
$EXTMIN
 10
1.000000000000000E+20
 20
1.000000000000000E+20
 30
1.000000000000000E+20
  9
$EXTMAX
 10
-1.000000000000000E+20
 20
-1.000000000000000E+20
 30
-1.000000000000000E+20
  9
$LIMMIN
 10
0.0
 20
0.0
  9
$LIMMAX
 10
12.0
 20
9.0
  9
$ORTHOMODE
 70
     0
  9
$REGENMODE
 70
     1
  9
$FILLMODE
 70
     1
  9
$QTEXTMODE
 70
     0
  9
$MIRRTEXT
 70
     1
  9
$LTSCALE
 40
1.0
  9
$ATTMODE
 70
     1
  9
$TEXTSIZE
 40
0.2
  9
$TRACEWID
 40
0.05
  9
$TEXTSTYLE
  7
Standard
  9
$CLAYER
  8
0
  9
$CELTYPE
  6
ByLayer
  9
$CECOLOR
 62
   256
  9
$CELTSCALE
 40
1.0
  9
$DISPSILH
 70
     0
  9
$DIMSCALE
 40
1.0
  9
$DIMASZ
 40
0.18
  9
$DIMEXO
 40
0.0625
  9
$DIMDLI
 40
0.38
  9
$DIMRND
 40
0.0
  9
$DIMDLE
 40
0.0
  9
$DIMEXE
 40
0.18
  9
$DIMTP
 40
0.0
  9
$DIMTM
 40
0.0
  9
$DIMTXT
 40
0.18
  9
$DIMCEN
 40
0.09
  9
$DIMTSZ
 40
0.0
  9
$DIMTOL
 70
     0
  9
$DIMLIM
 70
     0
  9
$DIMTIH
 70
     1
  9
$DIMTOH
 70
     1
  9
$DIMSE1
 70
     0
  9
$DIMSE2
 70
     0
  9
$DIMTAD
 70
     0
  9
$DIMZIN
 70
     0
  9
$DIMBLK
  1

  9
$DIMASO
 70
     1
  9
$DIMSHO
 70
     1
  9
$DIMPOST
  1

  9
$DIMAPOST
  1

  9
$DIMALT
 70
     0
  9
$DIMALTD
 70
     2
  9
$DIMALTF
 40
25.4
  9
$DIMLFAC
 40
1.0
  9
$DIMTOFL
 70
     0
  9
$DIMTVP
 40
0.0
  9
$DIMTIX
 70
     0
  9
$DIMSOXD
 70
     0
  9
$DIMSAH
 70
     0
  9
$DIMBLK1
  1

  9
$DIMBLK2
  1

  9
$DIMSTYLE
  2
Standard
  9
$DIMCLRD
 70
     0
  9
$DIMCLRE
 70
     0
  9
$DIMCLRT
 70
     0
  9
$DIMTFAC
 40
1.0
  9
$DIMGAP
 40
0.09
  9
$DIMJUST
 70
     0
  9
$DIMSD1
 70
     0
  9
$DIMSD2
 70
     0
  9
$DIMTOLJ
 70
     1
  9
$DIMTZIN
 70
     0
  9
$DIMALTZ
 70
     0
  9
$DIMALTTZ
 70
     0
  9
$DIMUPT
 70
     0
  9
$DIMDEC
 70
     4
  9
$DIMTDEC
 70
     4
  9
$DIMALTU
 70
     2
  9
$DIMALTTD
 70
     2
  9
$DIMTXSTY
  7
Standard
  9
$DIMAUNIT
 70
     0
  9
$DIMADEC
 70
     0
  9
$DIMALTRND
 40
0.0
  9
$DIMAZIN
 70
     0
  9
$DIMDSEP
 70
    46
  9
$DIMATFIT
 70
     3
  9
$DIMFRAC
 70
     0
  9
$DIMLDRBLK
  1

  9
$DIMLUNIT
 70
     2
  9
$DIMLWD
 70
    -2
  9
$DIMLWE
 70
    -2
  9
$DIMTMOVE
 70
     0
  9
$DIMFXL
 40
1.0
  9
$DIMFXLON
 70
     0
  9
$DIMJOGANG
 40
0.7853981633974483
  9
$DIMTFILL
 70
     0
  9
$DIMTFILLCLR
 70
     0
  9
$DIMARCSYM
 70
     0
  9
$DIMLTYPE
  6

  9
$DIMLTEX1
  6

  9
$DIMLTEX2
  6

  9
$DIMTXTDIRECTION
 70
     0
  9
$LUNITS
 70
     2
  9
$LUPREC
 70
     4
  9
$SKETCHINC
 40
0.1
  9
$FILLETRAD
 40
0.5
  9
$AUNITS
 70
     0
  9
$AUPREC
 70
     0
  9
$MENU
  1
.
  9
$ELEVATION
 40
0.0
  9
$PELEVATION
 40
0.0
  9
$THICKNESS
 40
0.0
  9
$LIMCHECK
 70
     0
  9
$CHAMFERA
 40
0.5
  9
$CHAMFERB
 40
0.5
  9
$CHAMFERC
 40
1.0
  9
$CHAMFERD
 40
0.0
  9
$SKPOLY
 70
     0
  9
$TDCREATE
 40
2458263.581608796
  9
$TDUCREATE
 40
2458263.206608796
  9
$TDUPDATE
 40
2458263.581608796
  9
$TDUUPDATE
 40
2458263.206608796
  9
$TDINDWG
 40
0.0000000116
  9
$TDUSRTIMER
 40
0.0000000116
  9
$USRTIMER
 70
     1
  9
$ANGBASE
 50
0.0
  9
$ANGDIR
 70
     0
  9
$PDMODE
 70
     0
  9
$PDSIZE
 40
0.0
  9
$PLINEWID
 40
0.0
  9
$SPLFRAME
 70
     0
  9
$SPLINETYPE
 70
     6
  9
$SPLINESEGS
 70
     8
  9
$HANDSEED
  5
EB
  9
$SURFTAB1
 70
     6
  9
$SURFTAB2
 70
     6
  9
$SURFTYPE
 70
     6
  9
$SURFU
 70
     6
  9
$SURFV
 70
     6
  9
$UCSBASE
  2

  9
$UCSNAME
  2

  9
$UCSORG
 10
0.0
 20
0.0
 30
0.0
  9
$UCSXDIR
 10
1.0
 20
0.0
 30
0.0
  9
$UCSYDIR
 10
0.0
 20
1.0
 30
0.0
  9
$UCSORTHOREF
  2

  9
$UCSORTHOVIEW
 70
     0
  9
$UCSORGTOP
 10
0.0
 20
0.0
 30
0.0
  9
$UCSORGBOTTOM
 10
0.0
 20
0.0
 30
0.0
  9
$UCSORGLEFT
 10
0.0
 20
0.0
 30
0.0
  9
$UCSORGRIGHT
 10
0.0
 20
0.0
 30
0.0
  9
$UCSORGFRONT
 10
0.0
 20
0.0
 30
0.0
  9
$UCSORGBACK
 10
0.0
 20
0.0
 30
0.0
  9
$PUCSBASE
  2

  9
$PUCSNAME
  2

  9
$PUCSORG
 10
0.0
 20
0.0
 30
0.0
  9
$PUCSXDIR
 10
1.0
 20
0.0
 30
0.0
  9
$PUCSYDIR
 10
0.0
 20
1.0
 30
0.0
  9
$PUCSORTHOREF
  2

  9
$PUCSORTHOVIEW
 70
     0
  9
$PUCSORGTOP
 10
0.0
 20
0.0
 30
0.0
  9
$PUCSORGBOTTOM
 10
0.0
 20
0.0
 30
0.0
  9
$PUCSORGLEFT
 10
0.0
 20
0.0
 30
0.0
  9
$PUCSORGRIGHT
 10
0.0
 20
0.0
 30
0.0
  9
$PUCSORGFRONT
 10
0.0
 20
0.0
 30
0.0
  9
$PUCSORGBACK
 10
0.0
 20
0.0
 30
0.0
  9
$USERI1
 70
     0
  9
$USERI2
 70
     0
  9
$USERI3
 70
     0
  9
$USERI4
 70
     0
  9
$USERI5
 70
     0
  9
$USERR1
 40
0.0
  9
$USERR2
 40
0.0
  9
$USERR3
 40
0.0
  9
$USERR4
 40
0.0
  9
$USERR5
 40
0.0
  9
$WORLDVIEW
 70
     1
  9
$SHADEDGE
 70
     3
  9
$SHADEDIF
 70
    70
  9
$TILEMODE
 70
     1
  9
$MAXACTVP
 70
    64
  9
$PINSBASE
 10
0.0
 20
0.0
 30
0.0
  9
$PLIMCHECK
 70
     0
  9
$PEXTMIN
 10
1.000000000000000E+20
 20
1.000000000000000E+20
 30
1.000000000000000E+20
  9
$PEXTMAX
 10
-1.000000000000000E+20
 20
-1.000000000000000E+20
 30
-1.000000000000000E+20
  9
$PLIMMIN
 10
0.0
 20
0.0
  9
$PLIMMAX
 10
12.0
 20
9.0
  9
$UNITMODE
 70
     0
  9
$VISRETAIN
 70
     1
  9
$PLINEGEN
 70
     0
  9
$PSLTSCALE
 70
     1
  9
$TREEDEPTH
 70
  3020
  9
$CMLSTYLE
  2
Standard
  9
$CMLJUST
 70
     0
  9
$CMLSCALE
 40
1.0
  9
$PROXYGRAPHICS
 70
     1
  9
$MEASUREMENT
 70
     0
  9
$CELWEIGHT
370
    -1
  9
$ENDCAPS
280
     0
  9
$JOINSTYLE
280
     0
  9
$LWDISPLAY
290
     1
  9
$INSUNITS
 70
     1
  9
$HYPERLINKBASE
  1

  9
$STYLESHEET
  1

  9
$XEDIT
290
     1
  9
$CEPSNTYPE
380
     0
  9
$PSTYLEMODE
290
     1
  9
$FINGERPRINTGUID
  2
{815DE287-99CA-D2A9-08E8-3F5D746E0533}
  9
$VERSIONGUID
  2
{FAEB1C32-E019-11D5-929B-00C0DF256EC4}
  9
$EXTNAMES
290
     1
  9
$PSVPSCALE
 40
0.0
  9
$OLESTARTUP
290
     0
  9
$SORTENTS
280
   127
  9
$INDEXCTL
280
     0
  9
$HIDETEXT
280
     1
  9
$XCLIPFRAME
280
     2
  9
$HALOGAP
280
     0
  9
$OBSCOLOR
 70
   257
  9
$OBSLTYPE
280
     0
  9
$INTERSECTIONDISPLAY
280
     0
  9
$INTERSECTIONCOLOR
 70
   257
  9
$DIMASSOC
280
     2
  9
$PROJECTNAME
  1

  9
$CAMERADISPLAY
290
     0
  9
$LENSLENGTH
 40
50.0
  9
$CAMERAHEIGHT
 40
0.0
  9
$STEPSPERSEC
 40
2.0
  9
$STEPSIZE
 40
6.0
  9
$3DDWFPREC
 40
2.0
  9
$PSOLWIDTH
 40
0.25
  9
$PSOLHEIGHT
 40
4.0
  9
$LOFTANG1
 40
1.570796326794897
  9
$LOFTANG2
 40
1.570796326794897
  9
$LOFTMAG1
 40
0.0
  9
$LOFTMAG2
 40
0.0
  9
$LOFTPARAM
 70
     7
  9
$LOFTNORMALS
280
     1
  9
$LATITUDE
 40
37.795
  9
$LONGITUDE
 40
-122.394
  9
$NORTHDIRECTION
 40
0.0
  9
$TIMEZONE
 70
 -8000
  9
$LIGHTGLYPHDISPLAY
280
     1
  9
$TILEMODELIGHTSYNCH
280
     1
  9
$CMATERIAL
347
3C
  9
$SOLIDHIST
280
     1
  9
$SHOWHIST
280
     1
  9
$DWFFRAME
280
     2
  9
$DGNFRAME
280
     2
  9
$REALWORLDSCALE
290
     1
  9
$INTERFERECOLOR
 62
   256
  9
$CSHADOW
280
     0
  9
$SHADOWPLANELOCATION
 40
0.0
  0
ENDSEC
  0
SECTION
  2
CLASSES
  0
CLASS
  1
ACDBDICTIONARYWDFLT
  2
AcDbDictionaryWithDefault
  3
ObjectDBX Classes
 90
        0
 91
        4
280
     0
281
     0
  0
CLASS
  1
VISUALSTYLE
  2
AcDbVisualStyle
  3
ObjectDBX Classes
 90
     4095
 91
        4
280
     0
281
     0
  0
CLASS
  1
MATERIAL
  2
AcDbMaterial
  3
ObjectDBX Classes
 90
     1153
 91
        4
280
     0
281
     0
  0
CLASS
  1
SUN
  2
AcDbSun
  3
SCENEOE
 90
     1024
 91
        4
280
     0
281
     0
  0
ENDSEC
  0
SECTION
  2
TABLES
  0
TABLE
  2
VPORT
  5
8
330
0
100
AcDbSymbolTable
 70
     1
  0
VPORT
  5
29
330
8
100
AcDbSymbolTableRecord
100
AcDbViewportTableRecord
  2
*Active
 70
     0
 10
0.0
 20
0.0
 11
1.0
 21
1.0
 12
0.0
 22
0.0
 13
0.0
 23
0.0
 14
0.5
 24
0.5
 15
0.5
 25
0.5
 16
0.0
 26
0.0
 36
1.0
 17
105.0007777515277
 27
-148.5000416295416
 37
0.0
 40
297.0000832590831
 41
0.7070757462376333
 42
50.0
 43
0.0
 44
0.0
 50
0.0
 51
0.0
 71
     0
 72
   100
 73
     1
 74
     3
 75
     0
 76
     0
 77
     0
 78
     0
281
     0
 65
     1
110
0.0
120
0.0
130
0.0
111
1.0
121
0.0
131
0.0
112
0.0
122
1.0
132
0.0
 79
     0
146
0.0
 60
     3
 61
     5
292
     1
282
     1
141
0.0
142
0.0
 63
   250
361
3F
  0
ENDTAB
  0
TABLE
  2
LTYPE
  5
5
330
0
100
AcDbSymbolTable
 70
     1
  0
LTYPE
  5
14
330
5
100
AcDbSymbolTableRecord
100
AcDbLinetypeTableRecord
  2
ByBlock
 70
     0
  3

 72
    65
 73
     0
 40
0.0
  0
LTYPE
  5
15
330
5
100
AcDbSymbolTableRecord
100
AcDbLinetypeTableRecord
  2
ByLayer
 70
     0
  3

 72
    65
 73
     0
 40
0.0
  0
LTYPE
  5
16
330
5
100
AcDbSymbolTableRecord
100
AcDbLinetypeTableRecord
  2
Continuous
 70
     0
  3
Solid line
 72
    65
 73
     0
 40
0.0
  0
ENDTAB
  0
TABLE
  2
LAYER
  5
2
330
0
100
AcDbSymbolTable
 70
     2
  0
LAYER
  5
10
330
2
100
AcDbSymbolTableRecord
100
AcDbLayerTableRecord
  2
0
 70
     0
 62
     7
  6
Continuous
370
    -3
390
F
347
3E
  0
LAYER
  5
40
330
2
100
AcDbSymbolTableRecord
100
AcDbLayerTableRecord
  2
_U+30EC_U+30A4_U+30E4_U+30FC 1
 70
     0
 62
     7
  6
Continuous
370
    -3
390
F
347
3E
  0
ENDTAB
  0
TABLE
  2
STYLE
  5
3
330
0
100
AcDbSymbolTable
 70
     1
  0
STYLE
  5
11
330
3
100
AcDbSymbolTableRecord
100
AcDbTextStyleTableRecord
  2
Standard
 70
     0
 40
0.0
 41
1.0
 50
0.0
 71
     0
 42
0.2
  3
txt
  4

  0
ENDTAB
  0
TABLE
  2
VIEW
  5
6
330
0
100
AcDbSymbolTable
 70
     0
  0
ENDTAB
  0
TABLE
  2
UCS
  5
7
330
0
100
AcDbSymbolTable
 70
     0
  0
ENDTAB
  0
TABLE
  2
APPID
  5
9
330
0
100
AcDbSymbolTable
 70
     1
  0
APPID
  5
12
330
9
100
AcDbSymbolTableRecord
100
AcDbRegAppTableRecord
  2
ACAD
 70
     0
  0
ENDTAB
  0
TABLE
  2
DIMSTYLE
  5
A
330
0
100
AcDbSymbolTable
 70
     1
100
AcDbDimStyleTable
  0
DIMSTYLE
105
27
330
A
100
AcDbSymbolTableRecord
100
AcDbDimStyleTableRecord
  2
Standard
 70
     0
178
     0
340
11
  0
ENDTAB
  0
TABLE
  2
BLOCK_RECORD
  5
1
330
0
100
AcDbSymbolTable
 70
     6
  0
BLOCK_RECORD
  5
1F
330
1
100
AcDbSymbolTableRecord
100
AcDbBlockTableRecord
  2
*Model_Space
340
22
 70
     0
280
     1
281
     0
  0
BLOCK_RECORD
  5
1B
330
1
100
AcDbSymbolTableRecord
100
AcDbBlockTableRecord
  2
*Paper_Space
340
1E
 70
     0
280
     1
281
     0
  0
BLOCK_RECORD
  5
23
330
1
100
AcDbSymbolTableRecord
100
AcDbBlockTableRecord
  2
*Paper_Space0
340
26
 70
     0
280
     1
281
     0
  0
BLOCK_RECORD
  5
8F
330
1
100
AcDbSymbolTableRecord
100
AcDbBlockTableRecord
  2
block 2
340
0
102
{BLKREFS
331
90
102
}
 70
     0
280
     1
281
     0
  0
BLOCK_RECORD
  5
A1
330
1
100
AcDbSymbolTableRecord
100
AcDbBlockTableRecord
  2
block 3
340
0
102
{BLKREFS
331
A2
102
}
 70
     0
280
     1
281
     0
  0
BLOCK_RECORD
  5
B5
330
1
100
AcDbSymbolTableRecord
100
AcDbBlockTableRecord
  2
block 4
340
0
102
{BLKREFS
331
B6
102
}
 70
     0
280
     1
281
     0
  0
BLOCK_RECORD
  5
C9
330
1
100
AcDbSymbolTableRecord
100
AcDbBlockTableRecord
  2
block 5
340
0
102
{BLKREFS
331
CA
102
}
 70
     0
280
     1
281
     0
  0
BLOCK_RECORD
  5
D8
330
1
100
AcDbSymbolTableRecord
100
AcDbBlockTableRecord
  2
block 6
340
0
102
{BLKREFS
331
D9
102
}
 70
     0
280
     1
281
     0
  0
ENDTAB
  0
ENDSEC
  0
SECTION
  2
BLOCKS
  0
BLOCK
  5
20
330
1F
100
AcDbEntity
  8
0
100
AcDbBlockBegin
  2
*Model_Space
 70
     0
 10
0.0
 20
0.0
 30
0.0
  3
*Model_Space
  1

  0
ENDBLK
  5
21
330
1F
100
AcDbEntity
  8
0
100
AcDbBlockEnd
  0
BLOCK
  5
1C
330
1B
100
AcDbEntity
 67
     1
  8
0
100
AcDbBlockBegin
  2
*Paper_Space
 70
     0
 10
0.0
 20
0.0
 30
0.0
  3
*Paper_Space
  1

  0
ENDBLK
  5
1D
330
1B
100
AcDbEntity
 67
     1
  8
0
100
AcDbBlockEnd
  0
BLOCK
  5
24
330
23
100
AcDbEntity
  8
0
100
AcDbBlockBegin
  2
*Paper_Space0
 70
     0
 10
0.0
 20
0.0
 30
0.0
  3
*Paper_Space0
  1

  0
ENDBLK
  5
25
330
23
100
AcDbEntity
  8
0
100
AcDbBlockEnd
  0
BLOCK
  5
91
330
8F
100
AcDbEntity
  8
0
100
AcDbBlockBegin
  2
block 2
 70
     0
 10
0.0
 20
0.0
 30
0.0
  3
block 2
  1

  0
SPLINE
  5
93
330
8F
100
AcDbEntity
  8
_U+30EC_U+30A4_U+30E4_U+30FC 1
370
     0
100
AcDbSpline
210
0.0
220
0.0
230
1.0
 70
    11
 71
     3
 72
    26
 73
    22
 74
     0
 42
0.0000000001
 43
0.0000000001
 12
1.0
 22
0.0
 32
0.0
 13
1.0
 23
0.0
 33
0.0
 40
0.0
 40
0.0
 40
0.0
 40
0.0
 40
1.0
 40
1.0
 40
1.0
 40
2.0
 40
2.0
 40
2.0
 40
3.0
 40
3.0
 40
3.0
 40
4.0
 40
4.0
 40
4.0
 40
5.0
 40
5.0
 40
5.0
 40
6.0
 40
6.0
 40
6.0
 40
7.0
 40
7.0
 40
7.0
 40
7.0
 10
121.7097113411004
 20
-146.4060505818881
 30
0.0
 10
121.7097113411004
 20
-146.4060505818881
 30
0.0
 10
120.6059027476263
 20
-146.4060505818881
 30
0.0
 10
120.6059027476263
 20
-146.4060505818881
 30
0.0
 10
120.6059027476263
 20
-146.4060505818881
 30
0.0
 10
120.6059027476263
 20
-146.736090729375
 30
0.0
 10
120.6059027476263
 20
-146.736090729375
 30
0.0
 10
120.6059027476263
 20
-146.736090729375
 30
0.0
 10
120.4577636417606
 20
-146.736090729375
 30
0.0
 10
120.4577636417606
 20
-146.736090729375
 30
0.0
 10
120.4426052216255
 20
-146.4039835245969
 30
0.0
 10
120.2799967147217
 20
-146.357474735546
 30
0.0
 10
120.1656195446114
 20
-146.3278469143729
 30
0.0
 10
120.1656195446114
 20
-146.3278469143729
 30
0.0
 10
120.1656195446114
 20
-146.1817748657983
 30
0.0
 10
120.1656195446114
 20
-146.1817748657983
 30
0.0
 10
120.1656195446114
 20
-146.1817748657983
 30
0.0
 10
121.7097113411004
 20
-146.1817748657983
 30
0.0
 10
121.7097113411004
 20
-146.1817748657983
 30
0.0
 10
121.7097113411004
 20
-146.1817748657983
 30
0.0
 10
121.7097113411004
 20
-146.4060505818881
 30
0.0
 10
121.7097113411004
 20
-146.4060505818881
 30
0.0
  0
HATCH
  5
94
330
8F
100
AcDbEntity
  8
_U+30EC_U+30A4_U+30E4_U+30FC 1
 62
   179
420
  2234388
100
AcDbHatch
 10
0.0
 20
0.0
 30
0.0
210
0.0
220
0.0
230
1.0
  2
SOLID
 70
     1
 71
     0
 91
        1
 92
        1
 93
        1
 72
     4
 94
        3
 73
     0
 74
     1
 95
       26
 96
       22
 40
0.0
 40
0.0
 40
0.0
 40
0.0
 40
1.0
 40
1.0
 40
1.0
 40
2.0
 40
2.0
 40
2.0
 40
3.0
 40
3.0
 40
3.0
 40
4.0
 40
4.0
 40
4.0
 40
5.0
 40
5.0
 40
5.0
 40
6.0
 40
6.0
 40
6.0
 40
7.0
 40
7.0
 40
7.0
 40
7.0
 10
121.7097113411004
 20
-146.4060505818881
 10
121.7097113411004
 20
-146.4060505818881
 10
120.6059027476263
 20
-146.4060505818881
 10
120.6059027476263
 20
-146.4060505818881
 10
120.6059027476263
 20
-146.4060505818881
 10
120.6059027476263
 20
-146.736090729375
 10
120.6059027476263
 20
-146.736090729375
 10
120.6059027476263
 20
-146.736090729375
 10
120.4577636417606
 20
-146.736090729375
 10
120.4577636417606
 20
-146.736090729375
 10
120.4426052216255
 20
-146.4039835245969
 10
120.2799967147217
 20
-146.357474735546
 10
120.1656195446114
 20
-146.3278469143729
 10
120.1656195446114
 20
-146.3278469143729
 10
120.1656195446114
 20
-146.1817748657983
 10
120.1656195446114
 20
-146.1817748657983
 10
120.1656195446114
 20
-146.1817748657983
 10
121.7097113411004
 20
-146.1817748657983
 10
121.7097113411004
 20
-146.1817748657983
 10
121.7097113411004
 20
-146.1817748657983
 10
121.7097113411004
 20
-146.4060505818881
 10
121.7097113411004
 20
-146.4060505818881
 97
        0
 97
        0
 75
     2
 76
     1
 98
        0
  0
ENDBLK
  5
92
330
8F
100
AcDbEntity
  8
0
100
AcDbBlockEnd
  0
BLOCK
  5
A3
330
A1
100
AcDbEntity
  8
0
100
AcDbBlockBegin
  2
block 3
 70
     0
 10
0.0
 20
0.0
 30
0.0
  3
block 3
  1

  0
SPLINE
  5
A5
330
A1
100
AcDbEntity
  8
_U+30EC_U+30A4_U+30E4_U+30FC 1
370
     0
100
AcDbSpline
210
0.0
220
0.0
230
1.0
 70
    11
 71
     3
 72
    62
 73
    58
 74
     0
 42
0.0000000001
 43
0.0000000001
 12
1.0
 22
0.0
 32
0.0
 13
1.0
 23
0.0
 33
0.0
 40
0.0
 40
0.0
 40
0.0
 40
0.0
 40
1.0
 40
1.0
 40
1.0
 40
2.0
 40
2.0
 40
2.0
 40
3.0
 40
3.0
 40
3.0
 40
4.0
 40
4.0
 40
4.0
 40
5.0
 40
5.0
 40
5.0
 40
6.0
 40
6.0
 40
6.0
 40
7.0
 40
7.0
 40
7.0
 40
8.0
 40
8.0
 40
8.0
 40
9.0
 40
9.0
 40
9.0
 40
10.0
 40
10.0
 40
10.0
 40
11.0
 40
11.0
 40
11.0
 40
12.0
 40
12.0
 40
12.0
 40
13.0
 40
13.0
 40
13.0
 40
14.0
 40
14.0
 40
14.0
 40
15.0
 40
15.0
 40
15.0
 40
16.0
 40
16.0
 40
16.0
 40
17.0
 40
17.0
 40
17.0
 40
18.0
 40
18.0
 40
18.0
 40
19.0
 40
19.0
 40
19.0
 40
19.0
 10
102.1565551502421
 20
-141.1526244764306
 30
0.0
 10
102.061298260075
 20
-141.1526244764306
 30
0.0
 10
101.8433959706329
 20
-141.1316093939706
 30
0.0
 10
101.7186835140669
 20
-140.9455742377671
 30
0.0
 10
101.644613961134
 20
-140.8332641249479
 30
0.0
 10
101.6403075917774
 20
-140.7340453749727
 30
0.0
 10
101.6361734771951
 20
-140.6492960260356
 30
0.0
 10
101.6361734771951
 20
-140.6492960260356
 30
0.0
 10
101.8561428239283
 20
-140.6492960260356
 30
0.0
 10
101.8561428239283
 20
-140.6492960260356
 30
0.0
 10
101.8582098812195
 20
-140.7233655789685
 30
0.0
 10
101.8688896772237
 20
-140.957976581514
 30
0.0
 10
102.1522487808856
 20
-140.957976581514
 30
0.0
 10
102.2898803455213
 20
-140.957976581514
 30
0.0
 10
102.4421535659693
 20
-140.8883856527119
 30
0.0
 10
102.4421535659693
 20
-140.6599758220399
 30
0.0
 10
102.4421535659693
 20
-140.5435315946384
 30
0.0
 10
102.4040852608573
 20
-140.4949557482964
 30
0.0
 10
102.372390382393
 20
-140.4632608698321
 30
0.0
 10
102.2983208294602
 20
-140.3891913168992
 30
0.0
 10
102.1818766020587
 20
-140.3764444636038
 30
0.0
 10
102.126927329069
 20
-140.3764444636038
 30
0.0
 10
102.1079793039001
 20
-140.3764444636038
 30
0.0
 10
102.0719780560792
 20
-140.378511520895
 30
0.0
 10
102.0444172921972
 20
-140.3826456354773
 30
0.0
 10
102.0444172921972
 20
-140.3826456354773
 30
0.0
 10
102.0444172921972
 20
-140.1879977405606
 30
0.0
 10
102.0444172921972
 20
-140.1879977405606
 30
0.0
 10
102.0824855973092
 20
-140.1945434219826
 30
0.0
 10
102.1248602717778
 20
-140.1966104792738
 30
0.0
 10
102.1312336984255
 20
-140.1966104792738
 30
0.0
 10
102.1966905126453
 20
-140.1966104792738
 30
0.0
 10
102.3956447769185
 20
-140.1752508872652
 30
0.0
 10
102.3956447769185
 20
-139.9385728274285
 30
0.0
 10
102.3956447769185
 20
-139.7608059003897
 30
0.0
 10
102.2643866389304
 20
-139.7056843726257
 30
0.0
 10
102.154488092951
 20
-139.7056843726257
 30
0.0
 10
101.890077014458
 20
-139.7056843726257
 30
0.0
 10
101.8814642757449
 20
-139.9385728274285
 30
0.0
 10
101.8773301611626
 20
-140.0102308135218
 30
0.0
 10
101.8773301611626
 20
-140.0102308135218
 30
0.0
 10
101.6742417823071
 20
-140.0102308135218
 30
0.0
 10
101.6742417823071
 20
-140.0102308135218
 30
0.0
 10
101.682682266246
 20
-139.8855183569557
 30
0.0
 10
101.710243030128
 20
-139.5089694204179
 30
0.0
 10
102.1670626914721
 20
-139.5089694204179
 30
0.0
 10
102.3913384075619
 20
-139.5089694204179
 30
0.0
 10
102.6324950915294
 20
-139.6360934438236
 30
0.0
 10
102.6324950915294
 20
-139.9320271460066
 30
0.0
 10
102.6324950915294
 20
-140.1184068117586
 30
0.0
 10
102.5374104561365
 20
-140.2007445938561
 30
0.0
 10
102.4378471966128
 20
-140.2620672934935
 30
0.0
 10
102.4993421510245
 20
-140.2896280573755
 30
0.0
 10
102.6812431926457
 20
-140.3698987821818
 30
0.0
 10
102.6812431926457
 20
-140.6472289687445
 30
0.0
 10
102.6812431926457
 20
-140.985537345396
 30
0.0
 10
102.4337130820305
 20
-141.1526244764306
 30
0.0
 10
102.1565551502421
 20
-141.1526244764306
 30
0.0
  0
HATCH
  5
A6
330
A1
100
AcDbEntity
  8
_U+30EC_U+30A4_U+30E4_U+30FC 1
 62
   179
420
  2234388
100
AcDbHatch
 10
0.0
 20
0.0
 30
0.0
210
0.0
220
0.0
230
1.0
  2
SOLID
 70
     1
 71
     0
 91
        1
 92
        1
 93
        1
 72
     4
 94
        3
 73
     0
 74
     1
 95
       62
 96
       58
 40
0.0
 40
0.0
 40
0.0
 40
0.0
 40
1.0
 40
1.0
 40
1.0
 40
2.0
 40
2.0
 40
2.0
 40
3.0
 40
3.0
 40
3.0
 40
4.0
 40
4.0
 40
4.0
 40
5.0
 40
5.0
 40
5.0
 40
6.0
 40
6.0
 40
6.0
 40
7.0
 40
7.0
 40
7.0
 40
8.0
 40
8.0
 40
8.0
 40
9.0
 40
9.0
 40
9.0
 40
10.0
 40
10.0
 40
10.0
 40
11.0
 40
11.0
 40
11.0
 40
12.0
 40
12.0
 40
12.0
 40
13.0
 40
13.0
 40
13.0
 40
14.0
 40
14.0
 40
14.0
 40
15.0
 40
15.0
 40
15.0
 40
16.0
 40
16.0
 40
16.0
 40
17.0
 40
17.0
 40
17.0
 40
18.0
 40
18.0
 40
18.0
 40
19.0
 40
19.0
 40
19.0
 40
19.0
 10
102.1565551502421
 20
-141.1526244764306
 10
102.061298260075
 20
-141.1526244764306
 10
101.8433959706329
 20
-141.1316093939706
 10
101.7186835140669
 20
-140.9455742377671
 10
101.644613961134
 20
-140.8332641249479
 10
101.6403075917774
 20
-140.7340453749727
 10
101.6361734771951
 20
-140.6492960260356
 10
101.6361734771951
 20
-140.6492960260356
 10
101.8561428239283
 20
-140.6492960260356
 10
101.8561428239283
 20
-140.6492960260356
 10
101.8582098812195
 20
-140.7233655789685
 10
101.8688896772237
 20
-140.957976581514
 10
102.1522487808856
 20
-140.957976581514
 10
102.2898803455213
 20
-140.957976581514
 10
102.4421535659693
 20
-140.8883856527119
 10
102.4421535659693
 20
-140.6599758220399
 10
102.4421535659693
 20
-140.5435315946384
 10
102.4040852608573
 20
-140.4949557482964
 10
102.372390382393
 20
-140.4632608698321
 10
102.2983208294602
 20
-140.3891913168992
 10
102.1818766020587
 20
-140.3764444636038
 10
102.126927329069
 20
-140.3764444636038
 10
102.1079793039001
 20
-140.3764444636038
 10
102.0719780560792
 20
-140.378511520895
 10
102.0444172921972
 20
-140.3826456354773
 10
102.0444172921972
 20
-140.3826456354773
 10
102.0444172921972
 20
-140.1879977405606
 10
102.0444172921972
 20
-140.1879977405606
 10
102.0824855973092
 20
-140.1945434219826
 10
102.1248602717778
 20
-140.1966104792738
 10
102.1312336984255
 20
-140.1966104792738
 10
102.1966905126453
 20
-140.1966104792738
 10
102.3956447769185
 20
-140.1752508872652
 10
102.3956447769185
 20
-139.9385728274285
 10
102.3956447769185
 20
-139.7608059003897
 10
102.2643866389304
 20
-139.7056843726257
 10
102.154488092951
 20
-139.7056843726257
 10
101.890077014458
 20
-139.7056843726257
 10
101.8814642757449
 20
-139.9385728274285
 10
101.8773301611626
 20
-140.0102308135218
 10
101.8773301611626
 20
-140.0102308135218
 10
101.6742417823071
 20
-140.0102308135218
 10
101.6742417823071
 20
-140.0102308135218
 10
101.682682266246
 20
-139.8855183569557
 10
101.710243030128
 20
-139.5089694204179
 10
102.1670626914721
 20
-139.5089694204179
 10
102.3913384075619
 20
-139.5089694204179
 10
102.6324950915294
 20
-139.6360934438236
 10
102.6324950915294
 20
-139.9320271460066
 10
102.6324950915294
 20
-140.1184068117586
 10
102.5374104561365
 20
-140.2007445938561
 10
102.4378471966128
 20
-140.2620672934935
 10
102.4993421510245
 20
-140.2896280573755
 10
102.6812431926457
 20
-140.3698987821818
 10
102.6812431926457
 20
-140.6472289687445
 10
102.6812431926457
 20
-140.985537345396
 10
102.4337130820305
 20
-141.1526244764306
 10
102.1565551502421
 20
-141.1526244764306
 97
        0
 97
        0
 75
     2
 76
     1
 98
        0
  0
SPLINE
  5
A7
330
A1
100
AcDbEntity
  8
_U+30EC_U+30A4_U+30E4_U+30FC 1
370
     0
100
AcDbSpline
210
0.0
220
0.0
230
1.0
 70
    11
 71
     3
 72
    44
 73
    40
 74
     0
 42
0.0000000001
 43
0.0000000001
 12
1.0
 22
0.0
 32
0.0
 13
1.0
 23
0.0
 33
0.0
 40
0.0
 40
0.0
 40
0.0
 40
0.0
 40
1.0
 40
1.0
 40
1.0
 40
2.0
 40
2.0
 40
2.0
 40
3.0
 40
3.0
 40
3.0
 40
4.0
 40
4.0
 40
4.0
 40
5.0
 40
5.0
 40
5.0
 40
6.0
 40
6.0
 40
6.0
 40
7.0
 40
7.0
 40
7.0
 40
8.0
 40
8.0
 40
8.0
 40
9.0
 40
9.0
 40
9.0
 40
10.0
 40
10.0
 40
10.0
 40
11.0
 40
11.0
 40
11.0
 40
12.0
 40
12.0
 40
12.0
 40
13.0
 40
13.0
 40
13.0
 40
13.0
 10
103.4350300848183
 20
-140.5201049453387
 30
0.0
 10
103.2171277953763
 20
-140.6789238472088
 30
0.0
 10
103.1239379625003
 20
-140.7529934001416
 30
0.0
 10
103.0753621161582
 20
-140.8966538818765
 30
0.0
 10
103.0753621161582
 20
-140.8966538818765
 30
0.0
 10
103.8537814410504
 20
-140.8966538818765
 30
0.0
 10
103.8537814410504
 20
-140.8966538818765
 30
0.0
 10
103.8537814410504
 20
-140.8966538818765
 30
0.0
 10
103.8537814410504
 20
-141.1019815727974
 30
0.0
 10
103.8537814410504
 20
-141.1019815727974
 30
0.0
 10
103.8537814410504
 20
-141.1019815727974
 30
0.0
 10
102.8257649482519
 20
-141.1019815727974
 30
0.0
 10
102.8257649482519
 20
-141.1019815727974
 30
0.0
 10
102.8574598267162
 20
-140.7443806614285
 30
0.0
 10
102.9229166409359
 20
-140.6661769939133
 30
0.0
 10
103.3080783161869
 20
-140.3678317248907
 30
0.0
 10
103.5640489107409
 20
-140.1690497153918
 30
0.0
 10
103.6295057249607
 20
-140.1011813343324
 30
0.0
 10
103.6295057249607
 20
-139.9637220244709
 30
0.0
 10
103.6295057249607
 20
-139.8452107397783
 30
0.0
 10
103.5576754840932
 20
-139.7142971113388
 30
0.0
 10
103.3609605318855
 20
-139.7142971113388
 30
0.0
 10
103.1006835679748
 20
-139.7142971113388
 30
0.0
 10
103.092243084036
 20
-139.944773999302
 30
0.0
 10
103.0879367146794
 20
-140.0612182267035
 30
0.0
 10
103.0879367146794
 20
-140.0612182267035
 30
0.0
 10
102.8638332533639
 20
-140.0612182267035
 30
0.0
 10
102.8638332533639
 20
-140.0612182267035
 30
0.0
 10
102.8722737373028
 20
-139.9340942032977
 30
0.0
 10
102.8827812785328
 20
-139.8221286000271
 30
0.0
 10
102.9632242581134
 20
-139.7036173153345
 30
0.0
 10
103.0731228040928
 20
-139.5427313561734
 30
0.0
 10
103.2593302150706
 20
-139.5089694204179
 30
0.0
 10
103.375774442472
 20
-139.5089694204179
 30
0.0
 10
103.6529323742604
 20
-139.5089694204179
 30
0.0
 10
103.8601548676982
 20
-139.6929375193303
 30
0.0
 10
103.8601548676982
 20
-139.965789081762
 30
0.0
 10
103.8601548676982
 20
-140.1945434219826
 30
0.0
 10
103.743882895071
 20
-140.2937621719578
 30
0.0
 10
103.4350300848183
 20
-140.5201049453387
 30
0.0
  0
HATCH
  5
A8
330
A1
100
AcDbEntity
  8
_U+30EC_U+30A4_U+30E4_U+30FC 1
 62
   179
420
  2234388
100
AcDbHatch
 10
0.0
 20
0.0
 30
0.0
210
0.0
220
0.0
230
1.0
  2
SOLID
 70
     1
 71
     0
 91
        1
 92
        1
 93
        1
 72
     4
 94
        3
 73
     0
 74
     1
 95
       44
 96
       40
 40
0.0
 40
0.0
 40
0.0
 40
0.0
 40
1.0
 40
1.0
 40
1.0
 40
2.0
 40
2.0
 40
2.0
 40
3.0
 40
3.0
 40
3.0
 40
4.0
 40
4.0
 40
4.0
 40
5.0
 40
5.0
 40
5.0
 40
6.0
 40
6.0
 40
6.0
 40
7.0
 40
7.0
 40
7.0
 40
8.0
 40
8.0
 40
8.0
 40
9.0
 40
9.0
 40
9.0
 40
10.0
 40
10.0
 40
10.0
 40
11.0
 40
11.0
 40
11.0
 40
12.0
 40
12.0
 40
12.0
 40
13.0
 40
13.0
 40
13.0
 40
13.0
 10
103.4350300848183
 20
-140.5201049453387
 10
103.2171277953763
 20
-140.6789238472088
 10
103.1239379625003
 20
-140.7529934001416
 10
103.0753621161582
 20
-140.8966538818765
 10
103.0753621161582
 20
-140.8966538818765
 10
103.8537814410504
 20
-140.8966538818765
 10
103.8537814410504
 20
-140.8966538818765
 10
103.8537814410504
 20
-140.8966538818765
 10
103.8537814410504
 20
-141.1019815727974
 10
103.8537814410504
 20
-141.1019815727974
 10
103.8537814410504
 20
-141.1019815727974
 10
102.8257649482519
 20
-141.1019815727974
 10
102.8257649482519
 20
-141.1019815727974
 10
102.8574598267162
 20
-140.7443806614285
 10
102.9229166409359
 20
-140.6661769939133
 10
103.3080783161869
 20
-140.3678317248907
 10
103.5640489107409
 20
-140.1690497153918
 10
103.6295057249607
 20
-140.1011813343324
 10
103.6295057249607
 20
-139.9637220244709
 10
103.6295057249607
 20
-139.8452107397783
 10
103.5576754840932
 20
-139.7142971113388
 10
103.3609605318855
 20
-139.7142971113388
 10
103.1006835679748
 20
-139.7142971113388
 10
103.092243084036
 20
-139.944773999302
 10
103.0879367146794
 20
-140.0612182267035
 10
103.0879367146794
 20
-140.0612182267035
 10
102.8638332533639
 20
-140.0612182267035
 10
102.8638332533639
 20
-140.0612182267035
 10
102.8722737373028
 20
-139.9340942032977
 10
102.8827812785328
 20
-139.8221286000271
 10
102.9632242581134
 20
-139.7036173153345
 10
103.0731228040928
 20
-139.5427313561734
 10
103.2593302150706
 20
-139.5089694204179
 10
103.375774442472
 20
-139.5089694204179
 10
103.6529323742604
 20
-139.5089694204179
 10
103.8601548676982
 20
-139.6929375193303
 10
103.8601548676982
 20
-139.965789081762
 10
103.8601548676982
 20
-140.1945434219826
 10
103.743882895071
 20
-140.2937621719578
 10
103.4350300848183
 20
-140.5201049453387
 97
        0
 97
        0
 75
     2
 76
     1
 98
        0
  0
ENDBLK
  5
A4
330
A1
100
AcDbEntity
  8
0
100
AcDbBlockEnd
  0
BLOCK
  5
B7
330
B5
100
AcDbEntity
  8
0
100
AcDbBlockBegin
  2
block 4
 70
     0
 10
0.0
 20
0.0
 30
0.0
  3
block 4
  1

  0
SPLINE
  5
B9
330
B5
100
AcDbEntity
  8
_U+30EC_U+30A4_U+30E4_U+30FC 1
370
     0
100
AcDbSpline
210
0.0
220
0.0
230
1.0
 70
    11
 71
     3
 72
    26
 73
    22
 74
     0
 42
0.0000000001
 43
0.0000000001
 12
1.0
 22
0.0
 32
0.0
 13
1.0
 23
0.0
 33
0.0
 40
0.0
 40
0.0
 40
0.0
 40
0.0
 40
1.0
 40
1.0
 40
1.0
 40
2.0
 40
2.0
 40
2.0
 40
3.0
 40
3.0
 40
3.0
 40
4.0
 40
4.0
 40
4.0
 40
5.0
 40
5.0
 40
5.0
 40
6.0
 40
6.0
 40
6.0
 40
7.0
 40
7.0
 40
7.0
 40
7.0
 10
92.07103811717322
 20
-157.3016818183135
 30
0.0
 10
92.07103811717322
 20
-157.3016818183135
 30
0.0
 10
92.07103811717322
 20
-156.1975287152909
 30
0.0
 10
92.07103811717322
 20
-156.1975287152909
 30
0.0
 10
92.07103811717322
 20
-156.1975287152909
 30
0.0
 10
91.74099796968628
 20
-156.1975287152909
 30
0.0
 10
91.74099796968628
 20
-156.1975287152909
 30
0.0
 10
91.74099796968628
 20
-156.1975287152909
 30
0.0
 10
91.74099796968628
 20
-156.0493896094252
 30
0.0
 10
91.74099796968628
 20
-156.0493896094252
 30
0.0
 10
92.07310517446437
 20
-156.0345756988386
 30
0.0
 10
92.11961396351523
 20
-155.8716226823863
 30
0.0
 10
92.14924178468839
 20
-155.757245512276
 30
0.0
 10
92.14924178468839
 20
-155.757245512276
 30
0.0
 10
92.29531383326298
 20
-155.757245512276
 30
0.0
 10
92.29531383326298
 20
-155.757245512276
 30
0.0
 10
92.29531383326298
 20
-155.757245512276
 30
0.0
 10
92.29531383326298
 20
-157.3016818183135
 30
0.0
 10
92.29531383326298
 20
-157.3016818183135
 30
0.0
 10
92.29531383326298
 20
-157.3016818183135
 30
0.0
 10
92.07103811717322
 20
-157.3016818183135
 30
0.0
 10
92.07103811717322
 20
-157.3016818183135
 30
0.0
  0
HATCH
  5
BA
330
B5
100
AcDbEntity
  8
_U+30EC_U+30A4_U+30E4_U+30FC 1
 62
   179
420
  2234388
100
AcDbHatch
 10
0.0
 20
0.0
 30
0.0
210
0.0
220
0.0
230
1.0
  2
SOLID
 70
     1
 71
     0
 91
        1
 92
        1
 93
        1
 72
     4
 94
        3
 73
     0
 74
     1
 95
       26
 96
       22
 40
0.0
 40
0.0
 40
0.0
 40
0.0
 40
1.0
 40
1.0
 40
1.0
 40
2.0
 40
2.0
 40
2.0
 40
3.0
 40
3.0
 40
3.0
 40
4.0
 40
4.0
 40
4.0
 40
5.0
 40
5.0
 40
5.0
 40
6.0
 40
6.0
 40
6.0
 40
7.0
 40
7.0
 40
7.0
 40
7.0
 10
92.07103811717322
 20
-157.3016818183135
 10
92.07103811717322
 20
-157.3016818183135
 10
92.07103811717322
 20
-156.1975287152909
 10
92.07103811717322
 20
-156.1975287152909
 10
92.07103811717322
 20
-156.1975287152909
 10
91.74099796968628
 20
-156.1975287152909
 10
91.74099796968628
 20
-156.1975287152909
 10
91.74099796968628
 20
-156.1975287152909
 10
91.74099796968628
 20
-156.0493896094252
 10
91.74099796968628
 20
-156.0493896094252
 10
92.07310517446437
 20
-156.0345756988386
 10
92.11961396351523
 20
-155.8716226823863
 10
92.14924178468839
 20
-155.757245512276
 10
92.14924178468839
 20
-155.757245512276
 10
92.29531383326298
 20
-155.757245512276
 10
92.29531383326298
 20
-155.757245512276
 10
92.29531383326298
 20
-155.757245512276
 10
92.29531383326298
 20
-157.3016818183135
 10
92.29531383326298
 20
-157.3016818183135
 10
92.29531383326298
 20
-157.3016818183135
 10
92.07103811717322
 20
-157.3016818183135
 10
92.07103811717322
 20
-157.3016818183135
 97
        0
 97
        0
 75
     2
 76
     1
 98
        0
  0
SPLINE
  5
BB
330
B5
100
AcDbEntity
  8
_U+30EC_U+30A4_U+30E4_U+30FC 1
370
     0
100
AcDbSpline
210
0.0
220
0.0
230
1.0
 70
    11
 71
     3
 72
    44
 73
    40
 74
     0
 42
0.0000000001
 43
0.0000000001
 12
1.0
 22
0.0
 32
0.0
 13
1.0
 23
0.0
 33
0.0
 40
0.0
 40
0.0
 40
0.0
 40
0.0
 40
1.0
 40
1.0
 40
1.0
 40
2.0
 40
2.0
 40
2.0
 40
3.0
 40
3.0
 40
3.0
 40
4.0
 40
4.0
 40
4.0
 40
5.0
 40
5.0
 40
5.0
 40
6.0
 40
6.0
 40
6.0
 40
7.0
 40
7.0
 40
7.0
 40
8.0
 40
8.0
 40
8.0
 40
9.0
 40
9.0
 40
9.0
 40
10.0
 40
10.0
 40
10.0
 40
11.0
 40
11.0
 40
11.0
 40
12.0
 40
12.0
 40
12.0
 40
13.0
 40
13.0
 40
13.0
 40
13.0
 10
93.38964841415259
 20
-156.7198051908548
 30
0.0
 10
93.17174612471054
 20
-156.8786240927248
 30
0.0
 10
93.07855629183453
 20
-156.9526936456577
 30
0.0
 10
93.02998044549251
 20
-157.0963541273926
 30
0.0
 10
93.02998044549251
 20
-157.0963541273926
 30
0.0
 10
93.80839977038471
 20
-157.0963541273926
 30
0.0
 10
93.80839977038471
 20
-157.0963541273926
 30
0.0
 10
93.80839977038471
 20
-157.0963541273926
 30
0.0
 10
93.80839977038471
 20
-157.3016818183135
 30
0.0
 10
93.80839977038471
 20
-157.3016818183135
 30
0.0
 10
93.80839977038471
 20
-157.3016818183135
 30
0.0
 10
92.78038327758615
 20
-157.3016818183135
 30
0.0
 10
92.78038327758615
 20
-157.3016818183135
 30
0.0
 10
92.81207815605046
 20
-156.9440809069445
 30
0.0
 10
92.87770722504446
 20
-156.8658772394294
 30
0.0
 10
93.26269664552113
 20
-156.5675319704067
 30
0.0
 10
93.5186672400752
 20
-156.3687499609078
 30
0.0
 10
93.58412405429495
 20
-156.3008815798484
 30
0.0
 10
93.58412405429495
 20
-156.1634222699869
 30
0.0
 10
93.58412405429495
 20
-156.0449109852943
 30
0.0
 10
93.51229381342749
 20
-155.9139973568548
 30
0.0
 10
93.31557886121972
 20
-155.9139973568548
 30
0.0
 10
93.05530189730909
 20
-155.9139973568548
 30
0.0
 10
93.04686141337024
 20
-156.144474244818
 30
0.0
 10
93.04255504401367
 20
-156.2609184722195
 30
0.0
 10
93.04255504401367
 20
-156.2609184722195
 30
0.0
 10
92.81845158269817
 20
-156.2609184722195
 30
0.0
 10
92.81845158269817
 20
-156.2609184722195
 30
0.0
 10
92.82689206663703
 20
-156.1337944488138
 30
0.0
 10
92.83739960786704
 20
-156.0218288455432
 30
0.0
 10
92.91784258744762
 20
-155.9033175608506
 30
0.0
 10
93.0277411334271
 20
-155.7424316016894
 30
0.0
 10
93.21394854440486
 20
-155.7086696659339
 30
0.0
 10
93.33039277180629
 20
-155.7086696659339
 30
0.0
 10
93.60755070359464
 20
-155.7086696659339
 30
0.0
 10
93.81477319703242
 20
-155.8926377648463
 30
0.0
 10
93.81477319703242
 20
-156.1654893272781
 30
0.0
 10
93.81477319703242
 20
-156.3942436674987
 30
0.0
 10
93.69850122440523
 20
-156.4934624174739
 30
0.0
 10
93.38964841415259
 20
-156.7198051908548
 30
0.0
  0
HATCH
  5
BC
330
B5
100
AcDbEntity
  8
_U+30EC_U+30A4_U+30E4_U+30FC 1
 62
   179
420
  2234388
100
AcDbHatch
 10
0.0
 20
0.0
 30
0.0
210
0.0
220
0.0
230
1.0
  2
SOLID
 70
     1
 71
     0
 91
        1
 92
        1
 93
        1
 72
     4
 94
        3
 73
     0
 74
     1
 95
       44
 96
       40
 40
0.0
 40
0.0
 40
0.0
 40
0.0
 40
1.0
 40
1.0
 40
1.0
 40
2.0
 40
2.0
 40
2.0
 40
3.0
 40
3.0
 40
3.0
 40
4.0
 40
4.0
 40
4.0
 40
5.0
 40
5.0
 40
5.0
 40
6.0
 40
6.0
 40
6.0
 40
7.0
 40
7.0
 40
7.0
 40
8.0
 40
8.0
 40
8.0
 40
9.0
 40
9.0
 40
9.0
 40
10.0
 40
10.0
 40
10.0
 40
11.0
 40
11.0
 40
11.0
 40
12.0
 40
12.0
 40
12.0
 40
13.0
 40
13.0
 40
13.0
 40
13.0
 10
93.38964841415259
 20
-156.7198051908548
 10
93.17174612471054
 20
-156.8786240927248
 10
93.07855629183453
 20
-156.9526936456577
 10
93.02998044549251
 20
-157.0963541273926
 10
93.02998044549251
 20
-157.0963541273926
 10
93.80839977038471
 20
-157.0963541273926
 10
93.80839977038471
 20
-157.0963541273926
 10
93.80839977038471
 20
-157.0963541273926
 10
93.80839977038471
 20
-157.3016818183135
 10
93.80839977038471
 20
-157.3016818183135
 10
93.80839977038471
 20
-157.3016818183135
 10
92.78038327758615
 20
-157.3016818183135
 10
92.78038327758615
 20
-157.3016818183135
 10
92.81207815605046
 20
-156.9440809069445
 10
92.87770722504446
 20
-156.8658772394294
 10
93.26269664552113
 20
-156.5675319704067
 10
93.5186672400752
 20
-156.3687499609078
 10
93.58412405429495
 20
-156.3008815798484
 10
93.58412405429495
 20
-156.1634222699869
 10
93.58412405429495
 20
-156.0449109852943
 10
93.51229381342749
 20
-155.9139973568548
 10
93.31557886121972
 20
-155.9139973568548
 10
93.05530189730909
 20
-155.9139973568548
 10
93.04686141337024
 20
-156.144474244818
 10
93.04255504401367
 20
-156.2609184722195
 10
93.04255504401367
 20
-156.2609184722195
 10
92.81845158269817
 20
-156.2609184722195
 10
92.81845158269817
 20
-156.2609184722195
 10
92.82689206663703
 20
-156.1337944488138
 10
92.83739960786704
 20
-156.0218288455432
 10
92.91784258744762
 20
-155.9033175608506
 10
93.0277411334271
 20
-155.7424316016894
 10
93.21394854440486
 20
-155.7086696659339
 10
93.33039277180629
 20
-155.7086696659339
 10
93.60755070359464
 20
-155.7086696659339
 10
93.81477319703242
 20
-155.8926377648463
 10
93.81477319703242
 20
-156.1654893272781
 10
93.81477319703242
 20
-156.3942436674987
 10
93.69850122440523
 20
-156.4934624174739
 10
93.38964841415259
 20
-156.7198051908548
 97
        0
 97
        0
 75
     2
 76
     1
 98
        0
  0
ENDBLK
  5
B8
330
B5
100
AcDbEntity
  8
0
100
AcDbBlockEnd
  0
BLOCK
  5
CB
330
C9
100
AcDbEntity
  8
0
100
AcDbBlockBegin
  2
block 5
 70
     0
 10
0.0
 20
0.0
 30
0.0
  3
block 5
  1

  0
SPLINE
  5
CD
330
C9
100
AcDbEntity
  8
_U+30EC_U+30A4_U+30E4_U+30FC 1
370
     0
100
AcDbSpline
210
0.0
220
0.0
230
1.0
 70
    11
 71
     3
 72
    32
 73
    28
 74
     0
 42
0.0000000001
 43
0.0000000001
 12
1.0
 22
0.0
 32
0.0
 13
1.0
 23
0.0
 33
0.0
 40
0.0
 40
0.0
 40
0.0
 40
0.0
 40
1.0
 40
1.0
 40
1.0
 40
2.0
 40
2.0
 40
2.0
 40
3.0
 40
3.0
 40
3.0
 40
4.0
 40
4.0
 40
4.0
 40
5.0
 40
5.0
 40
5.0
 40
6.0
 40
6.0
 40
6.0
 40
7.0
 40
7.0
 40
7.0
 40
8.0
 40
8.0
 40
8.0
 40
9.0
 40
9.0
 40
9.0
 40
9.0
 10
101.7124823421934
 20
-157.3523247219466
 30
0.0
 10
101.1962347837287
 20
-157.3523247219466
 30
0.0
 10
101.1877942997899
 20
-156.7983533679185
 30
0.0
 10
101.1877942997899
 20
-156.5844129382845
 30
0.0
 10
101.1877942997899
 20
-156.3539360503212
 30
0.0
 10
101.206914579733
 20
-155.7066026086428
 30
0.0
 10
101.7505506473054
 20
-155.7066026086428
 30
0.0
 10
101.9240112049877
 20
-155.7066026086428
 30
0.0
 10
102.1694742583118
 20
-155.7765380469934
 30
0.0
 10
102.2075425634238
 20
-156.1086452517715
 30
0.0
 10
102.2075425634238
 20
-156.1086452517715
 30
0.0
 10
101.9937743885641
 20
-156.1086452517715
 30
0.0
 10
101.9937743885641
 20
-156.1086452517715
 30
0.0
 10
101.9832668473341
 20
-156.0514566667163
 30
0.0
 10
101.9515719688698
 20
-155.9033175608506
 30
0.0
 10
101.7484835900143
 20
-155.9033175608506
 30
0.0
 10
101.4565117476394
 20
-155.9033175608506
 30
0.0
 10
101.4162041304619
 20
-156.2312906510464
 30
0.0
 10
101.4036295319408
 20
-156.4362738324187
 30
0.0
 10
101.4966471100425
 20
-156.3580701649036
 30
0.0
 10
101.5643432363277
 20
-156.2988145225573
 30
0.0
 10
101.7462442779489
 20
-156.2988145225573
 30
0.0
 10
101.9260782622789
 20
-156.2988145225573
 30
0.0
 10
102.2285576458838
 20
-156.4069905207941
 30
0.0
 10
102.2285576458838
 20
-156.8131672785051
 30
0.0
 10
102.2285576458838
 20
-157.1325276299877
 30
0.0
 10
102.0297756363849
 20
-157.3523247219466
 30
0.0
 10
101.7124823421934
 20
-157.3523247219466
 30
0.0
  0
SPLINE
  5
CE
330
C9
100
AcDbEntity
  8
_U+30EC_U+30A4_U+30E4_U+30FC 1
370
     0
100
AcDbSpline
210
0.0
220
0.0
230
1.0
 70
    11
 71
     3
 72
    17
 73
    13
 74
     0
 42
0.0000000001
 43
0.0000000001
 12
1.0
 22
0.0
 32
0.0
 13
1.0
 23
0.0
 33
0.0
 40
0.0
 40
0.0
 40
0.0
 40
0.0
 40
1.0
 40
1.0
 40
1.0
 40
2.0
 40
2.0
 40
2.0
 40
3.0
 40
3.0
 40
3.0
 40
4.0
 40
4.0
 40
4.0
 40
4.0
 10
101.7293633100711
 20
-156.4934624174739
 30
0.0
 10
101.4670192888694
 20
-156.4934624174739
 30
0.0
 10
101.4289509837573
 20
-156.7049912802682
 30
0.0
 10
101.4289509837573
 20
-156.8214355076697
 30
0.0
 10
101.4289509837573
 20
-156.9971353774174
 30
0.0
 10
101.5242078739245
 20
-157.1600883938697
 30
0.0
 10
101.7081759728369
 20
-157.1600883938697
 30
0.0
 10
101.8287543148206
 20
-157.1600883938697
 30
0.0
 10
102.0044541845683
 20
-157.1008327515234
 30
0.0
 10
102.0044541845683
 20
-156.8152343357962
 30
0.0
 10
102.0044541845683
 20
-156.5909586197064
 30
0.0
 10
101.8647555626414
 20
-156.4934624174739
 30
0.0
 10
101.7293633100711
 20
-156.4934624174739
 30
0.0
  0
HATCH
  5
CF
330
C9
100
AcDbEntity
  8
_U+30EC_U+30A4_U+30E4_U+30FC 1
 62
   179
420
  2234388
100
AcDbHatch
 10
0.0
 20
0.0
 30
0.0
210
0.0
220
0.0
230
1.0
  2
SOLID
 70
     1
 71
     0
 91
        2
 92
        1
 93
        1
 72
     4
 94
        3
 73
     0
 74
     1
 95
       32
 96
       28
 40
0.0
 40
0.0
 40
0.0
 40
0.0
 40
1.0
 40
1.0
 40
1.0
 40
2.0
 40
2.0
 40
2.0
 40
3.0
 40
3.0
 40
3.0
 40
4.0
 40
4.0
 40
4.0
 40
5.0
 40
5.0
 40
5.0
 40
6.0
 40
6.0
 40
6.0
 40
7.0
 40
7.0
 40
7.0
 40
8.0
 40
8.0
 40
8.0
 40
9.0
 40
9.0
 40
9.0
 40
9.0
 10
101.7124823421934
 20
-157.3523247219466
 10
101.1962347837287
 20
-157.3523247219466
 10
101.1877942997899
 20
-156.7983533679185
 10
101.1877942997899
 20
-156.5844129382845
 10
101.1877942997899
 20
-156.3539360503212
 10
101.206914579733
 20
-155.7066026086428
 10
101.7505506473054
 20
-155.7066026086428
 10
101.9240112049877
 20
-155.7066026086428
 10
102.1694742583118
 20
-155.7765380469934
 10
102.2075425634238
 20
-156.1086452517715
 10
102.2075425634238
 20
-156.1086452517715
 10
101.9937743885641
 20
-156.1086452517715
 10
101.9937743885641
 20
-156.1086452517715
 10
101.9832668473341
 20
-156.0514566667163
 10
101.9515719688698
 20
-155.9033175608506
 10
101.7484835900143
 20
-155.9033175608506
 10
101.4565117476394
 20
-155.9033175608506
 10
101.4162041304619
 20
-156.2312906510464
 10
101.4036295319408
 20
-156.4362738324187
 10
101.4966471100425
 20
-156.3580701649036
 10
101.5643432363277
 20
-156.2988145225573
 10
101.7462442779489
 20
-156.2988145225573
 10
101.9260782622789
 20
-156.2988145225573
 10
102.2285576458838
 20
-156.4069905207941
 10
102.2285576458838
 20
-156.8131672785051
 10
102.2285576458838
 20
-157.1325276299877
 10
102.0297756363849
 20
-157.3523247219466
 10
101.7124823421934
 20
-157.3523247219466
 97
        0
 97
        0
 92
        1
 93
        1
 72
     4
 94
        3
 73
     0
 74
     1
 95
       17
 96
       13
 40
0.0
 40
0.0
 40
0.0
 40
0.0
 40
1.0
 40
1.0
 40
1.0
 40
2.0
 40
2.0
 40
2.0
 40
3.0
 40
3.0
 40
3.0
 40
4.0
 40
4.0
 40
4.0
 40
4.0
 10
101.7293633100711
 20
-156.4934624174739
 10
101.4670192888694
 20
-156.4934624174739
 10
101.4289509837573
 20
-156.7049912802682
 10
101.4289509837573
 20
-156.8214355076697
 10
101.4289509837573
 20
-156.9971353774174
 10
101.5242078739245
 20
-157.1600883938697
 10
101.7081759728369
 20
-157.1600883938697
 10
101.8287543148206
 20
-157.1600883938697
 10
102.0044541845683
 20
-157.1008327515234
 10
102.0044541845683
 20
-156.8152343357962
 10
102.0044541845683
 20
-156.5909586197064
 10
101.8647555626414
 20
-156.4934624174739
 10
101.7293633100711
 20
-156.4934624174739
 97
        0
 97
        0
 75
     2
 76
     1
 98
        0
  0
ENDBLK
  5
CC
330
C9
100
AcDbEntity
  8
0
100
AcDbBlockEnd
  0
BLOCK
  5
DA
330
D8
100
AcDbEntity
  8
0
100
AcDbBlockBegin
  2
block 6
 70
     0
 10
0.0
 20
0.0
 30
0.0
  3
block 6
  1

  0
SPLINE
  5
DC
330
D8
100
AcDbEntity
  8
_U+30EC_U+30A4_U+30E4_U+30FC 1
370
     0
100
AcDbSpline
210
0.0
220
0.0
230
1.0
 70
    11
 71
     3
 72
    32
 73
    28
 74
     0
 42
0.0000000001
 43
0.0000000001
 12
1.0
 22
0.0
 32
0.0
 13
1.0
 23
0.0
 33
0.0
 40
0.0
 40
0.0
 40
0.0
 40
0.0
 40
1.0
 40
1.0
 40
1.0
 40
2.0
 40
2.0
 40
2.0
 40
3.0
 40
3.0
 40
3.0
 40
4.0
 40
4.0
 40
4.0
 40
5.0
 40
5.0
 40
5.0
 40
6.0
 40
6.0
 40
6.0
 40
7.0
 40
7.0
 40
7.0
 40
8.0
 40
8.0
 40
8.0
 40
9.0
 40
9.0
 40
9.0
 40
9.0
 10
122.1134765319716
 20
-150.7053574927056
 30
0.0
 10
122.1134765319716
 20
-151.2217773059446
 30
0.0
 10
121.5595051779435
 20
-151.2300455351092
 30
0.0
 10
121.3455647483094
 20
-151.2300455351092
 30
0.0
 10
121.1150878603462
 20
-151.2300455351092
 30
0.0
 10
120.4677544186678
 20
-151.2107530003918
 30
0.0
 10
120.4677544186678
 20
-150.6671169328193
 30
0.0
 10
120.4677544186678
 20
-150.4938286299113
 30
0.0
 10
120.5376898570184
 20
-150.2485378313615
 30
0.0
 10
120.8697970617964
 20
-150.2102972714752
 30
0.0
 10
120.8697970617964
 20
-150.2102972714752
 30
0.0
 10
120.8697970617964
 20
-150.4238931915607
 30
0.0
 10
120.8697970617964
 20
-150.4238931915607
 30
0.0
 10
120.8126084767413
 20
-150.434572987565
 30
0.0
 10
120.6644693708756
 20
-150.4662678660293
 30
0.0
 10
120.6644693708756
 20
-150.6691839901105
 30
0.0
 10
120.6644693708756
 20
-150.9613280872597
 30
0.0
 10
120.9924424610713
 20
-151.0016357044371
 30
0.0
 10
121.1974256424437
 20
-151.0143825577325
 30
0.0
 10
121.1192219749285
 20
-150.9213649796308
 30
0.0
 10
121.0599663325822
 20
-150.8534965985714
 30
0.0
 10
121.0599663325822
 20
-150.6715955569502
 30
0.0
 10
121.0599663325822
 20
-150.4917615726201
 30
0.0
 10
121.1681423308191
 20
-150.1892821890152
 30
0.0
 10
121.57431908853
 20
-150.1892821890152
 30
0.0
 10
121.8936794400127
 20
-150.1892821890152
 30
0.0
 10
122.1134765319716
 20
-150.3880641985141
 30
0.0
 10
122.1134765319716
 20
-150.7053574927056
 30
0.0
  0
SPLINE
  5
DD
330
D8
100
AcDbEntity
  8
_U+30EC_U+30A4_U+30E4_U+30FC 1
370
     0
100
AcDbSpline
210
0.0
220
0.0
230
1.0
 70
    11
 71
     3
 72
    17
 73
    13
 74
     0
 42
0.0000000001
 43
0.0000000001
 12
1.0
 22
0.0
 32
0.0
 13
1.0
 23
0.0
 33
0.0
 40
0.0
 40
0.0
 40
0.0
 40
0.0
 40
1.0
 40
1.0
 40
1.0
 40
2.0
 40
2.0
 40
2.0
 40
3.0
 40
3.0
 40
3.0
 40
4.0
 40
4.0
 40
4.0
 40
4.0
 10
121.2546142274988
 20
-150.6884765248279
 30
0.0
 10
121.2546142274988
 20
-150.9509928008039
 30
0.0
 10
121.4661430902932
 20
-150.9888888511417
 30
0.0
 10
121.5825873176946
 20
-150.9888888511417
 30
0.0
 10
121.7582871874424
 20
-150.9888888511417
 30
0.0
 10
121.9212402038947
 20
-150.8938042157488
 30
0.0
 10
121.9212402038947
 20
-150.7098361168364
 30
0.0
 10
121.9212402038947
 20
-150.5892577748527
 30
0.0
 10
121.8619845615484
 20
-150.4135579051049
 30
0.0
 10
121.5763861458212
 20
-150.4135579051049
 30
0.0
 10
121.3521104297314
 20
-150.4135579051049
 30
0.0
 10
121.2546142274988
 20
-150.5530842722576
 30
0.0
 10
121.2546142274988
 20
-150.6884765248279
 30
0.0
  0
HATCH
  5
DE
330
D8
100
AcDbEntity
  8
_U+30EC_U+30A4_U+30E4_U+30FC 1
 62
   179
420
  2234388
100
AcDbHatch
 10
0.0
 20
0.0
 30
0.0
210
0.0
220
0.0
230
1.0
  2
SOLID
 70
     1
 71
     0
 91
        2
 92
        1
 93
        1
 72
     4
 94
        3
 73
     0
 74
     1
 95
       32
 96
       28
 40
0.0
 40
0.0
 40
0.0
 40
0.0
 40
1.0
 40
1.0
 40
1.0
 40
2.0
 40
2.0
 40
2.0
 40
3.0
 40
3.0
 40
3.0
 40
4.0
 40
4.0
 40
4.0
 40
5.0
 40
5.0
 40
5.0
 40
6.0
 40
6.0
 40
6.0
 40
7.0
 40
7.0
 40
7.0
 40
8.0
 40
8.0
 40
8.0
 40
9.0
 40
9.0
 40
9.0
 40
9.0
 10
122.1134765319716
 20
-150.7053574927056
 10
122.1134765319716
 20
-151.2217773059446
 10
121.5595051779435
 20
-151.2300455351092
 10
121.3455647483094
 20
-151.2300455351092
 10
121.1150878603462
 20
-151.2300455351092
 10
120.4677544186678
 20
-151.2107530003918
 10
120.4677544186678
 20
-150.6671169328193
 10
120.4677544186678
 20
-150.4938286299113
 10
120.5376898570184
 20
-150.2485378313615
 10
120.8697970617964
 20
-150.2102972714752
 10
120.8697970617964
 20
-150.2102972714752
 10
120.8697970617964
 20
-150.4238931915607
 10
120.8697970617964
 20
-150.4238931915607
 10
120.8126084767413
 20
-150.434572987565
 10
120.6644693708756
 20
-150.4662678660293
 10
120.6644693708756
 20
-150.6691839901105
 10
120.6644693708756
 20
-150.9613280872597
 10
120.9924424610713
 20
-151.0016357044371
 10
121.1974256424437
 20
-151.0143825577325
 10
121.1192219749285
 20
-150.9213649796308
 10
121.0599663325822
 20
-150.8534965985714
 10
121.0599663325822
 20
-150.6715955569502
 10
121.0599663325822
 20
-150.4917615726201
 10
121.1681423308191
 20
-150.1892821890152
 10
121.57431908853
 20
-150.1892821890152
 10
121.8936794400127
 20
-150.1892821890152
 10
122.1134765319716
 20
-150.3880641985141
 10
122.1134765319716
 20
-150.7053574927056
 97
        0
 97
        0
 92
        1
 93
        1
 72
     4
 94
        3
 73
     0
 74
     1
 95
       17
 96
       13
 40
0.0
 40
0.0
 40
0.0
 40
0.0
 40
1.0
 40
1.0
 40
1.0
 40
2.0
 40
2.0
 40
2.0
 40
3.0
 40
3.0
 40
3.0
 40
4.0
 40
4.0
 40
4.0
 40
4.0
 10
121.2546142274988
 20
-150.6884765248279
 10
121.2546142274988
 20
-150.9509928008039
 10
121.4661430902932
 20
-150.9888888511417
 10
121.5825873176946
 20
-150.9888888511417
 10
121.7582871874424
 20
-150.9888888511417
 10
121.9212402038947
 20
-150.8938042157488
 10
121.9212402038947
 20
-150.7098361168364
 10
121.9212402038947
 20
-150.5892577748527
 10
121.8619845615484
 20
-150.4135579051049
 10
121.5763861458212
 20
-150.4135579051049
 10
121.3521104297314
 20
-150.4135579051049
 10
121.2546142274988
 20
-150.5530842722576
 10
121.2546142274988
 20
-150.6884765248279
 97
        0
 97
        0
 75
     2
 76
     1
 98
        0
  0
POLYLINE
  5
DF
330
D8
100
AcDbEntity
  8
_U+30EC_U+30A4_U+30E4_U+30FC 1
370
     0
100
AcDb2dPolyline
 66
     1
 10
0.0
 20
0.0
 30
0.0
  0
VERTEX
  5
E0
330
DF
100
AcDbEntity
  8
_U+30EC_U+30A4_U+30E4_U+30FC 1
370
     0
100
AcDbVertex
100
AcDb2dVertex
 10
122.0628336283385
 20
-149.972585682993
 30
0.0
  0
VERTEX
  5
E1
330
DF
100
AcDbEntity
  8
_U+30EC_U+30A4_U+30E4_U+30FC 1
370
     0
100
AcDbVertex
100
AcDb2dVertex
 10
121.8109971483667
 20
-149.972585682993
 30
0.0
  0
VERTEX
  5
E2
330
DF
100
AcDbEntity
  8
_U+30EC_U+30A4_U+30E4_U+30FC 1
370
     0
100
AcDbVertex
100
AcDb2dVertex
 10
121.8109971483667
 20
-149.7210937125697
 30
0.0
  0
VERTEX
  5
E3
330
DF
100
AcDbEntity
  8
_U+30EC_U+30A4_U+30E4_U+30FC 1
370
     0
100
AcDbVertex
100
AcDb2dVertex
 10
122.0628336283385
 20
-149.7210937125697
 30
0.0
  0
VERTEX
  5
E4
330
DF
100
AcDbEntity
  8
_U+30EC_U+30A4_U+30E4_U+30FC 1
370
     0
100
AcDbVertex
100
AcDb2dVertex
 10
122.0628336283385
 20
-149.972585682993
 30
0.0
  0
SEQEND
  5
E5
330
DF
100
AcDbEntity
  8
_U+30EC_U+30A4_U+30E4_U+30FC 1
370
     0
  0
HATCH
  5
E6
330
D8
100
AcDbEntity
  8
_U+30EC_U+30A4_U+30E4_U+30FC 1
 62
   179
420
  2234388
100
AcDbHatch
 10
0.0
 20
0.0
 30
0.0
210
0.0
220
0.0
230
1.0
  2
SOLID
 70
     1
 71
     0
 91
        1
 92
        1
 93
        4
 72
     1
 10
122.0628336283385
 20
-149.972585682993
 11
121.8109971483667
 21
-149.972585682993
 72
     1
 10
121.8109971483667
 20
-149.972585682993
 11
121.8109971483667
 21
-149.7210937125697
 72
     1
 10
121.8109971483667
 20
-149.7210937125697
 11
122.0628336283385
 21
-149.7210937125697
 72
     1
 10
122.0628336283385
 20
-149.7210937125697
 11
122.0628336283385
 21
-149.972585682993
 97
        0
 75
     2
 76
     1
 98
        0
  0
SPLINE
  5
E7
330
D8
100
AcDbEntity
  8
_U+30EC_U+30A4_U+30E4_U+30FC 1
370
     0
100
AcDbSpline
210
0.0
220
0.0
230
1.0
 70
    11
 71
     3
 72
    44
 73
    40
 74
     0
 42
0.0000000001
 43
0.0000000001
 12
1.0
 22
0.0
 32
0.0
 13
1.0
 23
0.0
 33
0.0
 40
0.0
 40
0.0
 40
0.0
 40
0.0
 40
1.0
 40
1.0
 40
1.0
 40
2.0
 40
2.0
 40
2.0
 40
3.0
 40
3.0
 40
3.0
 40
4.0
 40
4.0
 40
4.0
 40
5.0
 40
5.0
 40
5.0
 40
6.0
 40
6.0
 40
6.0
 40
7.0
 40
7.0
 40
7.0
 40
8.0
 40
8.0
 40
8.0
 40
9.0
 40
9.0
 40
9.0
 40
10.0
 40
10.0
 40
10.0
 40
11.0
 40
11.0
 40
11.0
 40
12.0
 40
12.0
 40
12.0
 40
13.0
 40
13.0
 40
13.0
 40
13.0
 10
121.4809570008798
 20
-148.8915147197216
 30
0.0
 10
121.6397759027498
 20
-149.1092447543894
 30
0.0
 10
121.7138454556827
 20
-149.2022623324911
 30
0.0
 10
121.8575059374176
 20
-149.2511826883816
 30
0.0
 10
121.8575059374176
 20
-149.2511826883816
 30
0.0
 10
121.8575059374176
 20
-148.4725911087152
 30
0.0
 10
121.8575059374176
 20
-148.4725911087152
 30
0.0
 10
121.8575059374176
 20
-148.4725911087152
 30
0.0
 10
122.0628336283385
 20
-148.4725911087152
 30
0.0
 10
122.0628336283385
 20
-148.4725911087152
 30
0.0
 10
122.0628336283385
 20
-148.4725911087152
 30
0.0
 10
122.0628336283385
 20
-149.5006076015137
 30
0.0
 10
122.0628336283385
 20
-149.5006076015137
 30
0.0
 10
121.7052327169695
 20
-149.4689127230494
 30
0.0
 10
121.6270290494544
 20
-149.4034559088297
 30
0.0
 10
121.3286837804317
 20
-149.0182942335788
 30
0.0
 10
121.1299017709328
 20
-148.7623236390247
 30
0.0
 10
121.0620333898734
 20
-148.6968668248049
 30
0.0
 10
120.9245740800119
 20
-148.6968668248049
 30
0.0
 10
120.8060627953193
 20
-148.6968668248049
 30
0.0
 10
120.6751491668798
 20
-148.7686970656724
 30
0.0
 10
120.6751491668798
 20
-148.9652397631059
 30
0.0
 10
120.6751491668798
 20
-149.2256889817908
 30
0.0
 10
120.905626054843
 20
-149.2339572109554
 30
0.0
 10
121.0220702822445
 20
-149.2384358350862
 30
0.0
 10
121.0220702822445
 20
-149.2384358350862
 30
0.0
 10
121.0220702822445
 20
-149.462711551176
 30
0.0
 10
121.0220702822445
 20
-149.462711551176
 30
0.0
 10
120.8949462588388
 20
-149.4540988124629
 30
0.0
 10
120.7829806555682
 20
-149.4434190164586
 30
0.0
 10
120.6644693708756
 20
-149.3631482916523
 30
0.0
 10
120.5035834117144
 20
-149.2532497456728
 30
0.0
 10
120.4698214759589
 20
-149.0672145894693
 30
0.0
 10
120.4698214759589
 20
-148.9507703620679
 30
0.0
 10
120.4698214759589
 20
-148.6734401755052
 30
0.0
 10
120.6537895748713
 20
-148.4662176820675
 30
0.0
 10
120.9266411373031
 20
-148.4662176820675
 30
0.0
 10
121.1553954775237
 20
-148.4662176820675
 30
0.0
 10
121.2546142274988
 20
-148.5824896546947
 30
0.0
 10
121.4809570008798
 20
-148.8915147197216
 30
0.0
  0
HATCH
  5
E8
330
D8
100
AcDbEntity
  8
_U+30EC_U+30A4_U+30E4_U+30FC 1
 62
   179
420
  2234388
100
AcDbHatch
 10
0.0
 20
0.0
 30
0.0
210
0.0
220
0.0
230
1.0
  2
SOLID
 70
     1
 71
     0
 91
        1
 92
        1
 93
        1
 72
     4
 94
        3
 73
     0
 74
     1
 95
       44
 96
       40
 40
0.0
 40
0.0
 40
0.0
 40
0.0
 40
1.0
 40
1.0
 40
1.0
 40
2.0
 40
2.0
 40
2.0
 40
3.0
 40
3.0
 40
3.0
 40
4.0
 40
4.0
 40
4.0
 40
5.0
 40
5.0
 40
5.0
 40
6.0
 40
6.0
 40
6.0
 40
7.0
 40
7.0
 40
7.0
 40
8.0
 40
8.0
 40
8.0
 40
9.0
 40
9.0
 40
9.0
 40
10.0
 40
10.0
 40
10.0
 40
11.0
 40
11.0
 40
11.0
 40
12.0
 40
12.0
 40
12.0
 40
13.0
 40
13.0
 40
13.0
 40
13.0
 10
121.4809570008798
 20
-148.8915147197216
 10
121.6397759027498
 20
-149.1092447543894
 10
121.7138454556827
 20
-149.2022623324911
 10
121.8575059374176
 20
-149.2511826883816
 10
121.8575059374176
 20
-149.2511826883816
 10
121.8575059374176
 20
-148.4725911087152
 10
121.8575059374176
 20
-148.4725911087152
 10
121.8575059374176
 20
-148.4725911087152
 10
122.0628336283385
 20
-148.4725911087152
 10
122.0628336283385
 20
-148.4725911087152
 10
122.0628336283385
 20
-148.4725911087152
 10
122.0628336283385
 20
-149.5006076015137
 10
122.0628336283385
 20
-149.5006076015137
 10
121.7052327169695
 20
-149.4689127230494
 10
121.6270290494544
 20
-149.4034559088297
 10
121.3286837804317
 20
-149.0182942335788
 10
121.1299017709328
 20
-148.7623236390247
 10
121.0620333898734
 20
-148.6968668248049
 10
120.9245740800119
 20
-148.6968668248049
 10
120.8060627953193
 20
-148.6968668248049
 10
120.6751491668798
 20
-148.7686970656724
 10
120.6751491668798
 20
-148.9652397631059
 10
120.6751491668798
 20
-149.2256889817908
 10
120.905626054843
 20
-149.2339572109554
 10
121.0220702822445
 20
-149.2384358350862
 10
121.0220702822445
 20
-149.2384358350862
 10
121.0220702822445
 20
-149.462711551176
 10
121.0220702822445
 20
-149.462711551176
 10
120.8949462588388
 20
-149.4540988124629
 10
120.7829806555682
 20
-149.4434190164586
 10
120.6644693708756
 20
-149.3631482916523
 10
120.5035834117144
 20
-149.2532497456728
 10
120.4698214759589
 20
-149.0672145894693
 10
120.4698214759589
 20
-148.9507703620679
 10
120.4698214759589
 20
-148.6734401755052
 10
120.6537895748713
 20
-148.4662176820675
 10
120.9266411373031
 20
-148.4662176820675
 10
121.1553954775237
 20
-148.4662176820675
 10
121.2546142274988
 20
-148.5824896546947
 10
121.4809570008798
 20
-148.8915147197216
 97
        0
 97
        0
 75
     2
 76
     1
 98
        0
  0
ENDBLK
  5
DB
330
D8
100
AcDbEntity
  8
0
100
AcDbBlockEnd
  0
ENDSEC
  0
SECTION
  2
ENTITIES
  0
POLYLINE
  5
41
330
1F
100
AcDbEntity
  8
_U+30EC_U+30A4_U+30E4_U+30FC 1
370
     0
100
AcDb2dPolyline
 66
     1
 10
0.0
 20
0.0
 30
0.0
  0
VERTEX
  5
42
330
41
100
AcDbEntity
  8
_U+30EC_U+30A4_U+30E4_U+30FC 1
370
     0
100
AcDbVertex
100
AcDb2dVertex
 10
86.64532763116392
 20
-146.7470289075407
 30
0.0
  0
VERTEX
  5
43
330
41
100
AcDbEntity
  8
_U+30EC_U+30A4_U+30E4_U+30FC 1
370
     0
100
AcDbVertex
100
AcDb2dVertex
 10
98.70891621559106
 20
-146.7470289075407
 30
0.0
  0
VERTEX
  5
44
330
41
100
AcDbEntity
  8
_U+30EC_U+30A4_U+30E4_U+30FC 1
370
     0
100
AcDbVertex
100
AcDb2dVertex
 10
98.70891621559106
 20
-153.9482850855499
 30
0.0
  0
VERTEX
  5
45
330
41
100
AcDbEntity
  8
_U+30EC_U+30A4_U+30E4_U+30FC 1
370
     0
100
AcDbVertex
100
AcDb2dVertex
 10
104.7089564167617
 20
-153.9482850855499
 30
0.0
  0
VERTEX
  5
46
330
41
100
AcDbEntity
  8
_U+30EC_U+30A4_U+30E4_U+30FC 1
370
     0
100
AcDbVertex
100
AcDb2dVertex
 10
104.7089564167617
 20
-152.9478078247866
 30
0.0
  0
VERTEX
  5
47
330
41
100
AcDbEntity
  8
_U+30EC_U+30A4_U+30E4_U+30FC 1
370
     0
100
AcDbVertex
100
AcDb2dVertex
 10
99.60920310179313
 20
-152.9478078247866
 30
0.0
  0
VERTEX
  5
48
330
41
100
AcDbEntity
  8
_U+30EC_U+30A4_U+30E4_U+30FC 1
370
     0
100
AcDbVertex
100
AcDb2dVertex
 10
99.60920310179313
 20
-146.7470289075407
 30
0.0
  0
VERTEX
  5
49
330
41
100
AcDbEntity
  8
_U+30EC_U+30A4_U+30E4_U+30FC 1
370
     0
100
AcDbVertex
100
AcDb2dVertex
 10
118.7089470460606
 20
-146.7470289075407
 30
0.0
  0
VERTEX
  5
4A
330
41
100
AcDbEntity
  8
_U+30EC_U+30A4_U+30E4_U+30FC 1
370
     0
100
AcDbVertex
100
AcDb2dVertex
 10
118.7089470460606
 20
-145.7472568147595
 30
0.0
  0
VERTEX
  5
4B
330
41
100
AcDbEntity
  8
_U+30EC_U+30A4_U+30E4_U+30FC 1
370
     0
100
AcDbVertex
100
AcDb2dVertex
 10
86.64532763116392
 20
-145.7472568147595
 30
0.0
  0
VERTEX
  5
4C
330
41
100
AcDbEntity
  8
_U+30EC_U+30A4_U+30E4_U+30FC 1
370
     0
100
AcDbVertex
100
AcDb2dVertex
 10
86.64532763116392
 20
-146.7470289075407
 30
0.0
  0
SEQEND
  5
4E
330
41
100
AcDbEntity
  8
_U+30EC_U+30A4_U+30E4_U+30FC 1
370
     0
  0
HATCH
  5
4D
330
1F
100
AcDbEntity
  8
_U+30EC_U+30A4_U+30E4_U+30FC 1
 62
     9
420
 13224394
100
AcDbHatch
 10
0.0
 20
0.0
 30
0.0
210
0.0
220
0.0
230
1.0
  2
SOLID
 70
     1
 71
     0
 91
        1
 92
        1
 93
       10
 72
     1
 10
86.64532763116392
 20
-146.7470289075407
 11
98.70891621559106
 21
-146.7470289075407
 72
     1
 10
98.70891621559106
 20
-146.7470289075407
 11
98.70891621559106
 21
-153.9482850855499
 72
     1
 10
98.70891621559106
 20
-153.9482850855499
 11
104.7089564167617
 21
-153.9482850855499
 72
     1
 10
104.7089564167617
 20
-153.9482850855499
 11
104.7089564167617
 21
-152.9478078247866
 72
     1
 10
104.7089564167617
 20
-152.9478078247866
 11
99.60920310179313
 21
-152.9478078247866
 72
     1
 10
99.60920310179313
 20
-152.9478078247866
 11
99.60920310179313
 21
-146.7470289075407
 72
     1
 10
99.60920310179313
 20
-146.7470289075407
 11
118.7089470460606
 21
-146.7470289075407
 72
     1
 10
118.7089470460606
 20
-146.7470289075407
 11
118.7089470460606
 21
-145.7472568147595
 72
     1
 10
118.7089470460606
 20
-145.7472568147595
 11
86.64532763116392
 21
-145.7472568147595
 72
     1
 10
86.64532763116392
 20
-145.7472568147595
 11
86.64532763116392
 21
-146.7470289075407
 97
        0
 75
     2
 76
     1
 98
        0
  0
POLYLINE
  5
4F
330
1F
100
AcDbEntity
  8
_U+30EC_U+30A4_U+30E4_U+30FC 1
 62
   179
420
  2234388
370
    25
100
AcDb2dPolyline
 66
     1
 10
0.0
 20
0.0
 30
0.0
  0
VERTEX
  5
50
330
4F
100
AcDbEntity
  8
_U+30EC_U+30A4_U+30E4_U+30FC 1
 62
   179
420
  2234388
370
    25
100
AcDbVertex
100
AcDb2dVertex
 10
86.70872007957337
 20
-145.7472891125296
 30
0.0
  0
VERTEX
  5
51
330
4F
100
AcDbEntity
  8
_U+30EC_U+30A4_U+30E4_U+30FC 1
 62
   179
420
  2234388
370
    25
100
AcDbVertex
100
AcDb2dVertex
 10
118.7088393868267
 20
-145.7472891125296
 30
0.0
  0
SEQEND
  5
52
330
4F
100
AcDbEntity
  8
_U+30EC_U+30A4_U+30E4_U+30FC 1
 62
   179
420
  2234388
370
    25
  0
POLYLINE
  5
53
330
1F
100
AcDbEntity
  8
_U+30EC_U+30A4_U+30E4_U+30FC 1
 62
   179
420
  2234388
370
    25
100
AcDb2dPolyline
 66
     1
 10
0.0
 20
0.0
 30
0.0
  0
VERTEX
  5
54
330
53
100
AcDbEntity
  8
_U+30EC_U+30A4_U+30E4_U+30FC 1
 62
   179
420
  2234388
370
    25
100
AcDbVertex
100
AcDb2dVertex
 10
86.70903767431341
 20
-146.7470289075407
 30
0.0
  0
VERTEX
  5
55
330
53
100
AcDbEntity
  8
_U+30EC_U+30A4_U+30E4_U+30FC 1
 62
   179
420
  2234388
370
    25
100
AcDbVertex
100
AcDb2dVertex
 10
98.70877356710612
 20
-146.7470289075407
 30
0.0
  0
SEQEND
  5
56
330
53
100
AcDbEntity
  8
_U+30EC_U+30A4_U+30E4_U+30FC 1
 62
   179
420
  2234388
370
    25
  0
POLYLINE
  5
57
330
1F
100
AcDbEntity
  8
_U+30EC_U+30A4_U+30E4_U+30FC 1
 62
   179
420
  2234388
370
    25
100
AcDb2dPolyline
 66
     1
 10
0.0
 20
0.0
 30
0.0
  0
VERTEX
  5
58
330
57
100
AcDbEntity
  8
_U+30EC_U+30A4_U+30E4_U+30FC 1
 62
   179
420
  2234388
370
    25
100
AcDbVertex
100
AcDb2dVertex
 10
98.70884623708902
 20
-146.7470289075407
 30
0.0
  0
VERTEX
  5
59
330
57
100
AcDbEntity
  8
_U+30EC_U+30A4_U+30E4_U+30FC 1
 62
   179
420
  2234388
370
    25
100
AcDbVertex
100
AcDb2dVertex
 10
98.70884623708902
 20
-153.9482850855499
 30
0.0
  0
SEQEND
  5
5A
330
57
100
AcDbEntity
  8
_U+30EC_U+30A4_U+30E4_U+30FC 1
 62
   179
420
  2234388
370
    25
  0
POLYLINE
  5
5B
330
1F
100
AcDbEntity
  8
_U+30EC_U+30A4_U+30E4_U+30FC 1
 62
   179
420
  2234388
370
    25
100
AcDb2dPolyline
 66
     1
 10
0.0
 20
0.0
 30
0.0
  0
VERTEX
  5
5C
330
5B
100
AcDbEntity
  8
_U+30EC_U+30A4_U+30E4_U+30FC 1
 62
   179
420
  2234388
370
    25
100
AcDbVertex
100
AcDb2dVertex
 10
99.60902546405717
 20
-146.7470289075407
 30
0.0
  0
VERTEX
  5
5D
330
5B
100
AcDbEntity
  8
_U+30EC_U+30A4_U+30E4_U+30FC 1
 62
   179
420
  2234388
370
    25
100
AcDbVertex
100
AcDb2dVertex
 10
118.708764025363
 20
-146.7470289075407
 30
0.0
  0
SEQEND
  5
5E
330
5B
100
AcDbEntity
  8
_U+30EC_U+30A4_U+30E4_U+30FC 1
 62
   179
420
  2234388
370
    25
  0
POLYLINE
  5
5F
330
1F
100
AcDbEntity
  8
_U+30EC_U+30A4_U+30E4_U+30FC 1
 62
   179
420
  2234388
370
    25
100
AcDb2dPolyline
 66
     1
 10
0.0
 20
0.0
 30
0.0
  0
VERTEX
  5
60
330
5F
100
AcDbEntity
  8
_U+30EC_U+30A4_U+30E4_U+30FC 1
 62
   179
420
  2234388
370
    25
100
AcDbVertex
100
AcDb2dVertex
 10
99.60902546405717
 20
-152.9478724203269
 30
0.0
  0
VERTEX
  5
61
330
5F
100
AcDbEntity
  8
_U+30EC_U+30A4_U+30E4_U+30FC 1
 62
   179
420
  2234388
370
    25
100
AcDbVertex
100
AcDb2dVertex
 10
104.7091286715359
 20
-152.9478724203269
 30
0.0
  0
SEQEND
  5
62
330
5F
100
AcDbEntity
  8
_U+30EC_U+30A4_U+30E4_U+30FC 1
 62
   179
420
  2234388
370
    25
  0
POLYLINE
  5
63
330
1F
100
AcDbEntity
  8
_U+30EC_U+30A4_U+30E4_U+30FC 1
 62
   179
420
  2234388
370
    25
100
AcDb2dPolyline
 66
     1
 10
0.0
 20
0.0
 30
0.0
  0
VERTEX
  5
64
330
63
100
AcDbEntity
  8
_U+30EC_U+30A4_U+30E4_U+30FC 1
 62
   179
420
  2234388
370
    25
100
AcDbVertex
100
AcDb2dVertex
 10
98.70884623708902
 20
-153.9483120003584
 30
0.0
  0
VERTEX
  5
65
330
63
100
AcDbEntity
  8
_U+30EC_U+30A4_U+30E4_U+30FC 1
 62
   179
420
  2234388
370
    25
100
AcDbVertex
100
AcDb2dVertex
 10
104.7088864382596
 20
-153.9483120003584
 30
0.0
  0
SEQEND
  5
66
330
63
100
AcDbEntity
  8
_U+30EC_U+30A4_U+30E4_U+30FC 1
 62
   179
420
  2234388
370
    25
  0
POLYLINE
  5
67
330
1F
100
AcDbEntity
  8
_U+30EC_U+30A4_U+30E4_U+30FC 1
 62
   179
420
  2234388
370
    25
100
AcDb2dPolyline
 66
     1
 10
0.0
 20
0.0
 30
0.0
  0
VERTEX
  5
68
330
67
100
AcDbEntity
  8
_U+30EC_U+30A4_U+30E4_U+30FC 1
 62
   179
420
  2234388
370
    25
100
AcDbVertex
100
AcDb2dVertex
 10
104.7089940974935
 20
-152.9478724203269
 30
0.0
  0
VERTEX
  5
69
330
67
100
AcDbEntity
  8
_U+30EC_U+30A4_U+30E4_U+30FC 1
 62
   179
420
  2234388
370
    25
100
AcDbVertex
100
AcDb2dVertex
 10
104.7089940974935
 20
-153.948355064052
 30
0.0
  0
SEQEND
  5
6A
330
67
100
AcDbEntity
  8
_U+30EC_U+30A4_U+30E4_U+30FC 1
 62
   179
420
  2234388
370
    25
  0
POLYLINE
  5
6B
330
1F
100
AcDbEntity
  8
_U+30EC_U+30A4_U+30E4_U+30FC 1
 62
   179
420
  2234388
370
    25
100
AcDb2dPolyline
 66
     1
 10
0.0
 20
0.0
 30
0.0
  0
VERTEX
  5
6C
330
6B
100
AcDbEntity
  8
_U+30EC_U+30A4_U+30E4_U+30FC 1
 62
   179
420
  2234388
370
    25
100
AcDbVertex
100
AcDb2dVertex
 10
86.64843090858149
 20
-145.7472891125296
 30
0.0
  0
VERTEX
  5
6D
330
6B
100
AcDbEntity
  8
_U+30EC_U+30A4_U+30E4_U+30FC 1
 62
   179
420
  2234388
370
    25
100
AcDbVertex
100
AcDb2dVertex
 10
86.64843090858149
 20
-146.7470665882726
 30
0.0
  0
SEQEND
  5
6E
330
6B
100
AcDbEntity
  8
_U+30EC_U+30A4_U+30E4_U+30FC 1
 62
   179
420
  2234388
370
    25
  0
POLYLINE
  5
6F
330
1F
100
AcDbEntity
  8
_U+30EC_U+30A4_U+30E4_U+30FC 1
 62
   179
420
  2234388
370
    25
100
AcDb2dPolyline
 66
     1
 10
0.0
 20
0.0
 30
0.0
  0
VERTEX
  5
70
330
6F
100
AcDbEntity
  8
_U+30EC_U+30A4_U+30E4_U+30FC 1
 62
   179
420
  2234388
370
    25
100
AcDbVertex
100
AcDb2dVertex
 10
118.7088393868267
 20
-145.7472891125296
 30
0.0
  0
VERTEX
  5
71
330
6F
100
AcDbEntity
  8
_U+30EC_U+30A4_U+30E4_U+30FC 1
 62
   179
420
  2234388
370
    25
100
AcDbVertex
100
AcDb2dVertex
 10
118.7088393868267
 20
-146.7470665882726
 30
0.0
  0
SEQEND
  5
72
330
6F
100
AcDbEntity
  8
_U+30EC_U+30A4_U+30E4_U+30FC 1
 62
   179
420
  2234388
370
    25
  0
POLYLINE
  5
73
330
1F
100
AcDbEntity
  8
_U+30EC_U+30A4_U+30E4_U+30FC 1
 62
   179
420
  2234388
370
    25
100
AcDb2dPolyline
 66
     1
 10
0.0
 20
0.0
 30
0.0
  0
VERTEX
  5
74
330
73
100
AcDbEntity
  8
_U+30EC_U+30A4_U+30E4_U+30FC 1
 62
   179
420
  2234388
370
    25
100
AcDbVertex
100
AcDb2dVertex
 10
99.60902546405717
 20
-146.7470289075407
 30
0.0
  0
VERTEX
  5
75
330
73
100
AcDbEntity
  8
_U+30EC_U+30A4_U+30E4_U+30FC 1
 62
   179
420
  2234388
370
    25
100
AcDbVertex
100
AcDb2dVertex
 10
99.60902546405717
 20
-152.9478078247866
 30
0.0
  0
SEQEND
  5
76
330
73
100
AcDbEntity
  8
_U+30EC_U+30A4_U+30E4_U+30FC 1
 62
   179
420
  2234388
370
    25
  0
SPLINE
  5
77
330
1F
100
AcDbEntity
  8
_U+30EC_U+30A4_U+30E4_U+30FC 1
 62
   179
420
  2234388
370
     9
100
AcDbSpline
210
0.0
220
0.0
230
1.0
 70
    11
 71
     3
 72
    17
 73
    13
 74
     0
 42
0.0000000001
 43
0.0000000001
 12
1.0
 22
0.0
 32
0.0
 13
1.0
 23
0.0
 33
0.0
 40
0.0
 40
0.0
 40
0.0
 40
0.0
 40
1.0
 40
1.0
 40
1.0
 40
2.0
 40
2.0
 40
2.0
 40
3.0
 40
3.0
 40
3.0
 40
4.0
 40
4.0
 40
4.0
 40
4.0
 10
86.72629006654815
 20
-141.7468227032108
 30
0.0
 10
86.72629006654815
 20
-141.6917926857956
 30
0.0
 10
86.68148498487396
 20
-141.6469902956023
 30
0.0
 10
86.62645227597827
 20
-141.6469902956023
 30
0.0
 10
86.57141956708192
 20
-141.6469902956023
 30
0.0
 10
86.52661717688859
 20
-141.6917926857956
 30
0.0
 10
86.52661717688859
 20
-141.7468227032108
 30
0.0
 10
86.52661717688859
 20
-141.8018581035876
 30
0.0
 10
86.57141956708192
 20
-141.846660493781
 30
0.0
 10
86.62645227597827
 20
-141.846660493781
 30
0.0
 10
86.68148498487396
 20
-141.846660493781
 30
0.0
 10
86.72629006654815
 20
-141.8018581035876
 30
0.0
 10
86.72629006654815
 20
-141.7468227032108
 30
0.0
  0
SPLINE
  5
78
330
1F
100
AcDbEntity
  8
_U+30EC_U+30A4_U+30E4_U+30FC 1
 62
   179
420
  2234388
370
     9
100
AcDbSpline
210
0.0
220
0.0
230
1.0
 70
    11
 71
     3
 72
    17
 73
    13
 74
     0
 42
0.0000000001
 43
0.0000000001
 12
1.0
 22
0.0
 32
0.0
 13
1.0
 23
0.0
 33
0.0
 40
0.0
 40
0.0
 40
0.0
 40
0.0
 40
1.0
 40
1.0
 40
1.0
 40
2.0
 40
2.0
 40
2.0
 40
3.0
 40
3.0
 40
3.0
 40
4.0
 40
4.0
 40
4.0
 40
4.0
 10
118.8087471558989
 20
-141.7468227032108
 30
0.0
 10
118.8087471558989
 20
-141.6917926857956
 30
0.0
 10
118.7646499336877
 20
-141.6469902956023
 30
0.0
 10
118.7089093653288
 20
-141.6469902956023
 30
0.0
 10
118.6538739649519
 20
-141.6469902956023
 30
0.0
 10
118.6090715747585
 20
-141.6917926857956
 30
0.0
 10
118.6090715747585
 20
-141.7468227032108
 30
0.0
 10
118.6090715747585
 20
-141.8018581035876
 30
0.0
 10
118.6538739649519
 20
-141.846660493781
 30
0.0
 10
118.7089093653288
 20
-141.846660493781
 30
0.0
 10
118.7646499336877
 20
-141.846660493781
 30
0.0
 10
118.8087471558989
 20
-141.8018581035876
 30
0.0
 10
118.8087471558989
 20
-141.7468227032108
 30
0.0
  0
SPLINE
  5
79
330
1F
100
AcDbEntity
  8
_U+30EC_U+30A4_U+30E4_U+30FC 1
 62
   179
420
  2234388
370
     9
100
AcDbSpline
210
0.0
220
0.0
230
1.0
 70
    11
 71
     3
 72
    17
 73
    13
 74
     0
 42
0.0000000001
 43
0.0000000001
 12
1.0
 22
0.0
 32
0.0
 13
1.0
 23
0.0
 33
0.0
 40
0.0
 40
0.0
 40
0.0
 40
0.0
 40
1.0
 40
1.0
 40
1.0
 40
2.0
 40
2.0
 40
2.0
 40
3.0
 40
3.0
 40
3.0
 40
4.0
 40
4.0
 40
4.0
 40
4.0
 10
122.809175884486
 20
-146.7470289075407
 30
0.0
 10
122.809175884486
 20
-146.6919988901255
 30
0.0
 10
122.7643681113309
 20
-146.6471964999322
 30
0.0
 10
122.7093380939158
 20
-146.6471964999322
 30
0.0
 10
122.6543026935389
 20
-146.6471964999322
 30
0.0
 10
122.6095003033456
 20
-146.6919988901255
 30
0.0
 10
122.6095003033456
 20
-146.7470289075407
 30
0.0
 10
122.6095003033456
 20
-146.8020643079175
 30
0.0
 10
122.6543026935389
 20
-146.8468666981109
 30
0.0
 10
122.7093380939158
 20
-146.8468666981109
 30
0.0
 10
122.7643681113309
 20
-146.8468666981109
 30
0.0
 10
122.809175884486
 20
-146.8020643079175
 30
0.0
 10
122.809175884486
 20
-146.7470289075407
 30
0.0
  0
SPLINE
  5
7A
330
1F
100
AcDbEntity
  8
_U+30EC_U+30A4_U+30E4_U+30FC 1
 62
   179
420
  2234388
370
     9
100
AcDbSpline
210
0.0
220
0.0
230
1.0
 70
    11
 71
     3
 72
    17
 73
    13
 74
     0
 42
0.0000000001
 43
0.0000000001
 12
1.0
 22
0.0
 32
0.0
 13
1.0
 23
0.0
 33
0.0
 40
0.0
 40
0.0
 40
0.0
 40
0.0
 40
1.0
 40
1.0
 40
1.0
 40
2.0
 40
2.0
 40
2.0
 40
3.0
 40
3.0
 40
3.0
 40
4.0
 40
4.0
 40
4.0
 40
4.0
 10
122.809175884486
 20
-145.7472891125296
 30
0.0
 10
122.809175884486
 20
-145.6915539271324
 30
0.0
 10
122.7643681113309
 20
-145.646751536939
 30
0.0
 10
122.7093380939158
 20
-145.646751536939
 30
0.0
 10
122.6543026935389
 20
-145.646751536939
 30
0.0
 10
122.6095003033456
 20
-145.6915539271324
 30
0.0
 10
122.6095003033456
 20
-145.7472891125296
 30
0.0
 10
122.6095003033456
 20
-145.8023245129065
 30
0.0
 10
122.6543026935389
 20
-145.8471269031002
 30
0.0
 10
122.7093380939158
 20
-145.8471269031002
 30
0.0
 10
122.7643681113309
 20
-145.8471269031002
 30
0.0
 10
122.809175884486
 20
-145.8023245129065
 30
0.0
 10
122.809175884486
 20
-145.7472891125296
 30
0.0
  0
SPLINE
  5
7B
330
1F
100
AcDbEntity
  8
_U+30EC_U+30A4_U+30E4_U+30FC 1
 62
   179
420
  2234388
370
     9
100
AcDbSpline
210
0.0
220
0.0
230
1.0
 70
    11
 71
     3
 72
    17
 73
    13
 74
     0
 42
0.0000000001
 43
0.0000000001
 12
1.0
 22
0.0
 32
0.0
 13
1.0
 23
0.0
 33
0.0
 40
0.0
 40
0.0
 40
0.0
 40
0.0
 40
1.0
 40
1.0
 40
1.0
 40
2.0
 40
2.0
 40
2.0
 40
3.0
 40
3.0
 40
3.0
 40
4.0
 40
4.0
 40
4.0
 40
4.0
 10
122.809175884486
 20
-152.9478724203269
 30
0.0
 10
122.809175884486
 20
-152.8928424029118
 30
0.0
 10
122.7643681113309
 20
-152.8480400127185
 30
0.0
 10
122.7093380939158
 20
-152.8480400127185
 30
0.0
 10
122.6543026935389
 20
-152.8480400127185
 30
0.0
 10
122.6095003033456
 20
-152.8928424029118
 30
0.0
 10
122.6095003033456
 20
-152.9478724203269
 30
0.0
 10
122.6095003033456
 20
-153.0029078207038
 30
0.0
 10
122.6543026935389
 20
-153.0477102108972
 30
0.0
 10
122.7093380939158
 20
-153.0477102108972
 30
0.0
 10
122.7643681113309
 20
-153.0477102108972
 30
0.0
 10
122.809175884486
 20
-153.0029078207038
 30
0.0
 10
122.809175884486
 20
-152.9478724203269
 30
0.0
  0
SPLINE
  5
7C
330
1F
100
AcDbEntity
  8
_U+30EC_U+30A4_U+30E4_U+30FC 1
 62
   179
420
  2234388
370
     9
100
AcDbSpline
210
0.0
220
0.0
230
1.0
 70
    11
 71
     3
 72
    17
 73
    13
 74
     0
 42
0.0000000001
 43
0.0000000001
 12
1.0
 22
0.0
 32
0.0
 13
1.0
 23
0.0
 33
0.0
 40
0.0
 40
0.0
 40
0.0
 40
0.0
 40
1.0
 40
1.0
 40
1.0
 40
2.0
 40
2.0
 40
2.0
 40
3.0
 40
3.0
 40
3.0
 40
4.0
 40
4.0
 40
4.0
 40
4.0
 10
98.80910389867148
 20
-157.9480732416952
 30
0.0
 10
98.80910389867148
 20
-157.89304322428
 30
0.0
 10
98.76429881699762
 20
-157.8482408340867
 30
0.0
 10
98.70891352411022
 20
-157.8482408340867
 30
0.0
 10
98.6538808152142
 20
-157.8482408340867
 30
0.0
 10
98.60907842502085
 20
-157.89304322428
 30
0.0
 10
98.60907842502085
 20
-157.9480732416952
 30
0.0
 10
98.60907842502085
 20
-158.003108642072
 30
0.0
 10
98.6538808152142
 20
-158.0479110322654
 30
0.0
 10
98.70891352411022
 20
-158.0479110322654
 30
0.0
 10
98.76429881699762
 20
-158.0479110322654
 30
0.0
 10
98.80910389867148
 20
-158.003108642072
 30
0.0
 10
98.80910389867148
 20
-157.9480732416952
 30
0.0
  0
SPLINE
  5
7D
330
1F
100
AcDbEntity
  8
_U+30EC_U+30A4_U+30E4_U+30FC 1
 62
   179
420
  2234388
370
     9
100
AcDbSpline
210
0.0
220
0.0
230
1.0
 70
    11
 71
     3
 72
    17
 73
    13
 74
     0
 42
0.0000000001
 43
0.0000000001
 12
1.0
 22
0.0
 32
0.0
 13
1.0
 23
0.0
 33
0.0
 40
0.0
 40
0.0
 40
0.0
 40
0.0
 40
1.0
 40
1.0
 40
1.0
 40
2.0
 40
2.0
 40
2.0
 40
3.0
 40
3.0
 40
3.0
 40
4.0
 40
4.0
 40
4.0
 40
4.0
 10
104.8089018665658
 20
-157.9480732416952
 30
0.0
 10
104.8089018665658
 20
-157.89304322428
 30
0.0
 10
104.7640940934108
 20
-157.8482408340867
 30
0.0
 10
104.7090640759956
 20
-157.8482408340867
 30
0.0
 10
104.6540286756187
 20
-157.8482408340867
 30
0.0
 10
104.6092262854254
 20
-157.89304322428
 30
0.0
 10
104.6092262854254
 20
-157.9480732416952
 30
0.0
 10
104.6092262854254
 20
-158.003108642072
 30
0.0
 10
104.6540286756187
 20
-158.0479110322654
 30
0.0
 10
104.7090640759956
 20
-158.0479110322654
 30
0.0
 10
104.7640940934108
 20
-158.0479110322654
 30
0.0
 10
104.8089018665658
 20
-158.003108642072
 30
0.0
 10
104.8089018665658
 20
-157.9480732416952
 30
0.0
  0
SPLINE
  5
7E
330
1F
100
AcDbEntity
  8
_U+30EC_U+30A4_U+30E4_U+30FC 1
 62
   179
420
  2234388
370
     9
100
AcDbSpline
210
0.0
220
0.0
230
1.0
 70
    11
 71
     3
 72
    17
 73
    13
 74
     0
 42
0.0000000001
 43
0.0000000001
 12
1.0
 22
0.0
 32
0.0
 13
1.0
 23
0.0
 33
0.0
 40
0.0
 40
0.0
 40
0.0
 40
0.0
 40
1.0
 40
1.0
 40
1.0
 40
2.0
 40
2.0
 40
2.0
 40
3.0
 40
3.0
 40
3.0
 40
4.0
 40
4.0
 40
4.0
 40
4.0
 10
86.81448451097053
 20
-157.9480732416952
 30
0.0
 10
86.81448451097053
 20
-157.89304322428
 30
0.0
 10
86.76967942929636
 20
-157.8482408340867
 30
0.0
 10
86.71464672040065
 20
-157.8482408340867
 30
0.0
 10
86.65961401150432
 20
-157.8482408340867
 30
0.0
 10
86.61481162131098
 20
-157.89304322428
 30
0.0
 10
86.61481162131098
 20
-157.9480732416952
 30
0.0
 10
86.61481162131098
 20
-158.003108642072
 30
0.0
 10
86.65961401150432
 20
-158.0479110322654
 30
0.0
 10
86.71464672040065
 20
-158.0479110322654
 30
0.0
 10
86.76967942929636
 20
-158.0479110322654
 30
0.0
 10
86.81448451097053
 20
-158.003108642072
 30
0.0
 10
86.81448451097053
 20
-157.9480732416952
 30
0.0
  0
POLYLINE
  5
7F
330
1F
100
AcDbEntity
  8
_U+30EC_U+30A4_U+30E4_U+30FC 1
 62
   179
420
  2234388
370
     9
100
AcDb2dPolyline
 66
     1
 10
0.0
 20
0.0
 30
0.0
  0
VERTEX
  5
80
330
7F
100
AcDbEntity
  8
_U+30EC_U+30A4_U+30E4_U+30FC 1
 62
   179
420
  2234388
370
     9
100
AcDbVertex
100
AcDb2dVertex
 10
122.7092681154137
 20
-145.7472891125296
 30
0.0
  0
VERTEX
  5
81
330
7F
100
AcDbEntity
  8
_U+30EC_U+30A4_U+30E4_U+30FC 1
 62
   179
420
  2234388
370
     9
100
AcDbVertex
100
AcDb2dVertex
 10
122.7092681154137
 20
-141.976804358698
 30
0.0
  0
SEQEND
  5
82
330
7F
100
AcDbEntity
  8
_U+30EC_U+30A4_U+30E4_U+30FC 1
 62
   179
420
  2234388
370
     9
  0
POLYLINE
  5
83
330
1F
100
AcDbEntity
  8
_U+30EC_U+30A4_U+30E4_U+30FC 1
 62
   179
420
  2234388
370
     9
100
AcDb2dPolyline
 66
     1
 10
0.0
 20
0.0
 30
0.0
  0
VERTEX
  5
84
330
83
100
AcDbEntity
  8
_U+30EC_U+30A4_U+30E4_U+30FC 1
 62
   179
420
  2234388
370
     9
100
AcDbVertex
100
AcDb2dVertex
 10
122.7092681154137
 20
-146.7470289075407
 30
0.0
  0
VERTEX
  5
85
330
83
100
AcDbEntity
  8
_U+30EC_U+30A4_U+30E4_U+30FC 1
 62
   179
420
  2234388
370
     9
100
AcDbVertex
100
AcDb2dVertex
 10
122.7092681154137
 20
-145.7472568147595
 30
0.0
  0
SEQEND
  5
86
330
83
100
AcDbEntity
  8
_U+30EC_U+30A4_U+30E4_U+30FC 1
 62
   179
420
  2234388
370
     9
  0
POLYLINE
  5
87
330
1F
100
AcDbEntity
  8
_U+30EC_U+30A4_U+30E4_U+30FC 1
 62
   179
420
  2234388
370
     9
100
AcDb2dPolyline
 66
     1
 10
0.0
 20
0.0
 30
0.0
  0
VERTEX
  5
88
330
87
100
AcDbEntity
  8
_U+30EC_U+30A4_U+30E4_U+30FC 1
 62
   179
420
  2234388
370
     9
100
AcDbVertex
100
AcDb2dVertex
 10
121.2492258828415
 20
-146.7470289075407
 30
0.0
  0
VERTEX
  5
89
330
87
100
AcDbEntity
  8
_U+30EC_U+30A4_U+30E4_U+30FC 1
 62
   179
420
  2234388
370
     9
100
AcDbVertex
100
AcDb2dVertex
 10
123.7091424844671
 20
-146.7470289075407
 30
0.0
  0
SEQEND
  5
8A
330
87
100
AcDbEntity
  8
_U+30EC_U+30A4_U+30E4_U+30FC 1
 62
   179
420
  2234388
370
     9
  0
POLYLINE
  5
8B
330
1F
100
AcDbEntity
  8
_U+30EC_U+30A4_U+30E4_U+30FC 1
 62
   179
420
  2234388
370
     9
100
AcDb2dPolyline
 66
     1
 10
0.0
 20
0.0
 30
0.0
  0
VERTEX
  5
8C
330
8B
100
AcDbEntity
  8
_U+30EC_U+30A4_U+30E4_U+30FC 1
 62
   179
420
  2234388
370
     9
100
AcDbVertex
100
AcDb2dVertex
 10
121.2492258828415
 20
-145.7472891125296
 30
0.0
  0
VERTEX
  5
8D
330
8B
100
AcDbEntity
  8
_U+30EC_U+30A4_U+30E4_U+30FC 1
 62
   179
420
  2234388
370
     9
100
AcDbVertex
100
AcDb2dVertex
 10
123.7091424844671
 20
-145.7472891125296
 30
0.0
  0
SEQEND
  5
8E
330
8B
100
AcDbEntity
  8
_U+30EC_U+30A4_U+30E4_U+30FC 1
 62
   179
420
  2234388
370
     9
  0
INSERT
  5
90
330
1F
100
AcDbEntity
  8
_U+30EC_U+30A4_U+30E4_U+30FC 1
100
AcDbBlockReference
  2
block 2
 10
0.0
 20
0.0
 30
0.0
  0
POLYLINE
  5
95
330
1F
100
AcDbEntity
  8
_U+30EC_U+30A4_U+30E4_U+30FC 1
 62
   179
420
  2234388
370
     9
100
AcDb2dPolyline
 66
     1
 10
0.0
 20
0.0
 30
0.0
  0
VERTEX
  5
96
330
95
100
AcDbEntity
  8
_U+30EC_U+30A4_U+30E4_U+30FC 1
 62
   179
420
  2234388
370
     9
100
AcDbVertex
100
AcDb2dVertex
 10
86.70872007957337
 20
-141.7468227032108
 30
0.0
  0
VERTEX
  5
97
330
95
100
AcDbEntity
  8
_U+30EC_U+30A4_U+30E4_U+30FC 1
 62
   179
420
  2234388
370
     9
100
AcDbVertex
100
AcDb2dVertex
 10
118.7088393868267
 20
-141.7468227032108
 30
0.0
  0
SEQEND
  5
98
330
95
100
AcDbEntity
  8
_U+30EC_U+30A4_U+30E4_U+30FC 1
 62
   179
420
  2234388
370
     9
  0
POLYLINE
  5
99
330
1F
100
AcDbEntity
  8
_U+30EC_U+30A4_U+30E4_U+30FC 1
 62
   179
420
  2234388
370
     9
100
AcDb2dPolyline
 66
     1
 10
0.0
 20
0.0
 30
0.0
  0
VERTEX
  5
9A
330
99
100
AcDbEntity
  8
_U+30EC_U+30A4_U+30E4_U+30FC 1
 62
   179
420
  2234388
370
     9
100
AcDbVertex
100
AcDb2dVertex
 10
86.6263822974759
 20
-143.206864935783
 30
0.0
  0
VERTEX
  5
9B
330
99
100
AcDbEntity
  8
_U+30EC_U+30A4_U+30E4_U+30FC 1
 62
   179
420
  2234388
370
     9
100
AcDbVertex
100
AcDb2dVertex
 10
86.6263822974759
 20
-140.7469483341573
 30
0.0
  0
SEQEND
  5
9C
330
99
100
AcDbEntity
  8
_U+30EC_U+30A4_U+30E4_U+30FC 1
 62
   179
420
  2234388
370
     9
  0
POLYLINE
  5
9D
330
1F
100
AcDbEntity
  8
_U+30EC_U+30A4_U+30E4_U+30FC 1
 62
   179
420
  2234388
370
     9
100
AcDb2dPolyline
 66
     1
 10
0.0
 20
0.0
 30
0.0
  0
VERTEX
  5
9E
330
9D
100
AcDbEntity
  8
_U+30EC_U+30A4_U+30E4_U+30FC 1
 62
   179
420
  2234388
370
     9
100
AcDbVertex
100
AcDb2dVertex
 10
118.7088393868267
 20
-143.206864935783
 30
0.0
  0
VERTEX
  5
9F
330
9D
100
AcDbEntity
  8
_U+30EC_U+30A4_U+30E4_U+30FC 1
 62
   179
420
  2234388
370
     9
100
AcDbVertex
100
AcDb2dVertex
 10
118.7088393868267
 20
-140.7469483341573
 30
0.0
  0
SEQEND
  5
A0
330
9D
100
AcDbEntity
  8
_U+30EC_U+30A4_U+30E4_U+30FC 1
 62
   179
420
  2234388
370
     9
  0
INSERT
  5
A2
330
1F
100
AcDbEntity
  8
_U+30EC_U+30A4_U+30E4_U+30FC 1
100
AcDbBlockReference
  2
block 3
 10
0.0
 20
0.0
 30
0.0
  0
POLYLINE
  5
A9
330
1F
100
AcDbEntity
  8
_U+30EC_U+30A4_U+30E4_U+30FC 1
 62
   179
420
  2234388
370
     9
100
AcDb2dPolyline
 66
     1
 10
0.0
 20
0.0
 30
0.0
  0
VERTEX
  5
AA
330
A9
100
AcDbEntity
  8
_U+30EC_U+30A4_U+30E4_U+30FC 1
 62
   179
420
  2234388
370
     9
100
AcDbVertex
100
AcDb2dVertex
 10
98.70884623708902
 20
-157.9480732416952
 30
0.0
  0
VERTEX
  5
AB
330
A9
100
AcDbEntity
  8
_U+30EC_U+30A4_U+30E4_U+30FC 1
 62
   179
420
  2234388
370
     9
100
AcDbVertex
100
AcDb2dVertex
 10
86.7091103442963
 20
-157.9480732416952
 30
0.0
  0
SEQEND
  5
AC
330
A9
100
AcDbEntity
  8
_U+30EC_U+30A4_U+30E4_U+30FC 1
 62
   179
420
  2234388
370
     9
  0
POLYLINE
  5
AD
330
1F
100
AcDbEntity
  8
_U+30EC_U+30A4_U+30E4_U+30FC 1
 62
   179
420
  2234388
370
     9
100
AcDb2dPolyline
 66
     1
 10
0.0
 20
0.0
 30
0.0
  0
VERTEX
  5
AE
330
AD
100
AcDbEntity
  8
_U+30EC_U+30A4_U+30E4_U+30FC 1
 62
   179
420
  2234388
370
     9
100
AcDbVertex
100
AcDb2dVertex
 10
98.70884623708902
 20
-156.4880310091229
 30
0.0
  0
VERTEX
  5
AF
330
AD
100
AcDbEntity
  8
_U+30EC_U+30A4_U+30E4_U+30FC 1
 62
   179
420
  2234388
370
     9
100
AcDbVertex
100
AcDb2dVertex
 10
98.70884623708902
 20
-158.9479529937103
 30
0.0
  0
SEQEND
  5
B0
330
AD
100
AcDbEntity
  8
_U+30EC_U+30A4_U+30E4_U+30FC 1
 62
   179
420
  2234388
370
     9
  0
POLYLINE
  5
B1
330
1F
100
AcDbEntity
  8
_U+30EC_U+30A4_U+30E4_U+30FC 1
 62
   179
420
  2234388
370
     9
100
AcDb2dPolyline
 66
     1
 10
0.0
 20
0.0
 30
0.0
  0
VERTEX
  5
B2
330
B1
100
AcDbEntity
  8
_U+30EC_U+30A4_U+30E4_U+30FC 1
 62
   179
420
  2234388
370
     9
100
AcDbVertex
100
AcDb2dVertex
 10
86.71457674189828
 20
-149.2870978088154
 30
0.0
  0
VERTEX
  5
B3
330
B1
100
AcDbEntity
  8
_U+30EC_U+30A4_U+30E4_U+30FC 1
 62
   179
420
  2234388
370
     9
100
AcDbVertex
100
AcDb2dVertex
 10
86.71457674189828
 20
-158.9479206959401
 30
0.0
  0
SEQEND
  5
B4
330
B1
100
AcDbEntity
  8
_U+30EC_U+30A4_U+30E4_U+30FC 1
 62
   179
420
  2234388
370
     9
  0
INSERT
  5
B6
330
1F
100
AcDbEntity
  8
_U+30EC_U+30A4_U+30E4_U+30FC 1
100
AcDbBlockReference
  2
block 4
 10
0.0
 20
0.0
 30
0.0
  0
POLYLINE
  5
BD
330
1F
100
AcDbEntity
  8
_U+30EC_U+30A4_U+30E4_U+30FC 1
 62
   179
420
  2234388
370
     9
100
AcDb2dPolyline
 66
     1
 10
0.0
 20
0.0
 30
0.0
  0
VERTEX
  5
BE
330
BD
100
AcDbEntity
  8
_U+30EC_U+30A4_U+30E4_U+30FC 1
 62
   179
420
  2234388
370
     9
100
AcDbVertex
100
AcDb2dVertex
 10
98.70884623708902
 20
-157.9480732416952
 30
0.0
  0
VERTEX
  5
BF
330
BD
100
AcDbEntity
  8
_U+30EC_U+30A4_U+30E4_U+30FC 1
 62
   179
420
  2234388
370
     9
100
AcDbVertex
100
AcDb2dVertex
 10
104.7088864382596
 20
-157.9480732416952
 30
0.0
  0
SEQEND
  5
C0
330
BD
100
AcDbEntity
  8
_U+30EC_U+30A4_U+30E4_U+30FC 1
 62
   179
420
  2234388
370
     9
  0
POLYLINE
  5
C1
330
1F
100
AcDbEntity
  8
_U+30EC_U+30A4_U+30E4_U+30FC 1
 62
   179
420
  2234388
370
     9
100
AcDb2dPolyline
 66
     1
 10
0.0
 20
0.0
 30
0.0
  0
VERTEX
  5
C2
330
C1
100
AcDbEntity
  8
_U+30EC_U+30A4_U+30E4_U+30FC 1
 62
   179
420
  2234388
370
     9
100
AcDbVertex
100
AcDb2dVertex
 10
98.70884623708902
 20
-156.4880310091229
 30
0.0
  0
VERTEX
  5
C3
330
C1
100
AcDbEntity
  8
_U+30EC_U+30A4_U+30E4_U+30FC 1
 62
   179
420
  2234388
370
     9
100
AcDbVertex
100
AcDb2dVertex
 10
98.70884623708902
 20
-158.9479529937103
 30
0.0
  0
SEQEND
  5
C4
330
C1
100
AcDbEntity
  8
_U+30EC_U+30A4_U+30E4_U+30FC 1
 62
   179
420
  2234388
370
     9
  0
POLYLINE
  5
C5
330
1F
100
AcDbEntity
  8
_U+30EC_U+30A4_U+30E4_U+30FC 1
 62
   179
420
  2234388
370
     9
100
AcDb2dPolyline
 66
     1
 10
0.0
 20
0.0
 30
0.0
  0
VERTEX
  5
C6
330
C5
100
AcDbEntity
  8
_U+30EC_U+30A4_U+30E4_U+30FC 1
 62
   179
420
  2234388
370
     9
100
AcDbVertex
100
AcDb2dVertex
 10
104.7089940974935
 20
-156.4880310091229
 30
0.0
  0
VERTEX
  5
C7
330
C5
100
AcDbEntity
  8
_U+30EC_U+30A4_U+30E4_U+30FC 1
 62
   179
420
  2234388
370
     9
100
AcDbVertex
100
AcDb2dVertex
 10
104.7089940974935
 20
-158.9479529937103
 30
0.0
  0
SEQEND
  5
C8
330
C5
100
AcDbEntity
  8
_U+30EC_U+30A4_U+30E4_U+30FC 1
 62
   179
420
  2234388
370
     9
  0
INSERT
  5
CA
330
1F
100
AcDbEntity
  8
_U+30EC_U+30A4_U+30E4_U+30FC 1
100
AcDbBlockReference
  2
block 5
 10
0.0
 20
0.0
 30
0.0
  0
POLYLINE
  5
D0
330
1F
100
AcDbEntity
  8
_U+30EC_U+30A4_U+30E4_U+30FC 1
 62
   179
420
  2234388
370
     9
100
AcDb2dPolyline
 66
     1
 10
0.0
 20
0.0
 30
0.0
  0
VERTEX
  5
D1
330
D0
100
AcDbEntity
  8
_U+30EC_U+30A4_U+30E4_U+30FC 1
 62
   179
420
  2234388
370
     9
100
AcDbVertex
100
AcDb2dVertex
 10
122.7092681154137
 20
-152.9478724203269
 30
0.0
  0
VERTEX
  5
D2
330
D0
100
AcDbEntity
  8
_U+30EC_U+30A4_U+30E4_U+30FC 1
 62
   179
420
  2234388
370
     9
100
AcDbVertex
100
AcDb2dVertex
 10
122.7092681154137
 20
-146.7470988860427
 30
0.0
  0
SEQEND
  5
D3
330
D0
100
AcDbEntity
  8
_U+30EC_U+30A4_U+30E4_U+30FC 1
 62
   179
420
  2234388
370
     9
  0
POLYLINE
  5
D4
330
1F
100
AcDbEntity
  8
_U+30EC_U+30A4_U+30E4_U+30FC 1
 62
   179
420
  2234388
370
     9
100
AcDb2dPolyline
 66
     1
 10
0.0
 20
0.0
 30
0.0
  0
VERTEX
  5
D5
330
D4
100
AcDbEntity
  8
_U+30EC_U+30A4_U+30E4_U+30FC 1
 62
   179
420
  2234388
370
     9
100
AcDbVertex
100
AcDb2dVertex
 10
107.248713106258
 20
-152.9478724203269
 30
0.0
  0
VERTEX
  5
D6
330
D4
100
AcDbEntity
  8
_U+30EC_U+30A4_U+30E4_U+30FC 1
 62
   179
420
  2234388
370
     9
100
AcDbVertex
100
AcDb2dVertex
 10
123.7089702296929
 20
-152.9478724203269
 30
0.0
  0
SEQEND
  5
D7
330
D4
100
AcDbEntity
  8
_U+30EC_U+30A4_U+30E4_U+30FC 1
 62
   179
420
  2234388
370
     9
  0
INSERT
  5
D9
330
1F
100
AcDbEntity
  8
_U+30EC_U+30A4_U+30E4_U+30FC 1
100
AcDbBlockReference
  2
block 6
 10
0.0
 20
0.0
 30
0.0
  0
ENDSEC
  0
SECTION
  2
OBJECTS
  0
DICTIONARY
  5
C
330
0
100
AcDbDictionary
281
     1
  3
ACAD_GROUP
350
D
  3
ACAD_LAYOUT
350
1A
  3
ACAD_MATERIAL
350
3B
  3
ACAD_MLEADERSTYLE
350
EA
  3
ACAD_MLINESTYLE
350
17
  3
ACAD_PLOTSETTINGS
350
19
  3
ACAD_PLOTSTYLENAME
350
E
  3
ACAD_TABLESTYLE
350
E9
  3
ACAD_VISUALSTYLE
350
2A
  0
SUN
  5
3F
330
29
100
AcDbSun
 90
        1
290
     0
 63
     7
421
 16777215
 40
1.0
291
     1
 91
  2455826
 92
 54000000
292
     0
 70
     2
 71
   256
280
     1
  0
DICTIONARY
  5
D
102
{ACAD_REACTORS
330
C
102
}
330
C
100
AcDbDictionary
281
     1
  0
DICTIONARY
  5
1A
102
{ACAD_REACTORS
330
C
102
}
330
C
100
AcDbDictionary
281
     1
  3
Layout1
350
1E
  3
Layout2
350
26
  3
Model
350
22
  0
DICTIONARY
  5
3B
102
{ACAD_REACTORS
330
C
102
}
330
C
100
AcDbDictionary
281
     1
  3
ByBlock
350
3D
  3
ByLayer
350
3C
  3
Global
350
3E
  0
DICTIONARY
  5
EA
102
{ACAD_REACTORS
330
C
102
}
330
C
100
AcDbDictionary
281
     1
  0
DICTIONARY
  5
17
102
{ACAD_REACTORS
330
C
102
}
330
C
100
AcDbDictionary
281
     1
  3
Standard
350
18
  0
DICTIONARY
  5
19
102
{ACAD_REACTORS
330
C
102
}
330
C
100
AcDbDictionary
281
     1
  0
ACDBDICTIONARYWDFLT
  5
E
102
{ACAD_REACTORS
330
C
102
}
330
C
100
AcDbDictionary
281
     1
  3
Normal
350
F
100
AcDbDictionaryWithDefault
340
F
  0
DICTIONARY
  5
E9
102
{ACAD_REACTORS
330
C
102
}
330
C
100
AcDbDictionary
281
     1
  0
DICTIONARY
  5
2A
102
{ACAD_REACTORS
330
C
102
}
330
C
100
AcDbDictionary
281
     1
  3
2dWireframe
350
2F
  3
3D Hidden
350
31
  3
3dWireframe
350
30
  3
Basic
350
32
  3
Brighten
350
36
  3
ColorChange
350
3A
  3
Conceptual
350
34
  3
Dim
350
35
  3
Facepattern
350
39
  3
Flat
350
2B
  3
FlatWithEdges
350
2C
  3
Gouraud
350
2D
  3
GouraudWithEdges
350
2E
  3
Linepattern
350
38
  3
Realistic
350
33
  3
Thicken
350
37
  0
LAYOUT
  5
1E
102
{ACAD_REACTORS
330
1A
102
}
330
1A
100
AcDbPlotSettings
  1

  2
none_device
  4

  6

 40
0.0
 41
0.0
 42
0.0
 43
0.0
 44
0.0
 45
0.0
 46
0.0
 47
0.0
 48
0.0
 49
0.0
140
0.0
141
0.0
142
1.0
143
1.0
 70
   688
 72
     0
 73
     0
 74
     5
  7

 75
    16
 76
     0
 77
     2
 78
   300
147
1.0
148
0.0
149
0.0
100
AcDbLayout
  1
Layout1
 70
     1
 71
     1
 10
0.0
 20
0.0
 11
12.0
 21
9.0
 12
0.0
 22
0.0
 32
0.0
 14
1.000000000000000E+20
 24
1.000000000000000E+20
 34
1.000000000000000E+20
 15
-1.000000000000000E+20
 25
-1.000000000000000E+20
 35
-1.000000000000000E+20
146
0.0
 13
0.0
 23
0.0
 33
0.0
 16
1.0
 26
0.0
 36
0.0
 17
0.0
 27
1.0
 37
0.0
 76
     0
330
1B
  0
LAYOUT
  5
26
102
{ACAD_REACTORS
330
1A
102
}
330
1A
100
AcDbPlotSettings
  1

  2
none_device
  4

  6

 40
0.0
 41
0.0
 42
0.0
 43
0.0
 44
0.0
 45
0.0
 46
0.0
 47
0.0
 48
0.0
 49
0.0
140
0.0
141
0.0
142
1.0
143
1.0
 70
   688
 72
     0
 73
     0
 74
     5
  7

 75
    16
 76
     0
 77
     2
 78
   300
147
1.0
148
0.0
149
0.0
100
AcDbLayout
  1
Layout2
 70
     1
 71
     2
 10
0.0
 20
0.0
 11
0.0
 21
0.0
 12
0.0
 22
0.0
 32
0.0
 14
0.0
 24
0.0
 34
0.0
 15
0.0
 25
0.0
 35
0.0
146
0.0
 13
0.0
 23
0.0
 33
0.0
 16
1.0
 26
0.0
 36
0.0
 17
0.0
 27
1.0
 37
0.0
 76
     0
330
23
  0
LAYOUT
  5
22
102
{ACAD_REACTORS
330
1A
102
}
330
1A
100
AcDbPlotSettings
  1

  2
none_device
  4

  6

 40
0.0
 41
0.0
 42
0.0
 43
0.0
 44
0.0
 45
0.0
 46
0.0
 47
0.0
 48
0.0
 49
0.0
140
0.0
141
0.0
142
1.0
143
1.0
 70
  1712
 72
     0
 73
     0
 74
     0
  7

 75
     0
 76
     0
 77
     2
 78
   300
147
1.0
148
0.0
149
0.0
100
AcDbLayout
  1
Model
 70
     1
 71
     0
 10
0.0
 20
0.0
 11
12.0
 21
9.0
 12
0.0
 22
0.0
 32
0.0
 14
1.000000000000000E+20
 24
1.000000000000000E+20
 34
1.000000000000000E+20
 15
-1.000000000000000E+20
 25
-1.000000000000000E+20
 35
-1.000000000000000E+20
146
0.0
 13
0.0
 23
0.0
 33
0.0
 16
1.0
 26
0.0
 36
0.0
 17
0.0
 27
1.0
 37
0.0
 76
     0
330
1F
331
29
  0
MATERIAL
  5
3D
102
{ACAD_REACTORS
330
3B
102
}
330
3B
100
AcDbMaterial
  1
ByBlock
 72
     1
 94
      127
  0
MATERIAL
  5
3C
102
{ACAD_REACTORS
330
3B
102
}
330
3B
100
AcDbMaterial
  1
ByLayer
 72
     1
 94
      127
  0
MATERIAL
  5
3E
102
{ACAD_REACTORS
330
3B
102
}
330
3B
100
AcDbMaterial
  1
Global
 72
     1
 94
      127
  0
MLINESTYLE
  5
18
102
{ACAD_REACTORS
330
17
102
}
330
17
100
AcDbMlineStyle
  2
Standard
 70
     0
  3

 62
   256
 51
90.0
 52
90.0
 71
     2
 49
0.5
 62
   256
  6
BYLAYER
 49
-0.5
 62
   256
  6
BYLAYER
  0
ACDBPLACEHOLDER
  5
F
102
{ACAD_REACTORS
330
E
102
}
330
E
  0
VISUALSTYLE
  5
2F
102
{ACAD_REACTORS
330
2A
102
}
330
2A
100
AcDbVisualStyle
  2
2dWireframe
 70
     4
177
     2
291
     0
 71
     0
176
     1
 72
     2
176
     1
 73
     0
176
     1
 90
        0
176
     1
 40
-0.6
176
     1
 41
-30.0
176
     1
 62
     5
 63
     7
421
 16777215
176
     1
 74
     1
176
     1
 91
        4
176
     1
 64
     7
176
     1
 65
   257
176
     1
 75
     1
176
     1
175
     1
176
     1
 42
1.0
176
     1
 92
        0
176
     1
 66
   257
176
     1
 43
1.0
176
     1
 76
     1
176
     1
 77
     6
176
     1
 78
     2
176
     1
 67
     7
176
     1
 79
     5
176
     1
170
     0
176
     1
171
     0
176
     1
290
     0
176
     1
 93
        1
176
     1
 44
0.0
176
     1
173
     0
176
     1
  0
VISUALSTYLE
  5
31
102
{ACAD_REACTORS
330
2A
102
}
330
2A
100
AcDbVisualStyle
  2
3D Hidden
 70
     6
177
     2
291
     0
 71
     1
176
     1
 72
     2
176
     1
 73
     2
176
     1
 90
        0
176
     1
 40
-0.6
176
     1
 41
-30.0
176
     1
 62
     5
 63
     7
421
 16777215
176
     1
 74
     2
176
     1
 91
        2
176
     1
 64
     7
176
     1
 65
   257
176
     1
 75
     2
176
     1
175
     1
176
     1
 42
40.0
176
     1
 92
        0
176
     1
 66
   257
176
     1
 43
1.0
176
     1
 76
     1
176
     1
 77
     6
176
     1
 78
     2
176
     1
 67
     7
176
     1
 79
     3
176
     1
170
     0
176
     1
171
     0
176
     1
290
     0
176
     1
 93
        1
176
     1
 44
0.0
176
     1
173
     0
176
     1
  0
VISUALSTYLE
  5
30
102
{ACAD_REACTORS
330
2A
102
}
330
2A
100
AcDbVisualStyle
  2
3dWireframe
 70
     5
177
     2
291
     0
 71
     0
176
     1
 72
     2
176
     1
 73
     0
176
     1
 90
        0
176
     1
 40
-0.6
176
     1
 41
-30.0
176
     1
 62
     5
 63
     7
421
 16777215
176
     1
 74
     1
176
     1
 91
        4
176
     1
 64
     7
176
     1
 65
   257
176
     1
 75
     1
176
     1
175
     1
176
     1
 42
1.0
176
     1
 92
        0
176
     1
 66
   257
176
     1
 43
1.0
176
     1
 76
     1
176
     1
 77
     6
176
     1
 78
     2
176
     1
 67
     7
176
     1
 79
     5
176
     1
170
     0
176
     1
171
     0
176
     1
290
     0
176
     1
 93
        1
176
     1
 44
0.0
176
     1
173
     0
176
     1
  0
VISUALSTYLE
  5
32
102
{ACAD_REACTORS
330
2A
102
}
330
2A
100
AcDbVisualStyle
  2
Basic
 70
     7
177
     2
291
     1
 71
     1
176
     1
 72
     0
176
     1
 73
     1
176
     1
 90
        0
176
     1
 40
-0.6
176
     1
 41
-30.0
176
     1
 62
     5
 63
     7
421
 16777215
176
     1
 74
     0
176
     1
 91
        4
176
     1
 64
     7
176
     1
 65
   257
176
     1
 75
     1
176
     1
175
     1
176
     1
 42
1.0
176
     1
 92
        8
176
     1
 66
     7
176
     1
 43
1.0
176
     1
 76
     1
176
     1
 77
     6
176
     1
 78
     2
176
     1
 67
     7
176
     1
 79
     5
176
     1
170
     0
176
     1
171
     0
176
     1
290
     0
176
     1
 93
        1
176
     1
 44
0.0
176
     1
173
     0
176
     1
  0
VISUALSTYLE
  5
36
102
{ACAD_REACTORS
330
2A
102
}
330
2A
100
AcDbVisualStyle
  2
Brighten
 70
    12
177
     2
291
     1
 71
     2
176
     1
 72
     2
176
     1
 73
     0
176
     1
 90
        0
176
     1
 40
-0.6
176
     1
 41
-30.0
176
     1
 62
     5
 63
     7
421
 16777215
176
     1
 74
     1
176
     1
 91
        4
176
     1
 64
     7
176
     1
 65
   257
176
     1
 75
     1
176
     1
175
     1
176
     1
 42
1.0
176
     1
 92
        8
176
     1
 66
     7
176
     1
 43
1.0
176
     1
 76
     1
176
     1
 77
     6
176
     1
 78
     2
176
     1
 67
     7
176
     1
 79
     5
176
     1
170
     0
176
     1
171
     0
176
     1
290
     0
176
     1
 93
        1
176
     1
 44
50.0
176
     1
173
     0
176
     1
  0
VISUALSTYLE
  5
3A
102
{ACAD_REACTORS
330
2A
102
}
330
2A
100
AcDbVisualStyle
  2
ColorChange
 70
    16
177
     2
291
     1
 71
     2
176
     1
 72
     2
176
     1
 73
     3
176
     1
 90
        0
176
     1
 40
-0.6
176
     1
 41
-30.0
176
     1
 62
     5
 63
     8
421
  8421504
176
     1
 74
     1
176
     1
 91
        4
176
     1
 64
     7
176
     1
 65
   257
176
     1
 75
     1
176
     1
175
     1
176
     1
 42
1.0
176
     1
 92
        8
176
     1
 66
     8
424
  8421504
176
     1
 43
1.0
176
     1
 76
     1
176
     1
 77
     6
176
     1
 78
     2
176
     1
 67
     7
176
     1
 79
     5
176
     1
170
     0
176
     1
171
     0
176
     1
290
     0
176
     1
 93
        1
176
     1
 44
0.0
176
     1
173
     0
176
     1
  0
VISUALSTYLE
  5
34
102
{ACAD_REACTORS
330
2A
102
}
330
2A
100
AcDbVisualStyle
  2
Conceptual
 70
     9
177
     2
291
     0
 71
     3
176
     1
 72
     2
176
     1
 73
     0
176
     1
 90
        0
176
     1
 40
-0.6
176
     1
 41
-30.0
176
     1
 62
     5
 63
     7
421
 16777215
176
     1
 74
     2
176
     1
 91
        2
176
     1
 64
     7
176
     1
 65
   257
176
     1
 75
     1
176
     1
175
     1
176
     1
 42
40.0
176
     1
 92
        8
176
     1
 66
     7
176
     1
 43
1.0
176
     1
 76
     1
176
     1
 77
     6
176
     1
 78
     2
176
     1
 67
     7
176
     1
 79
     3
176
     1
170
     0
176
     1
171
     0
176
     1
290
     0
176
     1
 93
        1
176
     1
 44
0.0
176
     1
173
     0
176
     1
  0
VISUALSTYLE
  5
35
102
{ACAD_REACTORS
330
2A
102
}
330
2A
100
AcDbVisualStyle
  2
Dim
 70
    11
177
     2
291
     1
 71
     2
176
     1
 72
     2
176
     1
 73
     0
176
     1
 90
        0
176
     1
 40
-0.6
176
     1
 41
-30.0
176
     1
 62
     5
 63
     7
421
 16777215
176
     1
 74
     1
176
     1
 91
        4
176
     1
 64
     7
176
     1
 65
   257
176
     1
 75
     1
176
     1
175
     1
176
     1
 42
1.0
176
     1
 92
        8
176
     1
 66
     7
176
     1
 43
1.0
176
     1
 76
     1
176
     1
 77
     6
176
     1
 78
     2
176
     1
 67
     7
176
     1
 79
     5
176
     1
170
     0
176
     1
171
     0
176
     1
290
     0
176
     1
 93
        1
176
     1
 44
-50.0
176
     1
173
     0
176
     1
  0
VISUALSTYLE
  5
39
102
{ACAD_REACTORS
330
2A
102
}
330
2A
100
AcDbVisualStyle
  2
Facepattern
 70
    15
177
     2
291
     1
 71
     2
176
     1
 72
     2
176
     1
 73
     0
176
     1
 90
        0
176
     1
 40
-0.6
176
     1
 41
-30.0
176
     1
 62
     5
 63
     7
421
 16777215
176
     1
 74
     1
176
     1
 91
        4
176
     1
 64
     7
176
     1
 65
   257
176
     1
 75
     1
176
     1
175
     1
176
     1
 42
1.0
176
     1
 92
        8
176
     1
 66
     7
176
     1
 43
1.0
176
     1
 76
     1
176
     1
 77
     6
176
     1
 78
     2
176
     1
 67
     7
176
     1
 79
     5
176
     1
170
     0
176
     1
171
     0
176
     1
290
     0
176
     1
 93
        1
176
     1
 44
0.0
176
     1
173
     0
176
     1
  0
VISUALSTYLE
  5
2B
102
{ACAD_REACTORS
330
2A
102
}
330
2A
100
AcDbVisualStyle
  2
Flat
 70
     0
177
     2
291
     1
 71
     2
176
     1
 72
     1
176
     1
 73
     1
176
     1
 90
        2
176
     1
 40
-0.6
176
     1
 41
30.0
176
     1
 62
     5
 63
     7
421
 16777215
176
     1
 74
     0
176
     1
 91
        4
176
     1
 64
     7
176
     1
 65
   257
176
     1
 75
     1
176
     1
175
     1
176
     1
 42
1.0
176
     1
 92
        8
176
     1
 66
     7
176
     1
 43
1.0
176
     1
 76
     1
176
     1
 77
     6
176
     1
 78
     2
176
     1
 67
     7
176
     1
 79
     5
176
     1
170
     0
176
     1
171
     0
176
     1
290
     0
176
     1
 93
       13
176
     1
 44
0.0
176
     1
173
     0
176
     1
  0
VISUALSTYLE
  5
2C
102
{ACAD_REACTORS
330
2A
102
}
330
2A
100
AcDbVisualStyle
  2
FlatWithEdges
 70
     1
177
     2
291
     1
 71
     2
176
     1
 72
     1
176
     1
 73
     1
176
     1
 90
        2
176
     1
 40
-0.6
176
     1
 41
30.0
176
     1
 62
     5
 63
     7
421
 16777215
176
     1
 74
     1
176
     1
 91
        4
176
     1
 64
     7
176
     1
 65
   257
176
     1
 75
     1
176
     1
175
     1
176
     1
 42
1.0
176
     1
 92
        0
176
     1
 66
   257
176
     1
 43
1.0
176
     1
 76
     1
176
     1
 77
     6
176
     1
 78
     2
176
     1
 67
     7
176
     1
 79
     5
176
     1
170
     0
176
     1
171
     0
176
     1
290
     0
176
     1
 93
       13
176
     1
 44
0.0
176
     1
173
     0
176
     1
  0
VISUALSTYLE
  5
2D
102
{ACAD_REACTORS
330
2A
102
}
330
2A
100
AcDbVisualStyle
  2
Gouraud
 70
     2
177
     2
291
     1
 71
     2
176
     1
 72
     2
176
     1
 73
     1
176
     1
 90
        2
176
     1
 40
-0.6
176
     1
 41
30.0
176
     1
 62
     5
 63
     7
421
 16777215
176
     1
 74
     0
176
     1
 91
        4
176
     1
 64
     7
176
     1
 65
   257
176
     1
 75
     1
176
     1
175
     1
176
     1
 42
1.0
176
     1
 92
        0
176
     1
 66
     7
176
     1
 43
1.0
176
     1
 76
     1
176
     1
 77
     6
176
     1
 78
     2
176
     1
 67
     7
176
     1
 79
     5
176
     1
170
     0
176
     1
171
     0
176
     1
290
     0
176
     1
 93
       13
176
     1
 44
0.0
176
     1
173
     0
176
     1
  0
VISUALSTYLE
  5
2E
102
{ACAD_REACTORS
330
2A
102
}
330
2A
100
AcDbVisualStyle
  2
GouraudWithEdges
 70
     3
177
     2
291
     1
 71
     2
176
     1
 72
     2
176
     1
 73
     1
176
     1
 90
        2
176
     1
 40
-0.6
176
     1
 41
30.0
176
     1
 62
     5
 63
     7
421
 16777215
176
     1
 74
     1
176
     1
 91
        4
176
     1
 64
     7
176
     1
 65
   257
176
     1
 75
     1
176
     1
175
     1
176
     1
 42
1.0
176
     1
 92
        0
176
     1
 66
   257
176
     1
 43
1.0
176
     1
 76
     1
176
     1
 77
     6
176
     1
 78
     2
176
     1
 67
     7
176
     1
 79
     5
176
     1
170
     0
176
     1
171
     0
176
     1
290
     0
176
     1
 93
       13
176
     1
 44
0.0
176
     1
173
     0
176
     1
  0
VISUALSTYLE
  5
38
102
{ACAD_REACTORS
330
2A
102
}
330
2A
100
AcDbVisualStyle
  2
Linepattern
 70
    14
177
     2
291
     1
 71
     2
176
     1
 72
     2
176
     1
 73
     0
176
     1
 90
        0
176
     1
 40
-0.6
176
     1
 41
-30.0
176
     1
 62
     5
 63
     7
421
 16777215
176
     1
 74
     1
176
     1
 91
        4
176
     1
 64
     7
176
     1
 65
   257
176
     1
 75
     7
176
     1
175
     7
176
     1
 42
1.0
176
     1
 92
        8
176
     1
 66
     7
176
     1
 43
1.0
176
     1
 76
     1
176
     1
 77
     6
176
     1
 78
     2
176
     1
 67
     7
176
     1
 79
     5
176
     1
170
     0
176
     1
171
     0
176
     1
290
     0
176
     1
 93
        1
176
     1
 44
0.0
176
     1
173
     0
176
     1
  0
VISUALSTYLE
  5
33
102
{ACAD_REACTORS
330
2A
102
}
330
2A
100
AcDbVisualStyle
  2
Realistic
 70
     8
177
     2
291
     0
 71
     2
176
     1
 72
     2
176
     1
 73
     0
176
     1
 90
        0
176
     1
 40
-0.6
176
     1
 41
-30.0
176
     1
 62
     5
 63
     7
421
 16777215
176
     1
 74
     1
176
     1
 91
        0
176
     1
 64
     7
176
     1
 65
   257
176
     1
 75
     1
176
     1
175
     1
176
     1
 42
1.0
176
     1
 92
        8
176
     1
 66
     8
424
  7895160
176
     1
 43
1.0
176
     1
 76
     1
176
     1
 77
     6
176
     1
 78
     2
176
     1
 67
     7
176
     1
 79
     5
176
     1
170
     0
176
     1
171
     0
176
     1
290
     0
176
     1
 93
       13
176
     1
 44
0.0
176
     1
173
     0
176
     1
  0
VISUALSTYLE
  5
37
102
{ACAD_REACTORS
330
2A
102
}
330
2A
100
AcDbVisualStyle
  2
Thicken
 70
    13
177
     2
291
     1
 71
     2
176
     1
 72
     2
176
     1
 73
     0
176
     1
 90
        0
176
     1
 40
-0.6
176
     1
 41
-30.0
176
     1
 62
     5
 63
     7
421
 16777215
176
     1
 74
     1
176
     1
 91
        4
176
     1
 64
     7
176
     1
 65
   257
176
     1
 75
     1
176
     1
175
     1
176
     1
 42
1.0
176
     1
 92
       12
176
     1
 66
     7
176
     1
 43
1.0
176
     1
 76
     1
176
     1
 77
     6
176
     1
 78
     2
176
     1
 67
     7
176
     1
 79
     5
176
     1
170
     0
176
     1
171
     0
176
     1
290
     0
176
     1
 93
        1
176
     1
 44
0.0
176
     1
173
     0
176
     1
  0
ENDSEC
  0
EOF
