  0
SECTION
  2
HEADER
  9
$ACADVER
  1
AC1024
  9
$ACADMAINTVER
 70
     6
  9
$DWGCODEPAGE
  3
UNDEFINED
  9
$INSBASE
 10
0.0
 20
0.0
 30
0.0
  9
$EXTMIN
 10
1.000000000000000E+20
 20
1.000000000000000E+20
 30
1.000000000000000E+20
  9
$EXTMAX
 10
-1.000000000000000E+20
 20
-1.000000000000000E+20
 30
-1.000000000000000E+20
  9
$LIMMIN
 10
0.0
 20
0.0
  9
$LIMMAX
 10
12.0
 20
9.0
  9
$ORTHOMODE
 70
     0
  9
$REGENMODE
 70
     1
  9
$FILLMODE
 70
     1
  9
$QTEXTMODE
 70
     0
  9
$MIRRTEXT
 70
     1
  9
$LTSCALE
 40
1.0
  9
$ATTMODE
 70
     1
  9
$TEXTSIZE
 40
0.2
  9
$TRACEWID
 40
0.05
  9
$TEXTSTYLE
  7
Standard
  9
$CLAYER
  8
0
  9
$CELTYPE
  6
ByLayer
  9
$CECOLOR
 62
   256
  9
$CELTSCALE
 40
1.0
  9
$DISPSILH
 70
     0
  9
$DIMSCALE
 40
1.0
  9
$DIMASZ
 40
0.18
  9
$DIMEXO
 40
0.0625
  9
$DIMDLI
 40
0.38
  9
$DIMRND
 40
0.0
  9
$DIMDLE
 40
0.0
  9
$DIMEXE
 40
0.18
  9
$DIMTP
 40
0.0
  9
$DIMTM
 40
0.0
  9
$DIMTXT
 40
0.18
  9
$DIMCEN
 40
0.09
  9
$DIMTSZ
 40
0.0
  9
$DIMTOL
 70
     0
  9
$DIMLIM
 70
     0
  9
$DIMTIH
 70
     1
  9
$DIMTOH
 70
     1
  9
$DIMSE1
 70
     0
  9
$DIMSE2
 70
     0
  9
$DIMTAD
 70
     0
  9
$DIMZIN
 70
     0
  9
$DIMBLK
  1

  9
$DIMASO
 70
     1
  9
$DIMSHO
 70
     1
  9
$DIMPOST
  1

  9
$DIMAPOST
  1

  9
$DIMALT
 70
     0
  9
$DIMALTD
 70
     2
  9
$DIMALTF
 40
25.4
  9
$DIMLFAC
 40
1.0
  9
$DIMTOFL
 70
     0
  9
$DIMTVP
 40
0.0
  9
$DIMTIX
 70
     0
  9
$DIMSOXD
 70
     0
  9
$DIMSAH
 70
     0
  9
$DIMBLK1
  1

  9
$DIMBLK2
  1

  9
$DIMSTYLE
  2
Standard
  9
$DIMCLRD
 70
     0
  9
$DIMCLRE
 70
     0
  9
$DIMCLRT
 70
     0
  9
$DIMTFAC
 40
1.0
  9
$DIMGAP
 40
0.09
  9
$DIMJUST
 70
     0
  9
$DIMSD1
 70
     0
  9
$DIMSD2
 70
     0
  9
$DIMTOLJ
 70
     1
  9
$DIMTZIN
 70
     0
  9
$DIMALTZ
 70
     0
  9
$DIMALTTZ
 70
     0
  9
$DIMUPT
 70
     0
  9
$DIMDEC
 70
     4
  9
$DIMTDEC
 70
     4
  9
$DIMALTU
 70
     2
  9
$DIMALTTD
 70
     2
  9
$DIMTXSTY
  7
Standard
  9
$DIMAUNIT
 70
     0
  9
$DIMADEC
 70
     0
  9
$DIMALTRND
 40
0.0
  9
$DIMAZIN
 70
     0
  9
$DIMDSEP
 70
    46
  9
$DIMATFIT
 70
     3
  9
$DIMFRAC
 70
     0
  9
$DIMLDRBLK
  1

  9
$DIMLUNIT
 70
     2
  9
$DIMLWD
 70
    -2
  9
$DIMLWE
 70
    -2
  9
$DIMTMOVE
 70
     0
  9
$DIMFXL
 40
1.0
  9
$DIMFXLON
 70
     0
  9
$DIMJOGANG
 40
0.7853981633974483
  9
$DIMTFILL
 70
     0
  9
$DIMTFILLCLR
 70
     0
  9
$DIMARCSYM
 70
     0
  9
$DIMLTYPE
  6

  9
$DIMLTEX1
  6

  9
$DIMLTEX2
  6

  9
$DIMTXTDIRECTION
 70
     0
  9
$LUNITS
 70
     2
  9
$LUPREC
 70
     4
  9
$SKETCHINC
 40
0.1
  9
$FILLETRAD
 40
0.5
  9
$AUNITS
 70
     0
  9
$AUPREC
 70
     0
  9
$MENU
  1
.
  9
$ELEVATION
 40
0.0
  9
$PELEVATION
 40
0.0
  9
$THICKNESS
 40
0.0
  9
$LIMCHECK
 70
     0
  9
$CHAMFERA
 40
0.5
  9
$CHAMFERB
 40
0.5
  9
$CHAMFERC
 40
1.0
  9
$CHAMFERD
 40
0.0
  9
$SKPOLY
 70
     0
  9
$TDCREATE
 40
2458263.581562488
  9
$TDUCREATE
 40
2458263.2065625
  9
$TDUPDATE
 40
2458263.581562488
  9
$TDUUPDATE
 40
2458263.2065625
  9
$TDINDWG
 40
0.0000000116
  9
$TDUSRTIMER
 40
0.0000000116
  9
$USRTIMER
 70
     1
  9
$ANGBASE
 50
0.0
  9
$ANGDIR
 70
     0
  9
$PDMODE
 70
     0
  9
$PDSIZE
 40
0.0
  9
$PLINEWID
 40
0.0
  9
$SPLFRAME
 70
     0
  9
$SPLINETYPE
 70
     6
  9
$SPLINESEGS
 70
     8
  9
$HANDSEED
  5
EE
  9
$SURFTAB1
 70
     6
  9
$SURFTAB2
 70
     6
  9
$SURFTYPE
 70
     6
  9
$SURFU
 70
     6
  9
$SURFV
 70
     6
  9
$UCSBASE
  2

  9
$UCSNAME
  2

  9
$UCSORG
 10
0.0
 20
0.0
 30
0.0
  9
$UCSXDIR
 10
1.0
 20
0.0
 30
0.0
  9
$UCSYDIR
 10
0.0
 20
1.0
 30
0.0
  9
$UCSORTHOREF
  2

  9
$UCSORTHOVIEW
 70
     0
  9
$UCSORGTOP
 10
0.0
 20
0.0
 30
0.0
  9
$UCSORGBOTTOM
 10
0.0
 20
0.0
 30
0.0
  9
$UCSORGLEFT
 10
0.0
 20
0.0
 30
0.0
  9
$UCSORGRIGHT
 10
0.0
 20
0.0
 30
0.0
  9
$UCSORGFRONT
 10
0.0
 20
0.0
 30
0.0
  9
$UCSORGBACK
 10
0.0
 20
0.0
 30
0.0
  9
$PUCSBASE
  2

  9
$PUCSNAME
  2

  9
$PUCSORG
 10
0.0
 20
0.0
 30
0.0
  9
$PUCSXDIR
 10
1.0
 20
0.0
 30
0.0
  9
$PUCSYDIR
 10
0.0
 20
1.0
 30
0.0
  9
$PUCSORTHOREF
  2

  9
$PUCSORTHOVIEW
 70
     0
  9
$PUCSORGTOP
 10
0.0
 20
0.0
 30
0.0
  9
$PUCSORGBOTTOM
 10
0.0
 20
0.0
 30
0.0
  9
$PUCSORGLEFT
 10
0.0
 20
0.0
 30
0.0
  9
$PUCSORGRIGHT
 10
0.0
 20
0.0
 30
0.0
  9
$PUCSORGFRONT
 10
0.0
 20
0.0
 30
0.0
  9
$PUCSORGBACK
 10
0.0
 20
0.0
 30
0.0
  9
$USERI1
 70
     0
  9
$USERI2
 70
     0
  9
$USERI3
 70
     0
  9
$USERI4
 70
     0
  9
$USERI5
 70
     0
  9
$USERR1
 40
0.0
  9
$USERR2
 40
0.0
  9
$USERR3
 40
0.0
  9
$USERR4
 40
0.0
  9
$USERR5
 40
0.0
  9
$WORLDVIEW
 70
     1
  9
$SHADEDGE
 70
     3
  9
$SHADEDIF
 70
    70
  9
$TILEMODE
 70
     1
  9
$MAXACTVP
 70
    64
  9
$PINSBASE
 10
0.0
 20
0.0
 30
0.0
  9
$PLIMCHECK
 70
     0
  9
$PEXTMIN
 10
1.000000000000000E+20
 20
1.000000000000000E+20
 30
1.000000000000000E+20
  9
$PEXTMAX
 10
-1.000000000000000E+20
 20
-1.000000000000000E+20
 30
-1.000000000000000E+20
  9
$PLIMMIN
 10
0.0
 20
0.0
  9
$PLIMMAX
 10
12.0
 20
9.0
  9
$UNITMODE
 70
     0
  9
$VISRETAIN
 70
     1
  9
$PLINEGEN
 70
     0
  9
$PSLTSCALE
 70
     1
  9
$TREEDEPTH
 70
  3020
  9
$CMLSTYLE
  2
Standard
  9
$CMLJUST
 70
     0
  9
$CMLSCALE
 40
1.0
  9
$PROXYGRAPHICS
 70
     1
  9
$MEASUREMENT
 70
     0
  9
$CELWEIGHT
370
    -1
  9
$ENDCAPS
280
     0
  9
$JOINSTYLE
280
     0
  9
$LWDISPLAY
290
     1
  9
$INSUNITS
 70
     1
  9
$HYPERLINKBASE
  1

  9
$STYLESHEET
  1

  9
$XEDIT
290
     1
  9
$CEPSNTYPE
380
     0
  9
$PSTYLEMODE
290
     1
  9
$FINGERPRINTGUID
  2
{E4B866EE-DACE-6065-4A9F-5042881D0CFC}
  9
$VERSIONGUID
  2
{FAEB1C32-E019-11D5-929B-00C0DF256EC4}
  9
$EXTNAMES
290
     1
  9
$PSVPSCALE
 40
0.0
  9
$OLESTARTUP
290
     0
  9
$SORTENTS
280
   127
  9
$INDEXCTL
280
     0
  9
$HIDETEXT
280
     1
  9
$XCLIPFRAME
280
     2
  9
$HALOGAP
280
     0
  9
$OBSCOLOR
 70
   257
  9
$OBSLTYPE
280
     0
  9
$INTERSECTIONDISPLAY
280
     0
  9
$INTERSECTIONCOLOR
 70
   257
  9
$DIMASSOC
280
     2
  9
$PROJECTNAME
  1

  9
$CAMERADISPLAY
290
     0
  9
$LENSLENGTH
 40
50.0
  9
$CAMERAHEIGHT
 40
0.0
  9
$STEPSPERSEC
 40
2.0
  9
$STEPSIZE
 40
6.0
  9
$3DDWFPREC
 40
2.0
  9
$PSOLWIDTH
 40
0.25
  9
$PSOLHEIGHT
 40
4.0
  9
$LOFTANG1
 40
1.570796326794897
  9
$LOFTANG2
 40
1.570796326794897
  9
$LOFTMAG1
 40
0.0
  9
$LOFTMAG2
 40
0.0
  9
$LOFTPARAM
 70
     7
  9
$LOFTNORMALS
280
     1
  9
$LATITUDE
 40
37.795
  9
$LONGITUDE
 40
-122.394
  9
$NORTHDIRECTION
 40
0.0
  9
$TIMEZONE
 70
 -8000
  9
$LIGHTGLYPHDISPLAY
280
     1
  9
$TILEMODELIGHTSYNCH
280
     1
  9
$CMATERIAL
347
3C
  9
$SOLIDHIST
280
     1
  9
$SHOWHIST
280
     1
  9
$DWFFRAME
280
     2
  9
$DGNFRAME
280
     2
  9
$REALWORLDSCALE
290
     1
  9
$INTERFERECOLOR
 62
   256
  9
$CSHADOW
280
     0
  9
$SHADOWPLANELOCATION
 40
0.0
  0
ENDSEC
  0
SECTION
  2
CLASSES
  0
CLASS
  1
ACDBDICTIONARYWDFLT
  2
AcDbDictionaryWithDefault
  3
ObjectDBX Classes
 90
        0
 91
        4
280
     0
281
     0
  0
CLASS
  1
VISUALSTYLE
  2
AcDbVisualStyle
  3
ObjectDBX Classes
 90
     4095
 91
        4
280
     0
281
     0
  0
CLASS
  1
MATERIAL
  2
AcDbMaterial
  3
ObjectDBX Classes
 90
     1153
 91
        4
280
     0
281
     0
  0
CLASS
  1
SUN
  2
AcDbSun
  3
SCENEOE
 90
     1024
 91
        4
280
     0
281
     0
  0
ENDSEC
  0
SECTION
  2
TABLES
  0
TABLE
  2
VPORT
  5
8
330
0
100
AcDbSymbolTable
 70
     1
  0
VPORT
  5
29
330
8
100
AcDbSymbolTableRecord
100
AcDbViewportTableRecord
  2
*Active
 70
     0
 10
0.0
 20
0.0
 11
1.0
 21
1.0
 12
0.0
 22
0.0
 13
0.0
 23
0.0
 14
0.5
 24
0.5
 15
0.5
 25
0.5
 16
0.0
 26
0.0
 36
1.0
 17
105.0007777515277
 27
-148.5000416295416
 37
0.0
 40
297.0000832590831
 41
0.7070757462376333
 42
50.0
 43
0.0
 44
0.0
 50
0.0
 51
0.0
 71
     0
 72
   100
 73
     1
 74
     3
 75
     0
 76
     0
 77
     0
 78
     0
281
     0
 65
     1
110
0.0
120
0.0
130
0.0
111
1.0
121
0.0
131
0.0
112
0.0
122
1.0
132
0.0
 79
     0
146
0.0
 60
     3
 61
     5
292
     1
282
     1
141
0.0
142
0.0
 63
   250
361
3F
  0
ENDTAB
  0
TABLE
  2
LTYPE
  5
5
330
0
100
AcDbSymbolTable
 70
     1
  0
LTYPE
  5
14
330
5
100
AcDbSymbolTableRecord
100
AcDbLinetypeTableRecord
  2
ByBlock
 70
     0
  3

 72
    65
 73
     0
 40
0.0
  0
LTYPE
  5
15
330
5
100
AcDbSymbolTableRecord
100
AcDbLinetypeTableRecord
  2
ByLayer
 70
     0
  3

 72
    65
 73
     0
 40
0.0
  0
LTYPE
  5
16
330
5
100
AcDbSymbolTableRecord
100
AcDbLinetypeTableRecord
  2
Continuous
 70
     0
  3
Solid line
 72
    65
 73
     0
 40
0.0
  0
ENDTAB
  0
TABLE
  2
LAYER
  5
2
330
0
100
AcDbSymbolTable
 70
     2
  0
LAYER
  5
10
330
2
100
AcDbSymbolTableRecord
100
AcDbLayerTableRecord
  2
0
 70
     0
 62
     7
  6
Continuous
370
    -3
390
F
347
3E
  0
LAYER
  5
40
330
2
100
AcDbSymbolTableRecord
100
AcDbLayerTableRecord
  2
_U+30EC_U+30A4_U+30E4_U+30FC 1
 70
     0
 62
     7
  6
Continuous
370
    -3
390
F
347
3E
  0
ENDTAB
  0
TABLE
  2
STYLE
  5
3
330
0
100
AcDbSymbolTable
 70
     1
  0
STYLE
  5
11
330
3
100
AcDbSymbolTableRecord
100
AcDbTextStyleTableRecord
  2
Standard
 70
     0
 40
0.0
 41
1.0
 50
0.0
 71
     0
 42
0.2
  3
txt
  4

  0
ENDTAB
  0
TABLE
  2
VIEW
  5
6
330
0
100
AcDbSymbolTable
 70
     0
  0
ENDTAB
  0
TABLE
  2
UCS
  5
7
330
0
100
AcDbSymbolTable
 70
     0
  0
ENDTAB
  0
TABLE
  2
APPID
  5
9
330
0
100
AcDbSymbolTable
 70
     1
  0
APPID
  5
12
330
9
100
AcDbSymbolTableRecord
100
AcDbRegAppTableRecord
  2
ACAD
 70
     0
  0
ENDTAB
  0
TABLE
  2
DIMSTYLE
  5
A
330
0
100
AcDbSymbolTable
 70
     1
100
AcDbDimStyleTable
  0
DIMSTYLE
105
27
330
A
100
AcDbSymbolTableRecord
100
AcDbDimStyleTableRecord
  2
Standard
 70
     0
178
     0
340
11
  0
ENDTAB
  0
TABLE
  2
BLOCK_RECORD
  5
1
330
0
100
AcDbSymbolTable
 70
     6
  0
BLOCK_RECORD
  5
1F
330
1
100
AcDbSymbolTableRecord
100
AcDbBlockTableRecord
  2
*Model_Space
340
22
 70
     0
280
     1
281
     0
  0
BLOCK_RECORD
  5
1B
330
1
100
AcDbSymbolTableRecord
100
AcDbBlockTableRecord
  2
*Paper_Space
340
1E
 70
     0
280
     1
281
     0
  0
BLOCK_RECORD
  5
23
330
1
100
AcDbSymbolTableRecord
100
AcDbBlockTableRecord
  2
*Paper_Space0
340
26
 70
     0
280
     1
281
     0
  0
BLOCK_RECORD
  5
8F
330
1
100
AcDbSymbolTableRecord
100
AcDbBlockTableRecord
  2
block 2
340
0
102
{BLKREFS
331
90
102
}
 70
     0
280
     1
281
     0
  0
BLOCK_RECORD
  5
A1
330
1
100
AcDbSymbolTableRecord
100
AcDbBlockTableRecord
  2
block 3
340
0
102
{BLKREFS
331
A2
102
}
 70
     0
280
     1
281
     0
  0
BLOCK_RECORD
  5
B6
330
1
100
AcDbSymbolTableRecord
100
AcDbBlockTableRecord
  2
block 4
340
0
102
{BLKREFS
331
B7
102
}
 70
     0
280
     1
281
     0
  0
BLOCK_RECORD
  5
CB
330
1
100
AcDbSymbolTableRecord
100
AcDbBlockTableRecord
  2
block 5
340
0
102
{BLKREFS
331
CC
102
}
 70
     0
280
     1
281
     0
  0
BLOCK_RECORD
  5
DA
330
1
100
AcDbSymbolTableRecord
100
AcDbBlockTableRecord
  2
block 6
340
0
102
{BLKREFS
331
DB
102
}
 70
     0
280
     1
281
     0
  0
ENDTAB
  0
ENDSEC
  0
SECTION
  2
BLOCKS
  0
BLOCK
  5
20
330
1F
100
AcDbEntity
  8
0
100
AcDbBlockBegin
  2
*Model_Space
 70
     0
 10
0.0
 20
0.0
 30
0.0
  3
*Model_Space
  1

  0
ENDBLK
  5
21
330
1F
100
AcDbEntity
  8
0
100
AcDbBlockEnd
  0
BLOCK
  5
1C
330
1B
100
AcDbEntity
 67
     1
  8
0
100
AcDbBlockBegin
  2
*Paper_Space
 70
     0
 10
0.0
 20
0.0
 30
0.0
  3
*Paper_Space
  1

  0
ENDBLK
  5
1D
330
1B
100
AcDbEntity
 67
     1
  8
0
100
AcDbBlockEnd
  0
BLOCK
  5
24
330
23
100
AcDbEntity
  8
0
100
AcDbBlockBegin
  2
*Paper_Space0
 70
     0
 10
0.0
 20
0.0
 30
0.0
  3
*Paper_Space0
  1

  0
ENDBLK
  5
25
330
23
100
AcDbEntity
  8
0
100
AcDbBlockEnd
  0
BLOCK
  5
91
330
8F
100
AcDbEntity
  8
0
100
AcDbBlockBegin
  2
block 2
 70
     0
 10
0.0
 20
0.0
 30
0.0
  3
block 2
  1

  0
SPLINE
  5
93
330
8F
100
AcDbEntity
  8
_U+30EC_U+30A4_U+30E4_U+30FC 1
370
     0
100
AcDbSpline
210
0.0
220
0.0
230
1.0
 70
    11
 71
     3
 72
    26
 73
    22
 74
     0
 42
0.0000000001
 43
0.0000000001
 12
1.0
 22
0.0
 32
0.0
 13
1.0
 23
0.0
 33
0.0
 40
0.0
 40
0.0
 40
0.0
 40
0.0
 40
1.0
 40
1.0
 40
1.0
 40
2.0
 40
2.0
 40
2.0
 40
3.0
 40
3.0
 40
3.0
 40
4.0
 40
4.0
 40
4.0
 40
5.0
 40
5.0
 40
5.0
 40
6.0
 40
6.0
 40
6.0
 40
7.0
 40
7.0
 40
7.0
 40
7.0
 10
120.6537895748713
 20
-143.0806721647507
 30
0.0
 10
120.6537895748713
 20
-143.0806721647507
 30
0.0
 10
119.5496364718487
 20
-143.0806721647507
 30
0.0
 10
119.5496364718487
 20
-143.0806721647507
 30
0.0
 10
119.5496364718487
 20
-143.0806721647507
 30
0.0
 10
119.5496364718487
 20
-143.4107123122376
 30
0.0
 10
119.5496364718487
 20
-143.4107123122376
 30
0.0
 10
119.5496364718487
 20
-143.4107123122376
 30
0.0
 10
119.401497365983
 20
-143.4107123122376
 30
0.0
 10
119.401497365983
 20
-143.4107123122376
 30
0.0
 10
119.3866834553964
 20
-143.0786051074595
 30
0.0
 10
119.2237304389441
 20
-143.0320963184087
 30
0.0
 10
119.1093532688338
 20
-143.0024684972355
 30
0.0
 10
119.1093532688338
 20
-143.0024684972355
 30
0.0
 10
119.1093532688338
 20
-142.8563964486609
 30
0.0
 10
119.1093532688338
 20
-142.8563964486609
 30
0.0
 10
119.1093532688338
 20
-142.8563964486609
 30
0.0
 10
120.6537895748713
 20
-142.8563964486609
 30
0.0
 10
120.6537895748713
 20
-142.8563964486609
 30
0.0
 10
120.6537895748713
 20
-142.8563964486609
 30
0.0
 10
120.6537895748713
 20
-143.0806721647507
 30
0.0
 10
120.6537895748713
 20
-143.0806721647507
 30
0.0
  0
HATCH
  5
94
330
8F
100
AcDbEntity
  8
_U+30EC_U+30A4_U+30E4_U+30FC 1
 62
   179
420
  2234388
100
AcDbHatch
 10
0.0
 20
0.0
 30
0.0
210
0.0
220
0.0
230
1.0
  2
SOLID
 70
     1
 71
     0
 91
        1
 92
        1
 93
        1
 72
     4
 94
        3
 73
     0
 74
     1
 95
       26
 96
       22
 40
0.0
 40
0.0
 40
0.0
 40
0.0
 40
1.0
 40
1.0
 40
1.0
 40
2.0
 40
2.0
 40
2.0
 40
3.0
 40
3.0
 40
3.0
 40
4.0
 40
4.0
 40
4.0
 40
5.0
 40
5.0
 40
5.0
 40
6.0
 40
6.0
 40
6.0
 40
7.0
 40
7.0
 40
7.0
 40
7.0
 10
120.6537895748713
 20
-143.0806721647507
 10
120.6537895748713
 20
-143.0806721647507
 10
119.5496364718487
 20
-143.0806721647507
 10
119.5496364718487
 20
-143.0806721647507
 10
119.5496364718487
 20
-143.0806721647507
 10
119.5496364718487
 20
-143.4107123122376
 10
119.5496364718487
 20
-143.4107123122376
 10
119.5496364718487
 20
-143.4107123122376
 10
119.401497365983
 20
-143.4107123122376
 10
119.401497365983
 20
-143.4107123122376
 10
119.3866834553964
 20
-143.0786051074595
 10
119.2237304389441
 20
-143.0320963184087
 10
119.1093532688338
 20
-143.0024684972355
 10
119.1093532688338
 20
-143.0024684972355
 10
119.1093532688338
 20
-142.8563964486609
 10
119.1093532688338
 20
-142.8563964486609
 10
119.1093532688338
 20
-142.8563964486609
 10
120.6537895748713
 20
-142.8563964486609
 10
120.6537895748713
 20
-142.8563964486609
 10
120.6537895748713
 20
-142.8563964486609
 10
120.6537895748713
 20
-143.0806721647507
 10
120.6537895748713
 20
-143.0806721647507
 97
        0
 97
        0
 75
     2
 76
     1
 98
        0
  0
ENDBLK
  5
92
330
8F
100
AcDbEntity
  8
0
100
AcDbBlockEnd
  0
BLOCK
  5
A3
330
A1
100
AcDbEntity
  8
0
100
AcDbBlockBegin
  2
block 3
 70
     0
 10
0.0
 20
0.0
 30
0.0
  3
block 3
  1

  0
SPLINE
  5
A5
330
A1
100
AcDbEntity
  8
_U+30EC_U+30A4_U+30E4_U+30FC 1
370
     0
100
AcDbSpline
210
0.0
220
0.0
230
1.0
 70
    11
 71
     3
 72
    62
 73
    58
 74
     0
 42
0.0000000001
 43
0.0000000001
 12
1.0
 22
0.0
 32
0.0
 13
1.0
 23
0.0
 33
0.0
 40
0.0
 40
0.0
 40
0.0
 40
0.0
 40
1.0
 40
1.0
 40
1.0
 40
2.0
 40
2.0
 40
2.0
 40
3.0
 40
3.0
 40
3.0
 40
4.0
 40
4.0
 40
4.0
 40
5.0
 40
5.0
 40
5.0
 40
6.0
 40
6.0
 40
6.0
 40
7.0
 40
7.0
 40
7.0
 40
8.0
 40
8.0
 40
8.0
 40
9.0
 40
9.0
 40
9.0
 40
10.0
 40
10.0
 40
10.0
 40
11.0
 40
11.0
 40
11.0
 40
12.0
 40
12.0
 40
12.0
 40
13.0
 40
13.0
 40
13.0
 40
14.0
 40
14.0
 40
14.0
 40
15.0
 40
15.0
 40
15.0
 40
16.0
 40
16.0
 40
16.0
 40
17.0
 40
17.0
 40
17.0
 40
18.0
 40
18.0
 40
18.0
 40
19.0
 40
19.0
 40
19.0
 40
19.0
 10
101.8780191802597
 20
-137.8270738045189
 30
0.0
 10
101.7825900353183
 20
-137.8270738045189
 30
0.0
 10
101.5648600006505
 20
-137.8060587220589
 30
0.0
 10
101.4398030345359
 20
-137.6200235658554
 30
0.0
 10
101.365733481603
 20
-137.5077134530363
 30
0.0
 10
101.3615993670207
 20
-137.4084947030611
 30
0.0
 10
101.3574652524384
 20
-137.3237453541239
 30
0.0
 10
101.3574652524384
 20
-137.3237453541239
 30
0.0
 10
101.5776068539459
 20
-137.3237453541239
 30
0.0
 10
101.5776068539459
 20
-137.3237453541239
 30
0.0
 10
101.579673911237
 20
-137.3978149070568
 30
0.0
 10
101.5900091976928
 20
-137.6324259096023
 30
0.0
 10
101.8735405561288
 20
-137.6324259096023
 30
0.0
 10
102.0109998659903
 20
-137.6324259096023
 30
0.0
 10
102.1636175959869
 20
-137.5628349808003
 30
0.0
 10
102.1636175959869
 20
-137.3344251501282
 30
0.0
 10
102.1636175959869
 20
-137.2179809227268
 30
0.0
 10
102.1253770361006
 20
-137.1694050763847
 30
0.0
 10
102.0936821576363
 20
-137.1377101979204
 30
0.0
 10
102.0196126047034
 20
-137.0636406449876
 30
0.0
 10
101.903168377302
 20
-137.0508937916921
 30
0.0
 10
101.8483913590865
 20
-137.0508937916921
 30
0.0
 10
101.8290988243691
 20
-137.0508937916921
 30
0.0
 10
101.7932698313225
 20
-137.0529608489833
 30
0.0
 10
101.7657090674405
 20
-137.0570949635656
 30
0.0
 10
101.7657090674405
 20
-137.0570949635656
 30
0.0
 10
101.7657090674405
 20
-136.862447068649
 30
0.0
 10
101.7657090674405
 20
-136.862447068649
 30
0.0
 10
101.8039496273268
 20
-136.868992750071
 30
0.0
 10
101.8459797922468
 20
-136.8710598073621
 30
0.0
 10
101.8525254736688
 20
-136.8710598073621
 30
0.0
 10
101.9179822878886
 20
-136.8710598073621
 30
0.0
 10
102.1167642973875
 20
-136.8497002153536
 30
0.0
 10
102.1167642973875
 20
-136.6130221555169
 30
0.0
 10
102.1167642973875
 20
-136.435255228478
 30
0.0
 10
101.985850668948
 20
-136.380133700714
 30
0.0
 10
101.87560761342
 20
-136.380133700714
 30
0.0
 10
101.6113687897013
 20
-136.380133700714
 30
0.0
 10
101.6027560509882
 20
-136.6130221555169
 30
0.0
 10
101.5986219364059
 20
-136.6846801416101
 30
0.0
 10
101.5986219364059
 20
-136.6846801416101
 30
0.0
 10
101.3953613027762
 20
-136.6846801416101
 30
0.0
 10
101.3953613027762
 20
-136.6846801416101
 30
0.0
 10
101.4039740414893
 20
-136.559967685044
 30
0.0
 10
101.4315348053713
 20
-136.1834187485062
 30
0.0
 10
101.8883544667154
 20
-136.1834187485062
 30
0.0
 10
102.1126301828052
 20
-136.1834187485062
 30
0.0
 10
102.3537868667727
 20
-136.3105427719119
 30
0.0
 10
102.3537868667727
 20
-136.6064764740949
 30
0.0
 10
102.3537868667727
 20
-136.7928561398469
 30
0.0
 10
102.2587022313798
 20
-136.8751939219444
 30
0.0
 10
102.1591389718561
 20
-136.9365166215819
 30
0.0
 10
102.2204616714935
 20
-136.9640773854638
 30
0.0
 10
102.4023627131147
 20
-137.0443481102702
 30
0.0
 10
102.4023627131147
 20
-137.3216782968328
 30
0.0
 10
102.4023627131147
 20
-137.6599866734843
 30
0.0
 10
102.1550048572738
 20
-137.8270738045189
 30
0.0
 10
101.8780191802597
 20
-137.8270738045189
 30
0.0
  0
HATCH
  5
A6
330
A1
100
AcDbEntity
  8
_U+30EC_U+30A4_U+30E4_U+30FC 1
 62
   179
420
  2234388
100
AcDbHatch
 10
0.0
 20
0.0
 30
0.0
210
0.0
220
0.0
230
1.0
  2
SOLID
 70
     1
 71
     0
 91
        1
 92
        1
 93
        1
 72
     4
 94
        3
 73
     0
 74
     1
 95
       62
 96
       58
 40
0.0
 40
0.0
 40
0.0
 40
0.0
 40
1.0
 40
1.0
 40
1.0
 40
2.0
 40
2.0
 40
2.0
 40
3.0
 40
3.0
 40
3.0
 40
4.0
 40
4.0
 40
4.0
 40
5.0
 40
5.0
 40
5.0
 40
6.0
 40
6.0
 40
6.0
 40
7.0
 40
7.0
 40
7.0
 40
8.0
 40
8.0
 40
8.0
 40
9.0
 40
9.0
 40
9.0
 40
10.0
 40
10.0
 40
10.0
 40
11.0
 40
11.0
 40
11.0
 40
12.0
 40
12.0
 40
12.0
 40
13.0
 40
13.0
 40
13.0
 40
14.0
 40
14.0
 40
14.0
 40
15.0
 40
15.0
 40
15.0
 40
16.0
 40
16.0
 40
16.0
 40
17.0
 40
17.0
 40
17.0
 40
18.0
 40
18.0
 40
18.0
 40
19.0
 40
19.0
 40
19.0
 40
19.0
 10
101.8780191802597
 20
-137.8270738045189
 10
101.7825900353183
 20
-137.8270738045189
 10
101.5648600006505
 20
-137.8060587220589
 10
101.4398030345359
 20
-137.6200235658554
 10
101.365733481603
 20
-137.5077134530363
 10
101.3615993670207
 20
-137.4084947030611
 10
101.3574652524384
 20
-137.3237453541239
 10
101.3574652524384
 20
-137.3237453541239
 10
101.5776068539459
 20
-137.3237453541239
 10
101.5776068539459
 20
-137.3237453541239
 10
101.579673911237
 20
-137.3978149070568
 10
101.5900091976928
 20
-137.6324259096023
 10
101.8735405561288
 20
-137.6324259096023
 10
102.0109998659903
 20
-137.6324259096023
 10
102.1636175959869
 20
-137.5628349808003
 10
102.1636175959869
 20
-137.3344251501282
 10
102.1636175959869
 20
-137.2179809227268
 10
102.1253770361006
 20
-137.1694050763847
 10
102.0936821576363
 20
-137.1377101979204
 10
102.0196126047034
 20
-137.0636406449876
 10
101.903168377302
 20
-137.0508937916921
 10
101.8483913590865
 20
-137.0508937916921
 10
101.8290988243691
 20
-137.0508937916921
 10
101.7932698313225
 20
-137.0529608489833
 10
101.7657090674405
 20
-137.0570949635656
 10
101.7657090674405
 20
-137.0570949635656
 10
101.7657090674405
 20
-136.862447068649
 10
101.7657090674405
 20
-136.862447068649
 10
101.8039496273268
 20
-136.868992750071
 10
101.8459797922468
 20
-136.8710598073621
 10
101.8525254736688
 20
-136.8710598073621
 10
101.9179822878886
 20
-136.8710598073621
 10
102.1167642973875
 20
-136.8497002153536
 10
102.1167642973875
 20
-136.6130221555169
 10
102.1167642973875
 20
-136.435255228478
 10
101.985850668948
 20
-136.380133700714
 10
101.87560761342
 20
-136.380133700714
 10
101.6113687897013
 20
-136.380133700714
 10
101.6027560509882
 20
-136.6130221555169
 10
101.5986219364059
 20
-136.6846801416101
 10
101.5986219364059
 20
-136.6846801416101
 10
101.3953613027762
 20
-136.6846801416101
 10
101.3953613027762
 20
-136.6846801416101
 10
101.4039740414893
 20
-136.559967685044
 10
101.4315348053713
 20
-136.1834187485062
 10
101.8883544667154
 20
-136.1834187485062
 10
102.1126301828052
 20
-136.1834187485062
 10
102.3537868667727
 20
-136.3105427719119
 10
102.3537868667727
 20
-136.6064764740949
 10
102.3537868667727
 20
-136.7928561398469
 10
102.2587022313798
 20
-136.8751939219444
 10
102.1591389718561
 20
-136.9365166215819
 10
102.2204616714935
 20
-136.9640773854638
 10
102.4023627131147
 20
-137.0443481102702
 10
102.4023627131147
 20
-137.3216782968328
 10
102.4023627131147
 20
-137.6599866734843
 10
102.1550048572738
 20
-137.8270738045189
 10
101.8780191802597
 20
-137.8270738045189
 97
        0
 97
        0
 75
     2
 76
     1
 98
        0
  0
SPLINE
  5
A7
330
A1
100
AcDbEntity
  8
_U+30EC_U+30A4_U+30E4_U+30FC 1
370
     0
100
AcDbSpline
210
0.0
220
0.0
230
1.0
 70
    11
 71
     3
 72
    29
 73
    25
 74
     0
 42
0.0000000001
 43
0.0000000001
 12
1.0
 22
0.0
 32
0.0
 13
1.0
 23
0.0
 33
0.0
 40
0.0
 40
0.0
 40
0.0
 40
0.0
 40
1.0
 40
1.0
 40
1.0
 40
2.0
 40
2.0
 40
2.0
 40
3.0
 40
3.0
 40
3.0
 40
4.0
 40
4.0
 40
4.0
 40
5.0
 40
5.0
 40
5.0
 40
6.0
 40
6.0
 40
6.0
 40
7.0
 40
7.0
 40
7.0
 40
8.0
 40
8.0
 40
8.0
 40
8.0
 10
103.461040555732
 20
-137.5986639738469
 30
0.0
 10
103.3528645574951
 20
-137.8081257793501
 30
0.0
 10
103.1795762545871
 20
-137.8270738045189
 30
0.0
 10
103.0631320271856
 20
-137.8270738045189
 30
0.0
 10
102.9022460680244
 20
-137.8270738045189
 30
0.0
 10
102.7606526435807
 20
-137.7805650154681
 30
0.0
 10
102.6655680081878
 20
-137.5986639738469
 30
0.0
 10
102.5618706340818
 20
-137.4040160789303
 30
0.0
 10
102.5425780993644
 20
-137.1673380190936
 30
0.0
 10
102.5425780993644
 20
-137.0043850026413
 30
0.0
 10
102.5425780993644
 20
-136.8603800113578
 30
0.0
 10
102.5598035767906
 20
-136.6085435313861
 30
0.0
 10
102.6655680081878
 20
-136.4097615218872
 30
0.0
 10
102.7733994968761
 20
-136.2068453978059
 30
0.0
 10
102.9342854560373
 20
-136.1834187485062
 30
0.0
 10
103.0631320271856
 20
-136.1834187485062
 30
0.0
 10
103.2219509290556
 20
-136.1834187485062
 30
0.0
 10
103.3656114107905
 20
-136.2278604802659
 30
0.0
 10
103.461040555732
 20
-136.4097615218872
 30
0.0
 10
103.5602593057072
 20
-136.6023423595126
 30
0.0
 10
103.5836859550069
 20
-136.8307521901847
 30
0.0
 10
103.5836859550069
 20
-137.0043850026413
 30
0.0
 10
103.5836859550069
 20
-137.1756062482582
 30
0.0
 10
103.5623263629983
 20
-137.4060831362214
 30
0.0
 10
103.461040555732
 20
-137.5986639738469
 30
0.0
  0
SPLINE
  5
A8
330
A1
100
AcDbEntity
  8
_U+30EC_U+30A4_U+30E4_U+30FC 1
370
     0
100
AcDbSpline
210
0.0
220
0.0
230
1.0
 70
    11
 71
     3
 72
    17
 73
    13
 74
     0
 42
0.0000000001
 43
0.0000000001
 12
1.0
 22
0.0
 32
0.0
 13
1.0
 23
0.0
 33
0.0
 40
0.0
 40
0.0
 40
0.0
 40
0.0
 40
1.0
 40
1.0
 40
1.0
 40
2.0
 40
2.0
 40
2.0
 40
3.0
 40
3.0
 40
3.0
 40
4.0
 40
4.0
 40
4.0
 40
4.0
 10
103.0631320271856
 20
-136.3759995861317
 30
0.0
 10
102.813362604505
 20
-136.3759995861317
 30
0.0
 10
102.7668538154541
 20
-136.6595309445678
 30
0.0
 10
102.7668538154541
 20
-137.0043850026413
 30
0.0
 10
102.7668538154541
 20
-137.3237453541239
 30
0.0
 10
102.8030273180492
 20
-137.6324259096023
 30
0.0
 10
103.0631320271856
 20
-137.6324259096023
 30
0.0
 10
103.3108343925751
 20
-137.6324259096023
 30
0.0
 10
103.3594102389171
 20
-137.3513061180059
 30
0.0
 10
103.3594102389171
 20
-137.0043850026413
 30
0.0
 10
103.3594102389171
 20
-136.6846801416101
 30
0.0
 10
103.3211696790308
 20
-136.3759995861317
 30
0.0
 10
103.0631320271856
 20
-136.3759995861317
 30
0.0
  0
HATCH
  5
A9
330
A1
100
AcDbEntity
  8
_U+30EC_U+30A4_U+30E4_U+30FC 1
 62
   179
420
  2234388
100
AcDbHatch
 10
0.0
 20
0.0
 30
0.0
210
0.0
220
0.0
230
1.0
  2
SOLID
 70
     1
 71
     0
 91
        2
 92
        1
 93
        1
 72
     4
 94
        3
 73
     0
 74
     1
 95
       29
 96
       25
 40
0.0
 40
0.0
 40
0.0
 40
0.0
 40
1.0
 40
1.0
 40
1.0
 40
2.0
 40
2.0
 40
2.0
 40
3.0
 40
3.0
 40
3.0
 40
4.0
 40
4.0
 40
4.0
 40
5.0
 40
5.0
 40
5.0
 40
6.0
 40
6.0
 40
6.0
 40
7.0
 40
7.0
 40
7.0
 40
8.0
 40
8.0
 40
8.0
 40
8.0
 10
103.461040555732
 20
-137.5986639738469
 10
103.3528645574951
 20
-137.8081257793501
 10
103.1795762545871
 20
-137.8270738045189
 10
103.0631320271856
 20
-137.8270738045189
 10
102.9022460680244
 20
-137.8270738045189
 10
102.7606526435807
 20
-137.7805650154681
 10
102.6655680081878
 20
-137.5986639738469
 10
102.5618706340818
 20
-137.4040160789303
 10
102.5425780993644
 20
-137.1673380190936
 10
102.5425780993644
 20
-137.0043850026413
 10
102.5425780993644
 20
-136.8603800113578
 10
102.5598035767906
 20
-136.6085435313861
 10
102.6655680081878
 20
-136.4097615218872
 10
102.7733994968761
 20
-136.2068453978059
 10
102.9342854560373
 20
-136.1834187485062
 10
103.0631320271856
 20
-136.1834187485062
 10
103.2219509290556
 20
-136.1834187485062
 10
103.3656114107905
 20
-136.2278604802659
 10
103.461040555732
 20
-136.4097615218872
 10
103.5602593057072
 20
-136.6023423595126
 10
103.5836859550069
 20
-136.8307521901847
 10
103.5836859550069
 20
-137.0043850026413
 10
103.5836859550069
 20
-137.1756062482582
 10
103.5623263629983
 20
-137.4060831362214
 10
103.461040555732
 20
-137.5986639738469
 97
        0
 97
        0
 92
        1
 93
        1
 72
     4
 94
        3
 73
     0
 74
     1
 95
       17
 96
       13
 40
0.0
 40
0.0
 40
0.0
 40
0.0
 40
1.0
 40
1.0
 40
1.0
 40
2.0
 40
2.0
 40
2.0
 40
3.0
 40
3.0
 40
3.0
 40
4.0
 40
4.0
 40
4.0
 40
4.0
 10
103.0631320271856
 20
-136.3759995861317
 10
102.813362604505
 20
-136.3759995861317
 10
102.7668538154541
 20
-136.6595309445678
 10
102.7668538154541
 20
-137.0043850026413
 10
102.7668538154541
 20
-137.3237453541239
 10
102.8030273180492
 20
-137.6324259096023
 10
103.0631320271856
 20
-137.6324259096023
 10
103.3108343925751
 20
-137.6324259096023
 10
103.3594102389171
 20
-137.3513061180059
 10
103.3594102389171
 20
-137.0043850026413
 10
103.3594102389171
 20
-136.6846801416101
 10
103.3211696790308
 20
-136.3759995861317
 10
103.0631320271856
 20
-136.3759995861317
 97
        0
 97
        0
 75
     2
 76
     1
 98
        0
  0
ENDBLK
  5
A4
330
A1
100
AcDbEntity
  8
0
100
AcDbBlockEnd
  0
BLOCK
  5
B8
330
B6
100
AcDbEntity
  8
0
100
AcDbBlockBegin
  2
block 4
 70
     0
 10
0.0
 20
0.0
 30
0.0
  3
block 4
  1

  0
SPLINE
  5
BA
330
B6
100
AcDbEntity
  8
_U+30EC_U+30A4_U+30E4_U+30FC 1
370
     0
100
AcDbSpline
210
0.0
220
0.0
230
1.0
 70
    11
 71
     3
 72
    26
 73
    22
 74
     0
 42
0.0000000001
 43
0.0000000001
 12
1.0
 22
0.0
 32
0.0
 13
1.0
 23
0.0
 33
0.0
 40
0.0
 40
0.0
 40
0.0
 40
0.0
 40
1.0
 40
1.0
 40
1.0
 40
2.0
 40
2.0
 40
2.0
 40
3.0
 40
3.0
 40
3.0
 40
4.0
 40
4.0
 40
4.0
 40
5.0
 40
5.0
 40
5.0
 40
6.0
 40
6.0
 40
6.0
 40
7.0
 40
7.0
 40
7.0
 40
7.0
 10
92.01539982508643
 20
-160.4763373079712
 30
0.0
 10
92.01539982508643
 20
-160.4763373079712
 30
0.0
 10
92.01539982508643
 20
-159.3721842049486
 30
0.0
 10
92.01539982508643
 20
-159.3721842049486
 30
0.0
 10
92.01539982508643
 20
-159.3721842049486
 30
0.0
 10
91.6853596775995
 20
-159.3721842049486
 30
0.0
 10
91.6853596775995
 20
-159.3721842049486
 30
0.0
 10
91.6853596775995
 20
-159.3721842049486
 30
0.0
 10
91.6853596775995
 20
-159.2240450990829
 30
0.0
 10
91.6853596775995
 20
-159.2240450990829
 30
0.0
 10
92.01746688237758
 20
-159.2092311884963
 30
0.0
 10
92.06397567142845
 20
-159.046278172044
 30
0.0
 10
92.0936034926016
 20
-158.9319010019337
 30
0.0
 10
92.0936034926016
 20
-158.9319010019337
 30
0.0
 10
92.2396755411762
 20
-158.9319010019337
 30
0.0
 10
92.2396755411762
 20
-158.9319010019337
 30
0.0
 10
92.2396755411762
 20
-158.9319010019337
 30
0.0
 10
92.2396755411762
 20
-160.4763373079712
 30
0.0
 10
92.2396755411762
 20
-160.4763373079712
 30
0.0
 10
92.2396755411762
 20
-160.4763373079712
 30
0.0
 10
92.01539982508643
 20
-160.4763373079712
 30
0.0
 10
92.01539982508643
 20
-160.4763373079712
 30
0.0
  0
HATCH
  5
BB
330
B6
100
AcDbEntity
  8
_U+30EC_U+30A4_U+30E4_U+30FC 1
 62
   179
420
  2234388
100
AcDbHatch
 10
0.0
 20
0.0
 30
0.0
210
0.0
220
0.0
230
1.0
  2
SOLID
 70
     1
 71
     0
 91
        1
 92
        1
 93
        1
 72
     4
 94
        3
 73
     0
 74
     1
 95
       26
 96
       22
 40
0.0
 40
0.0
 40
0.0
 40
0.0
 40
1.0
 40
1.0
 40
1.0
 40
2.0
 40
2.0
 40
2.0
 40
3.0
 40
3.0
 40
3.0
 40
4.0
 40
4.0
 40
4.0
 40
5.0
 40
5.0
 40
5.0
 40
6.0
 40
6.0
 40
6.0
 40
7.0
 40
7.0
 40
7.0
 40
7.0
 10
92.01539982508643
 20
-160.4763373079712
 10
92.01539982508643
 20
-160.4763373079712
 10
92.01539982508643
 20
-159.3721842049486
 10
92.01539982508643
 20
-159.3721842049486
 10
92.01539982508643
 20
-159.3721842049486
 10
91.6853596775995
 20
-159.3721842049486
 10
91.6853596775995
 20
-159.3721842049486
 10
91.6853596775995
 20
-159.3721842049486
 10
91.6853596775995
 20
-159.2240450990829
 10
91.6853596775995
 20
-159.2240450990829
 10
92.01746688237758
 20
-159.2092311884963
 10
92.06397567142845
 20
-159.046278172044
 10
92.0936034926016
 20
-158.9319010019337
 10
92.0936034926016
 20
-158.9319010019337
 10
92.2396755411762
 20
-158.9319010019337
 10
92.2396755411762
 20
-158.9319010019337
 10
92.2396755411762
 20
-158.9319010019337
 10
92.2396755411762
 20
-160.4763373079712
 10
92.2396755411762
 20
-160.4763373079712
 10
92.2396755411762
 20
-160.4763373079712
 10
92.01539982508643
 20
-160.4763373079712
 10
92.01539982508643
 20
-160.4763373079712
 97
        0
 97
        0
 75
     2
 76
     1
 98
        0
  0
SPLINE
  5
BC
330
B6
100
AcDbEntity
  8
_U+30EC_U+30A4_U+30E4_U+30FC 1
370
     0
100
AcDbSpline
210
0.0
220
0.0
230
1.0
 70
    11
 71
     3
 72
    29
 73
    25
 74
     0
 42
0.0000000001
 43
0.0000000001
 12
1.0
 22
0.0
 32
0.0
 13
1.0
 23
0.0
 33
0.0
 40
0.0
 40
0.0
 40
0.0
 40
0.0
 40
1.0
 40
1.0
 40
1.0
 40
2.0
 40
2.0
 40
2.0
 40
3.0
 40
3.0
 40
3.0
 40
4.0
 40
4.0
 40
4.0
 40
5.0
 40
5.0
 40
5.0
 40
6.0
 40
6.0
 40
6.0
 40
7.0
 40
7.0
 40
7.0
 40
8.0
 40
8.0
 40
8.0
 40
8.0
 10
93.63872881773615
 20
-160.2985703809323
 30
0.0
 10
93.5305528194993
 20
-160.5080321864355
 30
0.0
 10
93.35726451659124
 20
-160.5269802116044
 30
0.0
 10
93.2408202891898
 20
-160.5269802116044
 30
0.0
 10
93.07993433002864
 20
-160.5269802116044
 30
0.0
 10
92.93834090558487
 20
-160.4804714225535
 30
0.0
 10
92.84325627019197
 20
-160.2985703809323
 30
0.0
 10
92.73955889608595
 20
-160.1039224860157
 30
0.0
 10
92.72061087091707
 20
-159.8668999166305
 30
0.0
 10
92.72061087091707
 20
-159.7042914097267
 30
0.0
 10
92.72061087091707
 20
-159.5602864184433
 30
0.0
 10
92.7374918387948
 20
-159.3084499384715
 30
0.0
 10
92.84325627019197
 20
-159.1096679289726
 30
0.0
 10
92.95108775888029
 20
-158.9067518048914
 30
0.0
 10
93.11197371804145
 20
-158.8833251555917
 30
0.0
 10
93.2408202891898
 20
-158.8833251555917
 30
0.0
 10
93.39963919105982
 20
-158.8833251555917
 30
0.0
 10
93.54329967279473
 20
-158.9277668873514
 30
0.0
 10
93.63872881773615
 20
-159.1096679289726
 30
0.0
 10
93.73794756771134
 20
-159.3022487665981
 30
0.0
 10
93.76137421701105
 20
-159.5306585972701
 30
0.0
 10
93.76137421701105
 20
-159.7042914097267
 30
0.0
 10
93.76137421701105
 20
-159.8755126553436
 30
0.0
 10
93.7400146250025
 20
-160.1059895433068
 30
0.0
 10
93.63872881773615
 20
-160.2985703809323
 30
0.0
  0
SPLINE
  5
BD
330
B6
100
AcDbEntity
  8
_U+30EC_U+30A4_U+30E4_U+30FC 1
370
     0
100
AcDbSpline
210
0.0
220
0.0
230
1.0
 70
    11
 71
     3
 72
    17
 73
    13
 74
     0
 42
0.0000000001
 43
0.0000000001
 12
1.0
 22
0.0
 32
0.0
 13
1.0
 23
0.0
 33
0.0
 40
0.0
 40
0.0
 40
0.0
 40
0.0
 40
1.0
 40
1.0
 40
1.0
 40
2.0
 40
2.0
 40
2.0
 40
3.0
 40
3.0
 40
3.0
 40
4.0
 40
4.0
 40
4.0
 40
4.0
 10
93.2408202891898
 20
-159.0759059932171
 30
0.0
 10
92.99139537605771
 20
-159.0759059932171
 30
0.0
 10
92.94454207745831
 20
-159.3594373516532
 30
0.0
 10
92.94454207745831
 20
-159.7042914097267
 30
0.0
 10
92.94454207745831
 20
-160.0236517612094
 30
0.0
 10
92.98071558005344
 20
-160.3323323166878
 30
0.0
 10
93.2408202891898
 20
-160.3323323166878
 30
0.0
 10
93.48852265457926
 20
-160.3323323166878
 30
0.0
 10
93.53709850092129
 20
-160.0512125250914
 30
0.0
 10
93.53709850092129
 20
-159.7042914097267
 30
0.0
 10
93.53709850092129
 20
-159.3845865486955
 30
0.0
 10
93.49885794103501
 20
-159.0759059932171
 30
0.0
 10
93.2408202891898
 20
-159.0759059932171
 30
0.0
  0
HATCH
  5
BE
330
B6
100
AcDbEntity
  8
_U+30EC_U+30A4_U+30E4_U+30FC 1
 62
   179
420
  2234388
100
AcDbHatch
 10
0.0
 20
0.0
 30
0.0
210
0.0
220
0.0
230
1.0
  2
SOLID
 70
     1
 71
     0
 91
        2
 92
        1
 93
        1
 72
     4
 94
        3
 73
     0
 74
     1
 95
       29
 96
       25
 40
0.0
 40
0.0
 40
0.0
 40
0.0
 40
1.0
 40
1.0
 40
1.0
 40
2.0
 40
2.0
 40
2.0
 40
3.0
 40
3.0
 40
3.0
 40
4.0
 40
4.0
 40
4.0
 40
5.0
 40
5.0
 40
5.0
 40
6.0
 40
6.0
 40
6.0
 40
7.0
 40
7.0
 40
7.0
 40
8.0
 40
8.0
 40
8.0
 40
8.0
 10
93.63872881773615
 20
-160.2985703809323
 10
93.5305528194993
 20
-160.5080321864355
 10
93.35726451659124
 20
-160.5269802116044
 10
93.2408202891898
 20
-160.5269802116044
 10
93.07993433002864
 20
-160.5269802116044
 10
92.93834090558487
 20
-160.4804714225535
 10
92.84325627019197
 20
-160.2985703809323
 10
92.73955889608595
 20
-160.1039224860157
 10
92.72061087091707
 20
-159.8668999166305
 10
92.72061087091707
 20
-159.7042914097267
 10
92.72061087091707
 20
-159.5602864184433
 10
92.7374918387948
 20
-159.3084499384715
 10
92.84325627019197
 20
-159.1096679289726
 10
92.95108775888029
 20
-158.9067518048914
 10
93.11197371804145
 20
-158.8833251555917
 10
93.2408202891898
 20
-158.8833251555917
 10
93.39963919105982
 20
-158.8833251555917
 10
93.54329967279473
 20
-158.9277668873514
 10
93.63872881773615
 20
-159.1096679289726
 10
93.73794756771134
 20
-159.3022487665981
 10
93.76137421701105
 20
-159.5306585972701
 10
93.76137421701105
 20
-159.7042914097267
 10
93.76137421701105
 20
-159.8755126553436
 10
93.7400146250025
 20
-160.1059895433068
 10
93.63872881773615
 20
-160.2985703809323
 97
        0
 97
        0
 92
        1
 93
        1
 72
     4
 94
        3
 73
     0
 74
     1
 95
       17
 96
       13
 40
0.0
 40
0.0
 40
0.0
 40
0.0
 40
1.0
 40
1.0
 40
1.0
 40
2.0
 40
2.0
 40
2.0
 40
3.0
 40
3.0
 40
3.0
 40
4.0
 40
4.0
 40
4.0
 40
4.0
 10
93.2408202891898
 20
-159.0759059932171
 10
92.99139537605771
 20
-159.0759059932171
 10
92.94454207745831
 20
-159.3594373516532
 10
92.94454207745831
 20
-159.7042914097267
 10
92.94454207745831
 20
-160.0236517612094
 10
92.98071558005344
 20
-160.3323323166878
 10
93.2408202891898
 20
-160.3323323166878
 10
93.48852265457926
 20
-160.3323323166878
 10
93.53709850092129
 20
-160.0512125250914
 10
93.53709850092129
 20
-159.7042914097267
 10
93.53709850092129
 20
-159.3845865486955
 10
93.49885794103501
 20
-159.0759059932171
 10
93.2408202891898
 20
-159.0759059932171
 97
        0
 97
        0
 75
     2
 76
     1
 98
        0
  0
ENDBLK
  5
B9
330
B6
100
AcDbEntity
  8
0
100
AcDbBlockEnd
  0
BLOCK
  5
CD
330
CB
100
AcDbEntity
  8
0
100
AcDbBlockBegin
  2
block 5
 70
     0
 10
0.0
 20
0.0
 30
0.0
  3
block 5
  1

  0
SPLINE
  5
CF
330
CB
100
AcDbEntity
  8
_U+30EC_U+30A4_U+30E4_U+30FC 1
370
     0
100
AcDbSpline
210
0.0
220
0.0
230
1.0
 70
    11
 71
     3
 72
    32
 73
    28
 74
     0
 42
0.0000000001
 43
0.0000000001
 12
1.0
 22
0.0
 32
0.0
 13
1.0
 23
0.0
 33
0.0
 40
0.0
 40
0.0
 40
0.0
 40
0.0
 40
1.0
 40
1.0
 40
1.0
 40
2.0
 40
2.0
 40
2.0
 40
3.0
 40
3.0
 40
3.0
 40
4.0
 40
4.0
 40
4.0
 40
5.0
 40
5.0
 40
5.0
 40
6.0
 40
6.0
 40
6.0
 40
7.0
 40
7.0
 40
7.0
 40
8.0
 40
8.0
 40
8.0
 40
9.0
 40
9.0
 40
9.0
 40
9.0
 10
100.6563883211901
 20
-160.5269802116044
 30
0.0
 10
100.1403130174997
 20
-160.5269802116044
 30
0.0
 10
100.1317002787865
 20
-159.9730088575762
 30
0.0
 10
100.1317002787865
 20
-159.7590684279422
 30
0.0
 10
100.1317002787865
 20
-159.528591539979
 30
0.0
 10
100.1509928135039
 20
-158.8812580983005
 30
0.0
 10
100.6946288810763
 20
-158.8812580983005
 30
0.0
 10
100.8679171839844
 20
-158.8812580983005
 30
0.0
 10
101.1135524920827
 20
-158.9511935366511
 30
0.0
 10
101.1514485424205
 20
-159.2833007414292
 30
0.0
 10
101.1514485424205
 20
-159.2833007414292
 30
0.0
 10
100.937852622335
 20
-159.2833007414292
 30
0.0
 10
100.937852622335
 20
-159.2833007414292
 30
0.0
 10
100.9271728263307
 20
-159.226112156374
 30
0.0
 10
100.8954779478664
 20
-159.0779730505083
 30
0.0
 10
100.6925618237852
 20
-159.0779730505083
 30
0.0
 10
100.400417726636
 20
-159.0779730505083
 30
0.0
 10
100.3604546190071
 20
-159.4059461407041
 30
0.0
 10
100.3477077657117
 20
-159.6109293220764
 30
0.0
 10
100.4407253438134
 20
-159.5327256545613
 30
0.0
 10
100.5085937248729
 20
-159.473470012215
 30
0.0
 10
100.690494766494
 20
-159.473470012215
 30
0.0
 10
100.8703287508241
 20
-159.473470012215
 30
0.0
 10
101.172808134429
 20
-159.5816460104518
 30
0.0
 10
101.172808134429
 20
-159.9878227681628
 30
0.0
 10
101.172808134429
 20
-160.3071831196454
 30
0.0
 10
100.9736816153816
 20
-160.5269802116044
 30
0.0
 10
100.6563883211901
 20
-160.5269802116044
 30
0.0
  0
SPLINE
  5
D0
330
CB
100
AcDbEntity
  8
_U+30EC_U+30A4_U+30E4_U+30FC 1
370
     0
100
AcDbSpline
210
0.0
220
0.0
230
1.0
 70
    11
 71
     3
 72
    17
 73
    13
 74
     0
 42
0.0000000001
 43
0.0000000001
 12
1.0
 22
0.0
 32
0.0
 13
1.0
 23
0.0
 33
0.0
 40
0.0
 40
0.0
 40
0.0
 40
0.0
 40
1.0
 40
1.0
 40
1.0
 40
2.0
 40
2.0
 40
2.0
 40
3.0
 40
3.0
 40
3.0
 40
4.0
 40
4.0
 40
4.0
 40
4.0
 10
100.6732692890678
 20
-159.6681179071316
 30
0.0
 10
100.4110975226403
 20
-159.6681179071316
 30
0.0
 10
100.3732014723025
 20
-159.8796467699259
 30
0.0
 10
100.3732014723025
 20
-159.9960909973274
 30
0.0
 10
100.3732014723025
 20
-160.1717908670751
 30
0.0
 10
100.4682861076954
 20
-160.3347438835274
 30
0.0
 10
100.6522542066078
 20
-160.3347438835274
 30
0.0
 10
100.7728325485915
 20
-160.3347438835274
 30
0.0
 10
100.9485324183393
 20
-160.2754882411811
 30
0.0
 10
100.9485324183393
 20
-159.9898898254539
 30
0.0
 10
100.9485324183393
 20
-159.7656141093642
 30
0.0
 10
100.8090060511866
 20
-159.6681179071316
 30
0.0
 10
100.6732692890678
 20
-159.6681179071316
 30
0.0
  0
HATCH
  5
D1
330
CB
100
AcDbEntity
  8
_U+30EC_U+30A4_U+30E4_U+30FC 1
 62
   179
420
  2234388
100
AcDbHatch
 10
0.0
 20
0.0
 30
0.0
210
0.0
220
0.0
230
1.0
  2
SOLID
 70
     1
 71
     0
 91
        2
 92
        1
 93
        1
 72
     4
 94
        3
 73
     0
 74
     1
 95
       32
 96
       28
 40
0.0
 40
0.0
 40
0.0
 40
0.0
 40
1.0
 40
1.0
 40
1.0
 40
2.0
 40
2.0
 40
2.0
 40
3.0
 40
3.0
 40
3.0
 40
4.0
 40
4.0
 40
4.0
 40
5.0
 40
5.0
 40
5.0
 40
6.0
 40
6.0
 40
6.0
 40
7.0
 40
7.0
 40
7.0
 40
8.0
 40
8.0
 40
8.0
 40
9.0
 40
9.0
 40
9.0
 40
9.0
 10
100.6563883211901
 20
-160.5269802116044
 10
100.1403130174997
 20
-160.5269802116044
 10
100.1317002787865
 20
-159.9730088575762
 10
100.1317002787865
 20
-159.7590684279422
 10
100.1317002787865
 20
-159.528591539979
 10
100.1509928135039
 20
-158.8812580983005
 10
100.6946288810763
 20
-158.8812580983005
 10
100.8679171839844
 20
-158.8812580983005
 10
101.1135524920827
 20
-158.9511935366511
 10
101.1514485424205
 20
-159.2833007414292
 10
101.1514485424205
 20
-159.2833007414292
 10
100.937852622335
 20
-159.2833007414292
 10
100.937852622335
 20
-159.2833007414292
 10
100.9271728263307
 20
-159.226112156374
 10
100.8954779478664
 20
-159.0779730505083
 10
100.6925618237852
 20
-159.0779730505083
 10
100.400417726636
 20
-159.0779730505083
 10
100.3604546190071
 20
-159.4059461407041
 10
100.3477077657117
 20
-159.6109293220764
 10
100.4407253438134
 20
-159.5327256545613
 10
100.5085937248729
 20
-159.473470012215
 10
100.690494766494
 20
-159.473470012215
 10
100.8703287508241
 20
-159.473470012215
 10
101.172808134429
 20
-159.5816460104518
 10
101.172808134429
 20
-159.9878227681628
 10
101.172808134429
 20
-160.3071831196454
 10
100.9736816153816
 20
-160.5269802116044
 10
100.6563883211901
 20
-160.5269802116044
 97
        0
 97
        0
 92
        1
 93
        1
 72
     4
 94
        3
 73
     0
 74
     1
 95
       17
 96
       13
 40
0.0
 40
0.0
 40
0.0
 40
0.0
 40
1.0
 40
1.0
 40
1.0
 40
2.0
 40
2.0
 40
2.0
 40
3.0
 40
3.0
 40
3.0
 40
4.0
 40
4.0
 40
4.0
 40
4.0
 10
100.6732692890678
 20
-159.6681179071316
 10
100.4110975226403
 20
-159.6681179071316
 10
100.3732014723025
 20
-159.8796467699259
 10
100.3732014723025
 20
-159.9960909973274
 10
100.3732014723025
 20
-160.1717908670751
 10
100.4682861076954
 20
-160.3347438835274
 10
100.6522542066078
 20
-160.3347438835274
 10
100.7728325485915
 20
-160.3347438835274
 10
100.9485324183393
 20
-160.2754882411811
 10
100.9485324183393
 20
-159.9898898254539
 10
100.9485324183393
 20
-159.7656141093642
 10
100.8090060511866
 20
-159.6681179071316
 10
100.6732692890678
 20
-159.6681179071316
 97
        0
 97
        0
 75
     2
 76
     1
 98
        0
  0
ENDBLK
  5
CE
330
CB
100
AcDbEntity
  8
0
100
AcDbBlockEnd
  0
BLOCK
  5
DC
330
DA
100
AcDbEntity
  8
0
100
AcDbBlockBegin
  2
block 6
 70
     0
 10
0.0
 20
0.0
 30
0.0
  3
block 6
  1

  0
SPLINE
  5
DE
330
DA
100
AcDbEntity
  8
_U+30EC_U+30A4_U+30E4_U+30FC 1
370
     0
100
AcDbSpline
210
0.0
220
0.0
230
1.0
 70
    11
 71
     3
 72
    26
 73
    22
 74
     0
 42
0.0000000001
 43
0.0000000001
 12
1.0
 22
0.0
 32
0.0
 13
1.0
 23
0.0
 33
0.0
 40
0.0
 40
0.0
 40
0.0
 40
0.0
 40
1.0
 40
1.0
 40
1.0
 40
2.0
 40
2.0
 40
2.0
 40
3.0
 40
3.0
 40
3.0
 40
4.0
 40
4.0
 40
4.0
 40
5.0
 40
5.0
 40
5.0
 40
6.0
 40
6.0
 40
6.0
 40
7.0
 40
7.0
 40
7.0
 40
7.0
 10
121.0065673525609
 20
-151.2710421713836
 30
0.0
 10
121.0065673525609
 20
-151.2710421713836
 30
0.0
 10
119.9024142495383
 20
-151.2710421713836
 30
0.0
 10
119.9024142495383
 20
-151.2710421713836
 30
0.0
 10
119.9024142495383
 20
-151.2710421713836
 30
0.0
 10
119.9024142495383
 20
-151.6010823188706
 30
0.0
 10
119.9024142495383
 20
-151.6010823188706
 30
0.0
 10
119.9024142495383
 20
-151.6010823188706
 30
0.0
 10
119.7542751436725
 20
-151.6010823188706
 30
0.0
 10
119.7542751436725
 20
-151.6010823188706
 30
0.0
 10
119.739461233086
 20
-151.2689751140925
 30
0.0
 10
119.5765082166337
 20
-151.2224663250416
 30
0.0
 10
119.4621310465234
 20
-151.1928385038685
 30
0.0
 10
119.4621310465234
 20
-151.1928385038685
 30
0.0
 10
119.4621310465234
 20
-151.0467664552939
 30
0.0
 10
119.4621310465234
 20
-151.0467664552939
 30
0.0
 10
119.4621310465234
 20
-151.0467664552939
 30
0.0
 10
121.0065673525609
 20
-151.0467664552939
 30
0.0
 10
121.0065673525609
 20
-151.0467664552939
 30
0.0
 10
121.0065673525609
 20
-151.0467664552939
 30
0.0
 10
121.0065673525609
 20
-151.2710421713836
 30
0.0
 10
121.0065673525609
 20
-151.2710421713836
 30
0.0
  0
HATCH
  5
DF
330
DA
100
AcDbEntity
  8
_U+30EC_U+30A4_U+30E4_U+30FC 1
 62
   179
420
  2234388
100
AcDbHatch
 10
0.0
 20
0.0
 30
0.0
210
0.0
220
0.0
230
1.0
  2
SOLID
 70
     1
 71
     0
 91
        1
 92
        1
 93
        1
 72
     4
 94
        3
 73
     0
 74
     1
 95
       26
 96
       22
 40
0.0
 40
0.0
 40
0.0
 40
0.0
 40
1.0
 40
1.0
 40
1.0
 40
2.0
 40
2.0
 40
2.0
 40
3.0
 40
3.0
 40
3.0
 40
4.0
 40
4.0
 40
4.0
 40
5.0
 40
5.0
 40
5.0
 40
6.0
 40
6.0
 40
6.0
 40
7.0
 40
7.0
 40
7.0
 40
7.0
 10
121.0065673525609
 20
-151.2710421713836
 10
121.0065673525609
 20
-151.2710421713836
 10
119.9024142495383
 20
-151.2710421713836
 10
119.9024142495383
 20
-151.2710421713836
 10
119.9024142495383
 20
-151.2710421713836
 10
119.9024142495383
 20
-151.6010823188706
 10
119.9024142495383
 20
-151.6010823188706
 10
119.9024142495383
 20
-151.6010823188706
 10
119.7542751436725
 20
-151.6010823188706
 10
119.7542751436725
 20
-151.6010823188706
 10
119.739461233086
 20
-151.2689751140925
 10
119.5765082166337
 20
-151.2224663250416
 10
119.4621310465234
 20
-151.1928385038685
 10
119.4621310465234
 20
-151.1928385038685
 10
119.4621310465234
 20
-151.0467664552939
 10
119.4621310465234
 20
-151.0467664552939
 10
119.4621310465234
 20
-151.0467664552939
 10
121.0065673525609
 20
-151.0467664552939
 10
121.0065673525609
 20
-151.0467664552939
 10
121.0065673525609
 20
-151.0467664552939
 10
121.0065673525609
 20
-151.2710421713836
 10
121.0065673525609
 20
-151.2710421713836
 97
        0
 97
        0
 75
     2
 76
     1
 98
        0
  0
SPLINE
  5
E0
330
DA
100
AcDbEntity
  8
_U+30EC_U+30A4_U+30E4_U+30FC 1
370
     0
100
AcDbSpline
210
0.0
220
0.0
230
1.0
 70
    11
 71
     3
 72
    44
 73
    40
 74
     0
 42
0.0000000001
 43
0.0000000001
 12
1.0
 22
0.0
 32
0.0
 13
1.0
 23
0.0
 33
0.0
 40
0.0
 40
0.0
 40
0.0
 40
0.0
 40
1.0
 40
1.0
 40
1.0
 40
2.0
 40
2.0
 40
2.0
 40
3.0
 40
3.0
 40
3.0
 40
4.0
 40
4.0
 40
4.0
 40
5.0
 40
5.0
 40
5.0
 40
6.0
 40
6.0
 40
6.0
 40
7.0
 40
7.0
 40
7.0
 40
8.0
 40
8.0
 40
8.0
 40
9.0
 40
9.0
 40
9.0
 40
10.0
 40
10.0
 40
10.0
 40
11.0
 40
11.0
 40
11.0
 40
12.0
 40
12.0
 40
12.0
 40
13.0
 40
13.0
 40
13.0
 40
13.0
 10
120.4246907251022
 20
-149.9526041291785
 30
0.0
 10
120.5835096269722
 20
-150.1703341638463
 30
0.0
 10
120.6575791799051
 20
-150.2633517419481
 30
0.0
 10
120.80123966164
 20
-150.3122720978386
 30
0.0
 10
120.80123966164
 20
-150.3122720978386
 30
0.0
 10
120.80123966164
 20
-149.5336805181721
 30
0.0
 10
120.80123966164
 20
-149.5336805181721
 30
0.0
 10
120.80123966164
 20
-149.5336805181721
 30
0.0
 10
121.0065673525609
 20
-149.5336805181721
 30
0.0
 10
121.0065673525609
 20
-149.5336805181721
 30
0.0
 10
121.0065673525609
 20
-149.5336805181721
 30
0.0
 10
121.0065673525609
 20
-150.5616970109707
 30
0.0
 10
121.0065673525609
 20
-150.5616970109707
 30
0.0
 10
120.6489664411919
 20
-150.5300021325064
 30
0.0
 10
120.5707627736768
 20
-150.4645453182866
 30
0.0
 10
120.2724175046541
 20
-150.0793836430357
 30
0.0
 10
120.0736354951552
 20
-149.8234130484817
 30
0.0
 10
120.0057671140958
 20
-149.7579562342619
 30
0.0
 10
119.8683078042343
 20
-149.7579562342619
 30
0.0
 10
119.7497965195417
 20
-149.7579562342619
 30
0.0
 10
119.6188828911022
 20
-149.8299587299036
 30
0.0
 10
119.6188828911022
 20
-150.0266736821114
 30
0.0
 10
119.6188828911022
 20
-150.2867783912478
 30
0.0
 10
119.8493597790654
 20
-150.2950466204124
 30
0.0
 10
119.9658040064669
 20
-150.2995252445432
 30
0.0
 10
119.9658040064669
 20
-150.2995252445432
 30
0.0
 10
119.9658040064669
 20
-150.5238009606329
 30
0.0
 10
119.9658040064669
 20
-150.5238009606329
 30
0.0
 10
119.8386799830612
 20
-150.5151882219198
 30
0.0
 10
119.7267143797906
 20
-150.5045084259156
 30
0.0
 10
119.6082030950979
 20
-150.4242377011092
 30
0.0
 10
119.4473171359368
 20
-150.3143391551297
 30
0.0
 10
119.4135552001813
 20
-150.1279594893777
 30
0.0
 10
119.4135552001813
 20
-150.0118597715248
 30
0.0
 10
119.4135552001813
 20
-149.7345295849622
 30
0.0
 10
119.5975232990937
 20
-149.5271348367502
 30
0.0
 10
119.8703748615255
 20
-149.5271348367502
 30
0.0
 10
120.0991292017461
 20
-149.5271348367502
 30
0.0
 10
120.1983479517212
 20
-149.6435790641516
 30
0.0
 10
120.4246907251022
 20
-149.9526041291785
 30
0.0
  0
HATCH
  5
E1
330
DA
100
AcDbEntity
  8
_U+30EC_U+30A4_U+30E4_U+30FC 1
 62
   179
420
  2234388
100
AcDbHatch
 10
0.0
 20
0.0
 30
0.0
210
0.0
220
0.0
230
1.0
  2
SOLID
 70
     1
 71
     0
 91
        1
 92
        1
 93
        1
 72
     4
 94
        3
 73
     0
 74
     1
 95
       44
 96
       40
 40
0.0
 40
0.0
 40
0.0
 40
0.0
 40
1.0
 40
1.0
 40
1.0
 40
2.0
 40
2.0
 40
2.0
 40
3.0
 40
3.0
 40
3.0
 40
4.0
 40
4.0
 40
4.0
 40
5.0
 40
5.0
 40
5.0
 40
6.0
 40
6.0
 40
6.0
 40
7.0
 40
7.0
 40
7.0
 40
8.0
 40
8.0
 40
8.0
 40
9.0
 40
9.0
 40
9.0
 40
10.0
 40
10.0
 40
10.0
 40
11.0
 40
11.0
 40
11.0
 40
12.0
 40
12.0
 40
12.0
 40
13.0
 40
13.0
 40
13.0
 40
13.0
 10
120.4246907251022
 20
-149.9526041291785
 10
120.5835096269722
 20
-150.1703341638463
 10
120.6575791799051
 20
-150.2633517419481
 10
120.80123966164
 20
-150.3122720978386
 10
120.80123966164
 20
-150.3122720978386
 10
120.80123966164
 20
-149.5336805181721
 10
120.80123966164
 20
-149.5336805181721
 10
120.80123966164
 20
-149.5336805181721
 10
121.0065673525609
 20
-149.5336805181721
 10
121.0065673525609
 20
-149.5336805181721
 10
121.0065673525609
 20
-149.5336805181721
 10
121.0065673525609
 20
-150.5616970109707
 10
121.0065673525609
 20
-150.5616970109707
 10
120.6489664411919
 20
-150.5300021325064
 10
120.5707627736768
 20
-150.4645453182866
 10
120.2724175046541
 20
-150.0793836430357
 10
120.0736354951552
 20
-149.8234130484817
 10
120.0057671140958
 20
-149.7579562342619
 10
119.8683078042343
 20
-149.7579562342619
 10
119.7497965195417
 20
-149.7579562342619
 10
119.6188828911022
 20
-149.8299587299036
 10
119.6188828911022
 20
-150.0266736821114
 10
119.6188828911022
 20
-150.2867783912478
 10
119.8493597790654
 20
-150.2950466204124
 10
119.9658040064669
 20
-150.2995252445432
 10
119.9658040064669
 20
-150.2995252445432
 10
119.9658040064669
 20
-150.5238009606329
 10
119.9658040064669
 20
-150.5238009606329
 10
119.8386799830612
 20
-150.5151882219198
 10
119.7267143797906
 20
-150.5045084259156
 10
119.6082030950979
 20
-150.4242377011092
 10
119.4473171359368
 20
-150.3143391551297
 10
119.4135552001813
 20
-150.1279594893777
 10
119.4135552001813
 20
-150.0118597715248
 10
119.4135552001813
 20
-149.7345295849622
 10
119.5975232990937
 20
-149.5271348367502
 10
119.8703748615255
 20
-149.5271348367502
 10
120.0991292017461
 20
-149.5271348367502
 10
120.1983479517212
 20
-149.6435790641516
 10
120.4246907251022
 20
-149.9526041291785
 97
        0
 97
        0
 75
     2
 76
     1
 98
        0
  0
POLYLINE
  5
E2
330
DA
100
AcDbEntity
  8
_U+30EC_U+30A4_U+30E4_U+30FC 1
370
     0
100
AcDb2dPolyline
 66
     1
 10
0.0
 20
0.0
 30
0.0
  0
VERTEX
  5
E3
330
E2
100
AcDbEntity
  8
_U+30EC_U+30A4_U+30E4_U+30FC 1
370
     0
100
AcDbVertex
100
AcDb2dVertex
 10
121.0065673525609
 20
-149.3087157829853
 30
0.0
  0
VERTEX
  5
E4
330
E2
100
AcDbEntity
  8
_U+30EC_U+30A4_U+30E4_U+30FC 1
370
     0
100
AcDbVertex
100
AcDb2dVertex
 10
120.7547308725891
 20
-149.3087157829853
 30
0.0
  0
VERTEX
  5
E5
330
E2
100
AcDbEntity
  8
_U+30EC_U+30A4_U+30E4_U+30FC 1
370
     0
100
AcDbVertex
100
AcDb2dVertex
 10
120.7547308725891
 20
-149.0568793030136
 30
0.0
  0
VERTEX
  5
E6
330
E2
100
AcDbEntity
  8
_U+30EC_U+30A4_U+30E4_U+30FC 1
370
     0
100
AcDbVertex
100
AcDb2dVertex
 10
121.0065673525609
 20
-149.0568793030136
 30
0.0
  0
VERTEX
  5
E7
330
E2
100
AcDbEntity
  8
_U+30EC_U+30A4_U+30E4_U+30FC 1
370
     0
100
AcDbVertex
100
AcDb2dVertex
 10
121.0065673525609
 20
-149.3087157829853
 30
0.0
  0
SEQEND
  5
E8
330
E2
100
AcDbEntity
  8
_U+30EC_U+30A4_U+30E4_U+30FC 1
370
     0
  0
HATCH
  5
E9
330
DA
100
AcDbEntity
  8
_U+30EC_U+30A4_U+30E4_U+30FC 1
 62
   179
420
  2234388
100
AcDbHatch
 10
0.0
 20
0.0
 30
0.0
210
0.0
220
0.0
230
1.0
  2
SOLID
 70
     1
 71
     0
 91
        1
 92
        1
 93
        4
 72
     1
 10
121.0065673525609
 20
-149.3087157829853
 11
120.7547308725891
 21
-149.3087157829853
 72
     1
 10
120.7547308725891
 20
-149.3087157829853
 11
120.7547308725891
 21
-149.0568793030136
 72
     1
 10
120.7547308725891
 20
-149.0568793030136
 11
121.0065673525609
 21
-149.0568793030136
 72
     1
 10
121.0065673525609
 20
-149.0568793030136
 11
121.0065673525609
 21
-149.3087157829853
 97
        0
 75
     2
 76
     1
 98
        0
  0
SPLINE
  5
EA
330
DA
100
AcDbEntity
  8
_U+30EC_U+30A4_U+30E4_U+30FC 1
370
     0
100
AcDbSpline
210
0.0
220
0.0
230
1.0
 70
    11
 71
     3
 72
    26
 73
    22
 74
     0
 42
0.0000000001
 43
0.0000000001
 12
1.0
 22
0.0
 32
0.0
 13
1.0
 23
0.0
 33
0.0
 40
0.0
 40
0.0
 40
0.0
 40
0.0
 40
1.0
 40
1.0
 40
1.0
 40
2.0
 40
2.0
 40
2.0
 40
3.0
 40
3.0
 40
3.0
 40
4.0
 40
4.0
 40
4.0
 40
5.0
 40
5.0
 40
5.0
 40
6.0
 40
6.0
 40
6.0
 40
7.0
 40
7.0
 40
7.0
 40
7.0
 10
121.0065673525609
 20
-148.4095458613351
 30
0.0
 10
121.0065673525609
 20
-148.4095458613351
 30
0.0
 10
121.0065673525609
 20
-148.6465684307203
 30
0.0
 10
121.0065673525609
 20
-148.6465684307203
 30
0.0
 10
120.6975422875339
 20
-148.6210747241295
 30
0.0
 10
120.1793999265524
 20
-148.428493886504
 30
0.0
 10
119.6736599093177
 20
-148.022317128793
 30
0.0
 10
119.6736599093177
 20
-148.022317128793
 30
0.0
 10
119.6736599093177
 20
-148.8601643508058
 30
0.0
 10
119.6736599093177
 20
-148.8601643508058
 30
0.0
 10
119.6736599093177
 20
-148.8601643508058
 30
0.0
 10
119.4621310465234
 20
-148.8601643508058
 30
0.0
 10
119.4621310465234
 20
-148.8601643508058
 30
0.0
 10
119.4621310465234
 20
-148.8601643508058
 30
0.0
 10
119.4621310465234
 20
-147.7852945594078
 30
0.0
 10
119.4621310465234
 20
-147.7852945594078
 30
0.0
 10
119.4621310465234
 20
-147.7852945594078
 30
0.0
 10
119.6736599093177
 20
-147.7852945594078
 30
0.0
 10
119.6736599093177
 20
-147.7852945594078
 30
0.0
 10
119.9637369491757
 20
-148.1091335350213
 30
0.0
 10
120.5559488630902
 20
-148.3757839255797
 30
0.0
 10
121.0065673525609
 20
-148.4095458613351
 30
0.0
  0
HATCH
  5
EB
330
DA
100
AcDbEntity
  8
_U+30EC_U+30A4_U+30E4_U+30FC 1
 62
   179
420
  2234388
100
AcDbHatch
 10
0.0
 20
0.0
 30
0.0
210
0.0
220
0.0
230
1.0
  2
SOLID
 70
     1
 71
     0
 91
        1
 92
        1
 93
        1
 72
     4
 94
        3
 73
     0
 74
     1
 95
       26
 96
       22
 40
0.0
 40
0.0
 40
0.0
 40
0.0
 40
1.0
 40
1.0
 40
1.0
 40
2.0
 40
2.0
 40
2.0
 40
3.0
 40
3.0
 40
3.0
 40
4.0
 40
4.0
 40
4.0
 40
5.0
 40
5.0
 40
5.0
 40
6.0
 40
6.0
 40
6.0
 40
7.0
 40
7.0
 40
7.0
 40
7.0
 10
121.0065673525609
 20
-148.4095458613351
 10
121.0065673525609
 20
-148.4095458613351
 10
121.0065673525609
 20
-148.6465684307203
 10
121.0065673525609
 20
-148.6465684307203
 10
120.6975422875339
 20
-148.6210747241295
 10
120.1793999265524
 20
-148.428493886504
 10
119.6736599093177
 20
-148.022317128793
 10
119.6736599093177
 20
-148.022317128793
 10
119.6736599093177
 20
-148.8601643508058
 10
119.6736599093177
 20
-148.8601643508058
 10
119.6736599093177
 20
-148.8601643508058
 10
119.4621310465234
 20
-148.8601643508058
 10
119.4621310465234
 20
-148.8601643508058
 10
119.4621310465234
 20
-148.8601643508058
 10
119.4621310465234
 20
-147.7852945594078
 10
119.4621310465234
 20
-147.7852945594078
 10
119.4621310465234
 20
-147.7852945594078
 10
119.6736599093177
 20
-147.7852945594078
 10
119.6736599093177
 20
-147.7852945594078
 10
119.9637369491757
 20
-148.1091335350213
 10
120.5559488630902
 20
-148.3757839255797
 10
121.0065673525609
 20
-148.4095458613351
 97
        0
 97
        0
 75
     2
 76
     1
 98
        0
  0
ENDBLK
  5
DD
330
DA
100
AcDbEntity
  8
0
100
AcDbBlockEnd
  0
ENDSEC
  0
SECTION
  2
ENTITIES
  0
POLYLINE
  5
41
330
1F
100
AcDbEntity
  8
_U+30EC_U+30A4_U+30E4_U+30FC 1
370
     0
100
AcDb2dPolyline
 66
     1
 10
0.0
 20
0.0
 30
0.0
  0
VERTEX
  5
42
330
41
100
AcDbEntity
  8
_U+30EC_U+30A4_U+30E4_U+30FC 1
370
     0
100
AcDbVertex
100
AcDb2dVertex
 10
87.58960408034328
 20
-143.4218442770243
 30
0.0
  0
VERTEX
  5
43
330
41
100
AcDbEntity
  8
_U+30EC_U+30A4_U+30E4_U+30FC 1
370
     0
100
AcDbVertex
100
AcDb2dVertex
 10
97.65293254530248
 20
-143.4218442770243
 30
0.0
  0
VERTEX
  5
44
330
41
100
AcDbEntity
  8
_U+30EC_U+30A4_U+30E4_U+30FC 1
370
     0
100
AcDbVertex
100
AcDb2dVertex
 10
97.65293254530248
 20
-157.1230320855565
 30
0.0
  0
VERTEX
  5
45
330
41
100
AcDbEntity
  8
_U+30EC_U+30A4_U+30E4_U+30FC 1
370
     0
100
AcDbVertex
100
AcDb2dVertex
 10
103.6533307134259
 20
-157.1230320855565
 30
0.0
  0
VERTEX
  5
46
330
41
100
AcDbEntity
  8
_U+30EC_U+30A4_U+30E4_U+30FC 1
370
     0
100
AcDbVertex
100
AcDb2dVertex
 10
103.6533307134259
 20
-156.1225548247932
 30
0.0
  0
VERTEX
  5
47
330
41
100
AcDbEntity
  8
_U+30EC_U+30A4_U+30E4_U+30FC 1
370
     0
100
AcDbVertex
100
AcDb2dVertex
 10
98.5532221229854
 20
-156.1225548247932
 30
0.0
  0
VERTEX
  5
48
330
41
100
AcDbEntity
  8
_U+30EC_U+30A4_U+30E4_U+30FC 1
370
     0
100
AcDbVertex
100
AcDb2dVertex
 10
98.5532221229854
 20
-143.4218442770243
 30
0.0
  0
VERTEX
  5
49
330
41
100
AcDbEntity
  8
_U+30EC_U+30A4_U+30E4_U+30FC 1
370
     0
100
AcDbVertex
100
AcDb2dVertex
 10
117.6533267256865
 20
-143.4218442770243
 30
0.0
  0
VERTEX
  5
4A
330
41
100
AcDbEntity
  8
_U+30EC_U+30A4_U+30E4_U+30FC 1
370
     0
100
AcDbVertex
100
AcDb2dVertex
 10
117.6533267256865
 20
-142.4220775672048
 30
0.0
  0
VERTEX
  5
4B
330
41
100
AcDbEntity
  8
_U+30EC_U+30A4_U+30E4_U+30FC 1
370
     0
100
AcDbVertex
100
AcDb2dVertex
 10
87.58960408034328
 20
-142.4220775672048
 30
0.0
  0
VERTEX
  5
4C
330
41
100
AcDbEntity
  8
_U+30EC_U+30A4_U+30E4_U+30FC 1
370
     0
100
AcDbVertex
100
AcDb2dVertex
 10
87.58960408034328
 20
-143.4218442770243
 30
0.0
  0
SEQEND
  5
4E
330
41
100
AcDbEntity
  8
_U+30EC_U+30A4_U+30E4_U+30FC 1
370
     0
  0
HATCH
  5
4D
330
1F
100
AcDbEntity
  8
_U+30EC_U+30A4_U+30E4_U+30FC 1
 62
     9
420
 13224394
100
AcDbHatch
 10
0.0
 20
0.0
 30
0.0
210
0.0
220
0.0
230
1.0
  2
SOLID
 70
     1
 71
     0
 91
        1
 92
        1
 93
       10
 72
     1
 10
87.58960408034328
 20
-143.4218442770243
 11
97.65293254530248
 21
-143.4218442770243
 72
     1
 10
97.65293254530248
 20
-143.4218442770243
 11
97.65293254530248
 21
-157.1230320855565
 72
     1
 10
97.65293254530248
 20
-157.1230320855565
 11
103.6533307134259
 21
-157.1230320855565
 72
     1
 10
103.6533307134259
 20
-157.1230320855565
 11
103.6533307134259
 21
-156.1225548247932
 72
     1
 10
103.6533307134259
 20
-156.1225548247932
 11
98.5532221229854
 21
-156.1225548247932
 72
     1
 10
98.5532221229854
 20
-156.1225548247932
 11
98.5532221229854
 21
-143.4218442770243
 72
     1
 10
98.5532221229854
 20
-143.4218442770243
 11
117.6533267256865
 21
-143.4218442770243
 72
     1
 10
117.6533267256865
 20
-143.4218442770243
 11
117.6533267256865
 21
-142.4220775672048
 72
     1
 10
117.6533267256865
 20
-142.4220775672048
 11
87.58960408034328
 21
-142.4220775672048
 72
     1
 10
87.58960408034328
 20
-142.4220775672048
 11
87.58960408034328
 21
-143.4218442770243
 97
        0
 75
     2
 76
     1
 98
        0
  0
POLYLINE
  5
4F
330
1F
100
AcDbEntity
  8
_U+30EC_U+30A4_U+30E4_U+30FC 1
 62
   179
420
  2234388
370
    25
100
AcDb2dPolyline
 66
     1
 10
0.0
 20
0.0
 30
0.0
  0
VERTEX
  5
50
330
4F
100
AcDbEntity
  8
_U+30EC_U+30A4_U+30E4_U+30FC 1
 62
   179
420
  2234388
370
    25
100
AcDbVertex
100
AcDb2dVertex
 10
87.65296153950169
 20
-142.4220775672048
 30
0.0
  0
VERTEX
  5
51
330
4F
100
AcDbEntity
  8
_U+30EC_U+30A4_U+30E4_U+30FC 1
 62
   179
420
  2234388
370
    25
100
AcDbVertex
100
AcDb2dVertex
 10
117.653176002759
 20
-142.4220775672048
 30
0.0
  0
SEQEND
  5
52
330
4F
100
AcDbEntity
  8
_U+30EC_U+30A4_U+30E4_U+30FC 1
 62
   179
420
  2234388
370
    25
  0
POLYLINE
  5
53
330
1F
100
AcDbEntity
  8
_U+30EC_U+30A4_U+30E4_U+30FC 1
 62
   179
420
  2234388
370
    25
100
AcDb2dPolyline
 66
     1
 10
0.0
 20
0.0
 30
0.0
  0
VERTEX
  5
54
330
53
100
AcDbEntity
  8
_U+30EC_U+30A4_U+30E4_U+30FC 1
 62
   179
420
  2234388
370
    25
100
AcDbVertex
100
AcDb2dVertex
 10
87.65334911274411
 20
-143.4218442770243
 30
0.0
  0
VERTEX
  5
55
330
53
100
AcDbEntity
  8
_U+30EC_U+30A4_U+30E4_U+30FC 1
 62
   179
420
  2234388
370
    25
100
AcDbVertex
100
AcDb2dVertex
 10
97.65318016154049
 20
-143.4218442770243
 30
0.0
  0
SEQEND
  5
56
330
53
100
AcDbEntity
  8
_U+30EC_U+30A4_U+30E4_U+30FC 1
 62
   179
420
  2234388
370
    25
  0
POLYLINE
  5
57
330
1F
100
AcDbEntity
  8
_U+30EC_U+30A4_U+30E4_U+30FC 1
 62
   179
420
  2234388
370
    25
100
AcDb2dPolyline
 66
     1
 10
0.0
 20
0.0
 30
0.0
  0
VERTEX
  5
58
330
57
100
AcDbEntity
  8
_U+30EC_U+30A4_U+30E4_U+30FC 1
 62
   179
420
  2234388
370
    25
100
AcDbVertex
100
AcDb2dVertex
 10
97.65308326823029
 20
-143.4218442770243
 30
0.0
  0
VERTEX
  5
59
330
57
100
AcDbEntity
  8
_U+30EC_U+30A4_U+30E4_U+30FC 1
 62
   179
420
  2234388
370
    25
100
AcDbVertex
100
AcDb2dVertex
 10
97.65308326823029
 20
-157.1230320855565
 30
0.0
  0
SEQEND
  5
5A
330
57
100
AcDbEntity
  8
_U+30EC_U+30A4_U+30E4_U+30FC 1
 62
   179
420
  2234388
370
    25
  0
POLYLINE
  5
5B
330
1F
100
AcDbEntity
  8
_U+30EC_U+30A4_U+30E4_U+30FC 1
 62
   179
420
  2234388
370
    25
100
AcDb2dPolyline
 66
     1
 10
0.0
 20
0.0
 30
0.0
  0
VERTEX
  5
5C
330
5B
100
AcDbEntity
  8
_U+30EC_U+30A4_U+30E4_U+30FC 1
 62
   179
420
  2234388
370
    25
100
AcDbVertex
100
AcDb2dVertex
 10
98.55326518667896
 20
-143.4218442770243
 30
0.0
  0
VERTEX
  5
5D
330
5B
100
AcDbEntity
  8
_U+30EC_U+30A4_U+30E4_U+30FC 1
 62
   179
420
  2234388
370
    25
100
AcDbVertex
100
AcDb2dVertex
 10
117.6533590234567
 20
-143.4218442770243
 30
0.0
  0
SEQEND
  5
5E
330
5B
100
AcDbEntity
  8
_U+30EC_U+30A4_U+30E4_U+30FC 1
 62
   179
420
  2234388
370
    25
  0
POLYLINE
  5
5F
330
1F
100
AcDbEntity
  8
_U+30EC_U+30A4_U+30E4_U+30FC 1
 62
   179
420
  2234388
370
    25
100
AcDb2dPolyline
 66
     1
 10
0.0
 20
0.0
 30
0.0
  0
VERTEX
  5
60
330
5F
100
AcDbEntity
  8
_U+30EC_U+30A4_U+30E4_U+30FC 1
 62
   179
420
  2234388
370
    25
100
AcDbVertex
100
AcDb2dVertex
 10
98.55326518667896
 20
-156.1224794633294
 30
0.0
  0
VERTEX
  5
61
330
5F
100
AcDbEntity
  8
_U+30EC_U+30A4_U+30E4_U+30FC 1
 62
   179
420
  2234388
370
    25
100
AcDbVertex
100
AcDb2dVertex
 10
103.653363011196
 20
-156.1224794633294
 30
0.0
  0
SEQEND
  5
62
330
5F
100
AcDbEntity
  8
_U+30EC_U+30A4_U+30E4_U+30FC 1
 62
   179
420
  2234388
370
    25
  0
POLYLINE
  5
63
330
1F
100
AcDbEntity
  8
_U+30EC_U+30A4_U+30E4_U+30FC 1
 62
   179
420
  2234388
370
    25
100
AcDb2dPolyline
 66
     1
 10
0.0
 20
0.0
 30
0.0
  0
VERTEX
  5
64
330
63
100
AcDbEntity
  8
_U+30EC_U+30A4_U+30E4_U+30FC 1
 62
   179
420
  2234388
370
    25
100
AcDbVertex
100
AcDb2dVertex
 10
97.65308326823029
 20
-157.1229567240927
 30
0.0
  0
VERTEX
  5
65
330
63
100
AcDbEntity
  8
_U+30EC_U+30A4_U+30E4_U+30FC 1
 62
   179
420
  2234388
370
    25
100
AcDbVertex
100
AcDb2dVertex
 10
103.65347067043
 20
-157.1229567240927
 30
0.0
  0
SEQEND
  5
66
330
63
100
AcDbEntity
  8
_U+30EC_U+30A4_U+30E4_U+30FC 1
 62
   179
420
  2234388
370
    25
  0
POLYLINE
  5
67
330
1F
100
AcDbEntity
  8
_U+30EC_U+30A4_U+30E4_U+30FC 1
 62
   179
420
  2234388
370
    25
100
AcDb2dPolyline
 66
     1
 10
0.0
 20
0.0
 30
0.0
  0
VERTEX
  5
68
330
67
100
AcDbEntity
  8
_U+30EC_U+30A4_U+30E4_U+30FC 1
 62
   179
420
  2234388
370
    25
100
AcDbVertex
100
AcDb2dVertex
 10
103.6533737771194
 20
-156.1224794633294
 30
0.0
  0
VERTEX
  5
69
330
67
100
AcDbEntity
  8
_U+30EC_U+30A4_U+30E4_U+30FC 1
 62
   179
420
  2234388
370
    25
100
AcDbVertex
100
AcDb2dVertex
 10
103.6533737771194
 20
-157.1229674900162
 30
0.0
  0
SEQEND
  5
6A
330
67
100
AcDbEntity
  8
_U+30EC_U+30A4_U+30E4_U+30FC 1
 62
   179
420
  2234388
370
    25
  0
POLYLINE
  5
6B
330
1F
100
AcDbEntity
  8
_U+30EC_U+30A4_U+30E4_U+30FC 1
 62
   179
420
  2234388
370
    25
100
AcDb2dPolyline
 66
     1
 10
0.0
 20
0.0
 30
0.0
  0
VERTEX
  5
6C
330
6B
100
AcDbEntity
  8
_U+30EC_U+30A4_U+30E4_U+30FC 1
 62
   179
420
  2234388
370
    25
100
AcDbVertex
100
AcDb2dVertex
 10
87.5927154322037
 20
-142.4220775672048
 30
0.0
  0
VERTEX
  5
6D
330
6B
100
AcDbEntity
  8
_U+30EC_U+30A4_U+30E4_U+30FC 1
 62
   179
420
  2234388
370
    25
100
AcDbVertex
100
AcDb2dVertex
 10
87.5927154322037
 20
-143.4218550429477
 30
0.0
  0
SEQEND
  5
6E
330
6B
100
AcDbEntity
  8
_U+30EC_U+30A4_U+30E4_U+30FC 1
 62
   179
420
  2234388
370
    25
  0
POLYLINE
  5
6F
330
1F
100
AcDbEntity
  8
_U+30EC_U+30A4_U+30E4_U+30FC 1
 62
   179
420
  2234388
370
    25
100
AcDb2dPolyline
 66
     1
 10
0.0
 20
0.0
 30
0.0
  0
VERTEX
  5
70
330
6F
100
AcDbEntity
  8
_U+30EC_U+30A4_U+30E4_U+30FC 1
 62
   179
420
  2234388
370
    25
100
AcDbVertex
100
AcDb2dVertex
 10
117.6532190664526
 20
-142.4220775672048
 30
0.0
  0
VERTEX
  5
71
330
6F
100
AcDbEntity
  8
_U+30EC_U+30A4_U+30E4_U+30FC 1
 62
   179
420
  2234388
370
    25
100
AcDbVertex
100
AcDb2dVertex
 10
117.6532190664526
 20
-143.4218550429477
 30
0.0
  0
SEQEND
  5
72
330
6F
100
AcDbEntity
  8
_U+30EC_U+30A4_U+30E4_U+30FC 1
 62
   179
420
  2234388
370
    25
  0
POLYLINE
  5
73
330
1F
100
AcDbEntity
  8
_U+30EC_U+30A4_U+30E4_U+30FC 1
 62
   179
420
  2234388
370
    25
100
AcDb2dPolyline
 66
     1
 10
0.0
 20
0.0
 30
0.0
  0
VERTEX
  5
74
330
73
100
AcDbEntity
  8
_U+30EC_U+30A4_U+30E4_U+30FC 1
 62
   179
420
  2234388
370
    25
100
AcDbVertex
100
AcDb2dVertex
 10
98.55326518667896
 20
-143.4218442770243
 30
0.0
  0
VERTEX
  5
75
330
73
100
AcDbEntity
  8
_U+30EC_U+30A4_U+30E4_U+30FC 1
 62
   179
420
  2234388
370
    25
100
AcDbVertex
100
AcDb2dVertex
 10
98.55326518667896
 20
-156.1225548247932
 30
0.0
  0
SEQEND
  5
76
330
73
100
AcDbEntity
  8
_U+30EC_U+30A4_U+30E4_U+30FC 1
 62
   179
420
  2234388
370
    25
  0
SPLINE
  5
77
330
1F
100
AcDbEntity
  8
_U+30EC_U+30A4_U+30E4_U+30FC 1
 62
   179
420
  2234388
370
     9
100
AcDbSpline
210
0.0
220
0.0
230
1.0
 70
    11
 71
     3
 72
    17
 73
    13
 74
     0
 42
0.0000000001
 43
0.0000000001
 12
1.0
 22
0.0
 32
0.0
 13
1.0
 23
0.0
 33
0.0
 40
0.0
 40
0.0
 40
0.0
 40
0.0
 40
1.0
 40
1.0
 40
1.0
 40
2.0
 40
2.0
 40
2.0
 40
3.0
 40
3.0
 40
3.0
 40
4.0
 40
4.0
 40
4.0
 40
4.0
 10
87.67057459017036
 20
-138.4216111578859
 30
0.0
 10
87.67057459017036
 20
-138.3665865234325
 30
0.0
 10
87.625766817015
 20
-138.3217787502774
 30
0.0
 10
87.57073141663814
 20
-138.3217787502774
 30
0.0
 10
87.51569601626127
 20
-138.3217787502774
 30
0.0
 10
87.47089900902964
 20
-138.3665865234325
 30
0.0
 10
87.47089900902964
 20
-138.4216111578859
 30
0.0
 10
87.47089900902964
 20
-138.4766465582628
 30
0.0
 10
87.51569601626127
 20
-138.5214543314178
 30
0.0
 10
87.57073141663814
 20
-138.5214543314178
 30
0.0
 10
87.625766817015
 20
-138.5214543314178
 30
0.0
 10
87.67057459017036
 20
-138.4766465582628
 30
0.0
 10
87.67057459017036
 20
-138.4216111578859
 30
0.0
  0
SPLINE
  5
78
330
1F
100
AcDbEntity
  8
_U+30EC_U+30A4_U+30E4_U+30FC 1
 62
   179
420
  2234388
370
     9
100
AcDbSpline
210
0.0
220
0.0
230
1.0
 70
    11
 71
     3
 72
    17
 73
    13
 74
     0
 42
0.0000000001
 43
0.0000000001
 12
1.0
 22
0.0
 32
0.0
 13
1.0
 23
0.0
 33
0.0
 40
0.0
 40
0.0
 40
0.0
 40
0.0
 40
1.0
 40
1.0
 40
1.0
 40
2.0
 40
2.0
 40
2.0
 40
3.0
 40
3.0
 40
3.0
 40
4.0
 40
4.0
 40
4.0
 40
4.0
 10
117.7531698992184
 20
-138.4216111578859
 30
0.0
 10
117.7531698992184
 20
-138.3665865234325
 30
0.0
 10
117.7090726770072
 20
-138.3217787502774
 30
0.0
 10
117.6533267256865
 20
-138.3217787502774
 30
0.0
 10
117.5982913253096
 20
-138.3217787502774
 30
0.0
 10
117.553494318078
 20
-138.3665865234325
 30
0.0
 10
117.553494318078
 20
-138.4216111578859
 30
0.0
 10
117.553494318078
 20
-138.4766465582628
 30
0.0
 10
117.5982913253096
 20
-138.5214543314178
 30
0.0
 10
117.6533267256865
 20
-138.5214543314178
 30
0.0
 10
117.7090726770072
 20
-138.5214543314178
 30
0.0
 10
117.7531698992184
 20
-138.4766465582628
 30
0.0
 10
117.7531698992184
 20
-138.4216111578859
 30
0.0
  0
SPLINE
  5
79
330
1F
100
AcDbEntity
  8
_U+30EC_U+30A4_U+30E4_U+30FC 1
 62
   179
420
  2234388
370
     9
100
AcDbSpline
210
0.0
220
0.0
230
1.0
 70
    11
 71
     3
 72
    17
 73
    13
 74
     0
 42
0.0000000001
 43
0.0000000001
 12
1.0
 22
0.0
 32
0.0
 13
1.0
 23
0.0
 33
0.0
 40
0.0
 40
0.0
 40
0.0
 40
0.0
 40
1.0
 40
1.0
 40
1.0
 40
2.0
 40
2.0
 40
2.0
 40
3.0
 40
3.0
 40
3.0
 40
4.0
 40
4.0
 40
4.0
 40
4.0
 10
121.7535932448437
 20
-143.4218442770243
 30
0.0
 10
121.7535932448437
 20
-143.3668196425708
 30
0.0
 10
121.7087854716887
 20
-143.3220118694158
 30
0.0
 10
121.6537500713118
 20
-143.3220118694158
 30
0.0
 10
121.598714670935
 20
-143.3220118694158
 30
0.0
 10
121.5539176637033
 20
-143.3668196425708
 30
0.0
 10
121.5539176637033
 20
-143.4218442770243
 30
0.0
 10
121.5539176637033
 20
-143.4768796774012
 30
0.0
 10
121.598714670935
 20
-143.5216874505565
 30
0.0
 10
121.6537500713118
 20
-143.5216874505565
 30
0.0
 10
121.7087854716887
 20
-143.5216874505565
 30
0.0
 10
121.7535932448437
 20
-143.4768796774012
 30
0.0
 10
121.7535932448437
 20
-143.4218442770243
 30
0.0
  0
SPLINE
  5
7A
330
1F
100
AcDbEntity
  8
_U+30EC_U+30A4_U+30E4_U+30FC 1
 62
   179
420
  2234388
370
     9
100
AcDbSpline
210
0.0
220
0.0
230
1.0
 70
    11
 71
     3
 72
    17
 73
    13
 74
     0
 42
0.0000000001
 43
0.0000000001
 12
1.0
 22
0.0
 32
0.0
 13
1.0
 23
0.0
 33
0.0
 40
0.0
 40
0.0
 40
0.0
 40
0.0
 40
1.0
 40
1.0
 40
1.0
 40
2.0
 40
2.0
 40
2.0
 40
3.0
 40
3.0
 40
3.0
 40
4.0
 40
4.0
 40
4.0
 40
4.0
 10
121.7535932448437
 20
-142.4220775672048
 30
0.0
 10
121.7535932448437
 20
-142.3663423818075
 30
0.0
 10
121.7087854716887
 20
-142.3215453745759
 30
0.0
 10
121.6537500713118
 20
-142.3215453745759
 30
0.0
 10
121.598714670935
 20
-142.3215453745759
 30
0.0
 10
121.5539176637033
 20
-142.3663423818075
 30
0.0
 10
121.5539176637033
 20
-142.4220775672048
 30
0.0
 10
121.5539176637033
 20
-142.4771129675817
 30
0.0
 10
121.598714670935
 20
-142.521920740737
 30
0.0
 10
121.6537500713118
 20
-142.521920740737
 30
0.0
 10
121.7087854716887
 20
-142.521920740737
 30
0.0
 10
121.7535932448437
 20
-142.4771129675817
 30
0.0
 10
121.7535932448437
 20
-142.4220775672048
 30
0.0
  0
SPLINE
  5
7B
330
1F
100
AcDbEntity
  8
_U+30EC_U+30A4_U+30E4_U+30FC 1
 62
   179
420
  2234388
370
     9
100
AcDbSpline
210
0.0
220
0.0
230
1.0
 70
    11
 71
     3
 72
    17
 73
    13
 74
     0
 42
0.0000000001
 43
0.0000000001
 12
1.0
 22
0.0
 32
0.0
 13
1.0
 23
0.0
 33
0.0
 40
0.0
 40
0.0
 40
0.0
 40
0.0
 40
1.0
 40
1.0
 40
1.0
 40
2.0
 40
2.0
 40
2.0
 40
3.0
 40
3.0
 40
3.0
 40
4.0
 40
4.0
 40
4.0
 40
4.0
 10
121.7535932448437
 20
-156.1224794633294
 30
0.0
 10
121.7535932448437
 20
-156.067454828876
 30
0.0
 10
121.7087854716887
 20
-156.0226470557209
 30
0.0
 10
121.6537500713118
 20
-156.0226470557209
 30
0.0
 10
121.598714670935
 20
-156.0226470557209
 30
0.0
 10
121.5539176637033
 20
-156.067454828876
 30
0.0
 10
121.5539176637033
 20
-156.1224794633294
 30
0.0
 10
121.5539176637033
 20
-156.1775148637063
 30
0.0
 10
121.598714670935
 20
-156.2223226368613
 30
0.0
 10
121.6537500713118
 20
-156.2223226368613
 30
0.0
 10
121.7087854716887
 20
-156.2223226368613
 30
0.0
 10
121.7535932448437
 20
-156.1775148637063
 30
0.0
 10
121.7535932448437
 20
-156.1224794633294
 30
0.0
  0
SPLINE
  5
7C
330
1F
100
AcDbEntity
  8
_U+30EC_U+30A4_U+30E4_U+30FC 1
 62
   179
420
  2234388
370
     9
100
AcDbSpline
210
0.0
220
0.0
230
1.0
 70
    11
 71
     3
 72
    17
 73
    13
 74
     0
 42
0.0000000001
 43
0.0000000001
 12
1.0
 22
0.0
 32
0.0
 13
1.0
 23
0.0
 33
0.0
 40
0.0
 40
0.0
 40
0.0
 40
0.0
 40
1.0
 40
1.0
 40
1.0
 40
2.0
 40
2.0
 40
2.0
 40
3.0
 40
3.0
 40
3.0
 40
4.0
 40
4.0
 40
4.0
 40
4.0
 10
97.75331401500395
 20
-161.1227233483912
 30
0.0
 10
97.75331401500395
 20
-161.0676987139377
 30
0.0
 10
97.70850624184892
 20
-161.0228909407827
 30
0.0
 10
97.65311556600014
 20
-161.0228909407827
 30
0.0
 10
97.59809093154666
 20
-161.0228909407827
 30
0.0
 10
97.55328315839164
 20
-161.0676987139377
 30
0.0
 10
97.55328315839164
 20
-161.1227233483912
 30
0.0
 10
97.55328315839164
 20
-161.1777587487681
 30
0.0
 10
97.59809093154666
 20
-161.2225665219231
 30
0.0
 10
97.65311556600014
 20
-161.2225665219231
 30
0.0
 10
97.70850624184892
 20
-161.2225665219231
 30
0.0
 10
97.75331401500395
 20
-161.1777587487681
 30
0.0
 10
97.75331401500395
 20
-161.1227233483912
 30
0.0
  0
SPLINE
  5
7D
330
1F
100
AcDbEntity
  8
_U+30EC_U+30A4_U+30E4_U+30FC 1
 62
   179
420
  2234388
370
     9
100
AcDbSpline
210
0.0
220
0.0
230
1.0
 70
    11
 71
     3
 72
    17
 73
    13
 74
     0
 42
0.0000000001
 43
0.0000000001
 12
1.0
 22
0.0
 32
0.0
 13
1.0
 23
0.0
 33
0.0
 40
0.0
 40
0.0
 40
0.0
 40
0.0
 40
1.0
 40
1.0
 40
1.0
 40
2.0
 40
2.0
 40
2.0
 40
3.0
 40
3.0
 40
3.0
 40
4.0
 40
4.0
 40
4.0
 40
4.0
 10
103.7533246098852
 20
-161.1227233483912
 30
0.0
 10
103.7533246098852
 20
-161.0676987139377
 30
0.0
 10
103.7085168367302
 20
-161.0228909407827
 30
0.0
 10
103.6534814363533
 20
-161.0228909407827
 30
0.0
 10
103.5984460359765
 20
-161.0228909407827
 30
0.0
 10
103.5536490287448
 20
-161.0676987139377
 30
0.0
 10
103.5536490287448
 20
-161.1227233483912
 30
0.0
 10
103.5536490287448
 20
-161.1777587487681
 30
0.0
 10
103.5984460359765
 20
-161.2225665219231
 30
0.0
 10
103.6534814363533
 20
-161.2225665219231
 30
0.0
 10
103.7085168367302
 20
-161.2225665219231
 30
0.0
 10
103.7533246098852
 20
-161.1777587487681
 30
0.0
 10
103.7533246098852
 20
-161.1227233483912
 30
0.0
  0
SPLINE
  5
7E
330
1F
100
AcDbEntity
  8
_U+30EC_U+30A4_U+30E4_U+30FC 1
 62
   179
420
  2234388
370
     9
100
AcDbSpline
210
0.0
220
0.0
230
1.0
 70
    11
 71
     3
 72
    17
 73
    13
 74
     0
 42
0.0000000001
 43
0.0000000001
 12
1.0
 22
0.0
 32
0.0
 13
1.0
 23
0.0
 33
0.0
 40
0.0
 40
0.0
 40
0.0
 40
0.0
 40
1.0
 40
1.0
 40
1.0
 40
2.0
 40
2.0
 40
2.0
 40
3.0
 40
3.0
 40
3.0
 40
4.0
 40
4.0
 40
4.0
 40
4.0
 10
87.75876903459275
 20
-161.1227233483912
 30
0.0
 10
87.75876903459275
 20
-161.0676987139377
 30
0.0
 10
87.7139612614374
 20
-161.0228909407827
 30
0.0
 10
87.65892586106054
 20
-161.0228909407827
 30
0.0
 10
87.60389046068367
 20
-161.0228909407827
 30
0.0
 10
87.55909345345202
 20
-161.0676987139377
 30
0.0
 10
87.55909345345202
 20
-161.1227233483912
 30
0.0
 10
87.55909345345202
 20
-161.1777587487681
 30
0.0
 10
87.60389046068367
 20
-161.2225665219231
 30
0.0
 10
87.65892586106054
 20
-161.2225665219231
 30
0.0
 10
87.7139612614374
 20
-161.2225665219231
 30
0.0
 10
87.75876903459275
 20
-161.1777587487681
 30
0.0
 10
87.75876903459275
 20
-161.1227233483912
 30
0.0
  0
POLYLINE
  5
7F
330
1F
100
AcDbEntity
  8
_U+30EC_U+30A4_U+30E4_U+30FC 1
 62
   179
420
  2234388
370
     9
100
AcDb2dPolyline
 66
     1
 10
0.0
 20
0.0
 30
0.0
  0
VERTEX
  5
80
330
7F
100
AcDbEntity
  8
_U+30EC_U+30A4_U+30E4_U+30FC 1
 62
   179
420
  2234388
370
     9
100
AcDbVertex
100
AcDb2dVertex
 10
121.6536854757715
 20
-142.4220775672048
 30
0.0
  0
VERTEX
  5
81
330
7F
100
AcDbEntity
  8
_U+30EC_U+30A4_U+30E4_U+30FC 1
 62
   179
420
  2234388
370
     9
100
AcDbVertex
100
AcDb2dVertex
 10
121.6536854757715
 20
-138.6515928133731
 30
0.0
  0
SEQEND
  5
82
330
7F
100
AcDbEntity
  8
_U+30EC_U+30A4_U+30E4_U+30FC 1
 62
   179
420
  2234388
370
     9
  0
POLYLINE
  5
83
330
1F
100
AcDbEntity
  8
_U+30EC_U+30A4_U+30E4_U+30FC 1
 62
   179
420
  2234388
370
     9
100
AcDb2dPolyline
 66
     1
 10
0.0
 20
0.0
 30
0.0
  0
VERTEX
  5
84
330
83
100
AcDbEntity
  8
_U+30EC_U+30A4_U+30E4_U+30FC 1
 62
   179
420
  2234388
370
     9
100
AcDbVertex
100
AcDb2dVertex
 10
121.6536854757715
 20
-143.4218442770243
 30
0.0
  0
VERTEX
  5
85
330
83
100
AcDbEntity
  8
_U+30EC_U+30A4_U+30E4_U+30FC 1
 62
   179
420
  2234388
370
     9
100
AcDbVertex
100
AcDb2dVertex
 10
121.6536854757715
 20
-142.4220775672048
 30
0.0
  0
SEQEND
  5
86
330
83
100
AcDbEntity
  8
_U+30EC_U+30A4_U+30E4_U+30FC 1
 62
   179
420
  2234388
370
     9
  0
POLYLINE
  5
87
330
1F
100
AcDbEntity
  8
_U+30EC_U+30A4_U+30E4_U+30FC 1
 62
   179
420
  2234388
370
     9
100
AcDb2dPolyline
 66
     1
 10
0.0
 20
0.0
 30
0.0
  0
VERTEX
  5
88
330
87
100
AcDbEntity
  8
_U+30EC_U+30A4_U+30E4_U+30FC 1
 62
   179
420
  2234388
370
     9
100
AcDbVertex
100
AcDb2dVertex
 10
120.1936432431992
 20
-143.4218442770243
 30
0.0
  0
VERTEX
  5
89
330
87
100
AcDbEntity
  8
_U+30EC_U+30A4_U+30E4_U+30FC 1
 62
   179
420
  2234388
370
     9
100
AcDbVertex
100
AcDb2dVertex
 10
122.6535598448249
 20
-143.4218442770243
 30
0.0
  0
SEQEND
  5
8A
330
87
100
AcDbEntity
  8
_U+30EC_U+30A4_U+30E4_U+30FC 1
 62
   179
420
  2234388
370
     9
  0
POLYLINE
  5
8B
330
1F
100
AcDbEntity
  8
_U+30EC_U+30A4_U+30E4_U+30FC 1
 62
   179
420
  2234388
370
     9
100
AcDb2dPolyline
 66
     1
 10
0.0
 20
0.0
 30
0.0
  0
VERTEX
  5
8C
330
8B
100
AcDbEntity
  8
_U+30EC_U+30A4_U+30E4_U+30FC 1
 62
   179
420
  2234388
370
     9
100
AcDbVertex
100
AcDb2dVertex
 10
120.1936432431992
 20
-142.4220775672048
 30
0.0
  0
VERTEX
  5
8D
330
8B
100
AcDbEntity
  8
_U+30EC_U+30A4_U+30E4_U+30FC 1
 62
   179
420
  2234388
370
     9
100
AcDbVertex
100
AcDb2dVertex
 10
122.6535598448249
 20
-142.4220775672048
 30
0.0
  0
SEQEND
  5
8E
330
8B
100
AcDbEntity
  8
_U+30EC_U+30A4_U+30E4_U+30FC 1
 62
   179
420
  2234388
370
     9
  0
INSERT
  5
90
330
1F
100
AcDbEntity
  8
_U+30EC_U+30A4_U+30E4_U+30FC 1
100
AcDbBlockReference
  2
block 2
 10
0.0
 20
0.0
 30
0.0
  0
POLYLINE
  5
95
330
1F
100
AcDbEntity
  8
_U+30EC_U+30A4_U+30E4_U+30FC 1
 62
   179
420
  2234388
370
     9
100
AcDb2dPolyline
 66
     1
 10
0.0
 20
0.0
 30
0.0
  0
VERTEX
  5
96
330
95
100
AcDbEntity
  8
_U+30EC_U+30A4_U+30E4_U+30FC 1
 62
   179
420
  2234388
370
     9
100
AcDbVertex
100
AcDb2dVertex
 10
87.65296153950169
 20
-138.4216111578859
 30
0.0
  0
VERTEX
  5
97
330
95
100
AcDbEntity
  8
_U+30EC_U+30A4_U+30E4_U+30FC 1
 62
   179
420
  2234388
370
     9
100
AcDbVertex
100
AcDb2dVertex
 10
117.653176002759
 20
-138.4216111578859
 30
0.0
  0
SEQEND
  5
98
330
95
100
AcDbEntity
  8
_U+30EC_U+30A4_U+30E4_U+30FC 1
 62
   179
420
  2234388
370
     9
  0
POLYLINE
  5
99
330
1F
100
AcDbEntity
  8
_U+30EC_U+30A4_U+30E4_U+30FC 1
 62
   179
420
  2234388
370
     9
100
AcDb2dPolyline
 66
     1
 10
0.0
 20
0.0
 30
0.0
  0
VERTEX
  5
9A
330
99
100
AcDbEntity
  8
_U+30EC_U+30A4_U+30E4_U+30FC 1
 62
   179
420
  2234388
370
     9
100
AcDbVertex
100
AcDb2dVertex
 10
87.57066682109811
 20
-139.8816533904582
 30
0.0
  0
VERTEX
  5
9B
330
99
100
AcDbEntity
  8
_U+30EC_U+30A4_U+30E4_U+30FC 1
 62
   179
420
  2234388
370
     9
100
AcDbVertex
100
AcDb2dVertex
 10
87.57066682109811
 20
-137.4217367888325
 30
0.0
  0
SEQEND
  5
9C
330
99
100
AcDbEntity
  8
_U+30EC_U+30A4_U+30E4_U+30FC 1
 62
   179
420
  2234388
370
     9
  0
POLYLINE
  5
9D
330
1F
100
AcDbEntity
  8
_U+30EC_U+30A4_U+30E4_U+30FC 1
 62
   179
420
  2234388
370
     9
100
AcDb2dPolyline
 66
     1
 10
0.0
 20
0.0
 30
0.0
  0
VERTEX
  5
9E
330
9D
100
AcDbEntity
  8
_U+30EC_U+30A4_U+30E4_U+30FC 1
 62
   179
420
  2234388
370
     9
100
AcDbVertex
100
AcDb2dVertex
 10
117.6532190664526
 20
-139.8816533904582
 30
0.0
  0
VERTEX
  5
9F
330
9D
100
AcDbEntity
  8
_U+30EC_U+30A4_U+30E4_U+30FC 1
 62
   179
420
  2234388
370
     9
100
AcDbVertex
100
AcDb2dVertex
 10
117.6532190664526
 20
-137.4217367888325
 30
0.0
  0
SEQEND
  5
A0
330
9D
100
AcDbEntity
  8
_U+30EC_U+30A4_U+30E4_U+30FC 1
 62
   179
420
  2234388
370
     9
  0
INSERT
  5
A2
330
1F
100
AcDbEntity
  8
_U+30EC_U+30A4_U+30E4_U+30FC 1
100
AcDbBlockReference
  2
block 3
 10
0.0
 20
0.0
 30
0.0
  0
POLYLINE
  5
AA
330
1F
100
AcDbEntity
  8
_U+30EC_U+30A4_U+30E4_U+30FC 1
 62
   179
420
  2234388
370
     9
100
AcDb2dPolyline
 66
     1
 10
0.0
 20
0.0
 30
0.0
  0
VERTEX
  5
AB
330
AA
100
AcDbEntity
  8
_U+30EC_U+30A4_U+30E4_U+30FC 1
 62
   179
420
  2234388
370
     9
100
AcDbVertex
100
AcDb2dVertex
 10
97.65308326823029
 20
-161.1227233483912
 30
0.0
  0
VERTEX
  5
AC
330
AA
100
AcDbEntity
  8
_U+30EC_U+30A4_U+30E4_U+30FC 1
 62
   179
420
  2234388
370
     9
100
AcDbVertex
100
AcDb2dVertex
 10
87.65324145350986
 20
-161.1227233483912
 30
0.0
  0
SEQEND
  5
AD
330
AA
100
AcDbEntity
  8
_U+30EC_U+30A4_U+30E4_U+30FC 1
 62
   179
420
  2234388
370
     9
  0
POLYLINE
  5
AE
330
1F
100
AcDbEntity
  8
_U+30EC_U+30A4_U+30E4_U+30FC 1
 62
   179
420
  2234388
370
     9
100
AcDb2dPolyline
 66
     1
 10
0.0
 20
0.0
 30
0.0
  0
VERTEX
  5
AF
330
AE
100
AcDbEntity
  8
_U+30EC_U+30A4_U+30E4_U+30FC 1
 62
   179
420
  2234388
370
     9
100
AcDbVertex
100
AcDb2dVertex
 10
97.65308326823029
 20
-159.6627134135891
 30
0.0
  0
VERTEX
  5
B0
330
AE
100
AcDbEntity
  8
_U+30EC_U+30A4_U+30E4_U+30FC 1
 62
   179
420
  2234388
370
     9
100
AcDbVertex
100
AcDb2dVertex
 10
97.65308326823029
 20
-162.1226407811382
 30
0.0
  0
SEQEND
  5
B1
330
AE
100
AcDbEntity
  8
_U+30EC_U+30A4_U+30E4_U+30FC 1
 62
   179
420
  2234388
370
     9
  0
POLYLINE
  5
B2
330
1F
100
AcDbEntity
  8
_U+30EC_U+30A4_U+30E4_U+30FC 1
 62
   179
420
  2234388
370
     9
100
AcDb2dPolyline
 66
     1
 10
0.0
 20
0.0
 30
0.0
  0
VERTEX
  5
B3
330
B2
100
AcDbEntity
  8
_U+30EC_U+30A4_U+30E4_U+30FC 1
 62
   179
420
  2234388
370
     9
100
AcDbVertex
100
AcDb2dVertex
 10
87.6588612655205
 20
-145.9619239442224
 30
0.0
  0
VERTEX
  5
B4
330
B2
100
AcDbEntity
  8
_U+30EC_U+30A4_U+30E4_U+30FC 1
 62
   179
420
  2234388
370
     9
100
AcDbVertex
100
AcDb2dVertex
 10
87.6588612655205
 20
-162.1226838448318
 30
0.0
  0
SEQEND
  5
B5
330
B2
100
AcDbEntity
  8
_U+30EC_U+30A4_U+30E4_U+30FC 1
 62
   179
420
  2234388
370
     9
  0
INSERT
  5
B7
330
1F
100
AcDbEntity
  8
_U+30EC_U+30A4_U+30E4_U+30FC 1
100
AcDbBlockReference
  2
block 4
 10
0.0
 20
0.0
 30
0.0
  0
POLYLINE
  5
BF
330
1F
100
AcDbEntity
  8
_U+30EC_U+30A4_U+30E4_U+30FC 1
 62
   179
420
  2234388
370
     9
100
AcDb2dPolyline
 66
     1
 10
0.0
 20
0.0
 30
0.0
  0
VERTEX
  5
C0
330
BF
100
AcDbEntity
  8
_U+30EC_U+30A4_U+30E4_U+30FC 1
 62
   179
420
  2234388
370
     9
100
AcDbVertex
100
AcDb2dVertex
 10
97.65308326823029
 20
-161.1227233483912
 30
0.0
  0
VERTEX
  5
C1
330
BF
100
AcDbEntity
  8
_U+30EC_U+30A4_U+30E4_U+30FC 1
 62
   179
420
  2234388
370
     9
100
AcDbVertex
100
AcDb2dVertex
 10
103.65347067043
 20
-161.1227233483912
 30
0.0
  0
SEQEND
  5
C2
330
BF
100
AcDbEntity
  8
_U+30EC_U+30A4_U+30E4_U+30FC 1
 62
   179
420
  2234388
370
     9
  0
POLYLINE
  5
C3
330
1F
100
AcDbEntity
  8
_U+30EC_U+30A4_U+30E4_U+30FC 1
 62
   179
420
  2234388
370
     9
100
AcDb2dPolyline
 66
     1
 10
0.0
 20
0.0
 30
0.0
  0
VERTEX
  5
C4
330
C3
100
AcDbEntity
  8
_U+30EC_U+30A4_U+30E4_U+30FC 1
 62
   179
420
  2234388
370
     9
100
AcDbVertex
100
AcDb2dVertex
 10
97.65308326823029
 20
-159.6627134135891
 30
0.0
  0
VERTEX
  5
C5
330
C3
100
AcDbEntity
  8
_U+30EC_U+30A4_U+30E4_U+30FC 1
 62
   179
420
  2234388
370
     9
100
AcDbVertex
100
AcDb2dVertex
 10
97.65308326823029
 20
-162.1226407811382
 30
0.0
  0
SEQEND
  5
C6
330
C3
100
AcDbEntity
  8
_U+30EC_U+30A4_U+30E4_U+30FC 1
 62
   179
420
  2234388
370
     9
  0
POLYLINE
  5
C7
330
1F
100
AcDbEntity
  8
_U+30EC_U+30A4_U+30E4_U+30FC 1
 62
   179
420
  2234388
370
     9
100
AcDb2dPolyline
 66
     1
 10
0.0
 20
0.0
 30
0.0
  0
VERTEX
  5
C8
330
C7
100
AcDbEntity
  8
_U+30EC_U+30A4_U+30E4_U+30FC 1
 62
   179
420
  2234388
370
     9
100
AcDbVertex
100
AcDb2dVertex
 10
103.6533737771194
 20
-159.6627134135891
 30
0.0
  0
VERTEX
  5
C9
330
C7
100
AcDbEntity
  8
_U+30EC_U+30A4_U+30E4_U+30FC 1
 62
   179
420
  2234388
370
     9
100
AcDbVertex
100
AcDb2dVertex
 10
103.6533737771194
 20
-162.1226407811382
 30
0.0
  0
SEQEND
  5
CA
330
C7
100
AcDbEntity
  8
_U+30EC_U+30A4_U+30E4_U+30FC 1
 62
   179
420
  2234388
370
     9
  0
INSERT
  5
CC
330
1F
100
AcDbEntity
  8
_U+30EC_U+30A4_U+30E4_U+30FC 1
100
AcDbBlockReference
  2
block 5
 10
0.0
 20
0.0
 30
0.0
  0
POLYLINE
  5
D2
330
1F
100
AcDbEntity
  8
_U+30EC_U+30A4_U+30E4_U+30FC 1
 62
   179
420
  2234388
370
     9
100
AcDb2dPolyline
 66
     1
 10
0.0
 20
0.0
 30
0.0
  0
VERTEX
  5
D3
330
D2
100
AcDbEntity
  8
_U+30EC_U+30A4_U+30E4_U+30FC 1
 62
   179
420
  2234388
370
     9
100
AcDbVertex
100
AcDb2dVertex
 10
121.6536854757715
 20
-156.1224794633294
 30
0.0
  0
VERTEX
  5
D4
330
D2
100
AcDbEntity
  8
_U+30EC_U+30A4_U+30E4_U+30FC 1
 62
   179
420
  2234388
370
     9
100
AcDbVertex
100
AcDb2dVertex
 10
121.6536854757715
 20
-143.4217796814843
 30
0.0
  0
SEQEND
  5
D5
330
D2
100
AcDbEntity
  8
_U+30EC_U+30A4_U+30E4_U+30FC 1
 62
   179
420
  2234388
370
     9
  0
POLYLINE
  5
D6
330
1F
100
AcDbEntity
  8
_U+30EC_U+30A4_U+30E4_U+30FC 1
 62
   179
420
  2234388
370
     9
100
AcDb2dPolyline
 66
     1
 10
0.0
 20
0.0
 30
0.0
  0
VERTEX
  5
D7
330
D6
100
AcDbEntity
  8
_U+30EC_U+30A4_U+30E4_U+30FC 1
 62
   179
420
  2234388
370
     9
100
AcDbVertex
100
AcDb2dVertex
 10
106.1930981688456
 20
-156.1224794633294
 30
0.0
  0
VERTEX
  5
D8
330
D6
100
AcDbEntity
  8
_U+30EC_U+30A4_U+30E4_U+30FC 1
 62
   179
420
  2234388
370
     9
100
AcDbVertex
100
AcDb2dVertex
 10
122.6533552922805
 20
-156.1224794633294
 30
0.0
  0
SEQEND
  5
D9
330
D6
100
AcDbEntity
  8
_U+30EC_U+30A4_U+30E4_U+30FC 1
 62
   179
420
  2234388
370
     9
  0
INSERT
  5
DB
330
1F
100
AcDbEntity
  8
_U+30EC_U+30A4_U+30E4_U+30FC 1
100
AcDbBlockReference
  2
block 6
 10
0.0
 20
0.0
 30
0.0
  0
ENDSEC
  0
SECTION
  2
OBJECTS
  0
DICTIONARY
  5
C
330
0
100
AcDbDictionary
281
     1
  3
ACAD_GROUP
350
D
  3
ACAD_LAYOUT
350
1A
  3
ACAD_MATERIAL
350
3B
  3
ACAD_MLEADERSTYLE
350
ED
  3
ACAD_MLINESTYLE
350
17
  3
ACAD_PLOTSETTINGS
350
19
  3
ACAD_PLOTSTYLENAME
350
E
  3
ACAD_TABLESTYLE
350
EC
  3
ACAD_VISUALSTYLE
350
2A
  0
SUN
  5
3F
330
29
100
AcDbSun
 90
        1
290
     0
 63
     7
421
 16777215
 40
1.0
291
     1
 91
  2455826
 92
 54000000
292
     0
 70
     2
 71
   256
280
     1
  0
DICTIONARY
  5
D
102
{ACAD_REACTORS
330
C
102
}
330
C
100
AcDbDictionary
281
     1
  0
DICTIONARY
  5
1A
102
{ACAD_REACTORS
330
C
102
}
330
C
100
AcDbDictionary
281
     1
  3
Layout1
350
1E
  3
Layout2
350
26
  3
Model
350
22
  0
DICTIONARY
  5
3B
102
{ACAD_REACTORS
330
C
102
}
330
C
100
AcDbDictionary
281
     1
  3
ByBlock
350
3D
  3
ByLayer
350
3C
  3
Global
350
3E
  0
DICTIONARY
  5
ED
102
{ACAD_REACTORS
330
C
102
}
330
C
100
AcDbDictionary
281
     1
  0
DICTIONARY
  5
17
102
{ACAD_REACTORS
330
C
102
}
330
C
100
AcDbDictionary
281
     1
  3
Standard
350
18
  0
DICTIONARY
  5
19
102
{ACAD_REACTORS
330
C
102
}
330
C
100
AcDbDictionary
281
     1
  0
ACDBDICTIONARYWDFLT
  5
E
102
{ACAD_REACTORS
330
C
102
}
330
C
100
AcDbDictionary
281
     1
  3
Normal
350
F
100
AcDbDictionaryWithDefault
340
F
  0
DICTIONARY
  5
EC
102
{ACAD_REACTORS
330
C
102
}
330
C
100
AcDbDictionary
281
     1
  0
DICTIONARY
  5
2A
102
{ACAD_REACTORS
330
C
102
}
330
C
100
AcDbDictionary
281
     1
  3
2dWireframe
350
2F
  3
3D Hidden
350
31
  3
3dWireframe
350
30
  3
Basic
350
32
  3
Brighten
350
36
  3
ColorChange
350
3A
  3
Conceptual
350
34
  3
Dim
350
35
  3
Facepattern
350
39
  3
Flat
350
2B
  3
FlatWithEdges
350
2C
  3
Gouraud
350
2D
  3
GouraudWithEdges
350
2E
  3
Linepattern
350
38
  3
Realistic
350
33
  3
Thicken
350
37
  0
LAYOUT
  5
1E
102
{ACAD_REACTORS
330
1A
102
}
330
1A
100
AcDbPlotSettings
  1

  2
none_device
  4

  6

 40
0.0
 41
0.0
 42
0.0
 43
0.0
 44
0.0
 45
0.0
 46
0.0
 47
0.0
 48
0.0
 49
0.0
140
0.0
141
0.0
142
1.0
143
1.0
 70
   688
 72
     0
 73
     0
 74
     5
  7

 75
    16
 76
     0
 77
     2
 78
   300
147
1.0
148
0.0
149
0.0
100
AcDbLayout
  1
Layout1
 70
     1
 71
     1
 10
0.0
 20
0.0
 11
12.0
 21
9.0
 12
0.0
 22
0.0
 32
0.0
 14
1.000000000000000E+20
 24
1.000000000000000E+20
 34
1.000000000000000E+20
 15
-1.000000000000000E+20
 25
-1.000000000000000E+20
 35
-1.000000000000000E+20
146
0.0
 13
0.0
 23
0.0
 33
0.0
 16
1.0
 26
0.0
 36
0.0
 17
0.0
 27
1.0
 37
0.0
 76
     0
330
1B
  0
LAYOUT
  5
26
102
{ACAD_REACTORS
330
1A
102
}
330
1A
100
AcDbPlotSettings
  1

  2
none_device
  4

  6

 40
0.0
 41
0.0
 42
0.0
 43
0.0
 44
0.0
 45
0.0
 46
0.0
 47
0.0
 48
0.0
 49
0.0
140
0.0
141
0.0
142
1.0
143
1.0
 70
   688
 72
     0
 73
     0
 74
     5
  7

 75
    16
 76
     0
 77
     2
 78
   300
147
1.0
148
0.0
149
0.0
100
AcDbLayout
  1
Layout2
 70
     1
 71
     2
 10
0.0
 20
0.0
 11
0.0
 21
0.0
 12
0.0
 22
0.0
 32
0.0
 14
0.0
 24
0.0
 34
0.0
 15
0.0
 25
0.0
 35
0.0
146
0.0
 13
0.0
 23
0.0
 33
0.0
 16
1.0
 26
0.0
 36
0.0
 17
0.0
 27
1.0
 37
0.0
 76
     0
330
23
  0
LAYOUT
  5
22
102
{ACAD_REACTORS
330
1A
102
}
330
1A
100
AcDbPlotSettings
  1

  2
none_device
  4

  6

 40
0.0
 41
0.0
 42
0.0
 43
0.0
 44
0.0
 45
0.0
 46
0.0
 47
0.0
 48
0.0
 49
0.0
140
0.0
141
0.0
142
1.0
143
1.0
 70
  1712
 72
     0
 73
     0
 74
     0
  7

 75
     0
 76
     0
 77
     2
 78
   300
147
1.0
148
0.0
149
0.0
100
AcDbLayout
  1
Model
 70
     1
 71
     0
 10
0.0
 20
0.0
 11
12.0
 21
9.0
 12
0.0
 22
0.0
 32
0.0
 14
1.000000000000000E+20
 24
1.000000000000000E+20
 34
1.000000000000000E+20
 15
-1.000000000000000E+20
 25
-1.000000000000000E+20
 35
-1.000000000000000E+20
146
0.0
 13
0.0
 23
0.0
 33
0.0
 16
1.0
 26
0.0
 36
0.0
 17
0.0
 27
1.0
 37
0.0
 76
     0
330
1F
331
29
  0
MATERIAL
  5
3D
102
{ACAD_REACTORS
330
3B
102
}
330
3B
100
AcDbMaterial
  1
ByBlock
 72
     1
 94
      127
  0
MATERIAL
  5
3C
102
{ACAD_REACTORS
330
3B
102
}
330
3B
100
AcDbMaterial
  1
ByLayer
 72
     1
 94
      127
  0
MATERIAL
  5
3E
102
{ACAD_REACTORS
330
3B
102
}
330
3B
100
AcDbMaterial
  1
Global
 72
     1
 94
      127
  0
MLINESTYLE
  5
18
102
{ACAD_REACTORS
330
17
102
}
330
17
100
AcDbMlineStyle
  2
Standard
 70
     0
  3

 62
   256
 51
90.0
 52
90.0
 71
     2
 49
0.5
 62
   256
  6
BYLAYER
 49
-0.5
 62
   256
  6
BYLAYER
  0
ACDBPLACEHOLDER
  5
F
102
{ACAD_REACTORS
330
E
102
}
330
E
  0
VISUALSTYLE
  5
2F
102
{ACAD_REACTORS
330
2A
102
}
330
2A
100
AcDbVisualStyle
  2
2dWireframe
 70
     4
177
     2
291
     0
 71
     0
176
     1
 72
     2
176
     1
 73
     0
176
     1
 90
        0
176
     1
 40
-0.6
176
     1
 41
-30.0
176
     1
 62
     5
 63
     7
421
 16777215
176
     1
 74
     1
176
     1
 91
        4
176
     1
 64
     7
176
     1
 65
   257
176
     1
 75
     1
176
     1
175
     1
176
     1
 42
1.0
176
     1
 92
        0
176
     1
 66
   257
176
     1
 43
1.0
176
     1
 76
     1
176
     1
 77
     6
176
     1
 78
     2
176
     1
 67
     7
176
     1
 79
     5
176
     1
170
     0
176
     1
171
     0
176
     1
290
     0
176
     1
 93
        1
176
     1
 44
0.0
176
     1
173
     0
176
     1
  0
VISUALSTYLE
  5
31
102
{ACAD_REACTORS
330
2A
102
}
330
2A
100
AcDbVisualStyle
  2
3D Hidden
 70
     6
177
     2
291
     0
 71
     1
176
     1
 72
     2
176
     1
 73
     2
176
     1
 90
        0
176
     1
 40
-0.6
176
     1
 41
-30.0
176
     1
 62
     5
 63
     7
421
 16777215
176
     1
 74
     2
176
     1
 91
        2
176
     1
 64
     7
176
     1
 65
   257
176
     1
 75
     2
176
     1
175
     1
176
     1
 42
40.0
176
     1
 92
        0
176
     1
 66
   257
176
     1
 43
1.0
176
     1
 76
     1
176
     1
 77
     6
176
     1
 78
     2
176
     1
 67
     7
176
     1
 79
     3
176
     1
170
     0
176
     1
171
     0
176
     1
290
     0
176
     1
 93
        1
176
     1
 44
0.0
176
     1
173
     0
176
     1
  0
VISUALSTYLE
  5
30
102
{ACAD_REACTORS
330
2A
102
}
330
2A
100
AcDbVisualStyle
  2
3dWireframe
 70
     5
177
     2
291
     0
 71
     0
176
     1
 72
     2
176
     1
 73
     0
176
     1
 90
        0
176
     1
 40
-0.6
176
     1
 41
-30.0
176
     1
 62
     5
 63
     7
421
 16777215
176
     1
 74
     1
176
     1
 91
        4
176
     1
 64
     7
176
     1
 65
   257
176
     1
 75
     1
176
     1
175
     1
176
     1
 42
1.0
176
     1
 92
        0
176
     1
 66
   257
176
     1
 43
1.0
176
     1
 76
     1
176
     1
 77
     6
176
     1
 78
     2
176
     1
 67
     7
176
     1
 79
     5
176
     1
170
     0
176
     1
171
     0
176
     1
290
     0
176
     1
 93
        1
176
     1
 44
0.0
176
     1
173
     0
176
     1
  0
VISUALSTYLE
  5
32
102
{ACAD_REACTORS
330
2A
102
}
330
2A
100
AcDbVisualStyle
  2
Basic
 70
     7
177
     2
291
     1
 71
     1
176
     1
 72
     0
176
     1
 73
     1
176
     1
 90
        0
176
     1
 40
-0.6
176
     1
 41
-30.0
176
     1
 62
     5
 63
     7
421
 16777215
176
     1
 74
     0
176
     1
 91
        4
176
     1
 64
     7
176
     1
 65
   257
176
     1
 75
     1
176
     1
175
     1
176
     1
 42
1.0
176
     1
 92
        8
176
     1
 66
     7
176
     1
 43
1.0
176
     1
 76
     1
176
     1
 77
     6
176
     1
 78
     2
176
     1
 67
     7
176
     1
 79
     5
176
     1
170
     0
176
     1
171
     0
176
     1
290
     0
176
     1
 93
        1
176
     1
 44
0.0
176
     1
173
     0
176
     1
  0
VISUALSTYLE
  5
36
102
{ACAD_REACTORS
330
2A
102
}
330
2A
100
AcDbVisualStyle
  2
Brighten
 70
    12
177
     2
291
     1
 71
     2
176
     1
 72
     2
176
     1
 73
     0
176
     1
 90
        0
176
     1
 40
-0.6
176
     1
 41
-30.0
176
     1
 62
     5
 63
     7
421
 16777215
176
     1
 74
     1
176
     1
 91
        4
176
     1
 64
     7
176
     1
 65
   257
176
     1
 75
     1
176
     1
175
     1
176
     1
 42
1.0
176
     1
 92
        8
176
     1
 66
     7
176
     1
 43
1.0
176
     1
 76
     1
176
     1
 77
     6
176
     1
 78
     2
176
     1
 67
     7
176
     1
 79
     5
176
     1
170
     0
176
     1
171
     0
176
     1
290
     0
176
     1
 93
        1
176
     1
 44
50.0
176
     1
173
     0
176
     1
  0
VISUALSTYLE
  5
3A
102
{ACAD_REACTORS
330
2A
102
}
330
2A
100
AcDbVisualStyle
  2
ColorChange
 70
    16
177
     2
291
     1
 71
     2
176
     1
 72
     2
176
     1
 73
     3
176
     1
 90
        0
176
     1
 40
-0.6
176
     1
 41
-30.0
176
     1
 62
     5
 63
     8
421
  8421504
176
     1
 74
     1
176
     1
 91
        4
176
     1
 64
     7
176
     1
 65
   257
176
     1
 75
     1
176
     1
175
     1
176
     1
 42
1.0
176
     1
 92
        8
176
     1
 66
     8
424
  8421504
176
     1
 43
1.0
176
     1
 76
     1
176
     1
 77
     6
176
     1
 78
     2
176
     1
 67
     7
176
     1
 79
     5
176
     1
170
     0
176
     1
171
     0
176
     1
290
     0
176
     1
 93
        1
176
     1
 44
0.0
176
     1
173
     0
176
     1
  0
VISUALSTYLE
  5
34
102
{ACAD_REACTORS
330
2A
102
}
330
2A
100
AcDbVisualStyle
  2
Conceptual
 70
     9
177
     2
291
     0
 71
     3
176
     1
 72
     2
176
     1
 73
     0
176
     1
 90
        0
176
     1
 40
-0.6
176
     1
 41
-30.0
176
     1
 62
     5
 63
     7
421
 16777215
176
     1
 74
     2
176
     1
 91
        2
176
     1
 64
     7
176
     1
 65
   257
176
     1
 75
     1
176
     1
175
     1
176
     1
 42
40.0
176
     1
 92
        8
176
     1
 66
     7
176
     1
 43
1.0
176
     1
 76
     1
176
     1
 77
     6
176
     1
 78
     2
176
     1
 67
     7
176
     1
 79
     3
176
     1
170
     0
176
     1
171
     0
176
     1
290
     0
176
     1
 93
        1
176
     1
 44
0.0
176
     1
173
     0
176
     1
  0
VISUALSTYLE
  5
35
102
{ACAD_REACTORS
330
2A
102
}
330
2A
100
AcDbVisualStyle
  2
Dim
 70
    11
177
     2
291
     1
 71
     2
176
     1
 72
     2
176
     1
 73
     0
176
     1
 90
        0
176
     1
 40
-0.6
176
     1
 41
-30.0
176
     1
 62
     5
 63
     7
421
 16777215
176
     1
 74
     1
176
     1
 91
        4
176
     1
 64
     7
176
     1
 65
   257
176
     1
 75
     1
176
     1
175
     1
176
     1
 42
1.0
176
     1
 92
        8
176
     1
 66
     7
176
     1
 43
1.0
176
     1
 76
     1
176
     1
 77
     6
176
     1
 78
     2
176
     1
 67
     7
176
     1
 79
     5
176
     1
170
     0
176
     1
171
     0
176
     1
290
     0
176
     1
 93
        1
176
     1
 44
-50.0
176
     1
173
     0
176
     1
  0
VISUALSTYLE
  5
39
102
{ACAD_REACTORS
330
2A
102
}
330
2A
100
AcDbVisualStyle
  2
Facepattern
 70
    15
177
     2
291
     1
 71
     2
176
     1
 72
     2
176
     1
 73
     0
176
     1
 90
        0
176
     1
 40
-0.6
176
     1
 41
-30.0
176
     1
 62
     5
 63
     7
421
 16777215
176
     1
 74
     1
176
     1
 91
        4
176
     1
 64
     7
176
     1
 65
   257
176
     1
 75
     1
176
     1
175
     1
176
     1
 42
1.0
176
     1
 92
        8
176
     1
 66
     7
176
     1
 43
1.0
176
     1
 76
     1
176
     1
 77
     6
176
     1
 78
     2
176
     1
 67
     7
176
     1
 79
     5
176
     1
170
     0
176
     1
171
     0
176
     1
290
     0
176
     1
 93
        1
176
     1
 44
0.0
176
     1
173
     0
176
     1
  0
VISUALSTYLE
  5
2B
102
{ACAD_REACTORS
330
2A
102
}
330
2A
100
AcDbVisualStyle
  2
Flat
 70
     0
177
     2
291
     1
 71
     2
176
     1
 72
     1
176
     1
 73
     1
176
     1
 90
        2
176
     1
 40
-0.6
176
     1
 41
30.0
176
     1
 62
     5
 63
     7
421
 16777215
176
     1
 74
     0
176
     1
 91
        4
176
     1
 64
     7
176
     1
 65
   257
176
     1
 75
     1
176
     1
175
     1
176
     1
 42
1.0
176
     1
 92
        8
176
     1
 66
     7
176
     1
 43
1.0
176
     1
 76
     1
176
     1
 77
     6
176
     1
 78
     2
176
     1
 67
     7
176
     1
 79
     5
176
     1
170
     0
176
     1
171
     0
176
     1
290
     0
176
     1
 93
       13
176
     1
 44
0.0
176
     1
173
     0
176
     1
  0
VISUALSTYLE
  5
2C
102
{ACAD_REACTORS
330
2A
102
}
330
2A
100
AcDbVisualStyle
  2
FlatWithEdges
 70
     1
177
     2
291
     1
 71
     2
176
     1
 72
     1
176
     1
 73
     1
176
     1
 90
        2
176
     1
 40
-0.6
176
     1
 41
30.0
176
     1
 62
     5
 63
     7
421
 16777215
176
     1
 74
     1
176
     1
 91
        4
176
     1
 64
     7
176
     1
 65
   257
176
     1
 75
     1
176
     1
175
     1
176
     1
 42
1.0
176
     1
 92
        0
176
     1
 66
   257
176
     1
 43
1.0
176
     1
 76
     1
176
     1
 77
     6
176
     1
 78
     2
176
     1
 67
     7
176
     1
 79
     5
176
     1
170
     0
176
     1
171
     0
176
     1
290
     0
176
     1
 93
       13
176
     1
 44
0.0
176
     1
173
     0
176
     1
  0
VISUALSTYLE
  5
2D
102
{ACAD_REACTORS
330
2A
102
}
330
2A
100
AcDbVisualStyle
  2
Gouraud
 70
     2
177
     2
291
     1
 71
     2
176
     1
 72
     2
176
     1
 73
     1
176
     1
 90
        2
176
     1
 40
-0.6
176
     1
 41
30.0
176
     1
 62
     5
 63
     7
421
 16777215
176
     1
 74
     0
176
     1
 91
        4
176
     1
 64
     7
176
     1
 65
   257
176
     1
 75
     1
176
     1
175
     1
176
     1
 42
1.0
176
     1
 92
        0
176
     1
 66
     7
176
     1
 43
1.0
176
     1
 76
     1
176
     1
 77
     6
176
     1
 78
     2
176
     1
 67
     7
176
     1
 79
     5
176
     1
170
     0
176
     1
171
     0
176
     1
290
     0
176
     1
 93
       13
176
     1
 44
0.0
176
     1
173
     0
176
     1
  0
VISUALSTYLE
  5
2E
102
{ACAD_REACTORS
330
2A
102
}
330
2A
100
AcDbVisualStyle
  2
GouraudWithEdges
 70
     3
177
     2
291
     1
 71
     2
176
     1
 72
     2
176
     1
 73
     1
176
     1
 90
        2
176
     1
 40
-0.6
176
     1
 41
30.0
176
     1
 62
     5
 63
     7
421
 16777215
176
     1
 74
     1
176
     1
 91
        4
176
     1
 64
     7
176
     1
 65
   257
176
     1
 75
     1
176
     1
175
     1
176
     1
 42
1.0
176
     1
 92
        0
176
     1
 66
   257
176
     1
 43
1.0
176
     1
 76
     1
176
     1
 77
     6
176
     1
 78
     2
176
     1
 67
     7
176
     1
 79
     5
176
     1
170
     0
176
     1
171
     0
176
     1
290
     0
176
     1
 93
       13
176
     1
 44
0.0
176
     1
173
     0
176
     1
  0
VISUALSTYLE
  5
38
102
{ACAD_REACTORS
330
2A
102
}
330
2A
100
AcDbVisualStyle
  2
Linepattern
 70
    14
177
     2
291
     1
 71
     2
176
     1
 72
     2
176
     1
 73
     0
176
     1
 90
        0
176
     1
 40
-0.6
176
     1
 41
-30.0
176
     1
 62
     5
 63
     7
421
 16777215
176
     1
 74
     1
176
     1
 91
        4
176
     1
 64
     7
176
     1
 65
   257
176
     1
 75
     7
176
     1
175
     7
176
     1
 42
1.0
176
     1
 92
        8
176
     1
 66
     7
176
     1
 43
1.0
176
     1
 76
     1
176
     1
 77
     6
176
     1
 78
     2
176
     1
 67
     7
176
     1
 79
     5
176
     1
170
     0
176
     1
171
     0
176
     1
290
     0
176
     1
 93
        1
176
     1
 44
0.0
176
     1
173
     0
176
     1
  0
VISUALSTYLE
  5
33
102
{ACAD_REACTORS
330
2A
102
}
330
2A
100
AcDbVisualStyle
  2
Realistic
 70
     8
177
     2
291
     0
 71
     2
176
     1
 72
     2
176
     1
 73
     0
176
     1
 90
        0
176
     1
 40
-0.6
176
     1
 41
-30.0
176
     1
 62
     5
 63
     7
421
 16777215
176
     1
 74
     1
176
     1
 91
        0
176
     1
 64
     7
176
     1
 65
   257
176
     1
 75
     1
176
     1
175
     1
176
     1
 42
1.0
176
     1
 92
        8
176
     1
 66
     8
424
  7895160
176
     1
 43
1.0
176
     1
 76
     1
176
     1
 77
     6
176
     1
 78
     2
176
     1
 67
     7
176
     1
 79
     5
176
     1
170
     0
176
     1
171
     0
176
     1
290
     0
176
     1
 93
       13
176
     1
 44
0.0
176
     1
173
     0
176
     1
  0
VISUALSTYLE
  5
37
102
{ACAD_REACTORS
330
2A
102
}
330
2A
100
AcDbVisualStyle
  2
Thicken
 70
    13
177
     2
291
     1
 71
     2
176
     1
 72
     2
176
     1
 73
     0
176
     1
 90
        0
176
     1
 40
-0.6
176
     1
 41
-30.0
176
     1
 62
     5
 63
     7
421
 16777215
176
     1
 74
     1
176
     1
 91
        4
176
     1
 64
     7
176
     1
 65
   257
176
     1
 75
     1
176
     1
175
     1
176
     1
 42
1.0
176
     1
 92
       12
176
     1
 66
     7
176
     1
 43
1.0
176
     1
 76
     1
176
     1
 77
     6
176
     1
 78
     2
176
     1
 67
     7
176
     1
 79
     5
176
     1
170
     0
176
     1
171
     0
176
     1
290
     0
176
     1
 93
        1
176
     1
 44
0.0
176
     1
173
     0
176
     1
  0
ENDSEC
  0
EOF
